999
DXF file: E:\BT Custom\CADOUTPUT\_RIGHT.dxf
999
Pro/ENGINEER 2018400 by Parametric Technology Corporation
  0
SECTION
  2
HEADER
  9
$ACADVER
  1
AC1018
  9
$DWGCODEPAGE
  3
ANSI_1252
  9
$EXTMAX
 10
22.0
 20
17.0
 30
0.0
  9
$EXTMIN
 10
0.0
 20
0.0
 30
0.0
  9
$LIMMIN
 10
0.0
 20
0.0
  9
$LIMMAX
 10
22.0
 20
17.0
  9
$VIEWCTR
 10
11.0
 20
8.5
  9
$VIEWSIZE
 40
17.0
  9
$CLAYER
  8
0
  9
$LTSCALE
 40
1.21
  9
$CELTYPE
  6
BYLAYER
  9
$DIMSCALE
 40
1.0
  9
$DIMASZ
 40
0.1
  9
$DIMEXO
 40
0.0625
  9
$DIMDLI
 40
0.836
  9
$DIMEXE
 40
0.125
  9
$DIMCEN
 40
0.198
  9
$DIMLFAC
 40
1.0
  9
$DIMBLK
  1
_FILLED
  9
$DIMALT
 70
1
  9
$DIMALTD
 70
2
  9
$DIMALTTD
 70
2
  9
$DIMALTF
 40
25.4
  9
$DIMTXT
 40
0.08
  9
$DIMTOL
 70
1
  9
$DIMLIM
 70
0
  9
$DIMTFAC
 40
1.0
  9
$DIMTP
 40
0.001
  9
$DIMTM
 40
0.001
  9
$DIMGAP
 40
0.09
  9
$DIMDSEP
 70
46
  9
$AUNITS
 70
0
  9
$PDMODE
 70
3
  9
$PDSIZE
 40
0.06
  9
$HANDSEED
  5
27E
  9
$TILEMODE
 70
1
  9
$MEASUREMENT
 70
0
  9
$INSUNITS
 70
1
  0
ENDSEC
  0
SECTION
  2
CLASSES
  0
CLASS
  1
ACDBDICTIONARYWDFLT
  2
AcDbDictionaryWithDefault
  3
AutoCAD 2000
 90
0
 91
1
280
0
281
0
  0
CLASS
  1
ACDBPLACEHOLDER
  2
AcDbPlaceHolder
  3
AutoCAD 2000
 90
0
 91
1
280
0
281
0
  0
CLASS
  1
LAYOUT
  2
AcDbLayout
  3
AutoCAD 2000
 90
0
 91
0
280
0
281
0
  0
ENDSEC
  0
SECTION
  2
TABLES
  0
TABLE
  2
VPORT
  5
8
100
AcDbSymbolTable
 70
2
  0
VPORT
  5
1F4
100
AcDbSymbolTableRecord
100
AcDbViewportTableRecord
  2
*ACTIVE
 70
0
 10
0.0
 20
0.0
 11
1.0
 21
1.0
 12
11.0
 22
8.5
 13
0.0
 23
0.0
 14
1.0
 24
1.0
 15
0.0
 25
0.0
 16
0.0
 26
0.0
 36
1.0
 17
0.0
 27
0.0
 37
0.0
 40
17.0
 41
1.2941176471
 42
50.0
 43
0.0
 44
0.0
 50
0.0
 51
0.0
 71
0
 72
100
 73
1
 74
1
 75
0
 76
0
 77
0
 78
0
  0
ENDTAB
  0
TABLE
  2
LTYPE
  5
5
100
AcDbSymbolTable
 70
6
  0
LTYPE
  5
14
100
AcDbSymbolTableRecord
100
AcDbLinetypeTableRecord
  2
BYBLOCK
 70
0
  3

 72
65
 73
0
 40
0.0
  0
LTYPE
  5
15
100
AcDbSymbolTableRecord
100
AcDbLinetypeTableRecord
  2
BYLAYER
 70
0
  3

 72
65
 73
0
 40
0.0
  0
LTYPE
  5
16
100
AcDbSymbolTableRecord
100
AcDbLinetypeTableRecord
  2
CONTINUOUS
 70
64
  3
Solid line
 72
65
 73
0
 40
0.0
  0
LTYPE
  5
1F5
100
AcDbSymbolTableRecord
100
AcDbLinetypeTableRecord
  2
CENTER
 70
64
  3
____ _ ____ _ ____ _ ____ _ ____ _ ____ _ ____
 72
65
 73
4
 40
0.6
 49
0.375
 74
0
 49
-0.075
 74
0
 49
0.075
 74
0
 49
-0.075
 74
0
  0
LTYPE
  5
1F6
100
AcDbSymbolTableRecord
100
AcDbLinetypeTableRecord
  2
HIDDEN
 70
64
  3
- - - - - - - - - - - - - - - - - - - -
 72
65
 73
2
 40
0.2
 49
0.1
 74
0
 49
-0.1
 74
0
  0
LTYPE
  5
1F7
100
AcDbSymbolTableRecord
100
AcDbLinetypeTableRecord
  2
PHANTOM
 70
64
  3
_____ _ _ _____ _ _ _____ _ _ _____
 72
65
 73
6
 40
0.8
 49
0.45
 74
0
 49
-0.05
 74
0
 49
0.1
 74
0
 49
-0.05
 74
0
 49
0.1
 74
0
 49
-0.05
 74
0
  0
LTYPE
  5
1F8
100
AcDbSymbolTableRecord
100
AcDbLinetypeTableRecord
  2
DOT
 70
64
  3
. . . . . . . . . . . . . . . . . . . .
 72
65
 73
2
 40
0.2
 49
0.1
 74
0
 49
-0.1
 74
0
  0
LTYPE
  5
1F9
100
AcDbSymbolTableRecord
100
AcDbLinetypeTableRecord
  2
DASHED
 70
64
  3
- - - - - - - - - - - - - - - - - - - -
 72
65
 73
2
 40
0.2
 49
0.1
 74
0
 49
-0.1
 74
0
  0
ENDTAB
  0
TABLE
  2
LAYER
  5
2
100
AcDbSymbolTable
 70
36
  0
LAYER
  5
10
100
AcDbSymbolTableRecord
100
AcDbLayerTableRecord
  2
0
 70
0
 62
7
  6
CONTINUOUS
370
-3
390
F
  0
LAYER
  5
1FA
100
AcDbSymbolTableRecord
100
AcDbLayerTableRecord
  2
DEFAULT_1
 70
0
 62
7
  6
CENTER
370
-3
390
F
  0
LAYER
  5
1FB
100
AcDbSymbolTableRecord
100
AcDbLayerTableRecord
  2
DEFAULT_2
 70
0
 62
8
  6
HIDDEN
370
-3
390
F
  0
LAYER
  5
1FC
100
AcDbSymbolTableRecord
100
AcDbLayerTableRecord
  2
DEFAULT_3
 70
0
 62
7
  6
PHANTOM
370
-3
390
F
  0
LAYER
  5
1FD
100
AcDbSymbolTableRecord
100
AcDbLayerTableRecord
  2
ALL_FEATURES
 70
0
 62
7
  6
CONTINUOUS
370
-3
390
F
  0
LAYER
  5
1FE
100
AcDbSymbolTableRecord
100
AcDbLayerTableRecord
  2
AXES_FEATURES
 70
0
 62
7
  6
CONTINUOUS
370
-3
390
F
  0
LAYER
  5
1FF
100
AcDbSymbolTableRecord
100
AcDbLayerTableRecord
  2
DIMENSIONS
 70
0
 62
7
  6
CONTINUOUS
370
-3
390
F
  0
ENDTAB
  0
TABLE
  2
STYLE
  5
3
100
AcDbSymbolTable
 70
1
  0
STYLE
  5
11
100
AcDbSymbolTableRecord
100
AcDbTextStyleTableRecord
  2
STANDARD
 70
0
 40
0.0
 41
0.8
 50
0.0
 71
0
 42
0.2
  3
txt
  4

  0
STYLE
  5
200
100
AcDbSymbolTableRecord
100
AcDbTextStyleTableRecord
  2
TEXTSTYLE_1
 70
0
 40
0.0
 41
0.8
 50
0.0
 71
0
 42
0.2
  3
gdt
  4

  0
ENDTAB
  0
TABLE
  2
VIEW
  5
6
100
AcDbSymbolTable
 70
0
  0
ENDTAB
  0
TABLE
  2
UCS
  5
7
100
AcDbSymbolTable
 70
0
  0
ENDTAB
  0
TABLE
  2
APPID
  5
9
100
AcDbSymbolTable
 70
1
  0
APPID
  5
201
100
AcDbSymbolTableRecord
100
AcDbRegAppTableRecord
  2
ACAD
 70
0
  0
ENDTAB
  0
TABLE
  2
BLOCK_RECORD
  5
1
100
AcDbSymbolTable
 70
0
  0
BLOCK_RECORD
  5
202
100
AcDbSymbolTableRecord
100
AcDbBlockTableRecord
  2
*Model_Space
  0
BLOCK_RECORD
  5
203
100
AcDbSymbolTableRecord
100
AcDbBlockTableRecord
  2
*Paper_Space
  0
BLOCK_RECORD
  5
204
100
AcDbSymbolTableRecord
100
AcDbBlockTableRecord
  2
_FILLED
  0
ENDTAB
  0
TABLE
  2
DIMSTYLE
  5
A
100
AcDbSymbolTable
 70
1
100
AcDbDimStyleTable
 71
0
  0
DIMSTYLE
105
205
100
AcDbSymbolTableRecord
100
AcDbDimStyleTableRecord
  2
STANDARD
 70
0
  3

  4

 40
1.0
 41
0.1
 42
0.0625
 43
0.38
 44
0.125
 45
0.0
 46
0.0
 47
0.001
 48
0.001
140
0.08
141
0.09
142
0.0
143
25.4
144
1.0
145
0.0
146
1.0
147
0.09
 71
1.0
 72
0.0
 73
1
 74
1
 75
0
 76
0
 77
0
 78
4
 79
1
170
1
171
2
172
0
173
0
174
0
175
0
176
0
177
0
178
0
270
2
179
3
271
3
272
3
273
2
274
2
275
0
280
0
281
0
282
0
283
1
284
4
285
0
286
0
287
3
288
0
340
11
278
46
341
204
342
204
343
204
344
204
  0
ENDTAB
  0
ENDSEC
  0
SECTION
  2
BLOCKS
  0
BLOCK
  5
20
100
AcDbEntity
  8
0
100
AcDbBlockBegin
  2
*Model_Space
 70
0
 10
0.0
 20
0.0
 30
0.0
  3
*Model_Space
  1

  0
ENDBLK
  5
21
100
AcDbEntity
  8
0
100
AcDbBlockEnd
  0
BLOCK
  5
1C
100
AcDbEntity
  8
0
100
AcDbBlockBegin
  2
*Paper_Space
 70
0
 10
0.0
 20
0.0
 30
0.0
  3
*Paper_Space
  1

  0
ENDBLK
  5
1D
100
AcDbEntity
  8
0
100
AcDbBlockEnd
  0
BLOCK
  5
206
100
AcDbEntity
  8
0
100
AcDbBlockBegin
  2
_FILLED
 70
64
 10
0.0
 20
0.0
  3
_FILLED
  1

  0
SOLID
  5
207
100
AcDbEntity
  8
0
  6
BYBLOCK
 62
0
100
AcDbTrace
 10
0.0
 20
0.0
 11
-1.0
 21
0.2
 12
-1.0
 22
-0.2
 13
-1.0
 23
-0.2
  0
ENDBLK
  5
208
100
AcDbEntity
  8
0
  6
BYBLOCK
 62
0
100
AcDbBlockEnd
  0
ENDSEC
  0
SECTION
  2
ENTITIES
  0
LINE
  5
209
100
AcDbEntity
  8
0
100
AcDbLine
 62
7
  6
CONTINUOUS
 10
10.255473533
 20
10.385891804
 11
10.2047030679
 21
10.36939548
  0
LINE
  5
20A
100
AcDbEntity
  8
0
100
AcDbLine
 62
7
  6
CONTINUOUS
 10
9.5299834891
 20
7.558891804
 11
11.8899834891
 21
7.558891804
  0
LINE
  5
20B
100
AcDbEntity
  8
0
100
AcDbLine
 62
7
  6
CONTINUOUS
 10
10.2047030679
 20
10.36939548
 11
10.1824834891
 21
10.3471759012
  0
LINE
  5
20C
100
AcDbEntity
  8
0
100
AcDbLine
 62
7
  6
CONTINUOUS
 10
10.2084834891
 20
10.260891804
 11
10.1807911739
 21
10.244891804
  0
LINE
  5
20D
100
AcDbEntity
  8
0
100
AcDbLine
 62
7
  6
CONTINUOUS
 10
11.7099834891
 20
7.745891804
 11
9.7099834891
 21
7.745891804
  0
LINE
  5
20E
100
AcDbEntity
  8
0
100
AcDbLine
 62
7
  6
CONTINUOUS
 10
11.5229861629
 20
7.933891804
 11
9.8969808153
 21
7.933891804
  0
LINE
  5
20F
100
AcDbEntity
  8
0
100
AcDbLine
 62
7
  6
CONTINUOUS
 10
9.9519225857
 20
7.995891804
 11
11.4680443926
 21
7.995891804
  0
LINE
  5
210
100
AcDbEntity
  8
0
100
AcDbLine
 62
7
  6
CONTINUOUS
 10
9.9519234213
 20
8.2458365627
 11
9.9519225857
 21
7.995891804
  0
LINE
  5
211
100
AcDbEntity
  8
0
100
AcDbLine
 62
7
  6
CONTINUOUS
 10
9.9689834891
 20
7.995891804
 11
9.9689834891
 21
7.933891804
  0
LINE
  5
212
100
AcDbEntity
  8
0
100
AcDbLine
 62
7
  6
CONTINUOUS
 10
11.2374834891
 20
10.275891804
 11
11.2114834891
 21
10.260891804
  0
LINE
  5
213
100
AcDbEntity
  8
0
100
AcDbLine
 62
9
  6
CONTINUOUS
 10
11.3511469288
 20
8.362391804
 11
10.0688200495
 21
8.362391804
  0
LINE
  5
214
100
AcDbEntity
  8
0
100
AcDbLine
 62
7
  6
CONTINUOUS
 10
10.1524834891
 20
10.164891804
 11
10.1524834891
 21
9.754891804
  0
LINE
  5
215
100
AcDbEntity
  8
0
100
AcDbLine
 62
7
  6
CONTINUOUS
 10
10.1824834891
 20
10.3471759012
 11
10.1824834891
 21
10.275891804
  0
LINE
  5
216
100
AcDbEntity
  8
0
100
AcDbLine
 62
7
  6
CONTINUOUS
 10
10.3309523577
 20
8.2458373008
 11
10.3309530374
 21
7.995891804
  0
LINE
  5
217
100
AcDbEntity
  8
0
100
AcDbLine
 62
7
  6
CONTINUOUS
 10
10.1694834891
 20
8.9115082428
 11
10.0953494949
 21
8.8055906156
  0
LINE
  5
218
100
AcDbEntity
  8
0
100
AcDbLine
 62
7
  6
CONTINUOUS
 10
11.2374834891
 20
9.675891804
 11
11.0804834891
 21
9.624891804
  0
LINE
  5
219
100
AcDbEntity
  8
0
100
AcDbLine
 62
9
  6
CONTINUOUS
 10
11.3284834891
 20
8.577391804
 11
10.0914834891
 21
8.577391804
  0
LINE
  5
21A
100
AcDbEntity
  8
0
100
AcDbLine
 62
7
  6
CONTINUOUS
 10
10.3664834891
 20
9.624891804
 11
10.3664834891
 21
9.265891804
  0
LINE
  5
21B
100
AcDbEntity
  8
0
100
AcDbLine
 62
7
  6
CONTINUOUS
 10
10.5099834891
 20
9.265891804
 11
10.5099834891
 21
9.245891804
  0
LINE
  5
21C
100
AcDbEntity
  8
0
100
AcDbLine
 62
9
  6
CONTINUOUS
 10
10.0953494949
 20
8.8055906156
 11
11.3246174833
 21
8.8055906156
  0
LINE
  5
21D
100
AcDbEntity
  8
0
100
AcDbLine
 62
7
  6
CONTINUOUS
 10
10.7099834891
 20
10.4329893043
 11
10.7099834891
 21
10.4340069594
  0
LINE
  5
21E
100
AcDbEntity
  8
0
100
AcDbLine
 62
7
  6
CONTINUOUS
 10
10.0688200495
 20
8.362391804
 11
9.9519270051
 21
8.2458354827
  0
LINE
  5
21F
100
AcDbEntity
  8
0
100
AcDbLine
 62
9
  6
CONTINUOUS
 10
11.2504834891
 20
8.9115082428
 11
10.1694834891
 21
8.9115082428
  0
LINE
  5
220
100
AcDbEntity
  8
0
100
AcDbLine
 62
7
  6
CONTINUOUS
 10
11.3511469288
 20
8.362391804
 11
11.4680409499
 21
8.2458345088
  0
LINE
  5
221
100
AcDbEntity
  8
0
100
AcDbLine
 62
7
  6
CONTINUOUS
 10
10.9099834891
 20
9.265891804
 11
10.9099834891
 21
9.245891804
  0
LINE
  5
222
100
AcDbEntity
  8
0
100
AcDbLine
 62
9
  6
CONTINUOUS
 10
11.1397232167
 20
9.2174910467
 11
10.2802437616
 21
9.2174910467
  0
LINE
  5
223
100
AcDbEntity
  8
0
100
AcDbLine
 62
7
  6
CONTINUOUS
 10
11.1088323776
 20
9.245891804
 11
10.3111346006
 21
9.245891804
  0
LINE
  5
224
100
AcDbEntity
  8
0
100
AcDbLine
 62
7
  6
CONTINUOUS
 10
10.3664834891
 20
9.265891804
 11
11.0534834891
 21
9.265891804
  0
LINE
  5
225
100
AcDbEntity
  8
0
100
AcDbLine
 62
7
  6
CONTINUOUS
 10
11.0534834891
 20
9.624891804
 11
11.0534834891
 21
9.265891804
  0
LINE
  5
226
100
AcDbEntity
  8
0
100
AcDbLine
 62
7
  6
CONTINUOUS
 10
11.089012841
 20
8.2458370228
 11
11.0890139409
 21
7.995891804
  0
LINE
  5
227
100
AcDbEntity
  8
0
100
AcDbLine
 62
7
  6
CONTINUOUS
 10
11.2504834891
 20
8.9115082428
 11
11.3246174833
 21
8.8055906156
  0
LINE
  5
228
100
AcDbEntity
  8
0
100
AcDbLine
 62
7
  6
CONTINUOUS
 10
10.1824834891
 20
9.675891804
 11
10.3394834891
 21
9.624891804
  0
LINE
  5
229
100
AcDbEntity
  8
0
100
AcDbLine
 62
7
  6
CONTINUOUS
 10
11.2374834891
 20
10.3471759012
 11
11.2374834891
 21
10.275891804
  0
LINE
  5
22A
100
AcDbEntity
  8
0
100
AcDbLine
 62
7
  6
CONTINUOUS
 10
11.2674834891
 20
10.164891804
 11
11.2674834891
 21
9.754891804
  0
LINE
  5
22B
100
AcDbEntity
  8
0
100
AcDbLine
 62
7
  6
CONTINUOUS
 10
10.3394834891
 20
9.624891804
 11
10.3832151138
 21
9.624891804
  0
LINE
  5
22C
100
AcDbEntity
  8
0
100
AcDbLine
 62
7
  6
CONTINUOUS
 10
11.0366257766
 20
9.624891804
 11
11.0804834891
 21
9.624891804
  0
LINE
  5
22D
100
AcDbEntity
  8
0
100
AcDbLine
 62
7
  6
CONTINUOUS
 10
11.4509834891
 20
7.995891804
 11
11.4509834891
 21
7.933891804
  0
LINE
  5
22E
100
AcDbEntity
  8
0
100
AcDbLine
 62
7
  6
CONTINUOUS
 10
11.468043741
 20
8.2458353475
 11
11.4680443926
 21
7.995891804
  0
LINE
  5
22F
100
AcDbEntity
  8
0
100
AcDbLine
 62
7
  6
CONTINUOUS
 10
11.2374834891
 20
9.675891804
 11
11.0803582057
 21
9.675891804
  0
LINE
  5
230
100
AcDbEntity
  8
0
100
AcDbLine
 62
7
  6
CONTINUOUS
 10
10.3395838801
 20
9.675891804
 11
10.1824834891
 21
9.675891804
  0
LINE
  5
231
100
AcDbEntity
  8
0
100
AcDbLine
 62
7
  6
CONTINUOUS
 10
10.1524834891
 20
9.754891804
 11
10.2906698136
 21
9.754891804
  0
LINE
  5
232
100
AcDbEntity
  8
0
100
AcDbLine
 62
7
  6
CONTINUOUS
 10
11.129275722
 20
9.754891804
 11
11.2674834891
 21
9.754891804
  0
LINE
  5
233
100
AcDbEntity
  8
0
100
AcDbLine
 62
7
  6
CONTINUOUS
 10
10.1824834891
 20
10.275891804
 11
10.2084834891
 21
10.260891804
  0
LINE
  5
234
100
AcDbEntity
  8
0
100
AcDbLine
 62
7
  6
CONTINUOUS
 10
11.2674834891
 20
10.164891804
 11
11.1292971646
 21
10.164891804
  0
LINE
  5
235
100
AcDbEntity
  8
0
100
AcDbLine
 62
7
  6
CONTINUOUS
 10
10.2906912563
 20
10.164891804
 11
10.1524834891
 21
10.164891804
  0
LINE
  5
236
100
AcDbEntity
  8
0
100
AcDbLine
 62
7
  6
CONTINUOUS
 10
10.1807911739
 20
10.244891804
 11
10.3404021525
 21
10.244891804
  0
LINE
  5
237
100
AcDbEntity
  8
0
100
AcDbLine
 62
7
  6
CONTINUOUS
 10
11.0795858734
 20
10.244891804
 11
11.2391758044
 21
10.244891804
  0
LINE
  5
238
100
AcDbEntity
  8
0
100
AcDbLine
 62
7
  6
CONTINUOUS
 10
11.2114834891
 20
10.260891804
 11
11.0668302765
 21
10.260891804
  0
LINE
  5
239
100
AcDbEntity
  8
0
100
AcDbLine
 62
7
  6
CONTINUOUS
 10
10.353096231
 20
10.260891804
 11
10.2084834891
 21
10.260891804
  0
LINE
  5
23A
100
AcDbEntity
  8
0
100
AcDbLine
 62
7
  6
CONTINUOUS
 10
10.1824834891
 20
10.275891804
 11
10.3649969296
 21
10.275891804
  0
LINE
  5
23B
100
AcDbEntity
  8
0
100
AcDbLine
 62
7
  6
CONTINUOUS
 10
11.0548719044
 20
10.275891804
 11
11.2374834891
 21
10.275891804
  0
LINE
  5
23C
100
AcDbEntity
  8
0
100
AcDbLine
 62
7
  6
CONTINUOUS
 10
11.2374834891
 20
10.3471759012
 11
10.9744239427
 21
10.3471759012
  0
LINE
  5
23D
100
AcDbEntity
  8
0
100
AcDbLine
 62
7
  6
CONTINUOUS
 10
10.4455798365
 20
10.3471759012
 11
10.1824834891
 21
10.3471759012
  0
LINE
  5
23E
100
AcDbEntity
  8
0
100
AcDbLine
 62
7
  6
CONTINUOUS
 10
11.2152639103
 20
10.36939548
 11
10.9337723465
 21
10.36939548
  0
LINE
  5
23F
100
AcDbEntity
  8
0
100
AcDbLine
 62
7
  6
CONTINUOUS
 10
10.4861963236
 20
10.36939548
 11
10.2047030679
 21
10.36939548
  0
LINE
  5
240
100
AcDbEntity
  8
0
100
AcDbLine
 62
7
  6
CONTINUOUS
 10
11.1644934452
 20
10.385891804
 11
10.9034483317
 21
10.385891804
  0
LINE
  5
241
100
AcDbEntity
  8
0
100
AcDbLine
 62
7
  6
CONTINUOUS
 10
10.5163509336
 20
10.385891804
 11
10.255473533
 21
10.385891804
  0
LINE
  5
242
100
AcDbEntity
  8
0
100
AcDbLine
 62
7
  6
CONTINUOUS
 10
11.2114834891
 20
10.260891804
 11
11.2391758044
 21
10.244891804
  0
LINE
  5
243
100
AcDbEntity
  8
0
100
AcDbLine
 62
7
  6
CONTINUOUS
 10
11.2152639103
 20
10.36939548
 11
11.2374834891
 21
10.3471759012
  0
LINE
  5
244
100
AcDbEntity
  8
0
100
AcDbLine
 62
9
  6
CONTINUOUS
 10
11.1051281457
 20
10.4097010973
 11
10.834925945
 21
10.4097010973
  0
LINE
  5
245
100
AcDbEntity
  8
0
100
AcDbLine
 62
9
  6
CONTINUOUS
 10
10.5849345307
 20
10.4097010973
 11
10.3148388326
 21
10.4097010973
  0
LINE
  5
246
100
AcDbEntity
  8
0
100
AcDbLine
 62
7
  6
CONTINUOUS
 10
11.1644934452
 20
10.385891804
 11
11.2152639103
 21
10.36939548
  0
ARC
  5
247
100
AcDbEntity
  8
0
100
AcDbCircle
 62
7
  6
CONTINUOUS
 10
10.2624586102
 20
8.6886274008
 40
0.2039751211
100
AcDbArc
 50
145.0110095297
 51
213.0478355063
  0
ARC
  5
248
100
AcDbEntity
  8
0
100
AcDbCircle
 62
7
  6
CONTINUOUS
 10
9.7171196002
 20
7.558891804
 40
0.1871361111
100
AcDbArc
 50
92.1854050713
 51
180.0
  0
ARC
  5
249
100
AcDbEntity
  8
0
100
AcDbCircle
 62
7
  6
CONTINUOUS
 10
9.8969808153
 20
7.746891804
 40
0.187
100
AcDbArc
 50
90.0
 51
180.3063960032
  0
ARC
  5
24A
100
AcDbEntity
  8
0
100
AcDbCircle
 62
7
  6
CONTINUOUS
 10
9.9477089555
 20
8.4838527795
 40
0.1715245336
100
AcDbArc
 50
314.9173576842
 51
33.0478355064
  0
ARC
  5
24B
100
AcDbEntity
  8
0
100
AcDbCircle
 62
7
  6
CONTINUOUS
 10
9.9718514444
 20
9.7514457924
 40
1.36
100
AcDbArc
 50
17.6982774827
 51
21.2739720087
  0
ARC
  5
24C
100
AcDbEntity
  8
0
100
AcDbCircle
 62
7
  6
CONTINUOUS
 10
9.9816847085
 20
10.1979736195
 40
1.3599999998
100
AcDbArc
 50
337.4255442889
 51
340.9862258001
  0
ARC
  5
24D
100
AcDbEntity
  8
0
100
AcDbCircle
 62
7
  6
CONTINUOUS
 10
9.657444587
 20
9.2698951326
 40
0.625
100
AcDbArc
 50
325.0110095299
 51
355.1903004544
  0
ARC
  5
24E
100
AcDbEntity
  8
0
100
AcDbCircle
 62
7
  6
CONTINUOUS
 10
10.6517900243
 20
10.1964934132
 40
0.2630922693
100
AcDbArc
 50
94.4622904592
 51
95.1402387296
  0
ARC
  5
24F
100
AcDbEntity
  8
0
100
AcDbCircle
 62
7
  6
CONTINUOUS
 10
10.6498469749
 20
10.2230878725
 40
0.2364272862
100
AcDbArc
 50
92.636563057
 51
94.4942715626
  0
ARC
  5
250
100
AcDbEntity
  8
0
100
AcDbCircle
 62
7
  6
CONTINUOUS
 10
10.6300853359
 20
10.2463614313
 40
0.2121437385
100
AcDbArc
 50
90.6254025222
 51
93.4506156786
  0
ARC
  5
251
100
AcDbEntity
  8
0
100
AcDbCircle
 62
7
  6
CONTINUOUS
 10
10.6745692267
 20
10.413439428
 40
0.0406426974
100
AcDbArc
 50
46.4411055037
 51
53.2749059133
  0
ARC
  5
252
100
AcDbEntity
  8
0
100
AcDbCircle
 62
7
  6
CONTINUOUS
 10
10.3111346006
 20
9.214891804
 40
0.031
100
AcDbArc
 50
90.0
 51
175.1903004544
  0
ARC
  5
253
100
AcDbEntity
  8
0
100
AcDbCircle
 62
7
  6
CONTINUOUS
 10
10.3224834891
 20
10.3806914571
 40
0.03
100
AcDbArc
 50
104.7630312683
 51
170.0176441513
  0
ARC
  5
254
100
AcDbEntity
  8
0
100
AcDbCircle
 62
7
  6
CONTINUOUS
 10
10.7099834891
 20
8.9102217886
 40
1.5506700155
100
AcDbArc
 50
93.4257610296
 51
104.7630312681
  0
ARC
  5
255
100
AcDbEntity
  8
0
100
AcDbCircle
 62
7
  6
CONTINUOUS
 10
10.7099834891
 20
8.9102217886
 40
1.5506700155
100
AcDbArc
 50
87.3749745646
 51
92.6250086965
  0
ARC
  5
256
100
AcDbEntity
  8
0
100
AcDbCircle
 62
7
  6
CONTINUOUS
 10
10.7099834891
 20
8.9102217886
 40
1.5506700155
100
AcDbArc
 50
75.2369687319
 51
86.5742389704
  0
ARC
  5
257
100
AcDbEntity
  8
0
100
AcDbCircle
 62
7
  6
CONTINUOUS
 10
11.1575083681
 20
8.6886274008
 40
0.2039751211
100
AcDbArc
 50
326.9521644937
 51
34.9889904703
  0
ARC
  5
258
100
AcDbEntity
  8
0
100
AcDbCircle
 62
7
  6
CONTINUOUS
 10
11.702847378
 20
7.558891804
 40
0.1871361111
100
AcDbArc
 50
0.0
 51
87.8145949287
  0
ARC
  5
259
100
AcDbEntity
  8
0
100
AcDbCircle
 62
7
  6
CONTINUOUS
 10
11.5229861629
 20
7.746891804
 40
0.187
100
AcDbArc
 50
359.6936039968
 51
90.0
  0
ARC
  5
25A
100
AcDbEntity
  8
0
100
AcDbCircle
 62
7
  6
CONTINUOUS
 10
11.4722580228
 20
8.4838527795
 40
0.1715245336
100
AcDbArc
 50
146.9521644936
 51
225.0826423158
  0
ARC
  5
25B
100
AcDbEntity
  8
0
100
AcDbCircle
 62
7
  6
CONTINUOUS
 10
11.4481155339
 20
9.7514457924
 40
1.36
100
AcDbArc
 50
158.7260279913
 51
162.3017225173
  0
ARC
  5
25C
100
AcDbEntity
  8
0
100
AcDbCircle
 62
7
  6
CONTINUOUS
 10
11.4382822699
 20
10.1979736195
 40
1.3599999999
100
AcDbArc
 50
199.0137742
 51
202.574455711
  0
ARC
  5
25D
100
AcDbEntity
  8
0
100
AcDbCircle
 62
7
  6
CONTINUOUS
 10
11.7625223912
 20
9.2698951326
 40
0.625
100
AcDbArc
 50
184.8096995456
 51
214.9889904701
  0
CIRCLE
  5
25E
100
AcDbEntity
  8
0
100
AcDbCircle
 62
7
  6
CONTINUOUS
 10
10.7099834891
 20
9.959891804
 40
0.4689999964
  0
CIRCLE
  5
25F
100
AcDbEntity
  8
0
100
AcDbCircle
 62
7
  6
CONTINUOUS
 10
10.7099834891
 20
9.959891804
 40
0.2815
  0
ARC
  5
260
100
AcDbEntity
  8
0
100
AcDbCircle
 62
7
  6
CONTINUOUS
 10
10.7679257376
 20
10.1935378761
 40
0.2660583843
100
AcDbArc
 50
84.8552083752
 51
85.5333218034
  0
CIRCLE
  5
261
100
AcDbEntity
  8
0
100
AcDbCircle
 62
7
  6
CONTINUOUS
 10
10.7099834891
 20
9.959891804
 40
0.2615
  0
CIRCLE
  5
262
100
AcDbEntity
  8
0
100
AcDbCircle
 62
7
  6
CONTINUOUS
 10
10.7099834891
 20
9.959891804
 40
0.25
  0
ARC
  5
263
100
AcDbEntity
  8
0
100
AcDbCircle
 62
7
  6
CONTINUOUS
 10
10.7697716586
 20
10.2175719417
 40
0.241953558
100
AcDbArc
 50
85.5258762509
 51
87.3383620248
  0
ARC
  5
264
100
AcDbEntity
  8
0
100
AcDbCircle
 62
7
  6
CONTINUOUS
 10
10.7711979831
 20
10.2457176208
 40
0.21377204
100
AcDbArc
 50
87.3699262457
 51
88.6438057088
  0
ARC
  5
265
100
AcDbEntity
  8
0
100
AcDbCircle
 62
7
  6
CONTINUOUS
 10
10.7901164452
 20
10.2531671237
 40
0.2053361333
100
AcDbArc
 50
86.5044840423
 51
89.3187560381
  0
ARC
  5
266
100
AcDbEntity
  8
0
100
AcDbCircle
 62
7
  6
CONTINUOUS
 10
11.1088323776
 20
9.214891804
 40
0.031
100
AcDbArc
 50
4.8096995456
 51
90.0
  0
ARC
  5
267
100
AcDbEntity
  8
0
100
AcDbCircle
 62
7
  6
CONTINUOUS
 10
11.0974834891
 20
10.3806914571
 40
0.03
100
AcDbArc
 50
9.9823558487
 51
75.2369687317
  0
SPLINE
  5
268
100
AcDbEntity
  8
0
100
AcDbSpline
 62
7
  6
CONTINUOUS
 70
0
 71
3
 72
9
 73
5
 74
0
 42
0.0000001
 43
0.0000001
 44
0.0000000001
 40
0.0
 40
0.0
 40
0.0
 40
0.0
 40
0.5236860378
 40
1.0
 40
1.0
 40
1.0
 40
1.0
 10
10.6277697623
 20
10.4584925321
 30
0.0
 10
10.6317185892
 20
10.4585302305
 30
0.0
 10
10.6392643463
 20
10.4583656095
 30
0.0
 10
10.646778098
 20
10.4576045572
 30
0.0
 10
10.6503288626
 20
10.4570632784
 30
0.0
  0
SPLINE
  5
269
100
AcDbEntity
  8
0
100
AcDbSpline
 62
7
  6
CONTINUOUS
 70
0
 71
3
 72
15
 73
11
 74
0
 42
0.0000001
 43
0.0000001
 44
0.0000000001
 40
0.0
 40
0.0
 40
0.0
 40
0.0
 40
0.1525959664
 40
0.2945195046
 40
0.4268087124
 40
0.5507797942
 40
0.6680531297
 40
0.7805477957
 40
0.890431203
 40
1.0
 40
1.0
 40
1.0
 40
1.0
 10
10.6503288626
 20
10.4570632784
 30
0.0
 10
10.6527432436
 20
10.45669523
 30
0.0
 10
10.6573812742
 20
10.4558242263
 30
0.0
 10
10.6639764877
 20
10.4540121527
 30
0.0
 10
10.6699436067
 20
10.4517431657
 30
0.0
 10
10.6752788178
 20
10.4490161081
 30
0.0
 10
10.6799779362
 20
10.4458300583
 30
0.0
 10
10.6840357227
 20
10.4421853524
 30
0.0
 10
10.6874456553
 20
10.438087363
 30
0.0
 10
10.6892762721
 20
10.4350724588
 30
0.0
 10
10.690076528
 20
10.4335120715
 30
0.0
  0
SPLINE
  5
26A
100
AcDbEntity
  8
0
100
AcDbSpline
 62
7
  6
CONTINUOUS
 70
0
 71
3
 72
15
 73
11
 74
0
 42
0.0000001
 43
0.0000001
 44
0.0000000001
 40
0.0
 40
0.0
 40
0.0
 40
0.0
 40
0.1091812694
 40
0.2187109647
 40
0.3309368203
 40
0.4480687866
 40
0.5720564873
 40
0.7045387299
 40
0.8468401339
 40
1.0
 40
1.0
 40
1.0
 40
1.0
 10
10.7298904502
 20
10.4335120715
 30
0.0
 10
10.7307011933
 20
10.4350929073
 30
0.0
 10
10.7325592151
 20
10.438146389
 30
0.0
 10
10.7360280599
 20
10.4422903297
 30
0.0
 10
10.7401619957
 20
10.4459684388
 30
0.0
 10
10.7449540336
 20
10.4491752599
 30
0.0
 10
10.7503986359
 20
10.4519106372
 30
0.0
 10
10.7564914458
 20
10.4541756757
 30
0.0
 10
10.7632285159
 20
10.4559716595
 30
0.0
 10
10.7679656659
 20
10.456824151
 30
0.0
 10
10.7704321822
 20
10.4571812749
 30
0.0
  0
SPLINE
  5
26B
100
AcDbEntity
  8
0
100
AcDbSpline
 62
7
  6
CONTINUOUS
 70
0
 71
3
 72
9
 73
5
 74
0
 42
0.0000001
 43
0.0000001
 44
0.0000000001
 40
0.0
 40
0.0
 40
0.0
 40
0.0
 40
0.4769464339
 40
1.0
 40
1.0
 40
1.0
 40
1.0
 10
10.7704321822
 20
10.4571812749
 30
0.0
 10
10.7739221317
 20
10.4576865805
 30
0.0
 10
10.7812923625
 20
10.4583923626
 30
0.0
 10
10.7886908405
 20
10.4585330807
 30
0.0
 10
10.792557824
 20
10.4584887429
 30
0.0
  0
SPLINE
  5
26C
100
AcDbEntity
  8
0
100
AcDbSpline
 62
7
  6
CONTINUOUS
 70
0
 71
3
 72
14
 73
10
 74
0
 42
0.0000001
 43
0.0000001
 44
0.0000000001
 40
0.0
 40
0.0
 40
0.0
 40
0.0
 40
0.0570474244
 40
0.1318912446
 40
0.226862233
 40
0.342616695
 40
0.4790111069
 40
0.6350019475
 40
1.0
 40
1.0
 40
1.0
 40
1.0
 10
10.690076528
 20
10.4335120715
 30
0.0
 10
10.6901533246
 20
10.4333623289
 30
0.0
 10
10.6904168407
 20
10.4330628592
 30
0.0
 10
10.6909715543
 20
10.4326847277
 30
0.0
 10
10.6917317471
 20
10.4323159892
 30
0.0
 10
10.6926941724
 20
10.4319633838
 30
0.0
 10
10.6938522704
 20
10.4316311374
 30
0.0
 10
10.6957428528
 20
10.431196762
 30
0.0
 10
10.6972617077
 20
10.4309503027
 30
0.0
 10
10.6983286923
 20
10.4308057932
 30
0.0
  0
SPLINE
  5
26D
100
AcDbEntity
  8
0
100
AcDbSpline
 62
7
  6
CONTINUOUS
 70
0
 71
3
 72
11
 73
7
 74
0
 42
0.0000001
 43
0.0000001
 44
0.0000000001
 40
0.0
 40
0.0
 40
0.0
 40
0.0
 40
0.2283170804
 40
0.4782127737
 40
0.7392486767
 40
1.0
 40
1.0
 40
1.0
 40
1.0
 10
10.6983286923
 20
10.4308057932
 30
0.0
 10
10.699531174
 20
10.4306429324
 30
0.0
 10
10.7020603472
 20
10.430378628
 30
0.0
 10
10.7059834592
 20
10.4301457181
 30
0.0
 10
10.7100851669
 20
10.4300709374
 30
0.0
 10
10.7128586535
 20
10.430126877
 30
0.0
 10
10.7142433176
 20
10.430184002
 30
0.0
  0
LINE
  5
26E
100
AcDbEntity
  8
0
100
AcDbLine
 62
7
  6
CONTINUOUS
 10
10.7142433176
 20
10.430184002
 11
10.7217887163
 21
10.4308263907
  0
SPLINE
  5
26F
100
AcDbEntity
  8
0
100
AcDbSpline
 62
7
  6
CONTINUOUS
 70
0
 71
3
 72
14
 73
10
 74
0
 42
0.0000001
 43
0.0000001
 44
0.0000000001
 40
0.0
 40
0.0
 40
0.0
 40
0.0
 40
0.3648175269
 40
0.5206662244
 40
0.6569457159
 40
0.7726511901
 40
0.8676645336
 40
0.9426671788
 40
1.0
 40
1.0
 40
1.0
 40
1.0
 10
10.7217887163
 20
10.4308263907
 30
0.0
 10
10.7228365195
 20
10.4309711067
 30
0.0
 10
10.7243277826
 20
10.4312171471
 30
0.0
 10
10.7261834929
 20
10.4316491556
 30
0.0
 10
10.7273198857
 20
10.4319789511
 30
0.0
 10
10.728264357
 20
10.432328494
 30
0.0
 10
10.7290106345
 20
10.4326937201
 30
0.0
 10
10.7295556774
 20
10.4330682061
 30
0.0
 10
10.7298145922
 20
10.4333641589
 30
0.0
 10
10.7298904502
 20
10.4335120715
 30
0.0
  0
SPLINE
  5
270
100
AcDbEntity
  8
0
100
AcDbSpline
 62
7
  6
CONTINUOUS
 70
0
 71
3
 72
19
 73
15
 74
0
 42
0.0000001
 43
0.0000001
 44
0.0000000001
 40
0.0
 40
0.0
 40
0.0
 40
0.0
 40
0.1249812602
 40
0.1874945223
 40
0.2500015027
 40
0.3749635328
 40
0.437482048
 40
0.5000000006
 40
0.562517953
 40
0.6250364688
 40
0.7499984977
 40
0.8125054765
 40
0.8750187409
 40
1.0
 40
1.0
 40
1.0
 40
1.0
 10
11.089012841
 20
8.2458370228
 30
0.0
 10
11.0594984605
 20
8.2605517112
 30
0.0
 10
11.0144159938
 20
8.2811021997
 30
0.0
 10
10.9526240539
 20
8.3042748993
 30
0.0
 10
10.8897170919
 20
8.3241889723
 30
0.0
 10
10.8250931628
 20
8.3384961975
 30
0.0
 10
10.7594862965
 20
8.3458455734
 30
0.0
 10
10.7099836648
 20
8.3477263137
 30
0.0
 10
10.6604810321
 20
8.3458455978
 30
0.0
 10
10.5948741621
 20
8.3384962589
 30
0.0
 10
10.5302502243
 20
8.3241890686
 30
0.0
 10
10.4673432636
 20
8.3042749916
 30
0.0
 10
10.4055513046
 20
8.2811023498
 30
0.0
 10
10.3604687806
 20
8.2605519828
 30
0.0
 10
10.3309543971
 20
8.2458373008
 30
0.0
  0
SPLINE
  5
271
100
AcDbEntity
  8
0
100
AcDbSpline
 62
7
  6
CONTINUOUS
 70
0
 71
3
 72
13
 73
9
 74
0
 42
0.0000001
 43
0.0000001
 44
0.0000000001
 40
0.0
 40
0.0
 40
0.0
 40
0.0
 40
0.3020973852
 40
0.438806074
 40
0.5664542439
 40
0.6856059323
 40
0.7969879778
 40
1.0
 40
1.0
 40
1.0
 40
1.0
 10
10.7762575067
 20
10.4594297785
 30
0.0
 10
10.7706011114
 20
10.4595621599
 30
0.0
 10
10.7623645641
 20
10.459417102
 30
0.0
 10
10.7518097457
 20
10.4582885038
 30
0.0
 10
10.7447284029
 20
10.4570527644
 30
0.0
 10
10.7382178515
 20
10.4553986699
 30
0.0
 10
10.7305473011
 20
10.4527230056
 30
0.0
 10
10.7252693795
 20
10.4499712972
 30
0.0
 10
10.7221546918
 20
10.4477906217
 30
0.0
  0
SPLINE
  5
272
100
AcDbEntity
  8
0
100
AcDbSpline
 62
7
  6
CONTINUOUS
 70
0
 71
3
 72
11
 73
7
 74
0
 42
0.0000001
 43
0.0000001
 44
0.0000000001
 40
0.0
 40
0.0
 40
0.0
 40
0.0
 40
0.2573703167
 40
0.5073737471
 40
0.753661177
 40
1.0
 40
1.0
 40
1.0
 40
1.0
 10
10.7221546918
 20
10.4477906217
 30
0.0
 10
10.7208501078
 20
10.4468772478
 30
0.0
 10
10.7183740385
 20
10.4449338255
 30
0.0
 10
10.7150672497
 20
10.4416294245
 30
0.0
 10
10.7122385028
 20
10.4379932508
 30
0.0
 10
10.7106792629
 20
10.4353631805
 30
0.0
 10
10.7099834891
 20
10.4340069594
 30
0.0
  0
SPLINE
  5
273
100
AcDbEntity
  8
0
100
AcDbSpline
 62
7
  6
CONTINUOUS
 70
0
 71
3
 72
25
 73
21
 74
0
 42
0.0000001
 43
0.0000001
 44
0.0000000001
 40
0.0
 40
0.0
 40
0.0
 40
0.0
 40
0.0699585158
 40
0.1378535833
 40
0.2035049571
 40
0.2667887031
 40
0.3277283231
 40
0.3865429207
 40
0.4153067223
 40
0.4437426971
 40
0.4999995817
 40
0.5562564678
 40
0.5846924433
 40
0.6134562464
 40
0.6722708505
 40
0.7332104459
 40
0.796494146
 40
0.8621456782
 40
0.9300411955
 40
1.0
 40
1.0
 40
1.0
 40
1.0
 10
10.3309523577
 20
8.2458373008
 30
0.0
 10
10.3236735315
 20
8.2530951596
 30
0.0
 10
10.3090214902
 20
8.2670929732
 30
0.0
 10
10.2863205131
 20
8.2865794952
 30
0.0
 10
10.2631876031
 20
8.303976192
 30
0.0
 10
10.2396102005
 20
8.3189568081
 30
0.0
 10
10.2155879338
 20
8.3311526662
 30
0.0
 10
10.1950732201
 20
8.3387713517
 30
0.0
 10
10.1785660884
 20
8.3430741292
 30
0.0
 10
10.1621692321
 20
8.3461431161
 30
0.0
 10
10.1414378087
 20
8.347734616
 30
0.0
 10
10.1207063843
 20
8.3461431222
 30
0.0
 10
10.1043095276
 20
8.3430741339
 30
0.0
 10
10.0878023976
 20
8.3387713432
 30
0.0
 10
10.067287697
 20
8.3311526323
 30
0.0
 10
10.043265421
 20
8.3189568224
 30
0.0
 10
10.0196879461
 20
8.303976291
 30
0.0
 10
9.9965550554
 20
8.2865794164
 30
0.0
 10
9.9738542737
 20
8.2670924616
 30
0.0
 10
9.9592022776
 20
8.2530944515
 30
0.0
 10
9.9519234213
 20
8.2458365627
 30
0.0
  0
SPLINE
  5
274
100
AcDbEntity
  8
0
100
AcDbSpline
 62
7
  6
CONTINUOUS
 70
0
 71
3
 72
25
 73
21
 74
0
 42
0.0000001
 43
0.0000001
 44
0.0000000001
 40
0.0
 40
0.0
 40
0.0
 40
0.0
 40
0.0699590518
 40
0.137855024
 40
0.2035066769
 40
0.2667902519
 40
0.3277297539
 40
0.3865443019
 40
0.4153080823
 40
0.4437440369
 40
0.5000008729
 40
0.5562576961
 40
0.5846936405
 40
0.6134574055
 40
0.6722719058
 40
0.7332114141
 40
0.7964950269
 40
0.862146356
 40
0.9300414877
 40
1.0
 40
1.0
 40
1.0
 40
1.0
 10
11.468043741
 20
8.2458353475
 30
0.0
 10
11.4607648412
 20
8.2530932796
 30
0.0
 10
11.446112886
 20
8.2670915438
 30
0.0
 10
11.4234123233
 20
8.2865790542
 30
0.0
 10
11.4002794428
 20
8.3039761874
 30
0.0
 10
11.3767018625
 20
8.3189566595
 30
0.0
 10
11.3526795566
 20
8.3311524545
 30
0.0
 10
11.3321648548
 20
8.3387712393
 30
0.0
 10
11.3156577081
 20
8.3430740743
 30
0.0
 10
11.2992608328
 20
8.346143108
 30
0.0
 10
11.2785293795
 20
8.3477346546
 30
0.0
 10
11.2577979243
 20
8.346143151
 30
0.0
 10
11.2414010482
 20
8.3430741544
 30
0.0
 10
11.2248938953
 20
8.3387713888
 30
0.0
 10
11.2043791669
 20
8.3311526928
 30
0.0
 10
11.1803568717
 20
8.3189568617
 30
0.0
 10
11.1567794137
 20
8.3039762823
 30
0.0
 10
11.1336464941
 20
8.2865795024
 30
0.0
 10
11.1109455751
 20
8.2670927962
 30
0.0
 10
11.0962935379
 20
8.253094897
 30
0.0
 10
11.0890146924
 20
8.2458370228
 30
0.0
  0
SPLINE
  5
275
100
AcDbEntity
  8
0
100
AcDbSpline
 62
7
  6
CONTINUOUS
 70
0
 71
3
 72
9
 73
5
 74
0
 42
0.0000001
 43
0.0000001
 44
0.0000000001
 40
0.0
 40
0.0
 40
0.0
 40
0.0
 40
0.497341581
 40
1.0
 40
1.0
 40
1.0
 40
1.0
 10
10.7099834891
 20
10.4329893043
 30
0.0
 10
10.7110167852
 20
10.435004779
 30
0.0
 10
10.7134707484
 20
10.4388766215
 30
0.0
 10
10.7166071492
 20
10.442218284
 30
0.0
 10
10.718313817
 20
10.4437438632
 30
0.0
  0
SPLINE
  5
276
100
AcDbEntity
  8
0
100
AcDbSpline
 62
7
  6
CONTINUOUS
 70
0
 71
3
 72
9
 73
5
 74
0
 42
0.0000001
 43
0.0000001
 44
0.0000000001
 40
0.0
 40
0.0
 40
0.0
 40
0.0
 40
0.2459968907
 40
1.0
 40
1.0
 40
1.0
 40
1.0
 10
10.718313817
 20
10.4437438632
 30
0.0
 10
10.7186783517
 20
10.4440697184
 30
0.0
 10
10.7201847471
 20
10.4453667497
 30
0.0
 10
10.7217864118
 20
10.4465523261
 30
0.0
 10
10.7230341091
 20
10.4473825292
 30
0.0
  0
SPLINE
  5
277
100
AcDbEntity
  8
0
100
AcDbSpline
 62
7
  6
CONTINUOUS
 70
0
 71
3
 72
11
 73
7
 74
0
 42
0.0000001
 43
0.0000001
 44
0.0000000001
 40
0.0
 40
0.0
 40
0.0
 40
0.0
 40
0.2092792115
 40
0.4424821819
 40
0.7048986341
 40
1.0
 40
1.0
 40
1.0
 40
1.0
 10
10.7230341091
 20
10.4473825292
 30
0.0
 10
10.7257740469
 20
10.4492056516
 30
0.0
 10
10.7320004543
 20
10.4524259588
 30
0.0
 10
10.7426150518
 20
10.4557557815
 30
0.0
 10
10.7549055305
 20
10.4578342882
 30
0.0
 10
10.7636723733
 20
10.4583589788
 30
0.0
 10
10.7683121566
 20
10.4584493723
 30
0.0
  0
SPLINE
  5
278
100
AcDbEntity
  8
0
100
AcDbSpline
 62
7
  6
CONTINUOUS
 70
0
 71
3
 72
9
 73
5
 74
0
 42
0.0000001
 43
0.0000001
 44
0.0000000001
 40
0.0
 40
0.0
 40
0.0
 40
0.0
 40
0.2416785042
 40
1.0
 40
1.0
 40
1.0
 40
1.0
 10
10.7683121566
 20
10.4584493723
 30
0.0
 10
10.7693341456
 20
10.4584692829
 30
0.0
 10
10.7735635694
 20
10.4585134878
 30
0.0
 10
10.7777940887
 20
10.458410715
 30
0.0
 10
10.7809980513
 20
10.4582637266
 30
0.0
  0
SPLINE
  5
279
100
AcDbEntity
  8
0
100
AcDbSpline
 62
7
  6
CONTINUOUS
 70
0
 71
3
 72
15
 73
11
 74
0
 42
0.0000001
 43
0.0000001
 44
0.0000000001
 40
0.0
 40
0.0
 40
0.0
 40
0.0
 40
0.1587425046
 40
0.3067956396
 40
0.4444552461
 40
0.572189822
 40
0.6906416468
 40
0.8006578972
 40
0.9033237912
 40
1.0
 40
1.0
 40
1.0
 40
1.0
 10
10.6389623032
 20
10.458263587
 30
0.0
 10
10.6422536499
 20
10.4584145843
 30
0.0
 10
10.6486225772
 20
10.4585655305
 30
0.0
 10
10.6578484231
 20
10.4583000445
 30
0.0
 10
10.6664016383
 20
10.4575340033
 30
0.0
 10
10.6742749714
 20
10.4562674312
 30
0.0
 10
10.6814634828
 20
10.4544998356
 30
0.0
 10
10.6879636637
 20
10.4522301302
 30
0.0
 10
10.6937704651
 20
10.4494578772
 30
0.0
 10
10.6972648994
 20
10.4472158123
 30
0.0
 10
10.6988725944
 20
10.4460151118
 30
0.0
  0
SPLINE
  5
27A
100
AcDbEntity
  8
0
100
AcDbSpline
 62
7
  6
CONTINUOUS
 70
0
 71
3
 72
9
 73
5
 74
0
 42
0.0000001
 43
0.0000001
 44
0.0000000001
 40
0.0
 40
0.0
 40
0.0
 40
0.0
 40
0.5017606542
 40
1.0
 40
1.0
 40
1.0
 40
1.0
 10
10.7025761024
 20
10.4428918263
 30
0.0
 10
10.7040783158
 20
10.4414593457
 30
0.0
 10
10.7068456785
 20
10.438354846
 30
0.0
 10
10.7090431496
 20
10.4348234646
 30
0.0
 10
10.7099834891
 20
10.4329893043
 30
0.0
  0
SPLINE
  5
27B
100
AcDbEntity
  8
0
100
AcDbSpline
 62
7
  6
CONTINUOUS
 70
0
 71
3
 72
15
 73
11
 74
0
 42
0.0000001
 43
0.0000001
 44
0.0000000001
 40
0.0
 40
0.0
 40
0.0
 40
0.0
 40
0.0967381413
 40
0.1951512176
 40
0.2992748981
 40
0.4125502779
 40
0.5376354763
 40
0.6764449918
 40
0.8302860241
 40
1.0
 40
1.0
 40
1.0
 40
1.0
 10
10.7099834891
 20
10.4340069594
 30
0.0
 10
10.708813715
 20
10.436287115
 30
0.0
 10
10.7059658322
 20
10.4406565563
 30
0.0
 10
10.7002857529
 20
10.4462657967
 30
0.0
 10
10.6932509494
 20
10.450883048
 30
0.0
 10
10.6848958286
 20
10.4545118989
 30
0.0
 10
10.6752361158
 20
10.4571690804
 30
0.0
 10
10.6642807397
 20
10.4588652691
 30
0.0
 10
10.6520406384
 20
10.459605896
 30
0.0
 10
10.6434624188
 20
10.4594707914
 30
0.0
 10
10.6389712092
 20
10.4592648811
 30
0.0
  0
ENDSEC
  0
SECTION
  2
OBJECTS
  0
DICTIONARY
  5
C
100
AcDbDictionary
280
0
281
1
  3
ACAD_GROUP
350
D
  3
ACAD_MLINESTYLE
350
17
  3
ACAD_LAYOUT
350
1A
  3
ACAD_PLOTSETTINGS
350
19
  3
ACAD_PLOTSTYLENAME
350
E
  0
DICTIONARY
  5
D
102
{ACAD_REACTORS
330
C
102
}
100
AcDbDictionary
280
0
281
1
  0
ACDBDICTIONARYWDFLT
  5
E
102
{ACAD_REACTORS
330
C
102
}
100
AcDbDictionary
281
1
  3
Normal
350
F
100
AcDbDictionaryWithDefault
340
F
  0
DICTIONARY
  5
17
102
{ACAD_REACTORS
330
C
102
}
100
AcDbDictionary
280
0
281
1
  3
Standard
350
18
  0
DICTIONARY
  5
19
102
{ACAD_REACTORS
330
C
102
}
100
AcDbDictionary
281
1
  0
DICTIONARY
  5
1A
102
{ACAD_REACTORS
330
C
102
}
100
AcDbDictionary
281
1
  3
Model
350
27C
  3
Layout1
350
27D
  0
ACDBPLACEHOLDER
  5
F
102
{ACAD_REACTORS
330
E
102
}
  0
MLINESTYLE
  5
18
102
{ACAD_REACTORS
330
17
102
}
100
AcDbMlineStyle
  2
STANDARD
 70
0
  3

 62
256
 51
90.0
 52
90.0
 71
2
 49
0.5
 62
256
  6
BYLAYER
 49
-0.5
 62
256
  6
BYLAYER
  0
LAYOUT
  5
27C
102
{ACAD_REACTORS
330
1A
102
}
100
AcDbPlotSettings
  1

  2
none_device
  4
ANSI_C_(22.00_x_17.00_Inches)
  6

 40
0.0
 41
0.0
 42
0.0
 43
0.0
 44
558.8
 45
431.8
 46
0.0
 47
0.0
 48
0.0
 49
0.0
140
0.0
141
0.0
142
1.0
143
1.0
 70
1024
 72
0
 73
0
 74
0
  7

 75
0
147
1.0
148
0.0
149
0.0
100
AcDbLayout
  1
Model
 70
0
 71
0
 10
0.0
 20
0.0
 11
22.0
 21
17.0
 12
0.0
 22
0.0
 32
0.0
 14
0.0
 24
0.0
 34
0.0
 15
0.0
 25
0.0
 35
0.0
146
0.0
 13
0.0
 23
0.0
 33
0.0
 16
1.0
 26
0.0
 36
0.0
 17
0.0
 27
1.0
 37
0.0
 76
0
330
202
345
0
346
0
  0
LAYOUT
  5
27D
102
{ACAD_REACTORS
330
1A
102
}
100
AcDbPlotSettings
  1

  2
none_device
  4
ANSI_C_(22.00_x_17.00_Inches)
  6

 40
0.0
 41
0.0
 42
0.0
 43
0.0
 44
558.8
 45
431.8
 46
0.0
 47
0.0
 48
0.0
 49
0.0
140
0.0
141
0.0
142
1.0
143
1.0
 70
0
 72
0
 73
0
 74
0
  7

 75
0
147
1.0
148
0.0
149
0.0
100
AcDbLayout
  1
Layout1
 70
0
 71
1
 10
0.0
 20
0.0
 11
22.0
 21
17.0
 12
0.0
 22
0.0
 32
0.0
 14
0.0
 24
0.0
 34
0.0
 15
0.0
 25
0.0
 35
0.0
146
0.0
 13
0.0
 23
0.0
 33
0.0
 16
1.0
 26
0.0
 36
0.0
 17
0.0
 27
1.0
 37
0.0
 76
0
330
203
345
0
346
0
  0
ENDSEC
  0
EOF
