999
DXF file: 3-2441_TOP.dxf
999
Pro/ENGINEER 2018400 by Parametric Technology Corporation
  0
SECTION
  2
HEADER
  9
$ACADVER
  1
AC1027
  9
$DWGCODEPAGE
  3
ANSI_1252
  9
$EXTMAX
 10
11.0
 20
8.5
 30
0.0
  9
$EXTMIN
 10
0.0
 20
0.0
 30
0.0
  9
$LIMMIN
 10
0.0
 20
0.0
  9
$LIMMAX
 10
11.0
 20
8.5
  9
$VIEWCTR
 10
5.5
 20
4.25
  9
$VIEWSIZE
 40
8.5
  9
$CLAYER
  8
0
  9
$LTSCALE
 40
0.605
  9
$CELTYPE
  6
BYLAYER
  9
$DIMSCALE
 40
1.0
  9
$DIMASZ
 40
0.1
  9
$DIMEXO
 40
0.0625
  9
$DIMDLI
 40
0.418
  9
$DIMEXE
 40
0.125
  9
$DIMCEN
 40
0.099
  9
$DIMLFAC
 40
1.0
  9
$DIMBLK
  1
_FILLED
  9
$DIMALT
 70
1
  9
$DIMALTD
 70
2
  9
$DIMALTTD
 70
2
  9
$DIMALTF
 40
25.4
  9
$DIMTXT
 40
0.08
  9
$DIMTOL
 70
1
  9
$DIMLIM
 70
0
  9
$DIMTFAC
 40
1.0
  9
$DIMTP
 40
0.001
  9
$DIMTM
 40
0.001
  9
$DIMGAP
 40
0.09
  9
$DIMDSEP
 70
46
  9
$AUNITS
 70
0
  9
$PDMODE
 70
3
  9
$PDSIZE
 40
0.3125
  9
$HANDSEED
  5
3BF
  9
$TILEMODE
 70
1
  9
$MEASUREMENT
 70
0
  9
$INSUNITS
 70
1
  0
ENDSEC
  0
SECTION
  2
CLASSES
  0
CLASS
  1
ACDBDICTIONARYWDFLT
  2
AcDbDictionaryWithDefault
  3
AutoCAD 2000
 90
0
 91
1
280
0
281
0
  0
CLASS
  1
ACDBPLACEHOLDER
  2
AcDbPlaceHolder
  3
AutoCAD 2000
 90
0
 91
1
280
0
281
0
  0
CLASS
  1
LAYOUT
  2
AcDbLayout
  3
AutoCAD 2000
 90
0
 91
0
280
0
281
0
  0
ENDSEC
  0
SECTION
  2
TABLES
  0
TABLE
  2
VPORT
  5
8
100
AcDbSymbolTable
 70
2
  0
VPORT
  5
1F4
100
AcDbSymbolTableRecord
100
AcDbViewportTableRecord
  2
*ACTIVE
 70
0
 10
0.0
 20
0.0
 11
1.0
 21
1.0
 12
5.5
 22
4.25
 13
0.0
 23
0.0
 14
1.0
 24
1.0
 15
0.0
 25
0.0
 16
0.0
 26
0.0
 36
1.0
 17
0.0
 27
0.0
 37
0.0
 40
8.5
 41
1.2941176471
 42
50.0
 43
0.0
 44
0.0
 50
0.0
 51
0.0
 71
0
 72
100
 73
1
 74
1
 75
0
 76
0
 77
0
 78
0
  0
ENDTAB
  0
TABLE
  2
LTYPE
  5
5
100
AcDbSymbolTable
 70
6
  0
LTYPE
  5
14
100
AcDbSymbolTableRecord
100
AcDbLinetypeTableRecord
  2
BYBLOCK
 70
0
  3

 72
65
 73
0
 40
0.0
  0
LTYPE
  5
15
100
AcDbSymbolTableRecord
100
AcDbLinetypeTableRecord
  2
BYLAYER
 70
0
  3

 72
65
 73
0
 40
0.0
  0
LTYPE
  5
16
100
AcDbSymbolTableRecord
100
AcDbLinetypeTableRecord
  2
CONTINUOUS
 70
64
  3
Solid line
 72
65
 73
0
 40
0.0
  0
LTYPE
  5
1F5
100
AcDbSymbolTableRecord
100
AcDbLinetypeTableRecord
  2
CENTER
 70
64
  3
____ _ ____ _ ____ _ ____ _ ____ _ ____ _ ____
 72
65
 73
4
 40
0.6
 49
0.375
 74
0
 49
-0.075
 74
0
 49
0.075
 74
0
 49
-0.075
 74
0
  0
LTYPE
  5
1F6
100
AcDbSymbolTableRecord
100
AcDbLinetypeTableRecord
  2
HIDDEN
 70
64
  3
- - - - - - - - - - - - - - - - - - - -
 72
65
 73
2
 40
0.2
 49
0.1
 74
0
 49
-0.1
 74
0
  0
LTYPE
  5
1F7
100
AcDbSymbolTableRecord
100
AcDbLinetypeTableRecord
  2
PHANTOM
 70
64
  3
_____ _ _ _____ _ _ _____ _ _ _____
 72
65
 73
6
 40
0.8
 49
0.45
 74
0
 49
-0.05
 74
0
 49
0.1
 74
0
 49
-0.05
 74
0
 49
0.1
 74
0
 49
-0.05
 74
0
  0
LTYPE
  5
1F8
100
AcDbSymbolTableRecord
100
AcDbLinetypeTableRecord
  2
DOT
 70
64
  3
. . . . . . . . . . . . . . . . . . . .
 72
65
 73
2
 40
0.2
 49
0.1
 74
0
 49
-0.1
 74
0
  0
LTYPE
  5
1F9
100
AcDbSymbolTableRecord
100
AcDbLinetypeTableRecord
  2
DASHED
 70
64
  3
- - - - - - - - - - - - - - - - - - - -
 72
65
 73
2
 40
0.2
 49
0.1
 74
0
 49
-0.1
 74
0
  0
ENDTAB
  0
TABLE
  2
LAYER
  5
2
100
AcDbSymbolTable
 70
36
  0
LAYER
  5
10
100
AcDbSymbolTableRecord
100
AcDbLayerTableRecord
  2
0
 70
0
 62
7
  6
CONTINUOUS
370
-3
390
F
  0
LAYER
  5
1FA
100
AcDbSymbolTableRecord
100
AcDbLayerTableRecord
  2
DEFAULT_1
 70
0
 62
7
  6
CENTER
370
-3
390
F
  0
LAYER
  5
1FB
100
AcDbSymbolTableRecord
100
AcDbLayerTableRecord
  2
DEFAULT_2
 70
0
 62
8
  6
HIDDEN
370
-3
390
F
  0
LAYER
  5
1FC
100
AcDbSymbolTableRecord
100
AcDbLayerTableRecord
  2
DEFAULT_3
 70
0
 62
7
  6
PHANTOM
370
-3
390
F
  0
LAYER
  5
1FD
100
AcDbSymbolTableRecord
100
AcDbLayerTableRecord
  2
ALL_FEATURES
 70
0
 62
7
  6
CONTINUOUS
370
-3
390
F
  0
LAYER
  5
1FE
100
AcDbSymbolTableRecord
100
AcDbLayerTableRecord
  2
AXES_FEATURES
 70
0
 62
7
  6
CONTINUOUS
370
-3
390
F
  0
LAYER
  5
1FF
100
AcDbSymbolTableRecord
100
AcDbLayerTableRecord
  2
CHAMFER_FEATURES
 70
0
 62
7
  6
CONTINUOUS
370
-3
390
F
  0
LAYER
  5
200
100
AcDbSymbolTableRecord
100
AcDbLayerTableRecord
  2
COORDINATE_SYSTEMS
 70
0
 62
7
  6
CONTINUOUS
370
-3
390
F
  0
LAYER
  5
201
100
AcDbSymbolTableRecord
100
AcDbLayerTableRecord
  2
CUT_FEATURES
 70
0
 62
7
  6
CONTINUOUS
370
-3
390
F
  0
LAYER
  5
202
100
AcDbSymbolTableRecord
100
AcDbLayerTableRecord
  2
CYAN
 70
0
 62
7
  6
CONTINUOUS
370
-3
390
F
  0
LAYER
  5
203
100
AcDbSymbolTableRecord
100
AcDbLayerTableRecord
  2
DATUM_CURVES
 70
0
 62
7
  6
CONTINUOUS
370
-3
390
F
  0
LAYER
  5
204
100
AcDbSymbolTableRecord
100
AcDbLayerTableRecord
  2
DATUM_PLANES
 70
0
 62
7
  6
CONTINUOUS
370
-3
390
F
  0
LAYER
  5
205
100
AcDbSymbolTableRecord
100
AcDbLayerTableRecord
  2
DATUM_POINTS
 70
0
 62
7
  6
CONTINUOUS
370
-3
390
F
  0
LAYER
  5
206
100
AcDbSymbolTableRecord
100
AcDbLayerTableRecord
  2
DEFAULT_COORDINATE_SYSTEM
 70
0
 62
7
  6
CONTINUOUS
370
-3
390
F
  0
LAYER
  5
207
100
AcDbSymbolTableRecord
100
AcDbLayerTableRecord
  2
DEFAULT_DATUM_AXES
 70
0
 62
7
  6
CONTINUOUS
370
-3
390
F
  0
LAYER
  5
208
100
AcDbSymbolTableRecord
100
AcDbLayerTableRecord
  2
DEFAULT_DATUM_CURVES
 70
0
 62
7
  6
CONTINUOUS
370
-3
390
F
  0
LAYER
  5
209
100
AcDbSymbolTableRecord
100
AcDbLayerTableRecord
  2
DEFAULT_DATUM_PLANES
 70
0
 62
7
  6
CONTINUOUS
370
-3
390
F
  0
LAYER
  5
20A
100
AcDbSymbolTableRecord
100
AcDbLayerTableRecord
  2
DEFAULT_SURFACES
 70
0
 62
7
  6
CONTINUOUS
370
-3
390
F
  0
LAYER
  5
20B
100
AcDbSymbolTableRecord
100
AcDbLayerTableRecord
  2
DIMENSIONS
 70
0
 62
7
  6
CONTINUOUS
370
-3
390
F
  0
LAYER
  5
20C
100
AcDbSymbolTableRecord
100
AcDbLayerTableRecord
  2
HOLE_FEATURES
 70
0
 62
7
  6
CONTINUOUS
370
-3
390
F
  0
LAYER
  5
20D
100
AcDbSymbolTableRecord
100
AcDbLayerTableRecord
  2
PART_REFERENCE_DIMENSIONS
 70
0
 62
7
  6
CONTINUOUS
370
-3
390
F
  0
LAYER
  5
20E
100
AcDbSymbolTableRecord
100
AcDbLayerTableRecord
  2
PLATED_SURFACE_AREA
 70
0
 62
7
  6
CONTINUOUS
370
-3
390
F
  0
LAYER
  5
20F
100
AcDbSymbolTableRecord
100
AcDbLayerTableRecord
  2
POINTS
 70
0
 62
7
  6
CONTINUOUS
370
-3
390
F
  0
LAYER
  5
210
100
AcDbSymbolTableRecord
100
AcDbLayerTableRecord
  2
PROTRUSION_FEATURES
 70
0
 62
7
  6
CONTINUOUS
370
-3
390
F
  0
LAYER
  5
211
100
AcDbSymbolTableRecord
100
AcDbLayerTableRecord
  2
QUILTS
 70
0
 62
7
  6
CONTINUOUS
370
-3
390
F
  0
LAYER
  5
212
100
AcDbSymbolTableRecord
100
AcDbLayerTableRecord
  2
REFERENCE_DIMENSIONS
 70
0
 62
7
  6
CONTINUOUS
370
-3
390
F
  0
LAYER
  5
213
100
AcDbSymbolTableRecord
100
AcDbLayerTableRecord
  2
ROUND_FEATURES
 70
0
 62
7
  6
CONTINUOUS
370
-3
390
F
  0
LAYER
  5
214
100
AcDbSymbolTableRecord
100
AcDbLayerTableRecord
  2
SURFACE_FEATURES
 70
0
 62
7
  6
CONTINUOUS
370
-3
390
F
  0
LAYER
  5
215
100
AcDbSymbolTableRecord
100
AcDbLayerTableRecord
  2
WETTED_SURFACES
 70
0
 62
7
  6
CONTINUOUS
370
-3
390
F
  0
LAYER
  5
216
100
AcDbSymbolTableRecord
100
AcDbLayerTableRecord
  2
WETTED_SURFACE_AREA
 70
0
 62
7
  6
CONTINUOUS
370
-3
390
F
  0
LAYER
  5
217
100
AcDbSymbolTableRecord
100
AcDbLayerTableRecord
  2
WHITE
 70
0
 62
7
  6
CONTINUOUS
370
-3
390
F
  0
ENDTAB
  0
TABLE
  2
STYLE
  5
3
100
AcDbSymbolTable
 70
1
  0
STYLE
  5
11
100
AcDbSymbolTableRecord
100
AcDbTextStyleTableRecord
  2
STANDARD
 70
0
 40
0.0
 41
0.8
 50
0.0
 71
0
 42
0.2
  3
txt
  4

  0
STYLE
  5
218
100
AcDbSymbolTableRecord
100
AcDbTextStyleTableRecord
  2
TEXTSTYLE_1
 70
0
 40
0.0
 41
0.8
 50
0.0
 71
0
 42
0.2
  3
gdt
  4

  0
ENDTAB
  0
TABLE
  2
VIEW
  5
6
100
AcDbSymbolTable
 70
0
  0
ENDTAB
  0
TABLE
  2
UCS
  5
7
100
AcDbSymbolTable
 70
0
  0
ENDTAB
  0
TABLE
  2
APPID
  5
9
100
AcDbSymbolTable
 70
1
  0
APPID
  5
219
100
AcDbSymbolTableRecord
100
AcDbRegAppTableRecord
  2
ACAD
 70
0
  0
ENDTAB
  0
TABLE
  2
BLOCK_RECORD
  5
1
100
AcDbSymbolTable
 70
0
  0
BLOCK_RECORD
  5
21A
100
AcDbSymbolTableRecord
100
AcDbBlockTableRecord
  2
*Model_Space
  0
BLOCK_RECORD
  5
21B
100
AcDbSymbolTableRecord
100
AcDbBlockTableRecord
  2
*Paper_Space
  0
BLOCK_RECORD
  5
21C
100
AcDbSymbolTableRecord
100
AcDbBlockTableRecord
  2
_FILLED
  0
ENDTAB
  0
TABLE
  2
DIMSTYLE
  5
A
100
AcDbSymbolTable
 70
1
100
AcDbDimStyleTable
 71
0
  0
DIMSTYLE
105
21D
100
AcDbSymbolTableRecord
100
AcDbDimStyleTableRecord
  2
STANDARD
 70
0
  3

  4

 40
1.0
 41
0.1
 42
0.0625
 43
0.38
 44
0.125
 45
0.0
 46
0.0
 47
0.001
 48
0.001
140
0.08
141
0.09
142
0.0
143
25.4
144
1.0
145
0.0
146
1.0
147
0.09
 71
1.0
 72
0.0
 73
1
 74
1
 75
0
 76
0
 77
0
 78
4
 79
1
170
1
171
2
172
0
173
0
174
0
175
0
176
0
177
0
178
0
270
2
179
3
271
3
272
3
273
2
274
2
275
0
280
0
281
0
282
0
283
1
284
4
285
0
286
0
287
3
288
0
340
11
278
46
341
21C
342
21C
343
21C
344
21C
  0
ENDTAB
  0
ENDSEC
  0
SECTION
  2
BLOCKS
  0
BLOCK
  5
20
100
AcDbEntity
  8
0
100
AcDbBlockBegin
  2
*Model_Space
 70
0
 10
0.0
 20
0.0
 30
0.0
  3
*Model_Space
  1

  0
ENDBLK
  5
21
100
AcDbEntity
  8
0
100
AcDbBlockEnd
  0
BLOCK
  5
1C
100
AcDbEntity
  8
0
100
AcDbBlockBegin
  2
*Paper_Space
 70
0
 10
0.0
 20
0.0
 30
0.0
  3
*Paper_Space
  1

  0
ENDBLK
  5
1D
100
AcDbEntity
  8
0
100
AcDbBlockEnd
  0
BLOCK
  5
21E
100
AcDbEntity
  8
0
100
AcDbBlockBegin
  2
_FILLED
 70
64
 10
0.0
 20
0.0
  3
_FILLED
  1

  0
SOLID
  5
21F
100
AcDbEntity
  8
0
  6
BYBLOCK
 62
0
100
AcDbTrace
 10
0.0
 20
0.0
 11
-1.0
 21
0.2
 12
-1.0
 22
-0.2
 13
-1.0
 23
-0.2
  0
ENDBLK
  5
220
100
AcDbEntity
  8
0
  6
BYBLOCK
 62
0
100
AcDbBlockEnd
  0
ENDSEC
  0
SECTION
  2
ENTITIES
  0
MTEXT
  5
221
100
AcDbEntity
  8
0
100
AcDbMText
 62
2
  6
CONTINUOUS
  7
STANDARD
 71
3
 72
1
 10
4.1204047613
 20
1.8200866336
 30
0.0
 11
1.0
 21
0.0
 31
0.0
 73
2
 44
0.9
  1
SCALE  .500
 40
0.08
 41
0.704
  0
LINE
  5
222
100
AcDbEntity
  8
0
100
AcDbLine
 62
7
  6
CONTINUOUS
 10
0.0
 20
0.0
 11
0.0
 21
8.5
  0
LINE
  5
223
100
AcDbEntity
  8
0
100
AcDbLine
 62
7
  6
CONTINUOUS
 10
0.0
 20
0.0
 11
11.0
 21
0.0
  0
LINE
  5
224
100
AcDbEntity
  8
0
100
AcDbLine
 62
7
  6
CONTINUOUS
 10
0.0
 20
8.5
 11
11.0
 21
8.5
  0
LINE
  5
225
100
AcDbEntity
  8
0
100
AcDbLine
 62
7
  6
CONTINUOUS
 10
11.0
 20
0.0
 11
11.0
 21
8.5
  0
LINE
  5
226
100
AcDbEntity
  8
0
100
AcDbLine
 62
7
  6
CONTINUOUS
 10
2.086416735
 20
5.0064889629
 11
2.086416735
 21
4.7862415893
  0
LINE
  5
227
100
AcDbEntity
  8
0
100
AcDbLine
 62
7
  6
CONTINUOUS
 10
2.098131965
 20
4.7399694452
 11
2.098131965
 21
5.0527611071
  0
LINE
  5
228
100
AcDbEntity
  8
0
100
AcDbLine
 62
7
  6
CONTINUOUS
 10
2.1230929677
 20
4.7163652761
 11
2.1230929677
 21
5.0763652761
  0
LINE
  5
229
100
AcDbEntity
  8
0
100
AcDbLine
 62
7
  6
CONTINUOUS
 10
2.130577456
 20
4.7163652761
 11
2.130577456
 21
5.0763652761
  0
LINE
  5
22A
100
AcDbEntity
  8
ALL_FEATURES
100
AcDbLine
 62
7
  6
CONTINUOUS
 10
2.1437864073
 20
6.2568655939
 11
2.1437864073
 21
6.3116151028
  0
LINE
  5
22B
100
AcDbEntity
  8
0
100
AcDbLine
 62
7
  6
CONTINUOUS
 10
2.1534713178
 20
4.7313218161
 11
2.1534713178
 21
5.0614087362
  0
LINE
  5
22C
100
AcDbEntity
  8
0
100
AcDbLine
 62
7
  6
CONTINUOUS
 10
2.1696771247
 20
5.049555042
 11
2.1696771247
 21
4.7431755103
  0
LINE
  5
22D
100
AcDbEntity
  8
ALL_FEATURES
100
AcDbLine
 62
7
  6
CONTINUOUS
 10
2.3212864073
 20
5.9916151028
 11
2.3212864073
 21
6.0966151028
  0
LINE
  5
22E
100
AcDbEntity
  8
ALL_FEATURES
100
AcDbLine
 62
7
  6
CONTINUOUS
 10
2.3387864073
 20
5.9566151028
 11
2.3387864073
 21
5.9916151028
  0
LINE
  5
22F
100
AcDbEntity
  8
0
100
AcDbLine
 62
7
  6
CONTINUOUS
 10
2.4216058357
 20
4.7875354748
 11
2.4216058357
 21
5.0051950774
  0
LINE
  5
230
100
AcDbEntity
  8
0
100
AcDbLine
 62
7
  6
CONTINUOUS
 10
2.4367864073
 20
4.8063652761
 11
2.4367864073
 21
4.9863652761
  0
LINE
  5
231
100
AcDbEntity
  8
ALL_FEATURES
100
AcDbLine
 62
7
  6
CONTINUOUS
 10
2.4687864073
 20
5.2316151028
 11
2.4687864073
 21
5.2666151028
  0
LINE
  5
232
100
AcDbEntity
  8
0
100
AcDbLine
 62
7
  6
CONTINUOUS
 10
2.4817864073
 20
4.8063652761
 11
2.4817864073
 21
4.9863652761
  0
LINE
  5
233
100
AcDbEntity
  8
0
100
AcDbLine
 62
7
  6
CONTINUOUS
 10
2.4867864073
 20
4.9858149827
 11
2.4867864073
 21
4.8069155696
  0
LINE
  5
234
100
AcDbEntity
  8
ALL_FEATURES
100
AcDbLine
 62
7
  6
CONTINUOUS
 10
2.5287864073
 20
5.1916151028
 11
2.5287864073
 21
5.2266151028
  0
LINE
  5
235
100
AcDbEntity
  8
0
100
AcDbLine
 62
7
  6
CONTINUOUS
 10
2.5537864073
 20
4.7128012861
 11
2.5537864073
 21
4.7162293011
  0
LINE
  5
236
100
AcDbEntity
  8
ALL_FEATURES
100
AcDbLine
 62
7
  6
CONTINUOUS
 10
2.5645364073
 20
5.1866151028
 11
2.5645364073
 21
5.0766151028
  0
LINE
  5
237
100
AcDbEntity
  8
ALL_FEATURES
100
AcDbLine
 62
7
  6
CONTINUOUS
 10
2.8230364073
 20
5.1866151028
 11
2.8230364073
 21
5.0766151028
  0
LINE
  5
238
100
AcDbEntity
  8
0
100
AcDbLine
 62
7
  6
CONTINUOUS
 10
2.8337864073
 20
4.7128012861
 11
2.8337864073
 21
4.7162293011
  0
LINE
  5
239
100
AcDbEntity
  8
ALL_FEATURES
100
AcDbLine
 62
7
  6
CONTINUOUS
 10
2.8587864073
 20
5.1916151028
 11
2.8587864073
 21
5.2266151028
  0
LINE
  5
23A
100
AcDbEntity
  8
0
100
AcDbLine
 62
7
  6
CONTINUOUS
 10
2.9007864073
 20
4.8069155696
 11
2.9007864073
 21
4.9858149827
  0
LINE
  5
23B
100
AcDbEntity
  8
0
100
AcDbLine
 62
7
  6
CONTINUOUS
 10
2.9057864073
 20
4.9863652761
 11
2.9057864073
 21
4.8063652761
  0
LINE
  5
23C
100
AcDbEntity
  8
ALL_FEATURES
100
AcDbLine
 62
7
  6
CONTINUOUS
 10
2.9187864073
 20
5.2316151028
 11
2.9187864073
 21
5.2666151028
  0
LINE
  5
23D
100
AcDbEntity
  8
0
100
AcDbLine
 62
7
  6
CONTINUOUS
 10
2.9507864073
 20
4.9863652761
 11
2.9507864073
 21
4.8063652761
  0
LINE
  5
23E
100
AcDbEntity
  8
0
100
AcDbLine
 62
7
  6
CONTINUOUS
 10
2.965966979
 20
5.0051950774
 11
2.965966979
 21
4.7875354748
  0
LINE
  5
23F
100
AcDbEntity
  8
ALL_FEATURES
100
AcDbLine
 62
7
  6
CONTINUOUS
 10
3.0487864073
 20
5.9566151028
 11
3.0487864073
 21
5.9916151028
  0
LINE
  5
240
100
AcDbEntity
  8
ALL_FEATURES
100
AcDbLine
 62
7
  6
CONTINUOUS
 10
3.0662864073
 20
5.9916151028
 11
3.0662864073
 21
6.0966151028
  0
LINE
  5
241
100
AcDbEntity
  8
0
100
AcDbLine
 62
7
  6
CONTINUOUS
 10
3.2178956899
 20
4.7431755103
 11
3.2178956899
 21
5.049555042
  0
LINE
  5
242
100
AcDbEntity
  8
0
100
AcDbLine
 62
7
  6
CONTINUOUS
 10
3.2341014968
 20
5.0614087362
 11
3.2341014968
 21
4.7313218161
  0
LINE
  5
243
100
AcDbEntity
  8
ALL_FEATURES
100
AcDbLine
 62
7
  6
CONTINUOUS
 10
3.2437864073
 20
6.2568655939
 11
3.2437864073
 21
6.3116151028
  0
LINE
  5
244
100
AcDbEntity
  8
0
100
AcDbLine
 62
7
  6
CONTINUOUS
 10
3.2569953587
 20
5.0763652761
 11
3.2569953587
 21
4.7163652761
  0
LINE
  5
245
100
AcDbEntity
  8
0
100
AcDbLine
 62
7
  6
CONTINUOUS
 10
3.2644798469
 20
5.0763652761
 11
3.2644798469
 21
4.7163652761
  0
LINE
  5
246
100
AcDbEntity
  8
0
100
AcDbLine
 62
7
  6
CONTINUOUS
 10
3.2894408496
 20
5.0527611071
 11
3.2894408496
 21
4.7399694452
  0
LINE
  5
247
100
AcDbEntity
  8
0
100
AcDbLine
 62
7
  6
CONTINUOUS
 10
3.3011560796
 20
4.7862415893
 11
3.3011560796
 21
5.0064889629
  0
LINE
  5
248
100
AcDbEntity
  8
ALL_FEATURES
100
AcDbLine
 62
7
  6
CONTINUOUS
 10
5.1260291383
 20
6.1381948583
 11
5.1861052308
 21
6.1928094878
  0
LINE
  5
249
100
AcDbEntity
  8
ALL_FEATURES
100
AcDbLine
 62
7
  6
CONTINUOUS
 10
4.1122914073
 20
6.2520046937
 11
4.1122914073
 21
6.3116151028
  0
LINE
  5
24A
100
AcDbEntity
  8
ALL_FEATURES
100
AcDbLine
 62
7
  6
CONTINUOUS
 10
4.2972914073
 20
5.9766151028
 11
4.2972914073
 21
6.0866151028
  0
LINE
  5
24B
100
AcDbEntity
  8
0
100
AcDbLine
 62
7
  6
CONTINUOUS
 10
4.3622914073
 20
5.917067323
 11
4.3622914073
 21
5.9466151028
  0
LINE
  5
24C
100
AcDbEntity
  8
ALL_FEATURES
100
AcDbLine
 62
7
  6
CONTINUOUS
 10
4.4372914073
 20
4.5816151028
 11
4.437286774
 21
4.0386432127
  0
LINE
  5
24D
100
AcDbEntity
  8
ALL_FEATURES
100
AcDbLine
 62
7
  6
CONTINUOUS
 10
4.437286774
 20
4.0386432127
 11
4.4372736547
 21
4.0301937274
  0
LINE
  5
24E
100
AcDbEntity
  8
ALL_FEATURES
100
AcDbLine
 62
7
  6
CONTINUOUS
 10
4.4372741349
 20
4.0304366868
 11
4.4372431893
 21
4.0202578026
  0
LINE
  5
24F
100
AcDbEntity
  8
ALL_FEATURES
100
AcDbLine
 62
7
  6
CONTINUOUS
 10
4.4372456125
 20
4.0208098001
 11
4.4372033514
 21
4.0111961735
  0
LINE
  5
250
100
AcDbEntity
  8
ALL_FEATURES
100
AcDbLine
 62
7
  6
CONTINUOUS
 10
4.436839373
 20
3.9678868973
 11
4.4368372066
 21
3.9675171245
  0
LWPOLYLINE
  5
251
100
AcDbEntity
  8
ALL_FEATURES
100
AcDbPolyline
 62
7
  6
CONTINUOUS
 90
4
 70
0
 10
4.4372035853
 20
4.0112363428
 10
4.4371481634
 20
4.0017165539
 10
4.4370794449
 20
3.992249102
 10
4.4369975331
 20
3.9828341503
  0
LINE
  5
252
100
AcDbEntity
  8
ALL_FEATURES
100
AcDbLine
 62
7
  6
CONTINUOUS
 10
4.4369975331
 20
3.9828341503
 11
4.4368372066
 21
3.9675171245
  0
LWPOLYLINE
  5
253
100
AcDbEntity
  8
ALL_FEATURES
100
AcDbPolyline
 62
7
  6
CONTINUOUS
 90
13
 70
0
 10
4.4368393761
 20
3.9678871618
 10
4.4360835081
 20
3.9194370586
 10
4.434857083
 20
3.8680171654
 10
4.4332112823
 20
3.8177905882
 10
4.4311552107
 20
3.7689011119
 10
4.4286976213
 20
3.7214069938
 10
4.4258434051
 20
3.6752841313
 10
4.4225998472
 20
3.6305589156
 10
4.418981978
 20
3.5873362352
 10
4.4150068449
 20
3.5456941926
 10
4.4106921261
 20
3.5056801939
 10
4.4060549743
 20
3.4673126309
 10
4.4015732155
 20
3.4338593149
  0
LWPOLYLINE
  5
254
100
AcDbEntity
  8
ALL_FEATURES
100
AcDbPolyline
 62
7
  6
CONTINUOUS
 90
10
 70
0
 10
5.0666721308
 20
2.9074414414
 10
5.0620572446
 20
2.9174897294
 10
5.0566976392
 20
2.9295411822
 10
5.0512811057
 20
2.9421381339
 10
5.0458227495
 20
2.9552606597
 10
5.0403314428
 20
2.9689029549
 10
5.0348100771
 20
2.9830751112
 10
5.0292673331
 20
2.9977736052
 10
5.02371742
 20
3.0129795502
 10
5.0189717272
 20
3.0263835947
  0
LINE
  5
255
100
AcDbEntity
  8
ALL_FEATURES
100
AcDbLine
 62
7
  6
CONTINUOUS
 10
4.6622914073
 20
4.5816151028
 11
4.6622914073
 21
2.6939437168
  0
LWPOLYLINE
  5
256
100
AcDbEntity
  8
ALL_FEATURES
100
AcDbPolyline
 62
7
  6
CONTINUOUS
 90
10
 70
0
 10
4.4015731791
 20
3.4338590557
 10
4.4009527585
 20
3.429470591
 10
4.3998080741
 20
3.4215170147
 10
4.3986403427
 20
3.4135851908
 10
4.3974495964
 20
3.405675439
 10
4.3962359401
 20
3.3977885551
 10
4.3949995568
 20
3.3899257969
 10
4.3937405634
 20
3.3820879467
 10
4.3924590049
 20
3.3742753255
 10
4.3916860738
 20
3.3696406212
  0
LWPOLYLINE
  5
257
100
AcDbEntity
  8
ALL_FEATURES
100
AcDbPolyline
 62
7
  6
CONTINUOUS
 90
13
 70
0
 10
4.3916859935
 20
3.3696401429
 10
4.3870414207
 20
3.3428957284
 10
4.3814899304
 20
3.3130829606
 10
4.3756152295
 20
3.2836492876
 10
4.3694313421
 20
3.2546272366
 10
4.3629547377
 20
3.2260568631
 10
4.3562048796
 20
3.1979862388
 10
4.3492022126
 20
3.1704619265
 10
4.3419653743
 20
3.1435193845
 10
4.334514138
 20
3.1171962346
 10
4.3268717153
 20
3.091539783
 10
4.3190641432
 20
3.0666033653
 10
4.3118543776
 20
3.044629031
  0
LINE
  5
258
100
AcDbEntity
  8
0
100
AcDbLine
 62
7
  6
CONTINUOUS
 10
4.4032914073
 20
4.5936151028
 11
4.3823166762
 21
4.6215814108
  0
LINE
  5
259
100
AcDbEntity
  8
ALL_FEATURES
100
AcDbLine
 62
7
  6
CONTINUOUS
 10
5.0189718625
 20
3.0263832071
 11
5.0171366786
 21
3.031670998
  0
LINE
  5
25A
100
AcDbEntity
  8
ALL_FEATURES
100
AcDbLine
 62
7
  6
CONTINUOUS
 10
5.0171366786
 20
3.031670998
 11
5.0154130529
 21
3.0366941655
  0
LWPOLYLINE
  5
25B
100
AcDbEntity
  8
ALL_FEATURES
100
AcDbPolyline
 62
7
  6
CONTINUOUS
 90
3
 70
0
 10
5.0154130529
 20
3.0366941655
 10
5.0136782612
 20
3.0418060679
 10
5.0127296236
 20
3.044625494
  0
LWPOLYLINE
  5
25C
100
AcDbEntity
  8
ALL_FEATURES
100
AcDbPolyline
 62
7
  6
CONTINUOUS
 90
13
 70
0
 10
5.012728437
 20
3.044629031
 10
5.0055186714
 20
3.0666033653
 10
4.9977110993
 20
3.091539783
 10
4.9900686766
 20
3.1171962346
 10
4.9826174403
 20
3.1435193845
 10
4.975380602
 20
3.1704619265
 10
4.9683779351
 20
3.1979862388
 10
4.9616280769
 20
3.2260568631
 10
4.9551514725
 20
3.2546272366
 10
4.9489675851
 20
3.2836492876
 10
4.9430928842
 20
3.3130829606
 10
4.9375413939
 20
3.3428957284
 10
4.9328968211
 20
3.3696401429
  0
LWPOLYLINE
  5
25D
100
AcDbEntity
  8
ALL_FEATURES
100
AcDbPolyline
 62
7
  6
CONTINUOUS
 90
4
 70
0
 10
4.887745608
 20
3.9675171245
 10
4.8875852815
 20
3.9828341503
 10
4.8875033697
 20
3.992249102
 10
4.8874346512
 20
4.0017165539
  0
LINE
  5
25E
100
AcDbEntity
  8
ALL_FEATURES
100
AcDbLine
 62
7
  6
CONTINUOUS
 10
4.887745608
 20
3.9675171245
 11
4.8877434416
 21
3.9678868973
  0
LINE
  5
25F
100
AcDbEntity
  8
ALL_FEATURES
100
AcDbLine
 62
7
  6
CONTINUOUS
 10
4.8873770896
 20
4.0115861026
 11
4.8874346512
 21
4.0017165539
  0
LINE
  5
260
100
AcDbEntity
  8
ALL_FEATURES
100
AcDbLine
 62
7
  6
CONTINUOUS
 10
4.8873289529
 20
4.0231197016
 11
4.8873792293
 21
4.0112363428
  0
LINE
  5
261
100
AcDbEntity
  8
ALL_FEATURES
100
AcDbLine
 62
7
  6
CONTINUOUS
 10
4.8873372021
 20
4.0208098001
 11
4.8872937735
 21
4.0401152029
  0
LINE
  5
262
100
AcDbEntity
  8
ALL_FEATURES
100
AcDbLine
 62
7
  6
CONTINUOUS
 10
4.8872914073
 20
4.5816151028
 11
4.8872937735
 21
4.0401152029
  0
LINE
  5
263
100
AcDbEntity
  8
ALL_FEATURES
100
AcDbLine
 62
7
  6
CONTINUOUS
 10
4.3118543776
 20
3.044629031
 11
4.3100357941
 21
3.0392390119
  0
LINE
  5
264
100
AcDbEntity
  8
ALL_FEATURES
100
AcDbLine
 62
7
  6
CONTINUOUS
 10
4.3100357941
 20
3.0392390119
 11
4.3083065166
 21
3.0341714905
  0
LINE
  5
265
100
AcDbEntity
  8
ALL_FEATURES
100
AcDbLine
 62
7
  6
CONTINUOUS
 10
4.3083065166
 20
3.0341714905
 11
4.3065886805
 21
3.0291926516
  0
LINE
  5
266
100
AcDbEntity
  8
ALL_FEATURES
100
AcDbLine
 62
7
  6
CONTINUOUS
 10
4.3065886805
 20
3.0291926516
 11
4.3056109521
 21
3.0263832071
  0
LWPOLYLINE
  5
267
100
AcDbEntity
  8
ALL_FEATURES
100
AcDbPolyline
 62
7
  6
CONTINUOUS
 90
10
 70
0
 10
4.3056110874
 20
3.0263835947
 10
4.3008653946
 20
3.0129795502
 10
4.2953154815
 20
2.9977736052
 10
4.2897727375
 20
2.9830751112
 10
4.2842513718
 20
2.9689029549
 10
4.2787600651
 20
2.9552606597
 10
4.2733017089
 20
2.9421381339
 10
4.2678851754
 20
2.9295411822
 10
4.26252557
 20
2.9174897294
 10
4.2579106838
 20
2.9074414414
  0
LINE
  5
268
100
AcDbEntity
  8
0
100
AcDbLine
 62
7
  6
CONTINUOUS
 10
4.9212914073
 20
4.5936151028
 11
4.9422661384
 21
4.6215814108
  0
LINE
  5
269
100
AcDbEntity
  8
0
100
AcDbLine
 62
7
  6
CONTINUOUS
 10
4.8972910027
 20
4.5816151028
 11
4.4272918119
 21
4.5816151028
  0
LINE
  5
26A
100
AcDbEntity
  8
0
100
AcDbLine
 62
7
  6
CONTINUOUS
 10
4.9212914069
 20
4.5936151022
 11
4.4032914077
 21
4.5936151022
  0
LINE
  5
26B
100
AcDbEntity
  8
0
100
AcDbLine
 62
7
  6
CONTINUOUS
 10
4.3823166763
 20
4.6215814107
 11
4.9422661383
 21
4.6215814107
  0
LINE
  5
26C
100
AcDbEntity
  8
0
100
AcDbLine
 62
7
  6
CONTINUOUS
 10
4.3653772754
 20
4.6327387073
 11
4.9592055392
 21
4.6327387073
  0
LINE
  5
26D
100
AcDbEntity
  8
0
100
AcDbLine
 62
7
  6
CONTINUOUS
 10
2.5808831815
 20
4.6749396067
 11
2.8066896331
 21
4.6749396067
  0
LINE
  5
26E
100
AcDbEntity
  8
0
100
AcDbLine
 62
7
  6
CONTINUOUS
 10
6.5178931815
 20
4.6749396067
 11
6.7436996331
 21
4.6749396067
  0
LINE
  5
26F
100
AcDbEntity
  8
0
100
AcDbLine
 62
7
  6
CONTINUOUS
 10
4.3509512919
 20
4.7037343944
 11
4.9736315227
 21
4.7037343944
  0
LINE
  5
270
100
AcDbEntity
  8
0
100
AcDbLine
 62
7
  6
CONTINUOUS
 10
2.5537864073
 20
4.7128012861
 11
2.8337864073
 21
4.7128012861
  0
LINE
  5
271
100
AcDbEntity
  8
0
100
AcDbLine
 62
7
  6
CONTINUOUS
 10
6.4907964073
 20
4.7128012861
 11
6.7707964073
 21
4.7128012861
  0
LINE
  5
272
100
AcDbEntity
  8
0
100
AcDbLine
 62
7
  6
CONTINUOUS
 10
2.5537864073
 20
4.7162293011
 11
2.8337864073
 21
4.7162293011
  0
LINE
  5
273
100
AcDbEntity
  8
0
100
AcDbLine
 62
7
  6
CONTINUOUS
 10
6.4907964073
 20
4.7162293011
 11
6.7707964073
 21
4.7162293011
  0
LINE
  5
274
100
AcDbEntity
  8
0
100
AcDbLine
 62
7
  6
CONTINUOUS
 10
7.2014898469
 20
4.7163652761
 11
7.1940053587
 21
4.7163652761
  0
LINE
  5
275
100
AcDbEntity
  8
0
100
AcDbLine
 62
7
  6
CONTINUOUS
 10
3.2644798469
 20
4.7163652761
 11
3.2569953587
 21
4.7163652761
  0
LINE
  5
276
100
AcDbEntity
  8
0
100
AcDbLine
 62
7
  6
CONTINUOUS
 10
2.1230929677
 20
4.7163652761
 11
2.130577456
 21
4.7163652761
  0
LINE
  5
277
100
AcDbEntity
  8
0
100
AcDbLine
 62
7
  6
CONTINUOUS
 10
6.0601029677
 20
4.7163652761
 11
6.067587456
 21
4.7163652761
  0
LINE
  5
278
100
AcDbEntity
  8
0
100
AcDbLine
 62
7
  6
CONTINUOUS
 10
6.7769140303
 20
4.7262293011
 11
6.6895585854
 21
4.7262293011
  0
LINE
  5
279
100
AcDbEntity
  8
0
100
AcDbLine
 62
7
  6
CONTINUOUS
 10
6.5721313628
 20
4.7262293011
 11
6.4846787843
 21
4.7262293011
  0
LINE
  5
27A
100
AcDbEntity
  8
0
100
AcDbLine
 62
7
  6
CONTINUOUS
 10
2.8399040303
 20
4.7262293011
 11
2.7525485854
 21
4.7262293011
  0
LINE
  5
27B
100
AcDbEntity
  8
0
100
AcDbLine
 62
7
  6
CONTINUOUS
 10
2.6351213628
 20
4.7262293011
 11
2.5476687843
 21
4.7262293011
  0
LINE
  5
27C
100
AcDbEntity
  8
0
100
AcDbLine
 62
7
  6
CONTINUOUS
 10
6.7802273551
 20
4.7274847212
 11
6.692933555
 21
4.7274847212
  0
LINE
  5
27D
100
AcDbEntity
  8
0
100
AcDbLine
 62
7
  6
CONTINUOUS
 10
6.5686177363
 20
4.7274847212
 11
6.4813654595
 21
4.7274847212
  0
LINE
  5
27E
100
AcDbEntity
  8
0
100
AcDbLine
 62
7
  6
CONTINUOUS
 10
2.8432173551
 20
4.7274847212
 11
2.755923555
 21
4.7274847212
  0
LINE
  5
27F
100
AcDbEntity
  8
0
100
AcDbLine
 62
7
  6
CONTINUOUS
 10
2.6316077363
 20
4.7274847212
 11
2.5443554595
 21
4.7274847212
  0
LWPOLYLINE
  5
280
100
AcDbEntity
  8
ALL_FEATURES
100
AcDbPolyline
 62
7
  6
CONTINUOUS
 90
10
 70
0
 10
4.9328967408
 20
3.3696406212
 10
4.9321238097
 20
3.3742753255
 10
4.9308422512
 20
3.3820879467
 10
4.9295832578
 20
3.3899257969
 10
4.9283468745
 20
3.3977885551
 10
4.9271332182
 20
3.405675439
 10
4.9259424719
 20
3.4135851908
 10
4.9247747405
 20
3.4215170147
 10
4.9236300561
 20
3.429470591
 10
4.9230096356
 20
3.4338590557
  0
LWPOLYLINE
  5
281
100
AcDbEntity
  8
ALL_FEATURES
100
AcDbPolyline
 62
7
  6
CONTINUOUS
 90
13
 70
0
 10
4.9230095991
 20
3.4338593149
 10
4.9185278403
 20
3.4673126309
 10
4.9138906885
 20
3.5056801939
 10
4.9095759697
 20
3.5456941926
 10
4.9056008366
 20
3.5873362352
 10
4.9019829675
 20
3.6305589156
 10
4.8987394096
 20
3.6752841313
 10
4.8958851933
 20
3.7214069938
 10
4.8934276039
 20
3.7689011119
 10
4.8913715323
 20
3.8177905882
 10
4.8897257316
 20
3.8680171654
 10
4.8884993065
 20
3.9194370586
 10
4.8877434385
 20
3.9678871618
  0
LINE
  5
282
100
AcDbEntity
  8
0
100
AcDbLine
 62
7
  6
CONTINUOUS
 10
4.9622914073
 20
5.917067323
 11
4.9622914073
 21
5.9466151028
  0
LINE
  5
283
100
AcDbEntity
  8
ALL_FEATURES
100
AcDbLine
 62
7
  6
CONTINUOUS
 10
5.0272914073
 20
5.9766151028
 11
5.0272914073
 21
6.0866151028
  0
LINE
  5
284
100
AcDbEntity
  8
0
100
AcDbLine
 62
7
  6
CONTINUOUS
 10
4.3991172202
 20
4.7800659416
 11
4.9254655945
 21
4.7800659416
  0
LINE
  5
285
100
AcDbEntity
  8
0
100
AcDbLine
 62
7
  6
CONTINUOUS
 10
6.8877964073
 20
4.8063652761
 11
6.8427964073
 21
4.8063652761
  0
LINE
  5
286
100
AcDbEntity
  8
0
100
AcDbLine
 62
7
  6
CONTINUOUS
 10
2.9507864073
 20
4.8063652761
 11
2.9057864073
 21
4.8063652761
  0
LINE
  5
287
100
AcDbEntity
  8
0
100
AcDbLine
 62
7
  6
CONTINUOUS
 10
2.4367864073
 20
4.8063652761
 11
2.4817864073
 21
4.8063652761
  0
LINE
  5
288
100
AcDbEntity
  8
0
100
AcDbLine
 62
7
  6
CONTINUOUS
 10
6.3737964073
 20
4.8063652761
 11
6.4187964073
 21
4.8063652761
  0
LINE
  5
289
100
AcDbEntity
  8
ALL_FEATURES
100
AcDbLine
 62
7
  6
CONTINUOUS
 10
5.2122914073
 20
6.2520046937
 11
5.2122914073
 21
6.3116151028
  0
LINE
  5
28A
100
AcDbEntity
  8
0
100
AcDbLine
 62
7
  6
CONTINUOUS
 10
6.8877964073
 20
4.9863652761
 11
6.8427964073
 21
4.9863652761
  0
LINE
  5
28B
100
AcDbEntity
  8
0
100
AcDbLine
 62
7
  6
CONTINUOUS
 10
2.9507864073
 20
4.9863652761
 11
2.9057864073
 21
4.9863652761
  0
LINE
  5
28C
100
AcDbEntity
  8
0
100
AcDbLine
 62
7
  6
CONTINUOUS
 10
2.4367864073
 20
4.9863652761
 11
2.4817864073
 21
4.9863652761
  0
LINE
  5
28D
100
AcDbEntity
  8
0
100
AcDbLine
 62
7
  6
CONTINUOUS
 10
6.3737964073
 20
4.9863652761
 11
6.4187964073
 21
4.9863652761
  0
LINE
  5
28E
100
AcDbEntity
  8
0
100
AcDbLine
 62
7
  6
CONTINUOUS
 10
7.2014898469
 20
5.0763652761
 11
7.1940053587
 21
5.0763652761
  0
LINE
  5
28F
100
AcDbEntity
  8
0
100
AcDbLine
 62
7
  6
CONTINUOUS
 10
3.2644798469
 20
5.0763652761
 11
3.2569953587
 21
5.0763652761
  0
LINE
  5
290
100
AcDbEntity
  8
0
100
AcDbLine
 62
7
  6
CONTINUOUS
 10
2.1230929677
 20
5.0763652761
 11
2.130577456
 21
5.0763652761
  0
LINE
  5
291
100
AcDbEntity
  8
0
100
AcDbLine
 62
7
  6
CONTINUOUS
 10
6.0601029677
 20
5.0763652761
 11
6.067587456
 21
5.0763652761
  0
LINE
  5
292
100
AcDbEntity
  8
ALL_FEATURES
100
AcDbLine
 62
7
  6
CONTINUOUS
 10
6.7662964073
 20
5.0766151028
 11
6.4952964073
 21
5.0766151028
  0
LINE
  5
293
100
AcDbEntity
  8
ALL_FEATURES
100
AcDbLine
 62
7
  6
CONTINUOUS
 10
2.8292864073
 20
5.0766151028
 11
2.5582864073
 21
5.0766151028
  0
LINE
  5
294
100
AcDbEntity
  8
0
100
AcDbLine
 62
7
  6
CONTINUOUS
 10
6.7907961212
 20
5.1866151028
 11
6.4707966934
 21
5.1866151028
  0
LINE
  5
295
100
AcDbEntity
  8
0
100
AcDbLine
 62
7
  6
CONTINUOUS
 10
2.8537861212
 20
5.1866151028
 11
2.5337866934
 21
5.1866151028
  0
LINE
  5
296
100
AcDbEntity
  8
0
100
AcDbLine
 62
7
  6
CONTINUOUS
 10
6.7957964073
 20
5.1916151028
 11
6.4657964073
 21
5.1916151028
  0
LINE
  5
297
100
AcDbEntity
  8
0
100
AcDbLine
 62
7
  6
CONTINUOUS
 10
2.8587864073
 20
5.1916151028
 11
2.5287864073
 21
5.1916151028
  0
LINE
  5
298
100
AcDbEntity
  8
0
100
AcDbLine
 62
7
  6
CONTINUOUS
 10
6.8507927353
 20
5.2266151028
 11
6.4108000793
 21
5.2266151028
  0
LINE
  5
299
100
AcDbEntity
  8
0
100
AcDbLine
 62
7
  6
CONTINUOUS
 10
2.9137827353
 20
5.2266151028
 11
2.4737900793
 21
5.2266151028
  0
LINE
  5
29A
100
AcDbEntity
  8
0
100
AcDbLine
 62
7
  6
CONTINUOUS
 10
6.8557964073
 20
5.2316151028
 11
6.4057964073
 21
5.2316151028
  0
LINE
  5
29B
100
AcDbEntity
  8
0
100
AcDbLine
 62
7
  6
CONTINUOUS
 10
2.9187864073
 20
5.2316151028
 11
2.4687864073
 21
5.2316151028
  0
LINE
  5
29C
100
AcDbEntity
  8
0
100
AcDbLine
 62
7
  6
CONTINUOUS
 10
6.8946589518
 20
5.2666151028
 11
6.3669338628
 21
5.2666151028
  0
LINE
  5
29D
100
AcDbEntity
  8
0
100
AcDbLine
 62
7
  6
CONTINUOUS
 10
2.9576489518
 20
5.2666151028
 11
2.4299238628
 21
5.2666151028
  0
LINE
  5
29E
100
AcDbEntity
  8
0
100
AcDbLine
 62
7
  6
CONTINUOUS
 10
6.918179187
 20
5.3152414766
 11
6.3434136276
 21
5.3152414766
  0
LINE
  5
29F
100
AcDbEntity
  8
0
100
AcDbLine
 62
7
  6
CONTINUOUS
 10
2.981169187
 20
5.3152414766
 11
2.4064036276
 21
5.3152414766
  0
LINE
  5
2A0
100
AcDbEntity
  8
ALL_FEATURES
100
AcDbLine
 62
7
  6
CONTINUOUS
 10
2.4411581695
 20
5.3663623046
 11
2.9464146451
 21
5.3663623046
  0
LINE
  5
2A1
100
AcDbEntity
  8
ALL_FEATURES
100
AcDbLine
 62
7
  6
CONTINUOUS
 10
6.3781681695
 20
5.3663623046
 11
6.8834246451
 21
5.3663623046
  0
LINE
  5
2A2
100
AcDbEntity
  8
ALL_FEATURES
100
AcDbLine
 62
7
  6
CONTINUOUS
 10
2.5001539936
 20
5.5071954432
 11
2.887418821
 21
5.5071954432
  0
LINE
  5
2A3
100
AcDbEntity
  8
ALL_FEATURES
100
AcDbLine
 62
7
  6
CONTINUOUS
 10
6.4371639936
 20
5.5071954432
 11
6.824428821
 21
5.5071954432
  0
LINE
  5
2A4
100
AcDbEntity
  8
ALL_FEATURES
100
AcDbLine
 62
7
  6
CONTINUOUS
 10
4.1985536763
 20
6.1381948583
 11
4.1384775838
 21
6.1928094878
  0
LINE
  5
2A5
100
AcDbEntity
  8
ALL_FEATURES
100
AcDbLine
 62
7
  6
CONTINUOUS
 10
2.4889953804
 20
5.7894582865
 11
2.8985774342
 21
5.7894582865
  0
LINE
  5
2A6
100
AcDbEntity
  8
ALL_FEATURES
100
AcDbLine
 62
7
  6
CONTINUOUS
 10
6.4260053804
 20
5.7894582865
 11
6.8355874342
 21
5.7894582865
  0
LINE
  5
2A7
100
AcDbEntity
  8
0
100
AcDbLine
 62
7
  6
CONTINUOUS
 10
6.023426735
 20
5.0064889629
 11
6.023426735
 21
4.7862415893
  0
LINE
  5
2A8
100
AcDbEntity
  8
0
100
AcDbLine
 62
7
  6
CONTINUOUS
 10
6.035141965
 20
4.7399694452
 11
6.035141965
 21
5.0527611071
  0
LINE
  5
2A9
100
AcDbEntity
  8
0
100
AcDbLine
 62
7
  6
CONTINUOUS
 10
6.0601029677
 20
4.7163652761
 11
6.0601029677
 21
5.0763652761
  0
LINE
  5
2AA
100
AcDbEntity
  8
0
100
AcDbLine
 62
7
  6
CONTINUOUS
 10
6.067587456
 20
4.7163652761
 11
6.067587456
 21
5.0763652761
  0
LINE
  5
2AB
100
AcDbEntity
  8
ALL_FEATURES
100
AcDbLine
 62
7
  6
CONTINUOUS
 10
6.0807964073
 20
6.2568655939
 11
6.0807964073
 21
6.3116151028
  0
LINE
  5
2AC
100
AcDbEntity
  8
0
100
AcDbLine
 62
7
  6
CONTINUOUS
 10
6.0904813178
 20
4.7313218161
 11
6.0904813178
 21
5.0614087362
  0
LINE
  5
2AD
100
AcDbEntity
  8
0
100
AcDbLine
 62
7
  6
CONTINUOUS
 10
6.1066871247
 20
5.049555042
 11
6.1066871247
 21
4.7431755103
  0
LINE
  5
2AE
100
AcDbEntity
  8
0
100
AcDbLine
 62
7
  6
CONTINUOUS
 10
4.9584669798
 20
5.887013432
 11
4.3661158349
 21
5.887013432
  0
LINE
  5
2AF
100
AcDbEntity
  8
0
100
AcDbLine
 62
7
  6
CONTINUOUS
 10
4.9622914073
 20
5.9170673226
 11
4.3622914073
 21
5.9170673226
  0
LINE
  5
2B0
100
AcDbEntity
  8
0
100
AcDbLine
 62
7
  6
CONTINUOUS
 10
4.9972914072
 20
5.9466151028
 11
4.3272914074
 21
5.9466151028
  0
LINE
  5
2B1
100
AcDbEntity
  8
ALL_FEATURES
100
AcDbLine
 62
7
  6
CONTINUOUS
 10
2.3387864073
 20
5.9566151028
 11
3.0487864073
 21
5.9566151028
  0
LINE
  5
2B2
100
AcDbEntity
  8
ALL_FEATURES
100
AcDbLine
 62
7
  6
CONTINUOUS
 10
6.2757964073
 20
5.9566151028
 11
6.9857964073
 21
5.9566151028
  0
LINE
  5
2B3
100
AcDbEntity
  8
0
100
AcDbLine
 62
7
  6
CONTINUOUS
 10
5.0272914073
 20
5.9766151028
 11
4.2972914073
 21
5.9766151028
  0
LINE
  5
2B4
100
AcDbEntity
  8
ALL_FEATURES
100
AcDbLine
 62
7
  6
CONTINUOUS
 10
2.3212864073
 20
5.9916151028
 11
3.0662864073
 21
5.9916151028
  0
LINE
  5
2B5
100
AcDbEntity
  8
ALL_FEATURES
100
AcDbLine
 62
7
  6
CONTINUOUS
 10
6.2582964073
 20
5.9916151028
 11
7.0032964073
 21
5.9916151028
  0
LINE
  5
2B6
100
AcDbEntity
  8
ALL_FEATURES
100
AcDbLine
 62
7
  6
CONTINUOUS
 10
6.2582964073
 20
5.9916151028
 11
6.2582964073
 21
6.0966151028
  0
LINE
  5
2B7
100
AcDbEntity
  8
ALL_FEATURES
100
AcDbLine
 62
7
  6
CONTINUOUS
 10
6.2757964073
 20
5.9566151028
 11
6.2757964073
 21
5.9916151028
  0
LINE
  5
2B8
100
AcDbEntity
  8
0
100
AcDbLine
 62
7
  6
CONTINUOUS
 10
6.3586158357
 20
4.7875354748
 11
6.3586158357
 21
5.0051950774
  0
LINE
  5
2B9
100
AcDbEntity
  8
0
100
AcDbLine
 62
7
  6
CONTINUOUS
 10
6.3737964073
 20
4.8063652761
 11
6.3737964073
 21
4.9863652761
  0
LINE
  5
2BA
100
AcDbEntity
  8
0
100
AcDbLine
 62
7
  6
CONTINUOUS
 10
5.0822914072
 20
6.0866151028
 11
4.2422914074
 21
6.0866151028
  0
LINE
  5
2BB
100
AcDbEntity
  8
0
100
AcDbLine
 62
7
  6
CONTINUOUS
 10
7.0398829445
 20
6.0966151028
 11
6.2217098701
 21
6.0966151028
  0
LINE
  5
2BC
100
AcDbEntity
  8
0
100
AcDbLine
 62
7
  6
CONTINUOUS
 10
3.1028729445
 20
6.0966151028
 11
2.2846998701
 21
6.0966151028
  0
LINE
  5
2BD
100
AcDbEntity
  8
0
100
AcDbLine
 62
7
  6
CONTINUOUS
 10
4.2233317196
 20
6.1002487662
 11
5.101251095
 21
6.1002487662
  0
LINE
  5
2BE
100
AcDbEntity
  8
0
100
AcDbLine
 62
7
  6
CONTINUOUS
 10
7.0485836498
 20
6.1016858301
 11
6.2130091648
 21
6.1016858301
  0
LINE
  5
2BF
100
AcDbEntity
  8
0
100
AcDbLine
 62
7
  6
CONTINUOUS
 10
3.1115736498
 20
6.1016858301
 11
2.2759991648
 21
6.1016858301
  0
LINE
  5
2C0
100
AcDbEntity
  8
0
100
AcDbLine
 62
7
  6
CONTINUOUS
 10
4.1985536764
 20
6.1381948581
 11
5.1260291382
 21
6.1381948581
  0
LINE
  5
2C1
100
AcDbEntity
  8
0
100
AcDbLine
 62
7
  6
CONTINUOUS
 10
7.1404346846
 20
6.1903434942
 11
6.12115813
 21
6.1903434942
  0
LINE
  5
2C2
100
AcDbEntity
  8
0
100
AcDbLine
 62
7
  6
CONTINUOUS
 10
3.2034246846
 20
6.1903434942
 11
2.18414813
 21
6.1903434942
  0
LINE
  5
2C3
100
AcDbEntity
  8
0
100
AcDbLine
 62
7
  6
CONTINUOUS
 10
5.1861052308
 20
6.1928094878
 11
4.1384775838
 21
6.1928094878
  0
LINE
  5
2C4
100
AcDbEntity
  8
ALL_FEATURES
100
AcDbLine
 62
7
  6
CONTINUOUS
 10
6.4057964073
 20
5.2316151028
 11
6.4057964073
 21
5.2666151028
  0
LINE
  5
2C5
100
AcDbEntity
  8
0
100
AcDbLine
 62
7
  6
CONTINUOUS
 10
6.4187964073
 20
4.8063652761
 11
6.4187964073
 21
4.9863652761
  0
LINE
  5
2C6
100
AcDbEntity
  8
0
100
AcDbLine
 62
7
  6
CONTINUOUS
 10
6.4237964073
 20
4.9858149827
 11
6.4237964073
 21
4.8069155696
  0
LINE
  5
2C7
100
AcDbEntity
  8
ALL_FEATURES
100
AcDbLine
 62
7
  6
CONTINUOUS
 10
6.4657964073
 20
5.1916151028
 11
6.4657964073
 21
5.2266151028
  0
LINE
  5
2C8
100
AcDbEntity
  8
0
100
AcDbLine
 62
7
  6
CONTINUOUS
 10
6.4907964073
 20
4.7128012861
 11
6.4907964073
 21
4.7162293011
  0
LINE
  5
2C9
100
AcDbEntity
  8
ALL_FEATURES
100
AcDbLine
 62
7
  6
CONTINUOUS
 10
6.5015464073
 20
5.1866151028
 11
6.5015464073
 21
5.0766151028
  0
LINE
  5
2CA
100
AcDbEntity
  8
0
100
AcDbLine
 62
7
  6
CONTINUOUS
 10
5.2122914073
 20
6.2520046937
 11
4.1122914073
 21
6.2520046937
  0
LINE
  5
2CB
100
AcDbEntity
  8
0
100
AcDbLine
 62
7
  6
CONTINUOUS
 10
7.1807964073
 20
6.2568655938
 11
6.0807964073
 21
6.2568655938
  0
LINE
  5
2CC
100
AcDbEntity
  8
0
100
AcDbLine
 62
7
  6
CONTINUOUS
 10
3.2437864073
 20
6.2568655938
 11
2.1437864073
 21
6.2568655938
  0
LINE
  5
2CD
100
AcDbEntity
  8
ALL_FEATURES
100
AcDbLine
 62
7
  6
CONTINUOUS
 10
2.1437864073
 20
6.3116151028
 11
3.2437864073
 21
6.3116151028
  0
LINE
  5
2CE
100
AcDbEntity
  8
ALL_FEATURES
100
AcDbLine
 62
7
  6
CONTINUOUS
 10
4.1122914073
 20
6.3116151028
 11
5.2122914073
 21
6.3116151028
  0
LINE
  5
2CF
100
AcDbEntity
  8
ALL_FEATURES
100
AcDbLine
 62
7
  6
CONTINUOUS
 10
6.0807964073
 20
6.3116151028
 11
7.1807964073
 21
6.3116151028
  0
LINE
  5
2D0
100
AcDbEntity
  8
ALL_FEATURES
100
AcDbLine
 62
7
  6
CONTINUOUS
 10
6.7600464073
 20
5.1866151028
 11
6.7600464073
 21
5.0766151028
  0
LINE
  5
2D1
100
AcDbEntity
  8
0
100
AcDbLine
 62
7
  6
CONTINUOUS
 10
6.7707964073
 20
4.7128012861
 11
6.7707964073
 21
4.7162293011
  0
LINE
  5
2D2
100
AcDbEntity
  8
ALL_FEATURES
100
AcDbLine
 62
7
  6
CONTINUOUS
 10
6.7957964073
 20
5.1916151028
 11
6.7957964073
 21
5.2266151028
  0
LINE
  5
2D3
100
AcDbEntity
  8
0
100
AcDbLine
 62
7
  6
CONTINUOUS
 10
6.8377964073
 20
4.8069155696
 11
6.8377964073
 21
4.9858149827
  0
LINE
  5
2D4
100
AcDbEntity
  8
0
100
AcDbLine
 62
7
  6
CONTINUOUS
 10
6.8427964073
 20
4.9863652761
 11
6.8427964073
 21
4.8063652761
  0
LINE
  5
2D5
100
AcDbEntity
  8
ALL_FEATURES
100
AcDbLine
 62
7
  6
CONTINUOUS
 10
6.8557964073
 20
5.2316151028
 11
6.8557964073
 21
5.2666151028
  0
LINE
  5
2D6
100
AcDbEntity
  8
0
100
AcDbLine
 62
7
  6
CONTINUOUS
 10
6.8877964073
 20
4.9863652761
 11
6.8877964073
 21
4.8063652761
  0
LINE
  5
2D7
100
AcDbEntity
  8
0
100
AcDbLine
 62
7
  6
CONTINUOUS
 10
6.902976979
 20
5.0051950774
 11
6.902976979
 21
4.7875354748
  0
LINE
  5
2D8
100
AcDbEntity
  8
ALL_FEATURES
100
AcDbLine
 62
7
  6
CONTINUOUS
 10
6.9857964073
 20
5.9566151028
 11
6.9857964073
 21
5.9916151028
  0
LINE
  5
2D9
100
AcDbEntity
  8
ALL_FEATURES
100
AcDbLine
 62
7
  6
CONTINUOUS
 10
7.0032964073
 20
5.9916151028
 11
7.0032964073
 21
6.0966151028
  0
LINE
  5
2DA
100
AcDbEntity
  8
0
100
AcDbLine
 62
7
  6
CONTINUOUS
 10
7.1549056899
 20
4.7431755103
 11
7.1549056899
 21
5.049555042
  0
LINE
  5
2DB
100
AcDbEntity
  8
0
100
AcDbLine
 62
7
  6
CONTINUOUS
 10
7.1711114968
 20
5.0614087362
 11
7.1711114968
 21
4.7313218161
  0
LINE
  5
2DC
100
AcDbEntity
  8
ALL_FEATURES
100
AcDbLine
 62
7
  6
CONTINUOUS
 10
7.1807964073
 20
6.2568655939
 11
7.1807964073
 21
6.3116151028
  0
LINE
  5
2DD
100
AcDbEntity
  8
0
100
AcDbLine
 62
7
  6
CONTINUOUS
 10
7.1940053587
 20
5.0763652761
 11
7.1940053587
 21
4.7163652761
  0
LINE
  5
2DE
100
AcDbEntity
  8
0
100
AcDbLine
 62
7
  6
CONTINUOUS
 10
7.2014898469
 20
5.0763652761
 11
7.2014898469
 21
4.7163652761
  0
LINE
  5
2DF
100
AcDbEntity
  8
0
100
AcDbLine
 62
7
  6
CONTINUOUS
 10
7.2264508496
 20
5.0527611071
 11
7.2264508496
 21
4.7399694452
  0
LINE
  5
2E0
100
AcDbEntity
  8
0
100
AcDbLine
 62
7
  6
CONTINUOUS
 10
7.2381660796
 20
4.7862415893
 11
7.2381660796
 21
5.0064889629
  0
ARC
  5
2E1
100
AcDbEntity
  8
ALL_FEATURES
100
AcDbCircle
 62
7
  6
CONTINUOUS
 10
-2.1548319833
 20
4.0446721737
 40
6.5921207345
100
AcDbArc
 50
359.3326033286
 51
359.7090400684
  0
ARC
  5
2E2
100
AcDbEntity
  8
ALL_FEATURES
100
AcDbCircle
 62
7
  6
CONTINUOUS
 10
-1.8326895119
 20
4.0408789845
 40
6.2699557336
100
AcDbArc
 50
358.8670996285
 51
359.2612778127
  0
ARC
  5
2E3
100
AcDbEntity
  8
ALL_FEATURES
100
AcDbCircle
 62
7
  6
CONTINUOUS
 10
-1.5754331186
 20
4.0359757675
 40
6.0126526865
100
AcDbArc
 50
358.5478831006
 51
358.8653453035
  0
ARC
  5
2E4
100
AcDbEntity
  8
ALL_FEATURES
100
AcDbCircle
 62
7
  6
CONTINUOUS
 10
-1.38356804
 20
4.0312327918
 40
5.820729032
100
AcDbArc
 50
358.3707373423
 51
358.5466950222
  0
ARC
  5
2E5
100
AcDbEntity
  8
ALL_FEATURES
100
AcDbCircle
 62
7
  6
CONTINUOUS
 10
-1.2021538861
 20
4.026015429
 40
5.6392398788
100
AcDbArc
 50
357.9488090991
 51
358.3713190776
  0
ARC
  5
2E6
100
AcDbEntity
  8
ALL_FEATURES
100
AcDbCircle
 62
7
  6
CONTINUOUS
 10
1.7350088633
 20
3.7984188631
 40
2.6919646054
100
AcDbArc
 50
352.0308859606
 51
352.2140038158
  0
ARC
  5
2E7
100
AcDbEntity
  8
ALL_FEATURES
100
AcDbCircle
 62
7
  6
CONTINUOUS
 10
1.879710548
 20
3.7780790489
 40
2.5458404168
100
AcDbArc
 50
350.8555688532
 51
352.0327326898
  0
ARC
  5
2E8
100
AcDbEntity
  8
ALL_FEATURES
100
AcDbCircle
 62
7
  6
CONTINUOUS
 10
1.9688531514
 20
3.764039418
 40
2.4555995275
100
AcDbArc
 50
350.5045250003
 51
350.8484366134
  0
ARC
  5
2E9
100
AcDbEntity
  8
ALL_FEATURES
100
AcDbCircle
 62
7
  6
CONTINUOUS
 10
2.5191068495
 20
3.6185795002
 40
1.8860274805
100
AcDbArc
 50
341.5322159063
 51
342.2455101403
  0
ARC
  5
2EA
100
AcDbEntity
  8
0
100
AcDbCircle
 62
7
  6
CONTINUOUS
 10
1.9729865248
 20
3.1949559457
 40
1.865
100
AcDbArc
 50
76.0811997274
 51
83.9460923514
  0
ARC
  5
2EB
100
AcDbEntity
  8
0
100
AcDbCircle
 62
7
  6
CONTINUOUS
 10
3.4145862898
 20
3.1949559457
 40
1.865
100
AcDbArc
 50
96.0539076486
 51
103.9188002726
  0
ARC
  5
2EC
100
AcDbEntity
  8
ALL_FEATURES
100
AcDbCircle
 62
7
  6
CONTINUOUS
 10
2.5944750304
 20
3.5934995008
 40
1.8065959922
100
AcDbArc
 50
340.8788951173
 51
341.5294866678
  0
ARC
  5
2ED
100
AcDbEntity
  8
0
100
AcDbCircle
 62
7
  6
CONTINUOUS
 10
1.9733269515
 20
4.7329902901
 40
0.125
100
AcDbArc
 50
3.2006734286
 51
25.2146348188
  0
ARC
  5
2EE
100
AcDbEntity
  8
0
100
AcDbCircle
 62
7
  6
CONTINUOUS
 10
3.4142458631
 20
4.7329902901
 40
0.125
100
AcDbArc
 50
154.7853651812
 51
176.7993265714
  0
ARC
  5
2EF
100
AcDbEntity
  8
0
100
AcDbCircle
 62
7
  6
CONTINUOUS
 10
4.2764509294
 20
4.8041071796
 40
0.125
100
AcDbArc
 50
306.5841593593
 51
348.9112137847
  0
ARC
  5
2F0
100
AcDbEntity
  8
ALL_FEATURES
100
AcDbCircle
 62
7
  6
CONTINUOUS
 10
4.4629425604
 20
3.4252839492
 40
0.0619655825
100
AcDbArc
 50
172.0455967505
 51
180.0712720348
  0
ARC
  5
2F1
100
AcDbEntity
  8
0
100
AcDbCircle
 62
7
  6
CONTINUOUS
 10
2.7937864073
 20
4.7128012861
 40
0.04
100
AcDbArc
 50
288.819063369
 51
360.0
  0
ARC
  5
2F2
100
AcDbEntity
  8
0
100
AcDbCircle
 62
7
  6
CONTINUOUS
 10
2.5937864073
 20
4.7128012861
 40
0.04
100
AcDbArc
 50
180.0
 51
251.180936631
  0
ARC
  5
2F3
100
AcDbEntity
  8
0
100
AcDbCircle
 62
7
  6
CONTINUOUS
 10
4.3747914073
 20
4.6716151028
 40
0.04
100
AcDbArc
 50
126.5841593593
 51
256.387550443
  0
ARC
  5
2F4
100
AcDbEntity
  8
0
100
AcDbCircle
 62
7
  6
CONTINUOUS
 10
4.4272914073
 20
4.6116151028
 40
0.03
100
AcDbArc
 50
216.8698976458
 51
270.0
  0
ARC
  5
2F5
100
AcDbEntity
  8
0
100
AcDbCircle
 62
7
  6
CONTINUOUS
 10
4.3583166762
 20
4.6035814108
 40
0.03
100
AcDbArc
 50
36.8698976458
 51
76.387550443
  0
ARC
  5
2F6
100
AcDbEntity
  8
0
100
AcDbCircle
 62
7
  6
CONTINUOUS
 10
2.1230929677
 20
4.7413652761
 40
0.025
100
AcDbArc
 50
183.2006734286
 51
270.0
  0
ARC
  5
2F7
100
AcDbEntity
  8
0
100
AcDbCircle
 62
7
  6
CONTINUOUS
 10
2.130577456
 20
4.7413652761
 40
0.025
100
AcDbArc
 50
270.0
 51
336.3131006371
  0
ARC
  5
2F8
100
AcDbEntity
  8
0
100
AcDbCircle
 62
7
  6
CONTINUOUS
 10
3.2569953587
 20
4.7413652761
 40
0.025
100
AcDbArc
 50
203.6868993629
 51
270.0
  0
ARC
  5
2F9
100
AcDbEntity
  8
0
100
AcDbCircle
 62
7
  6
CONTINUOUS
 10
3.2644798469
 20
4.7413652761
 40
0.025
100
AcDbArc
 50
270.0
 51
356.7993265714
  0
ARC
  5
2FA
100
AcDbEntity
  8
0
100
AcDbCircle
 62
7
  6
CONTINUOUS
 10
2.1717864073
 20
4.7232870481
 40
0.02
100
AcDbArc
 50
96.0539076486
 51
156.3131006371
  0
ARC
  5
2FB
100
AcDbEntity
  8
0
100
AcDbCircle
 62
7
  6
CONTINUOUS
 10
2.4167949049
 20
4.806948227
 40
0.02
100
AcDbArc
 50
283.9188002729
 51
358.3297322856
  0
ARC
  5
2FC
100
AcDbEntity
  8
0
100
AcDbCircle
 62
7
  6
CONTINUOUS
 10
3.2157864073
 20
4.7232870481
 40
0.02
100
AcDbArc
 50
23.6868993629
 51
83.9460923514
  0
ARC
  5
2FD
100
AcDbEntity
  8
0
100
AcDbCircle
 62
7
  6
CONTINUOUS
 10
2.9707779097
 20
4.806948227
 40
0.02
100
AcDbArc
 50
181.6702677144
 51
256.0811997271
  0
ARC
  5
2FE
100
AcDbEntity
  8
0
100
AcDbCircle
 62
7
  6
CONTINUOUS
 10
2.8237864073
 20
4.7162293011
 40
0.01
100
AcDbArc
 50
0.0
 51
90.0
  0
ARC
  5
2FF
100
AcDbEntity
  8
0
100
AcDbCircle
 62
7
  6
CONTINUOUS
 10
2.5637864073
 20
4.7162293011
 40
0.01
100
AcDbArc
 50
90.0
 51
180.0
  0
ARC
  5
300
100
AcDbEntity
  8
0
100
AcDbCircle
 62
7
  6
CONTINUOUS
 10
2.4817864073
 20
4.8113652761
 40
0.005
100
AcDbArc
 50
270.0
 51
360.0
  0
ARC
  5
301
100
AcDbEntity
  8
0
100
AcDbCircle
 62
7
  6
CONTINUOUS
 10
2.9057864073
 20
4.8113652761
 40
0.005
100
AcDbArc
 50
180.0
 51
270.0
  0
ARC
  5
302
100
AcDbEntity
  8
0
100
AcDbCircle
 62
7
  6
CONTINUOUS
 10
2.5476687843
 20
4.7312293011
 40
0.005
100
AcDbArc
 50
228.4965643595
 51
270.0
  0
ARC
  5
303
100
AcDbEntity
  8
0
100
AcDbCircle
 62
7
  6
CONTINUOUS
 10
2.8399040303
 20
4.7312293011
 40
0.005
100
AcDbArc
 50
270.0
 51
311.5034356405
  0
ARC
  5
304
100
AcDbEntity
  8
0
100
AcDbCircle
 62
7
  6
CONTINUOUS
 10
1.9457914073
 20
5.260890708
 40
2.5
100
AcDbArc
 50
348.9112137847
 51
14.5040885819
  0
ARC
  5
305
100
AcDbEntity
  8
0
100
AcDbCircle
 62
7
  6
CONTINUOUS
 10
2.3202864073
 20
4.8963652761
 40
0.2585
100
AcDbArc
 50
154.7853651812
 51
205.2146348188
  0
ARC
  5
306
100
AcDbEntity
  8
0
100
AcDbCircle
 62
7
  6
CONTINUOUS
 10
1.9733269515
 20
5.0597402622
 40
0.125
100
AcDbArc
 50
334.7853651812
 51
356.7993265714
  0
ARC
  5
307
100
AcDbEntity
  8
0
100
AcDbCircle
 62
7
  6
CONTINUOUS
 10
2.1230929677
 20
5.0513652761
 40
0.025
100
AcDbArc
 50
90.0
 51
176.7993265714
  0
ARC
  5
308
100
AcDbEntity
  8
0
100
AcDbCircle
 62
7
  6
CONTINUOUS
 10
2.130577456
 20
5.0513652761
 40
0.025
100
AcDbArc
 50
23.6868993629
 51
90.0
  0
ARC
  5
309
100
AcDbEntity
  8
0
100
AcDbCircle
 62
7
  6
CONTINUOUS
 10
2.1717864073
 20
5.0694435042
 40
0.02
100
AcDbArc
 50
203.6868993629
 51
263.9460923514
  0
ARC
  5
30A
100
AcDbEntity
  8
0
100
AcDbCircle
 62
7
  6
CONTINUOUS
 10
2.4167949049
 20
4.9857823253
 40
0.02
100
AcDbArc
 50
1.6702677146
 51
76.0811997271
  0
ARC
  5
30B
100
AcDbEntity
  8
0
100
AcDbCircle
 62
7
  6
CONTINUOUS
 10
2.4817864073
 20
4.9813652761
 40
0.005
100
AcDbArc
 50
0.0
 51
90.0
  0
ARC
  5
30C
100
AcDbEntity
  8
0
100
AcDbCircle
 62
7
  6
CONTINUOUS
 10
2.5337864073
 20
5.1916151028
 40
0.005
100
AcDbArc
 50
180.0
 51
270.0
  0
ARC
  5
30D
100
AcDbEntity
  8
0
100
AcDbCircle
 62
7
  6
CONTINUOUS
 10
2.4737864073
 20
5.2316151028
 40
0.005
100
AcDbArc
 50
180.0
 51
270.0
  0
ARC
  5
30E
100
AcDbEntity
  8
ALL_FEATURES
100
AcDbCircle
 62
7
  6
CONTINUOUS
 10
1.9217491421
 20
5.6667191961
 40
0.6
100
AcDbArc
 50
329.9606392759
 51
344.581171616
  0
ARC
  5
30F
100
AcDbEntity
  8
ALL_FEATURES
100
AcDbCircle
 62
7
  6
CONTINUOUS
 10
2.0518902337
 20
5.6308263517
 40
0.465
100
AcDbArc
 50
344.581171616
 51
19.946584759
  0
ARC
  5
310
100
AcDbEntity
  8
ALL_FEATURES
100
AcDbCircle
 62
7
  6
CONTINUOUS
 10
2.0732434418
 20
5.5791151028
 40
0.425
100
AcDbArc
 50
321.6196390045
 51
329.9606392759
  0
ARC
  5
311
100
AcDbEntity
  8
ALL_FEATURES
100
AcDbCircle
 62
7
  6
CONTINUOUS
 10
2.2069920599
 20
5.6871151028
 40
0.3
100
AcDbArc
 50
19.946584759
 51
63.9398488367
  0
ARC
  5
312
100
AcDbEntity
  8
0
100
AcDbCircle
 62
7
  6
CONTINUOUS
 10
2.429920817
 20
5.2966151028
 40
0.03
100
AcDbArc
 50
141.6196390045
 51
270.0
  0
ARC
  5
313
100
AcDbEntity
  8
0
100
AcDbCircle
 62
7
  6
CONTINUOUS
 10
2.6937864073
 20
5.0062293011
 40
0.35
100
AcDbArc
 50
251.180936631
 51
288.819063369
  0
ARC
  5
314
100
AcDbEntity
  8
0
100
AcDbCircle
 62
7
  6
CONTINUOUS
 10
3.0672864073
 20
4.8963652761
 40
0.2585
100
AcDbArc
 50
334.7853651812
 51
25.2146348188
  0
ARC
  5
315
100
AcDbEntity
  8
0
100
AcDbCircle
 62
7
  6
CONTINUOUS
 10
2.6937864073
 20
4.8963652761
 40
0.2255
100
AcDbArc
 50
203.370340497
 51
228.4965643543
  0
ARC
  5
316
100
AcDbEntity
  8
0
100
AcDbCircle
 62
7
  6
CONTINUOUS
 10
2.6937864073
 20
4.8963652761
 40
0.2255
100
AcDbArc
 50
126.933444909
 51
156.629659503
  0
ARC
  5
317
100
AcDbEntity
  8
0
100
AcDbCircle
 62
7
  6
CONTINUOUS
 10
2.6937864073
 20
4.8963652761
 40
0.2255
100
AcDbArc
 50
23.370340497
 51
53.066555091
  0
ARC
  5
318
100
AcDbEntity
  8
0
100
AcDbCircle
 62
7
  6
CONTINUOUS
 10
2.6937864073
 20
4.8963652761
 40
0.2255
100
AcDbArc
 50
311.5034356457
 51
336.629659503
  0
CIRCLE
  5
319
100
AcDbEntity
  8
0
100
AcDbCircle
 62
7
  6
CONTINUOUS
 10
2.6937864073
 20
4.8963652761
 40
0.18
  0
CIRCLE
  5
31A
100
AcDbEntity
  8
0
100
AcDbCircle
 62
7
  6
CONTINUOUS
 10
2.6937864073
 20
4.8963652761
 40
0.1563958287
  0
CIRCLE
  5
31B
100
AcDbEntity
  8
0
100
AcDbCircle
 62
7
  6
CONTINUOUS
 10
2.6937864073
 20
4.8963652761
 40
0.1101236858
  0
ARC
  5
31C
100
AcDbEntity
  8
0
100
AcDbCircle
 62
7
  6
CONTINUOUS
 10
2.9707779097
 20
4.9857823253
 40
0.02
100
AcDbArc
 50
103.9188002729
 51
178.3297322854
  0
ARC
  5
31D
100
AcDbEntity
  8
0
100
AcDbCircle
 62
7
  6
CONTINUOUS
 10
2.9057864073
 20
4.9813652761
 40
0.005
100
AcDbArc
 50
90.0
 51
180.0
  0
ARC
  5
31E
100
AcDbEntity
  8
0
100
AcDbCircle
 62
7
  6
CONTINUOUS
 10
2.8537864073
 20
5.1916151028
 40
0.005
100
AcDbArc
 50
270.0
 51
360.0
  0
ARC
  5
31F
100
AcDbEntity
  8
0
100
AcDbCircle
 62
7
  6
CONTINUOUS
 10
2.9137864073
 20
5.2316151028
 40
0.005
100
AcDbArc
 50
270.0
 51
360.0
  0
ARC
  5
320
100
AcDbEntity
  8
ALL_FEATURES
100
AcDbCircle
 62
7
  6
CONTINUOUS
 10
3.1805807547
 20
5.6871151028
 40
0.3
100
AcDbArc
 50
116.0601511633
 51
160.053415241
  0
ARC
  5
321
100
AcDbEntity
  8
0
100
AcDbCircle
 62
7
  6
CONTINUOUS
 10
2.9576519976
 20
5.2966151028
 40
0.03
100
AcDbArc
 50
270.0
 51
38.3803609955
  0
ARC
  5
322
100
AcDbEntity
  8
0
100
AcDbCircle
 62
7
  6
CONTINUOUS
 10
1.9729865248
 20
6.5977746065
 40
1.865
100
AcDbArc
 50
276.0539076486
 51
283.9188002726
  0
ARC
  5
323
100
AcDbEntity
  8
ALL_FEATURES
100
AcDbCircle
 62
7
  6
CONTINUOUS
 10
2.0802332976
 20
5.9907771954
 40
0.225
100
AcDbArc
 50
29.533164499
 51
62.4938578389
  0
ARC
  5
324
100
AcDbEntity
  8
0
100
AcDbCircle
 62
7
  6
CONTINUOUS
 10
2.2187864073
 20
6.2568655939
 40
0.075
100
AcDbArc
 50
180.0
 51
242.4938578389
  0
ARC
  5
325
100
AcDbEntity
  8
0
100
AcDbCircle
 62
7
  6
CONTINUOUS
 10
3.1687864073
 20
6.2568655939
 40
0.075
100
AcDbArc
 50
297.5061421611
 51
360.0
  0
ARC
  5
326
100
AcDbEntity
  8
0
100
AcDbCircle
 62
7
  6
CONTINUOUS
 10
2.28469987
 20
6.1066151028
 40
0.01
100
AcDbArc
 50
209.533164499
 51
270.0
  0
ARC
  5
327
100
AcDbEntity
  8
0
100
AcDbCircle
 62
7
  6
CONTINUOUS
 10
3.1028729446
 20
6.1066151028
 40
0.01
100
AcDbArc
 50
270.0
 51
330.466835501
  0
ARC
  5
328
100
AcDbEntity
  8
ALL_FEATURES
100
AcDbCircle
 62
7
  6
CONTINUOUS
 10
3.4658236725
 20
5.6667191961
 40
0.6
100
AcDbArc
 50
195.418828384
 51
210.0393607241
  0
ARC
  5
329
100
AcDbEntity
  8
ALL_FEATURES
100
AcDbCircle
 62
7
  6
CONTINUOUS
 10
3.3356825809
 20
5.6308263517
 40
0.465
100
AcDbArc
 50
160.053415241
 51
195.418828384
  0
ARC
  5
32A
100
AcDbEntity
  8
ALL_FEATURES
100
AcDbCircle
 62
7
  6
CONTINUOUS
 10
3.3143293728
 20
5.5791151028
 40
0.425
100
AcDbArc
 50
210.0393607241
 51
218.3803609955
  0
ARC
  5
32B
100
AcDbEntity
  8
0
100
AcDbCircle
 62
7
  6
CONTINUOUS
 10
3.4142458631
 20
5.0597402622
 40
0.125
100
AcDbArc
 50
183.2006734286
 51
205.2146348188
  0
ARC
  5
32C
100
AcDbEntity
  8
0
100
AcDbCircle
 62
7
  6
CONTINUOUS
 10
3.2569953587
 20
5.0513652761
 40
0.025
100
AcDbArc
 50
90.0
 51
156.3131006371
  0
ARC
  5
32D
100
AcDbEntity
  8
0
100
AcDbCircle
 62
7
  6
CONTINUOUS
 10
3.2644798469
 20
5.0513652761
 40
0.025
100
AcDbArc
 50
3.2006734286
 51
90.0
  0
ARC
  5
32E
100
AcDbEntity
  8
0
100
AcDbCircle
 62
7
  6
CONTINUOUS
 10
3.2157864073
 20
5.0694435042
 40
0.02
100
AcDbArc
 50
276.0539076486
 51
336.3131006371
  0
ARC
  5
32F
100
AcDbEntity
  8
0
100
AcDbCircle
 62
7
  6
CONTINUOUS
 10
3.4145862898
 20
6.5977746065
 40
1.865
100
AcDbArc
 50
256.0811997274
 51
263.9460923514
  0
ARC
  5
330
100
AcDbEntity
  8
ALL_FEATURES
100
AcDbCircle
 62
7
  6
CONTINUOUS
 10
3.307339517
 20
5.9907771954
 40
0.225
100
AcDbArc
 50
117.5061421611
 51
150.466835501
  0
ARC
  5
331
100
AcDbEntity
  8
0
100
AcDbCircle
 62
7
  6
CONTINUOUS
 10
4.4822914073
 20
5.917067323
 40
0.12
100
AcDbArc
 50
180.0
 51
194.5040885819
  0
ARC
  5
332
100
AcDbEntity
  8
0
100
AcDbCircle
 62
7
  6
CONTINUOUS
 10
4.1380131248
 20
6.0716002517
 40
0.09
100
AcDbArc
 50
18.5611642948
 51
47.7263109939
  0
ARC
  5
333
100
AcDbEntity
  8
0
100
AcDbCircle
 62
7
  6
CONTINUOUS
 10
4.1922914073
 20
6.2520046937
 40
0.08
100
AcDbArc
 50
180.0
 51
227.7263109939
  0
ARC
  5
334
100
AcDbEntity
  8
0
100
AcDbCircle
 62
7
  6
CONTINUOUS
 10
4.3272914073
 20
5.9766151028
 40
0.03
100
AcDbArc
 50
180.0
 51
270.0
  0
ARC
  5
335
100
AcDbEntity
  8
0
100
AcDbCircle
 62
7
  6
CONTINUOUS
 10
4.2422914073
 20
6.1066151028
 40
0.02
100
AcDbArc
 50
198.5611642948
 51
270.0
  0
ARC
  5
336
100
AcDbEntity
  8
ALL_FEATURES
100
AcDbCircle
 62
7
  6
CONTINUOUS
 10
11.479414798
 20
4.0446721737
 40
6.5921207346
100
AcDbArc
 50
180.2909599316
 51
180.6673966714
  0
ARC
  5
337
100
AcDbEntity
  8
ALL_FEATURES
100
AcDbCircle
 62
7
  6
CONTINUOUS
 10
11.1572723265
 20
4.0408789845
 40
6.2699557336
100
AcDbArc
 50
180.7387221873
 51
181.1329003715
  0
ARC
  5
338
100
AcDbEntity
  8
ALL_FEATURES
100
AcDbCircle
 62
7
  6
CONTINUOUS
 10
10.9000159329
 20
4.0359757675
 40
6.0126526862
100
AcDbArc
 50
181.1346546965
 51
181.4521168994
  0
ARC
  5
339
100
AcDbEntity
  8
ALL_FEATURES
100
AcDbCircle
 62
7
  6
CONTINUOUS
 10
10.7081508544
 20
4.0312327918
 40
5.8207290318
100
AcDbArc
 50
181.4533049778
 51
181.6292626577
  0
ARC
  5
33A
100
AcDbEntity
  8
ALL_FEATURES
100
AcDbCircle
 62
7
  6
CONTINUOUS
 10
10.5267367007
 20
4.026015429
 40
5.6392398788
100
AcDbArc
 50
181.6286809224
 51
182.0511909009
  0
ARC
  5
33B
100
AcDbEntity
  8
ALL_FEATURES
100
AcDbCircle
 62
7
  6
CONTINUOUS
 10
7.5895739512
 20
3.7984188631
 40
2.6919646052
100
AcDbArc
 50
187.7859961842
 51
187.9691140394
  0
ARC
  5
33C
100
AcDbEntity
  8
ALL_FEATURES
100
AcDbCircle
 62
7
  6
CONTINUOUS
 10
7.4448722666
 20
3.7780790489
 40
2.5458404168
100
AcDbArc
 50
187.9672673102
 51
189.1444311468
  0
ARC
  5
33D
100
AcDbEntity
  8
ALL_FEATURES
100
AcDbCircle
 62
7
  6
CONTINUOUS
 10
7.355729663
 20
3.764039418
 40
2.4555995273
100
AcDbArc
 50
189.1515633866
 51
189.4954749997
  0
ARC
  5
33E
100
AcDbEntity
  8
ALL_FEATURES
100
AcDbCircle
 62
7
  6
CONTINUOUS
 10
6.8054759652
 20
3.6185795003
 40
1.8860274806
100
AcDbArc
 50
197.7544898597
 51
198.4677840937
  0
ARC
  5
33F
100
AcDbEntity
  8
0
100
AcDbCircle
 62
7
  6
CONTINUOUS
 10
7.3515962898
 20
3.1949559457
 40
1.865
100
AcDbArc
 50
96.0539076486
 51
103.9188002726
  0
ARC
  5
340
100
AcDbEntity
  8
0
100
AcDbCircle
 62
7
  6
CONTINUOUS
 10
5.9099965248
 20
3.1949559457
 40
1.865
100
AcDbArc
 50
76.0811997274
 51
83.9460923514
  0
ARC
  5
341
100
AcDbEntity
  8
ALL_FEATURES
100
AcDbCircle
 62
7
  6
CONTINUOUS
 10
6.7301077841
 20
3.5934995007
 40
1.8065959922
100
AcDbArc
 50
198.4705133322
 51
199.1211048827
  0
ARC
  5
342
100
AcDbEntity
  8
0
100
AcDbCircle
 62
7
  6
CONTINUOUS
 10
7.3512558631
 20
4.7329902901
 40
0.125
100
AcDbArc
 50
154.7853651812
 51
176.7993265714
  0
ARC
  5
343
100
AcDbEntity
  8
0
100
AcDbCircle
 62
7
  6
CONTINUOUS
 10
5.9103369515
 20
4.7329902901
 40
0.125
100
AcDbArc
 50
3.2006734286
 51
25.2146348188
  0
ARC
  5
344
100
AcDbEntity
  8
0
100
AcDbCircle
 62
7
  6
CONTINUOUS
 10
5.0481318852
 20
4.8041071796
 40
0.125
100
AcDbArc
 50
191.0887862153
 51
233.4158406407
  0
ARC
  5
345
100
AcDbEntity
  8
ALL_FEATURES
100
AcDbCircle
 62
7
  6
CONTINUOUS
 10
4.8616402542
 20
3.4252839492
 40
0.0619655825
100
AcDbArc
 50
359.9287279652
 51
7.9544032495
  0
ARC
  5
346
100
AcDbEntity
  8
0
100
AcDbCircle
 62
7
  6
CONTINUOUS
 10
6.7307964073
 20
4.7128012861
 40
0.04
100
AcDbArc
 50
288.819063369
 51
360.0
  0
ARC
  5
347
100
AcDbEntity
  8
0
100
AcDbCircle
 62
7
  6
CONTINUOUS
 10
6.5307964073
 20
4.7128012861
 40
0.04
100
AcDbArc
 50
180.0
 51
251.180936631
  0
ARC
  5
348
100
AcDbEntity
  8
0
100
AcDbCircle
 62
7
  6
CONTINUOUS
 10
4.9497914073
 20
4.6716151028
 40
0.04
100
AcDbArc
 50
283.612449557
 51
53.4158406407
  0
ARC
  5
349
100
AcDbEntity
  8
0
100
AcDbCircle
 62
7
  6
CONTINUOUS
 10
4.8972914073
 20
4.6116151028
 40
0.03
100
AcDbArc
 50
270.0
 51
323.1301023542
  0
ARC
  5
34A
100
AcDbEntity
  8
0
100
AcDbCircle
 62
7
  6
CONTINUOUS
 10
4.9662661384
 20
4.6035814108
 40
0.03
100
AcDbArc
 50
103.612449557
 51
143.1301023542
  0
ARC
  5
34B
100
AcDbEntity
  8
0
100
AcDbCircle
 62
7
  6
CONTINUOUS
 10
7.1940053587
 20
4.7413652761
 40
0.025
100
AcDbArc
 50
203.6868993629
 51
270.0
  0
ARC
  5
34C
100
AcDbEntity
  8
0
100
AcDbCircle
 62
7
  6
CONTINUOUS
 10
7.2014898469
 20
4.7413652761
 40
0.025
100
AcDbArc
 50
270.0
 51
356.7993265714
  0
ARC
  5
34D
100
AcDbEntity
  8
0
100
AcDbCircle
 62
7
  6
CONTINUOUS
 10
6.0601029677
 20
4.7413652761
 40
0.025
100
AcDbArc
 50
183.2006734286
 51
270.0
  0
ARC
  5
34E
100
AcDbEntity
  8
0
100
AcDbCircle
 62
7
  6
CONTINUOUS
 10
6.067587456
 20
4.7413652761
 40
0.025
100
AcDbArc
 50
270.0
 51
336.3131006371
  0
ARC
  5
34F
100
AcDbEntity
  8
0
100
AcDbCircle
 62
7
  6
CONTINUOUS
 10
7.1527964073
 20
4.7232870481
 40
0.02
100
AcDbArc
 50
23.6868993629
 51
83.9460923514
  0
ARC
  5
350
100
AcDbEntity
  8
0
100
AcDbCircle
 62
7
  6
CONTINUOUS
 10
6.9077879097
 20
4.806948227
 40
0.02
100
AcDbArc
 50
181.6702677144
 51
256.0811997271
  0
ARC
  5
351
100
AcDbEntity
  8
0
100
AcDbCircle
 62
7
  6
CONTINUOUS
 10
6.1087964073
 20
4.7232870481
 40
0.02
100
AcDbArc
 50
96.0539076486
 51
156.3131006371
  0
ARC
  5
352
100
AcDbEntity
  8
0
100
AcDbCircle
 62
7
  6
CONTINUOUS
 10
6.3538049049
 20
4.806948227
 40
0.02
100
AcDbArc
 50
283.9188002729
 51
358.3297322856
  0
ARC
  5
353
100
AcDbEntity
  8
0
100
AcDbCircle
 62
7
  6
CONTINUOUS
 10
6.7607964073
 20
4.7162293011
 40
0.01
100
AcDbArc
 50
0.0
 51
90.0
  0
ARC
  5
354
100
AcDbEntity
  8
0
100
AcDbCircle
 62
7
  6
CONTINUOUS
 10
6.5007964073
 20
4.7162293011
 40
0.01
100
AcDbArc
 50
90.0
 51
180.0
  0
ARC
  5
355
100
AcDbEntity
  8
0
100
AcDbCircle
 62
7
  6
CONTINUOUS
 10
6.8427964073
 20
4.8113652761
 40
0.005
100
AcDbArc
 50
180.0
 51
270.0
  0
ARC
  5
356
100
AcDbEntity
  8
0
100
AcDbCircle
 62
7
  6
CONTINUOUS
 10
6.4187964073
 20
4.8113652761
 40
0.005
100
AcDbArc
 50
270.0
 51
360.0
  0
ARC
  5
357
100
AcDbEntity
  8
0
100
AcDbCircle
 62
7
  6
CONTINUOUS
 10
6.4846787843
 20
4.7312293011
 40
0.005
100
AcDbArc
 50
228.4965643595
 51
270.0
  0
ARC
  5
358
100
AcDbEntity
  8
0
100
AcDbCircle
 62
7
  6
CONTINUOUS
 10
6.7769140303
 20
4.7312293011
 40
0.005
100
AcDbArc
 50
270.0
 51
311.5034356405
  0
ARC
  5
359
100
AcDbEntity
  8
ALL_FEATURES
100
AcDbCircle
 62
7
  6
CONTINUOUS
 10
5.8587591421
 20
5.6667191961
 40
0.6
100
AcDbArc
 50
329.9606392759
 51
344.581171616
  0
ARC
  5
35A
100
AcDbEntity
  8
ALL_FEATURES
100
AcDbCircle
 62
7
  6
CONTINUOUS
 10
5.9889002337
 20
5.6308263517
 40
0.465
100
AcDbArc
 50
344.581171616
 51
19.946584759
  0
ARC
  5
35B
100
AcDbEntity
  8
ALL_FEATURES
100
AcDbCircle
 62
7
  6
CONTINUOUS
 10
6.0102534418
 20
5.5791151028
 40
0.425
100
AcDbArc
 50
321.6196390045
 51
329.9606392759
  0
ARC
  5
35C
100
AcDbEntity
  8
0
100
AcDbCircle
 62
7
  6
CONTINUOUS
 10
5.9103369515
 20
5.0597402622
 40
0.125
100
AcDbArc
 50
334.7853651812
 51
356.7993265714
  0
ARC
  5
35D
100
AcDbEntity
  8
0
100
AcDbCircle
 62
7
  6
CONTINUOUS
 10
6.0601029677
 20
5.0513652761
 40
0.025
100
AcDbArc
 50
90.0
 51
176.7993265714
  0
ARC
  5
35E
100
AcDbEntity
  8
0
100
AcDbCircle
 62
7
  6
CONTINUOUS
 10
6.067587456
 20
5.0513652761
 40
0.025
100
AcDbArc
 50
23.6868993629
 51
90.0
  0
ARC
  5
35F
100
AcDbEntity
  8
0
100
AcDbCircle
 62
7
  6
CONTINUOUS
 10
6.1087964073
 20
5.0694435042
 40
0.02
100
AcDbArc
 50
203.6868993629
 51
263.9460923514
  0
ARC
  5
360
100
AcDbEntity
  8
0
100
AcDbCircle
 62
7
  6
CONTINUOUS
 10
5.9099965248
 20
6.5977746065
 40
1.865
100
AcDbArc
 50
276.0539076486
 51
283.9188002726
  0
ARC
  5
361
100
AcDbEntity
  8
ALL_FEATURES
100
AcDbCircle
 62
7
  6
CONTINUOUS
 10
6.0172432976
 20
5.9907771954
 40
0.225
100
AcDbArc
 50
29.533164499
 51
62.4938578389
  0
ARC
  5
362
100
AcDbEntity
  8
0
100
AcDbCircle
 62
7
  6
CONTINUOUS
 10
4.8422914073
 20
5.917067323
 40
0.12
100
AcDbArc
 50
345.4959114181
 51
360.0
  0
ARC
  5
363
100
AcDbEntity
  8
0
100
AcDbCircle
 62
7
  6
CONTINUOUS
 10
5.1865696898
 20
6.0716002517
 40
0.09
100
AcDbArc
 50
132.2736890061
 51
161.4388357052
  0
ARC
  5
364
100
AcDbEntity
  8
0
100
AcDbCircle
 62
7
  6
CONTINUOUS
 10
5.1322914073
 20
6.2520046937
 40
0.08
100
AcDbArc
 50
312.2736890061
 51
360.0
  0
ARC
  5
365
100
AcDbEntity
  8
0
100
AcDbCircle
 62
7
  6
CONTINUOUS
 10
4.9972914073
 20
5.9766151028
 40
0.03
100
AcDbArc
 50
270.0
 51
360.0
  0
ARC
  5
366
100
AcDbEntity
  8
0
100
AcDbCircle
 62
7
  6
CONTINUOUS
 10
5.0822914073
 20
6.1066151028
 40
0.02
100
AcDbArc
 50
270.0
 51
341.4388357052
  0
ARC
  5
367
100
AcDbEntity
  8
0
100
AcDbCircle
 62
7
  6
CONTINUOUS
 10
6.6307964073
 20
5.0062293011
 40
0.35
100
AcDbArc
 50
251.180936631
 51
288.819063369
  0
ARC
  5
368
100
AcDbEntity
  8
0
100
AcDbCircle
 62
7
  6
CONTINUOUS
 10
6.2572964073
 20
4.8963652761
 40
0.2585
100
AcDbArc
 50
154.7853651812
 51
205.2146348188
  0
ARC
  5
369
100
AcDbEntity
  8
0
100
AcDbCircle
 62
7
  6
CONTINUOUS
 10
6.6307964073
 20
4.8963652761
 40
0.2255
100
AcDbArc
 50
203.370340497
 51
228.4965643543
  0
ARC
  5
36A
100
AcDbEntity
  8
0
100
AcDbCircle
 62
7
  6
CONTINUOUS
 10
6.6307964073
 20
4.8963652761
 40
0.2255
100
AcDbArc
 50
126.933444909
 51
156.629659503
  0
ARC
  5
36B
100
AcDbEntity
  8
0
100
AcDbCircle
 62
7
  6
CONTINUOUS
 10
6.6307964073
 20
4.8963652761
 40
0.2255
100
AcDbArc
 50
23.370340497
 51
53.066555091
  0
ARC
  5
36C
100
AcDbEntity
  8
0
100
AcDbCircle
 62
7
  6
CONTINUOUS
 10
6.6307964073
 20
4.8963652761
 40
0.2255
100
AcDbArc
 50
311.5034356457
 51
336.629659503
  0
CIRCLE
  5
36D
100
AcDbEntity
  8
0
100
AcDbCircle
 62
7
  6
CONTINUOUS
 10
6.6307964073
 20
4.8963652761
 40
0.18
  0
CIRCLE
  5
36E
100
AcDbEntity
  8
0
100
AcDbCircle
 62
7
  6
CONTINUOUS
 10
6.6307964073
 20
4.8963652761
 40
0.1563958287
  0
CIRCLE
  5
36F
100
AcDbEntity
  8
0
100
AcDbCircle
 62
7
  6
CONTINUOUS
 10
6.6307964073
 20
4.8963652761
 40
0.1101236858
  0
ARC
  5
370
100
AcDbEntity
  8
0
100
AcDbCircle
 62
7
  6
CONTINUOUS
 10
6.3538049049
 20
4.9857823253
 40
0.02
100
AcDbArc
 50
1.6702677146
 51
76.0811997271
  0
ARC
  5
371
100
AcDbEntity
  8
0
100
AcDbCircle
 62
7
  6
CONTINUOUS
 10
6.4187964073
 20
4.9813652761
 40
0.005
100
AcDbArc
 50
0.0
 51
90.0
  0
ARC
  5
372
100
AcDbEntity
  8
0
100
AcDbCircle
 62
7
  6
CONTINUOUS
 10
6.4707964073
 20
5.1916151028
 40
0.005
100
AcDbArc
 50
180.0
 51
270.0
  0
ARC
  5
373
100
AcDbEntity
  8
0
100
AcDbCircle
 62
7
  6
CONTINUOUS
 10
6.4107964073
 20
5.2316151028
 40
0.005
100
AcDbArc
 50
180.0
 51
270.0
  0
ARC
  5
374
100
AcDbEntity
  8
ALL_FEATURES
100
AcDbCircle
 62
7
  6
CONTINUOUS
 10
6.1440020599
 20
5.6871151028
 40
0.3
100
AcDbArc
 50
19.946584759
 51
63.9398488367
  0
ARC
  5
375
100
AcDbEntity
  8
0
100
AcDbCircle
 62
7
  6
CONTINUOUS
 10
6.366930817
 20
5.2966151028
 40
0.03
100
AcDbArc
 50
141.6196390045
 51
270.0
  0
ARC
  5
376
100
AcDbEntity
  8
0
100
AcDbCircle
 62
7
  6
CONTINUOUS
 10
7.3787914073
 20
5.260890708
 40
2.5
100
AcDbArc
 50
165.4959114181
 51
191.0887862153
  0
ARC
  5
377
100
AcDbEntity
  8
0
100
AcDbCircle
 62
7
  6
CONTINUOUS
 10
7.0042964073
 20
4.8963652761
 40
0.2585
100
AcDbArc
 50
334.7853651812
 51
25.2146348188
  0
ARC
  5
378
100
AcDbEntity
  8
0
100
AcDbCircle
 62
7
  6
CONTINUOUS
 10
7.3512558631
 20
5.0597402622
 40
0.125
100
AcDbArc
 50
183.2006734286
 51
205.2146348188
  0
ARC
  5
379
100
AcDbEntity
  8
0
100
AcDbCircle
 62
7
  6
CONTINUOUS
 10
7.1940053587
 20
5.0513652761
 40
0.025
100
AcDbArc
 50
90.0
 51
156.3131006371
  0
ARC
  5
37A
100
AcDbEntity
  8
0
100
AcDbCircle
 62
7
  6
CONTINUOUS
 10
7.2014898469
 20
5.0513652761
 40
0.025
100
AcDbArc
 50
3.2006734286
 51
90.0
  0
ARC
  5
37B
100
AcDbEntity
  8
0
100
AcDbCircle
 62
7
  6
CONTINUOUS
 10
7.1527964073
 20
5.0694435042
 40
0.02
100
AcDbArc
 50
276.0539076486
 51
336.3131006371
  0
ARC
  5
37C
100
AcDbEntity
  8
0
100
AcDbCircle
 62
7
  6
CONTINUOUS
 10
6.9077879097
 20
4.9857823253
 40
0.02
100
AcDbArc
 50
103.9188002729
 51
178.3297322854
  0
ARC
  5
37D
100
AcDbEntity
  8
0
100
AcDbCircle
 62
7
  6
CONTINUOUS
 10
6.8427964073
 20
4.9813652761
 40
0.005
100
AcDbArc
 50
90.0
 51
180.0
  0
ARC
  5
37E
100
AcDbEntity
  8
0
100
AcDbCircle
 62
7
  6
CONTINUOUS
 10
6.7907964073
 20
5.1916151028
 40
0.005
100
AcDbArc
 50
270.0
 51
360.0
  0
ARC
  5
37F
100
AcDbEntity
  8
0
100
AcDbCircle
 62
7
  6
CONTINUOUS
 10
6.8507964073
 20
5.2316151028
 40
0.005
100
AcDbArc
 50
270.0
 51
360.0
  0
ARC
  5
380
100
AcDbEntity
  8
ALL_FEATURES
100
AcDbCircle
 62
7
  6
CONTINUOUS
 10
7.4028336725
 20
5.6667191961
 40
0.6
100
AcDbArc
 50
195.418828384
 51
210.0393607241
  0
ARC
  5
381
100
AcDbEntity
  8
ALL_FEATURES
100
AcDbCircle
 62
7
  6
CONTINUOUS
 10
7.2726925809
 20
5.6308263517
 40
0.465
100
AcDbArc
 50
160.053415241
 51
195.418828384
  0
ARC
  5
382
100
AcDbEntity
  8
ALL_FEATURES
100
AcDbCircle
 62
7
  6
CONTINUOUS
 10
7.2513393728
 20
5.5791151028
 40
0.425
100
AcDbArc
 50
210.0393607241
 51
218.3803609955
  0
ARC
  5
383
100
AcDbEntity
  8
ALL_FEATURES
100
AcDbCircle
 62
7
  6
CONTINUOUS
 10
7.1175907547
 20
5.6871151028
 40
0.3
100
AcDbArc
 50
116.0601511633
 51
160.053415241
  0
ARC
  5
384
100
AcDbEntity
  8
0
100
AcDbCircle
 62
7
  6
CONTINUOUS
 10
6.8946619976
 20
5.2966151028
 40
0.03
100
AcDbArc
 50
270.0
 51
38.3803609955
  0
ARC
  5
385
100
AcDbEntity
  8
0
100
AcDbCircle
 62
7
  6
CONTINUOUS
 10
7.3515962898
 20
6.5977746065
 40
1.865
100
AcDbArc
 50
256.0811997274
 51
263.9460923514
  0
ARC
  5
386
100
AcDbEntity
  8
ALL_FEATURES
100
AcDbCircle
 62
7
  6
CONTINUOUS
 10
7.244349517
 20
5.9907771954
 40
0.225
100
AcDbArc
 50
117.5061421611
 51
150.466835501
  0
ARC
  5
387
100
AcDbEntity
  8
0
100
AcDbCircle
 62
7
  6
CONTINUOUS
 10
6.1557964073
 20
6.2568655939
 40
0.075
100
AcDbArc
 50
180.0
 51
242.4938578389
  0
ARC
  5
388
100
AcDbEntity
  8
0
100
AcDbCircle
 62
7
  6
CONTINUOUS
 10
7.1057964073
 20
6.2568655939
 40
0.075
100
AcDbArc
 50
297.5061421611
 51
360.0
  0
ARC
  5
389
100
AcDbEntity
  8
0
100
AcDbCircle
 62
7
  6
CONTINUOUS
 10
6.22170987
 20
6.1066151028
 40
0.01
100
AcDbArc
 50
209.533164499
 51
270.0
  0
ARC
  5
38A
100
AcDbEntity
  8
0
100
AcDbCircle
 62
7
  6
CONTINUOUS
 10
7.0398829446
 20
6.1066151028
 40
0.01
100
AcDbArc
 50
270.0
 51
330.466835501
  0
LINE
  5
38B
100
AcDbEntity
  8
ALL_FEATURES
100
AcDbLine
 62
7
  6
CONTINUOUS
 10
4.8872914073
 20
4.0458151028
 11
4.8872951405
 21
4.0386432004
  0
LINE
  5
38C
100
AcDbEntity
  8
ALL_FEATURES
100
AcDbLine
 62
7
  6
CONTINUOUS
 10
4.8872951405
 20
4.0386432004
 11
4.8873063863
 21
4.0314633083
  0
SPLINE
  5
38D
100
AcDbEntity
  8
ALL_FEATURES
100
AcDbSpline
 62
7
  6
CONTINUOUS
 70
0
 71
3
 72
32
 73
28
 74
0
 42
0.0000001
 43
0.0000001
 44
0.0000000001
 40
0.0
 40
0.0
 40
0.0
 40
0.0
 40
0.0176453611
 40
0.0339215617
 40
0.0492222248
 40
0.0638722842
 40
0.0781049097
 40
0.0920370065
 40
0.1057519041
 40
0.1193185874
 40
0.1462013912
 40
0.1729881454
 40
0.1998553585
 40
0.2269119065
 40
0.25422672
 40
0.2818514747
 40
0.3381482423
 40
0.3959583108
 40
0.4553841106
 40
0.5164930995
 40
0.5793656974
 40
0.6440761451
 40
0.7107109921
 40
0.779380075
 40
0.8503075316
 40
0.923756653
 40
1.0
 40
1.0
 40
1.0
 40
1.0
 10
5.0747914073
 20
2.8722668136
 30
0.0
 10
5.0747914073
 20
2.8694294948
 30
0.0
 10
5.0745215395
 20
2.8639697354
 30
0.0
 10
5.0732932154
 20
2.856136883
 30
0.0
 10
5.0714016659
 20
2.8489363656
 30
0.0
 10
5.0689910434
 20
2.8422456941
 30
0.0
 10
5.0662104841
 20
2.8359422304
 30
0.0
 10
5.0630880465
 20
2.8299704586
 30
0.0
 10
5.0596556576
 20
2.8242968517
 30
0.0
 10
5.0547275983
 20
2.8171111998
 30
0.0
 10
5.0479358706
 20
2.8086757438
 30
0.0
 10
5.0389437898
 20
2.7993382428
 30
0.0
 10
5.0292780457
 20
2.7906628947
 30
0.0
 10
5.0190129665
 20
2.7825718168
 30
0.0
 10
5.0082207367
 20
2.7749874047
 30
0.0
 10
4.9930856589
 20
2.7654438743
 30
0.0
 10
4.9730036788
 20
2.7546109631
 30
0.0
 10
4.9475472338
 20
2.743138292
 30
0.0
 10
4.920705741
 20
2.7329965207
 30
0.0
 10
4.8925863075
 20
2.7240646894
 30
0.0
 10
4.8632440444
 20
2.7163006679
 30
0.0
 10
4.8327195451
 20
2.7096571314
 30
0.0
 10
4.8010295054
 20
2.704120263
 30
0.0
 10
4.7681594802
 20
2.6996733555
 30
0.0
 10
4.7340500767
 20
2.696402636
 30
0.0
 10
4.6986239333
 20
2.6943878208
 30
0.0
 10
4.6745510988
 20
2.6939437168
 30
0.0
 10
4.6622914073
 20
2.6939437168
 30
0.0
  0
LINE
  5
38E
100
AcDbEntity
  8
ALL_FEATURES
100
AcDbLine
 62
7
  6
CONTINUOUS
 10
4.4372914073
 20
4.0458151028
 11
4.4372876741
 21
4.0386432004
  0
LINE
  5
38F
100
AcDbEntity
  8
ALL_FEATURES
100
AcDbLine
 62
7
  6
CONTINUOUS
 10
4.4372876741
 20
4.0386432004
 11
4.4372746263
 21
4.0306263084
  0
SPLINE
  5
390
100
AcDbEntity
  8
ALL_FEATURES
100
AcDbSpline
 62
7
  6
CONTINUOUS
 70
0
 71
3
 72
15
 73
11
 74
0
 42
0.0000001
 43
0.0000001
 44
0.0000000001
 40
0.0
 40
0.0
 40
0.0
 40
0.0
 40
0.1431615056
 40
0.2789438626
 40
0.4085809878
 40
0.5332096971
 40
0.6538508324
 40
0.7713969193
 40
0.8866060095
 40
1.0
 40
1.0
 40
1.0
 40
1.0
 10
4.2497914073
 20
2.8722668136
 30
0.0
 10
4.2497914073
 20
2.8740038952
 30
0.0
 10
4.2498935394
 20
2.8773896123
 30
0.0
 10
4.2503568245
 20
2.8823287169
 30
0.0
 10
4.2510959313
 20
2.887006544
 30
0.0
 10
4.2520809299
 20
2.8914504132
 30
0.0
 10
4.2532815394
 20
2.8956882089
 30
0.0
 10
4.2546681353
 20
2.8997477216
 30
0.0
 10
4.2562080373
 20
2.903656629
 30
0.0
 10
4.2573292415
 20
2.9061946924
 30
0.0
 10
4.2579107787
 20
2.9074416447
 30
0.0
  0
SPLINE
  5
391
100
AcDbEntity
  8
ALL_FEATURES
100
AcDbSpline
 62
7
  6
CONTINUOUS
 70
0
 71
3
 72
32
 73
28
 74
0
 42
0.0000001
 43
0.0000001
 44
0.0000000001
 40
0.0
 40
0.0
 40
0.0
 40
0.0
 40
0.076243347
 40
0.1496924684
 40
0.220619925
 40
0.2892890079
 40
0.3559238549
 40
0.4206343026
 40
0.4835069005
 40
0.5446158894
 40
0.6040416892
 40
0.6618517577
 40
0.7181485253
 40
0.74577328
 40
0.7730880935
 40
0.8001446415
 40
0.8270118546
 40
0.8537986088
 40
0.8806814126
 40
0.8942480959
 40
0.9079629935
 40
0.9218950903
 40
0.9361277158
 40
0.9507777752
 40
0.9660784383
 40
0.9823546389
 40
1.0
 40
1.0
 40
1.0
 40
1.0
 10
4.6622914073
 20
2.6939437168
 30
0.0
 10
4.6500317158
 20
2.6939437168
 30
0.0
 10
4.6259588813
 20
2.6943878208
 30
0.0
 10
4.5905327379
 20
2.696402636
 30
0.0
 10
4.5564233344
 20
2.6996733555
 30
0.0
 10
4.5235533092
 20
2.704120263
 30
0.0
 10
4.4918632695
 20
2.7096571314
 30
0.0
 10
4.4613387702
 20
2.7163006679
 30
0.0
 10
4.4319965071
 20
2.7240646894
 30
0.0
 10
4.4038770736
 20
2.7329965207
 30
0.0
 10
4.3770355808
 20
2.743138292
 30
0.0
 10
4.3515791358
 20
2.7546109631
 30
0.0
 10
4.3314971557
 20
2.7654438743
 30
0.0
 10
4.316362078
 20
2.7749874047
 30
0.0
 10
4.3055698481
 20
2.7825718168
 30
0.0
 10
4.2953047689
 20
2.7906628947
 30
0.0
 10
4.2856390248
 20
2.7993382428
 30
0.0
 10
4.276646944
 20
2.8086757438
 30
0.0
 10
4.2698552163
 20
2.8171111998
 30
0.0
 10
4.2649271571
 20
2.8242968517
 30
0.0
 10
4.2614947681
 20
2.8299704586
 30
0.0
 10
4.2583723305
 20
2.8359422304
 30
0.0
 10
4.2555917712
 20
2.8422456941
 30
0.0
 10
4.2531811487
 20
2.8489363656
 30
0.0
 10
4.2512895992
 20
2.856136883
 30
0.0
 10
4.2500612751
 20
2.8639697354
 30
0.0
 10
4.2497914073
 20
2.8694294948
 30
0.0
 10
4.2497914073
 20
2.8722668136
 30
0.0
  0
SPLINE
  5
392
100
AcDbEntity
  8
ALL_FEATURES
100
AcDbSpline
 62
7
  6
CONTINUOUS
 70
0
 71
3
 72
15
 73
11
 74
0
 42
0.0000001
 43
0.0000001
 44
0.0000000001
 40
0.0
 40
0.0
 40
0.0
 40
0.0
 40
0.1133939905
 40
0.2286030807
 40
0.3461491676
 40
0.4667903029
 40
0.5914190122
 40
0.7210561374
 40
0.8568384944
 40
1.0
 40
1.0
 40
1.0
 40
1.0
 10
5.0666720359
 20
2.9074416447
 30
0.0
 10
5.0672535731
 20
2.9061946923
 30
0.0
 10
5.0683747773
 20
2.903656629
 30
0.0
 10
5.0699146793
 20
2.8997477216
 30
0.0
 10
5.0713012752
 20
2.8956882089
 30
0.0
 10
5.0725018847
 20
2.8914504132
 30
0.0
 10
5.0734868833
 20
2.887006544
 30
0.0
 10
5.0742259901
 20
2.8823287169
 30
0.0
 10
5.0746892752
 20
2.8773896123
 30
0.0
 10
5.0747914073
 20
2.8740038952
 30
0.0
 10
5.0747914073
 20
2.8722668136
 30
0.0
  0
LINE
  5
393
100
AcDbEntity
  8
ALL_FEATURES
100
AcDbLine
 62
7
  6
CONTINUOUS
 10
4.4368372066
 20
3.9675171245
 11
4.4367450925
 21
3.9600418421
  0
LINE
  5
394
100
AcDbEntity
  8
ALL_FEATURES
100
AcDbLine
 62
7
  6
CONTINUOUS
 10
4.4334726339
 20
3.8241735664
 11
4.433197303
 21
3.8166416819
  0
SPLINE
  5
395
100
AcDbEntity
  8
ALL_FEATURES
100
AcDbSpline
 62
7
  6
CONTINUOUS
 70
0
 71
3
 72
13
 73
9
 74
0
 42
0.0000001
 43
0.0000001
 44
0.0000000001
 40
0.0
 40
0.0
 40
0.0
 40
0.0
 40
0.2576367109
 40
0.5115682332
 40
0.6364900298
 40
0.7597038588
 40
0.8809566258
 40
1.0
 40
1.0
 40
1.0
 40
1.0
 10
4.433197303
 20
3.8166416819
 30
0.0
 10
4.4319687452
 20
3.7836599329
 30
0.0
 10
4.4289326534
 20
3.7181911362
 30
0.0
 10
4.4234637262
 20
3.6368296176
 30
0.0
 10
4.4179901094
 20
3.5727439947
 30
0.0
 10
4.4133513871
 20
3.5256497996
 30
0.0
 10
4.4081361775
 20
3.4793736544
 30
0.0
 10
4.4042222204
 20
3.4488387075
 30
0.0
 10
4.4021561971
 20
3.4337292194
 30
0.0
  0
SPLINE
  5
396
100
AcDbEntity
  8
ALL_FEATURES
100
AcDbSpline
 62
7
  6
CONTINUOUS
 70
0
 71
3
 72
11
 73
7
 74
0
 42
0.0000001
 43
0.0000001
 44
0.0000000001
 40
0.0
 40
0.0
 40
0.0
 40
0.0
 40
0.2735160524
 40
0.5320903994
 40
0.774635981
 40
1.0
 40
1.0
 40
1.0
 40
1.0
 10
4.3908076093
 20
3.3589398704
 30
0.0
 10
4.385970993
 20
3.3300254758
 30
0.0
 10
4.3755604624
 20
3.2739380535
 30
0.0
 10
4.3575036751
 20
3.1928808303
 30
0.0
 10
4.3379046967
 20
3.117505492
 30
0.0
 10
4.3235800161
 20
3.0694300539
 30
0.0
 10
4.3162508196
 20
3.0464137494
 30
0.0
  0
LINE
  5
397
100
AcDbEntity
  8
ALL_FEATURES
100
AcDbLine
 62
7
  6
CONTINUOUS
 10
4.3162508196
 20
3.0464137494
 11
4.3153064372
 21
3.0434562974
  0
SPLINE
  5
398
100
AcDbEntity
  8
ALL_FEATURES
100
AcDbSpline
 62
7
  6
CONTINUOUS
 70
0
 71
3
 72
10
 73
6
 74
0
 42
0.0000001
 43
0.0000001
 44
0.0000000001
 40
0.0
 40
0.0
 40
0.0
 40
0.0
 40
0.5238146134
 40
0.7680271749
 40
1.0
 40
1.0
 40
1.0
 40
1.0
 10
5.0231847326
 20
3.0017201712
 30
0.0
 10
5.0291297814
 20
2.984575741
 30
0.0
 10
5.0382335285
 20
2.9595687981
 30
0.0
 10
5.0509303551
 20
2.927336279
 30
0.0
 10
5.0572484141
 20
2.9120969445
 30
0.0
 10
5.0603970588
 20
2.9047034989
 30
0.0
  0
SPLINE
  5
399
100
AcDbEntity
  8
ALL_FEATURES
100
AcDbSpline
 62
7
  6
CONTINUOUS
 70
0
 71
3
 72
9
 73
5
 74
0
 42
0.0000001
 43
0.0000001
 44
0.0000000001
 40
0.0
 40
0.0
 40
0.0
 40
0.0
 40
0.2588061893
 40
1.0
 40
1.0
 40
1.0
 40
1.0
 10
5.0603970588
 20
2.9047034989
 30
0.0
 10
5.0615966096
 20
2.9018867906
 30
0.0
 10
5.0662714425
 20
2.8910203865
 30
0.0
 10
5.071106671
 20
2.8802227661
 30
0.0
 10
5.0747914073
 20
2.8722668136
 30
0.0
  0
SPLINE
  5
39A
100
AcDbEntity
  8
ALL_FEATURES
100
AcDbSpline
 62
7
  6
CONTINUOUS
 70
0
 71
3
 72
10
 73
6
 74
0
 42
0.0000001
 43
0.0000001
 44
0.0000000001
 40
0.0
 40
0.0
 40
0.0
 40
0.0
 40
0.5238146134
 40
0.7680271749
 40
1.0
 40
1.0
 40
1.0
 40
1.0
 10
4.301398082
 20
3.0017201712
 30
0.0
 10
4.2954530332
 20
2.984575741
 30
0.0
 10
4.2863492862
 20
2.9595687981
 30
0.0
 10
4.2736524595
 20
2.927336279
 30
0.0
 10
4.2673344005
 20
2.9120969445
 30
0.0
 10
4.2641857558
 20
2.9047034989
 30
0.0
  0
SPLINE
  5
39B
100
AcDbEntity
  8
ALL_FEATURES
100
AcDbSpline
 62
7
  6
CONTINUOUS
 70
0
 71
3
 72
9
 73
5
 74
0
 42
0.0000001
 43
0.0000001
 44
0.0000000001
 40
0.0
 40
0.0
 40
0.0
 40
0.0
 40
0.2588061893
 40
1.0
 40
1.0
 40
1.0
 40
1.0
 10
4.2641857558
 20
2.9047034989
 30
0.0
 10
4.262986205
 20
2.9018867906
 30
0.0
 10
4.2583113721
 20
2.8910203865
 30
0.0
 10
4.2534761436
 20
2.8802227661
 30
0.0
 10
4.2497914073
 20
2.8722668136
 30
0.0
  0
SPLINE
  5
39C
100
AcDbEntity
  8
ALL_FEATURES
100
AcDbSpline
 62
7
  6
CONTINUOUS
 70
0
 71
3
 72
30
 73
26
 74
0
 42
0.0000001
 43
0.0000001
 44
0.0000000001
 40
0.0
 40
0.0
 40
0.0
 40
0.0
 40
0.008835396
 40
0.0171487566
 40
0.0251594382
 40
0.0330485595
 40
0.0489203396
 40
0.0653821024
 40
0.0827794489
 40
0.1013203908
 40
0.1211272439
 40
0.1422770487
 40
0.1648123237
 40
0.1887431901
 40
0.2140613811
 40
0.2407463404
 40
0.2981041602
 40
0.3606101136
 40
0.4279903885
 40
0.4998440357
 40
0.5757301336
 40
0.6552113613
 40
0.7378430688
 40
0.8231628628
 40
1.0
 40
1.0
 40
1.0
 40
1.0
 10
4.4372914073
 20
4.1689099869
 30
0.0
 10
4.4372914073
 20
4.1682022615
 30
0.0
 10
4.437373591
 20
4.166826713
 30
0.0
 10
4.4377523576
 20
4.1648419978
 30
0.0
 10
4.4383516141
 20
4.1629923883
 30
0.0
 10
4.439402879
 20
4.1606704433
 30
0.0
 10
4.4411398077
 20
4.1579355955
 30
0.0
 10
4.4437914574
 20
4.1549458003
 30
0.0
 10
4.4469544423
 20
4.1521732093
 30
0.0
 10
4.450598488
 20
4.1495822408
 30
0.0
 10
4.4546955109
 20
4.1471394867
 30
0.0
 10
4.4592299797
 20
4.144829729
 30
0.0
 10
4.4641853748
 20
4.1426382231
 30
0.0
 10
4.4695476436
 20
4.140557703
 30
0.0
 10
4.4753014448
 20
4.1385814179
 30
0.0
 10
4.483678317
 20
4.136014838
 30
0.0
 10
4.4950474128
 20
4.1330691764
 30
0.0
 10
4.5097240481
 20
4.1299610716
 30
0.0
 10
4.5256469854
 20
4.1271879907
 30
0.0
 10
4.5427069271
 20
4.1247478268
 30
0.0
 10
4.5607870684
 20
4.1226408795
 30
0.0
 10
4.5797705499
 20
4.1208743374
 30
0.0
 10
4.5995408433
 20
4.1194549451
 30
0.0
 10
4.6271240039
 20
4.1180436739
 30
0.0
 10
4.6481265492
 20
4.1176151028
 30
0.0
 10
4.6622914073
 20
4.1176151028
 30
0.0
  0
SPLINE
  5
39D
100
AcDbEntity
  8
ALL_FEATURES
100
AcDbSpline
 62
7
  6
CONTINUOUS
 70
0
 71
3
 72
30
 73
26
 74
0
 42
0.0000001
 43
0.0000001
 44
0.0000000001
 40
0.0
 40
0.0
 40
0.0
 40
0.0
 40
0.0111383464
 40
0.0215788853
 40
0.0315624598
 40
0.0412896497
 40
0.0604848044
 40
0.0798197857
 40
0.0996712511
 40
0.1202774603
 40
0.1417900421
 40
0.164310581
 40
0.1879039154
 40
0.2126024232
 40
0.2384186266
 40
0.2653504403
 40
0.3225113304
 40
0.3840020781
 40
0.4496604811
 40
0.5192058859
 40
0.5923156735
 40
0.668668762
 40
0.7479390126
 40
0.8298008554
 40
1.0
 40
1.0
 40
1.0
 40
1.0
 10
4.4372914073
 20
4.0458151028
 30
0.0
 10
4.4372914073
 20
4.0448971428
 30
0.0
 10
4.4373853785
 20
4.0431168356
 30
0.0
 10
4.4378145627
 20
4.0405460989
 30
0.0
 10
4.438487992
 20
4.0381493744
 30
0.0
 10
4.4396518199
 20
4.0351578073
 30
0.0
 10
4.4415373481
 20
4.0316368041
 30
0.0
 10
4.444399409
 20
4.0277528441
 30
0.0
 10
4.4477742318
 20
4.0241490327
 30
0.0
 10
4.4516226215
 20
4.0207810065
 30
0.0
 10
4.4559072001
 20
4.0176070408
 30
0.0
 10
4.4606087758
 20
4.0146069878
 30
0.0
 10
4.4657073782
 20
4.01176156
 30
0.0
 10
4.4711881687
 20
4.0090612642
 30
0.0
 10
4.4770352502
 20
4.0064972341
 30
0.0
 10
4.4854671456
 20
4.0031829416
 30
0.0
 10
4.496852003
 20
3.9993695755
 30
0.0
 10
4.5115020778
 20
3.995334916
 30
0.0
 10
4.5273131019
 20
3.9917371704
 30
0.0
 10
4.5441907432
 20
3.9885732578
 30
0.0
 10
4.5620354803
 20
3.9858425629
 30
0.0
 10
4.5807494721
 20
3.9835538419
 30
0.0
 10
4.6002377329
 20
3.9817152655
 30
0.0
 10
4.6274850653
 20
3.979885852
 30
0.0
 10
4.6482645499
 20
3.979334631
 30
0.0
 10
4.6622914073
 20
3.979334631
 30
0.0
  0
LINE
  5
39E
100
AcDbEntity
  8
ALL_FEATURES
100
AcDbLine
 62
7
  6
CONTINUOUS
 10
4.4368372066
 20
3.9675171245
 11
4.4370798557
 21
3.9636853151
  0
SPLINE
  5
39F
100
AcDbEntity
  8
ALL_FEATURES
100
AcDbSpline
 62
7
  6
CONTINUOUS
 70
0
 71
3
 72
30
 73
26
 74
0
 42
0.0000001
 43
0.0000001
 44
0.0000000001
 40
0.0
 40
0.0
 40
0.0
 40
0.0
 40
0.0114988458
 40
0.0225104879
 40
0.0332307382
 40
0.0437968253
 40
0.0542846568
 40
0.0647547651
 40
0.0752580032
 40
0.0858352098
 40
0.1073281829
 40
0.1294344991
 40
0.1522829111
 40
0.1759639335
 40
0.2260109226
 40
0.2524403586
 40
0.2798101774
 40
0.3373583229
 40
0.3986372634
 40
0.4635386384
 40
0.5318525749
 40
0.6033382902
 40
0.677756343
 40
0.8344111725
 40
1.0
 40
1.0
 40
1.0
 40
1.0
 10
4.4370798557
 20
3.9636853151
 30
0.0
 10
4.4372020011
 20
3.9627413905
 30
0.0
 10
4.4375341982
 20
3.9609041316
 30
0.0
 10
4.4382874267
 20
3.9582547863
 30
0.0
 10
4.4392376241
 20
3.9557530275
 30
0.0
 10
4.4403461247
 20
3.9533656842
 30
0.0
 10
4.4416076474
 20
3.9510792711
 30
0.0
 10
4.4430118872
 20
3.94888419
 30
0.0
 10
4.4445492162
 20
3.9467713052
 30
0.0
 10
4.4467752883
 20
3.9440376306
 30
0.0
 10
4.4498708272
 20
3.9407828564
 30
0.0
 10
4.4539936465
 20
3.9371342375
 30
0.0
 10
4.4585158888
 20
3.9336879265
 30
0.0
 10
4.4651736195
 20
3.9292556903
 30
0.0
 10
4.4724513879
 20
3.9252515852
 30
0.0
 10
4.4802313485
 20
3.9215942899
 30
0.0
 10
4.4887177138
 20
3.9179933832
 30
0.0
 10
4.5000948135
 20
3.9138451728
 30
0.0
 10
4.514659647
 20
3.9094479321
 30
0.0
 10
4.5302801232
 20
3.9055306234
 30
0.0
 10
4.5468750639
 20
3.9020898605
 30
0.0
 10
4.5643603354
 20
3.899123646
 30
0.0
 10
4.5891801152
 20
3.8957544788
 30
0.0
 10
4.6219053996
 20
3.8928539993
 30
0.0
 10
4.6485851119
 20
3.8920742126
 30
0.0
 10
4.6622914073
 20
3.8920742126
 30
0.0
  0
SPLINE
  5
3A0
100
AcDbEntity
  8
ALL_FEATURES
100
AcDbSpline
 62
7
  6
CONTINUOUS
 70
0
 71
3
 72
29
 73
25
 74
0
 42
0.0000001
 43
0.0000001
 44
0.0000000001
 40
0.0
 40
0.0
 40
0.0
 40
0.0
 40
0.0182056166
 40
0.0351229534
 40
0.0510925038
 40
0.0664010556
 40
0.0812607165
 40
0.0957765639
 40
0.1240582916
 40
0.1517259956
 40
0.1790775818
 40
0.2063148945
 40
0.2335756906
 40
0.2885210701
 40
0.344467266
 40
0.4017115735
 40
0.4604812296
 40
0.5209408709
 40
0.5832007677
 40
0.6473407638
 40
0.7134415909
 40
0.7815911692
 40
0.8519481513
 40
1.0
 40
1.0
 40
1.0
 40
1.0
 10
4.4009770258
 20
3.4252068683
 30
0.0
 10
4.4009770258
 20
3.4232915208
 30
0.0
 10
4.401139333
 20
3.4195937035
 30
0.0
 10
4.4018696504
 20
3.4142612466
 30
0.0
 10
4.4029940214
 20
3.4093109675
 30
0.0
 10
4.4044287313
 20
3.4046700675
 30
0.0
 10
4.4060866237
 20
3.400268214
 30
0.0
 10
4.4085506422
 20
3.3947220957
 30
0.0
 10
4.4121129379
 20
3.3882045512
 30
0.0
 10
4.4170228695
 20
3.3809322934
 30
0.0
 10
4.4224486661
 20
3.3741795986
 30
0.0
 10
4.4283078296
 20
3.3678603157
 30
0.0
 10
4.4366649234
 20
3.3599307187
 30
0.0
 10
4.4480489068
 20
3.3508458806
 30
0.0
 10
4.46289807
 20
3.341193625
 30
0.0
 10
4.4788220944
 20
3.3325714447
 30
0.0
 10
4.4957518164
 20
3.32491607
 30
0.0
 10
4.5136227122
 20
3.3181600128
 30
0.0
 10
4.5323915205
 20
3.3122785111
 30
0.0
 10
4.5520178353
 20
3.307246865
 30
0.0
 10
4.572473522
 20
3.3030610992
 30
0.0
 10
4.5937459989
 20
3.2997156725
 30
0.0
 10
4.6237175386
 20
3.2963917802
 30
0.0
 10
4.6467154039
 20
3.2954304387
 30
0.0
 10
4.6622914073
 20
3.2954304387
 30
0.0
  0
LINE
  5
3A1
100
AcDbEntity
  8
ALL_FEATURES
100
AcDbLine
 62
7
  6
CONTINUOUS
 10
4.4372736547
 20
4.0301937274
 11
4.4372538617
 21
4.0231197016
  0
LINE
  5
3A2
100
AcDbEntity
  8
ALL_FEATURES
100
AcDbLine
 62
7
  6
CONTINUOUS
 10
4.4372437572
 20
4.0202577798
 11
4.4372057251
 21
4.0115861026
  0
SPLINE
  5
3A3
100
AcDbEntity
  8
ALL_FEATURES
100
AcDbSpline
 62
7
  6
CONTINUOUS
 70
0
 71
3
 72
31
 73
27
 74
0
 42
0.0000001
 43
0.0000001
 44
0.0000000001
 40
0.0
 40
0.0
 40
0.0
 40
0.0
 40
0.018364868
 40
0.0354287308
 40
0.0515378328
 40
0.0669832593
 40
0.0819797514
 40
0.0966330056
 40
0.1110183516
 40
0.1252003988
 40
0.1531449844
 40
0.1807693071
 40
0.2082700927
 40
0.235779671
 40
0.2911604675
 40
0.3474360755
 40
0.4048857845
 40
0.4637249961
 40
0.5241137913
 40
0.5861691326
 40
0.649983633
 40
0.7156545513
 40
0.7832905928
 40
0.8530788228
 40
0.9252384252
 40
1.0
 40
1.0
 40
1.0
 40
1.0
 10
4.3908076093
 20
3.3589398704
 30
0.0
 10
4.3908076093
 20
3.3569236337
 30
0.0
 10
4.3909793567
 20
3.3530311696
 30
0.0
 10
4.3917518704
 20
3.3474184572
 30
0.0
 10
4.3929404716
 20
3.3422083883
 30
0.0
 10
4.394456049
 20
3.3373235528
 30
0.0
 10
4.3962056787
 20
3.3326892249
 30
0.0
 10
4.3981719822
 20
3.3282698377
 30
0.0
 10
4.4003355675
 20
3.324044174
 30
0.0
 10
4.4034396751
 20
3.3186698142
 30
0.0
 10
4.4077219751
 20
3.3123083306
 30
0.0
 10
4.4134209902
 20
3.305177729
 30
0.0
 10
4.4195667421
 20
3.2984951354
 30
0.0
 10
4.4283173398
 20
3.2901009499
 30
0.0
 10
4.4402107747
 20
3.2804619175
 30
0.0
 10
4.4556968337
 20
3.2701819565
 30
0.0
 10
4.4722705857
 20
3.260967763
 30
0.0
 10
4.4898606607
 20
3.2527585468
 30
0.0
 10
4.5084011115
 20
3.2454889855
 30
0.0
 10
4.5278504961
 20
3.2391397693
 30
0.0
 10
4.5481709381
 20
3.2336911589
 30
0.0
 10
4.5693383906
 20
3.2291453646
 30
0.0
 10
4.5913445714
 20
3.225502744
 30
0.0
 10
4.6142071829
 20
3.2228282156
 30
0.0
 10
4.6379506453
 20
3.2211831432
 30
0.0
 10
4.6540835053
 20
3.2208203585
 30
0.0
 10
4.6622914073
 20
3.2208203585
 30
0.0
  0
SPLINE
  5
3A4
100
AcDbEntity
  8
ALL_FEATURES
100
AcDbSpline
 62
7
  6
CONTINUOUS
 70
0
 71
3
 72
11
 73
7
 74
0
 42
0.0000001
 43
0.0000001
 44
0.0000000001
 40
0.0
 40
0.0
 40
0.0
 40
0.0
 40
0.2307424133
 40
0.4715002358
 40
0.7263361549
 40
1.0
 40
1.0
 40
1.0
 40
1.0
 10
4.3056109521
 20
3.0263832071
 30
0.0
 10
4.3049737432
 20
3.024557951
 30
0.0
 10
4.303797318
 20
3.0207824539
 30
0.0
 10
4.3024534585
 20
3.0148397419
 30
0.0
 10
4.3015889438
 20
3.0084442163
 30
0.0
 10
4.301398082
 20
3.0040130765
 30
0.0
 10
4.301398082
 20
3.0017201712
 30
0.0
  0
SPLINE
  5
3A5
100
AcDbEntity
  8
ALL_FEATURES
100
AcDbSpline
 62
7
  6
CONTINUOUS
 70
0
 71
3
 72
11
 73
7
 74
0
 42
0.0000001
 43
0.0000001
 44
0.0000000001
 40
0.0
 40
0.0
 40
0.0
 40
0.0
 40
0.2309730851
 40
0.4720104582
 40
0.7268947823
 40
1.0
 40
1.0
 40
1.0
 40
1.0
 10
4.311853191
 20
3.044625494
 30
0.0
 10
4.3112679964
 20
3.0428809599
 30
0.0
 10
4.310191044
 20
3.0392742966
 30
0.0
 10
4.3089662942
 20
3.0336079822
 30
0.0
 10
4.3081809472
 20
3.0275246033
 30
0.0
 10
4.3080075309
 20
3.0233156738
 30
0.0
 10
4.3080075309
 20
3.0211399558
 30
0.0
  0
SPLINE
  5
3A6
100
AcDbEntity
  8
ALL_FEATURES
100
AcDbSpline
 62
7
  6
CONTINUOUS
 70
0
 71
3
 72
26
 73
22
 74
0
 42
0.0000001
 43
0.0000001
 44
0.0000000001
 40
0.0
 40
0.0
 40
0.0
 40
0.0
 40
0.0399940514
 40
0.0776107959
 40
0.1133266117
 40
0.1475680364
 40
0.1807035017
 40
0.2130369189
 40
0.2447564201
 40
0.2759715905
 40
0.3372497712
 40
0.367484729
 40
0.3975312027
 40
0.4572346376
 40
0.516676186
 40
0.5760754687
 40
0.6355885133
 40
0.6953322273
 40
0.7553924836
 40
0.8767185249
 40
1.0
 40
1.0
 40
1.0
 40
1.0
 10
4.3080075309
 20
3.0211399558
 30
0.0
 10
4.3080075309
 20
3.0192770302
 30
0.0
 10
4.30813499
 20
3.0156602848
 30
0.0
 10
4.3087124629
 20
3.0104085645
 30
0.0
 10
4.3096235404
 20
3.0054768919
 30
0.0
 10
4.3108212275
 20
3.0008229387
 30
0.0
 10
4.3122598746
 20
2.9964041346
 30
0.0
 10
4.3138871079
 20
2.9921777614
 30
0.0
 10
4.3156755681
 20
2.9881146899
 30
0.0
 10
4.3182505708
 20
2.9829316036
 30
0.0
 10
4.321130956
 20
2.9779843715
 30
0.0
 10
4.324264986
 20
2.9732674589
 30
0.0
 10
4.3275248954
 20
2.9687263981
 30
0.0
 10
4.3318686817
 20
2.9632947953
 30
0.0
 10
4.3374606773
 20
2.9571327956
 30
0.0
 10
4.3433710494
 20
2.9512892561
 30
0.0
 10
4.3495718351
 20
2.9457346494
 30
0.0
 10
4.3560391159
 20
2.9404447549
 30
0.0
 10
4.3650153305
 20
2.9336890416
 30
0.0
 10
4.3768342589
 20
2.9258100633
 30
0.0
 10
4.3867169855
 20
2.920124329
 30
0.0
 10
4.391772127
 20
2.9174001073
 30
0.0
  0
SPLINE
  5
3A7
100
AcDbEntity
  8
ALL_FEATURES
100
AcDbSpline
 62
7
  6
CONTINUOUS
 70
0
 71
3
 72
19
 73
15
 74
0
 42
0.0000001
 43
0.0000001
 44
0.0000000001
 40
0.0
 40
0.0
 40
0.0
 40
0.0
 40
0.1096037274
 40
0.1657873559
 40
0.2229398047
 40
0.3402884784
 40
0.4005722039
 40
0.4619682931
 40
0.5245154112
 40
0.5882490951
 40
0.6532232828
 40
0.719528473
 40
0.8565088551
 40
1.0
 40
1.0
 40
1.0
 40
1.0
 10
4.391772127
 20
2.9174001073
 30
0.0
 10
4.4007461345
 20
2.9125640041
 30
0.0
 10
4.4146840318
 20
2.9059067692
 30
0.0
 10
4.4339024399
 20
2.8981144301
 30
0.0
 10
4.4540757691
 20
2.8907944594
 30
0.0
 10
4.4749828927
 20
2.8844259912
 30
0.0
 10
4.4965258975
 20
2.8789262553
 30
0.0
 10
4.5132471998
 20
2.8751729455
 30
0.0
 10
4.5303812862
 20
2.8718267987
 30
0.0
 10
4.5479263698
 20
2.868882168
 30
0.0
 10
4.5658876481
 20
2.8663415288
 30
0.0
 10
4.5906771042
 20
2.8634888407
 30
0.0
 10
4.6228539797
 20
2.86106049
 30
0.0
 10
4.6489454166
 20
2.8604280091
 30
0.0
 10
4.6622914073
 20
2.8604280091
 30
0.0
  0
SPLINE
  5
3A8
100
AcDbEntity
  8
ALL_FEATURES
100
AcDbSpline
 62
7
  6
CONTINUOUS
 70
0
 71
3
 72
9
 73
5
 74
0
 42
0.0000001
 43
0.0000001
 44
0.0000000001
 40
0.0
 40
0.0
 40
0.0
 40
0.0
 40
0.4833262798
 40
1.0
 40
1.0
 40
1.0
 40
1.0
 10
4.3916859935
 20
3.3696401429
 30
0.0
 10
4.3913995254
 20
3.367932793
 30
0.0
 10
4.3909526248
 20
3.3643743198
 30
0.0
 10
4.3908076093
 20
3.3607905325
 30
0.0
 10
4.3908076093
 20
3.3589398704
 30
0.0
  0
SPLINE
  5
3A9
100
AcDbEntity
  8
ALL_FEATURES
100
AcDbSpline
 62
7
  6
CONTINUOUS
 70
0
 71
3
 72
31
 73
27
 74
0
 42
0.0000001
 43
0.0000001
 44
0.0000000001
 40
0.0
 40
0.0
 40
0.0
 40
0.0
 40
0.0180037225
 40
0.0346257971
 40
0.050251986
 40
0.0652025541
 40
0.0797092576
 40
0.0938881332
 40
0.107822181
 40
0.1215809072
 40
0.1487711102
 40
0.175771785
 40
0.2027727283
 40
0.2298954779
 40
0.2572209895
 40
0.2848101189
 40
0.3409281588
 40
0.3984653699
 40
0.4575709147
 40
0.5183488827
 40
0.580898633
 40
0.6453055638
 40
0.7116631626
 40
0.7800831758
 40
0.8507819109
 40
1.0
 40
1.0
 40
1.0
 40
1.0
 10
4.301398082
 20
3.0017201712
 30
0.0
 10
4.301398082
 20
2.9991699397
 30
0.0
 10
4.3016334547
 20
2.9942607683
 30
0.0
 10
4.3027022912
 20
2.9872115739
 30
0.0
 10
4.3043476252
 20
2.980721364
 30
0.0
 10
4.3064442087
 20
2.9746828885
 30
0.0
 10
4.3088620576
 20
2.9689897306
 30
0.0
 10
4.3115767638
 20
2.9635929735
 30
0.0
 10
4.3145607351
 20
2.9584631285
 30
0.0
 10
4.3188410431
 20
2.9519695662
 30
0.0
 10
4.3247392679
 20
2.9443431576
 30
0.0
 10
4.3325575965
 20
2.9358924838
 30
0.0
 10
4.3409638373
 20
2.9280443954
 30
0.0
 10
4.3498948232
 20
2.9207295575
 30
0.0
 10
4.3592886754
 20
2.9138794382
 30
0.0
 10
4.3724606577
 20
2.9052744284
 30
0.0
 10
4.3899585336
 20
2.8955196562
 30
0.0
 10
4.4121750284
 20
2.8852158484
 30
0.0
 10
4.4356268387
 20
2.8761385112
 30
0.0
 10
4.4602233221
 20
2.8681743359
 30
0.0
 10
4.4859167748
 20
2.8612774262
 30
0.0
 10
4.5126703364
 20
2.8553984268
 30
0.0
 10
4.5404671993
 20
2.8505174612
 30
0.0
 10
4.5693177625
 20
2.8466123455
 30
0.0
 10
4.6099830952
 20
2.842725989
 30
0.0
 10
4.6411546305
 20
2.8416077039
 30
0.0
 10
4.6622914073
 20
2.8416077039
 30
0.0
  0
SPLINE
  5
3AA
100
AcDbEntity
  8
ALL_FEATURES
100
AcDbSpline
 62
7
  6
CONTINUOUS
 70
0
 71
3
 72
30
 73
26
 74
0
 42
0.0000001
 43
0.0000001
 44
0.0000000001
 40
0.0
 40
0.0
 40
0.0
 40
0.0
 40
0.1768371372
 40
0.2621569312
 40
0.3447886387
 40
0.4242698664
 40
0.5001559643
 40
0.5720096115
 40
0.6393898864
 40
0.7018958398
 40
0.7592536596
 40
0.7859386189
 40
0.8112568099
 40
0.8351876763
 40
0.8577229513
 40
0.8788727561
 40
0.8986796092
 40
0.9172205511
 40
0.9346178976
 40
0.9510796604
 40
0.9669514405
 40
0.9748405618
 40
0.9828512434
 40
0.991164604
 40
1.0
 40
1.0
 40
1.0
 40
1.0
 10
4.6622914073
 20
4.1176151028
 30
0.0
 10
4.6764562654
 20
4.1176151028
 30
0.0
 10
4.6974588107
 20
4.1180436739
 30
0.0
 10
4.7250419713
 20
4.1194549451
 30
0.0
 10
4.7448122648
 20
4.1208743374
 30
0.0
 10
4.7637957462
 20
4.1226408795
 30
0.0
 10
4.7818758875
 20
4.1247478268
 30
0.0
 10
4.7989358292
 20
4.1271879907
 30
0.0
 10
4.8148587665
 20
4.1299610716
 30
0.0
 10
4.8295354018
 20
4.1330691764
 30
0.0
 10
4.8409044976
 20
4.136014838
 30
0.0
 10
4.8492813698
 20
4.1385814179
 30
0.0
 10
4.855035171
 20
4.140557703
 30
0.0
 10
4.8603974398
 20
4.1426382231
 30
0.0
 10
4.8653528349
 20
4.144829729
 30
0.0
 10
4.8698873037
 20
4.1471394867
 30
0.0
 10
4.8739843266
 20
4.1495822408
 30
0.0
 10
4.8776283723
 20
4.1521732093
 30
0.0
 10
4.8807913573
 20
4.1549458003
 30
0.0
 10
4.883443007
 20
4.1579355955
 30
0.0
 10
4.8851799356
 20
4.1606704433
 30
0.0
 10
4.8862312005
 20
4.1629923883
 30
0.0
 10
4.886830457
 20
4.1648419978
 30
0.0
 10
4.8872092236
 20
4.166826713
 30
0.0
 10
4.8872914073
 20
4.1682022615
 30
0.0
 10
4.8872914073
 20
4.1689099869
 30
0.0
  0
SPLINE
  5
3AB
100
AcDbEntity
  8
ALL_FEATURES
100
AcDbSpline
 62
7
  6
CONTINUOUS
 70
0
 71
3
 72
30
 73
26
 74
0
 42
0.0000001
 43
0.0000001
 44
0.0000000001
 40
0.0
 40
0.0
 40
0.0
 40
0.0
 40
0.1655901664
 40
0.3222458576
 40
0.3966641139
 40
0.468149853
 40
0.5364636141
 40
0.601364596
 40
0.6626429278
 40
0.7201902743
 40
0.7475596287
 40
0.7739885555
 40
0.8240344284
 40
0.8477148802
 40
0.8705627509
 40
0.8926685954
 40
0.914161224
 40
0.924738336
 40
0.9352415514
 40
0.9457117342
 40
0.9561997626
 40
0.966766195
 40
0.9774870181
 40
0.9884996427
 40
1.0
 40
1.0
 40
1.0
 40
1.0
 10
4.6622914073
 20
3.8920742126
 30
0.0
 10
4.6759981964
 20
3.8920742126
 30
0.0
 10
4.7026788365
 20
3.8928540545
 30
0.0
 10
4.7354052255
 20
3.8957547372
 30
0.0
 10
4.7602257708
 20
3.8991241396
 30
0.0
 10
4.7777115146
 20
3.9020905599
 30
0.0
 10
4.7943068435
 20
3.9055315622
 30
0.0
 10
4.8099276148
 20
3.9094491462
 30
0.0
 10
4.8244926429
 20
3.9138467003
 30
0.0
 10
4.8358698271
 20
3.9179952186
 30
0.0
 10
4.8443561979
 20
3.9215963974
 30
0.0
 10
4.8521361015
 20
3.9252539722
 30
0.0
 10
4.859413753
 20
3.9292584026
 30
0.0
 10
4.8660712812
 20
3.9336910157
 30
0.0
 10
4.8705933235
 20
3.937137637
 30
0.0
 10
4.8747158963
 20
3.9407865999
 30
0.0
 10
4.8778111598
 20
3.9440417092
 30
0.0
 10
4.8800369701
 20
3.9467756753
 30
0.0
 10
4.881574085
 20
3.9488888026
 30
0.0
 10
4.8829780786
 20
3.9510841528
 30
0.0
 10
4.8842393223
 20
3.9533708622
 30
0.0
 10
4.8853475177
 20
3.9557585307
 30
0.0
 10
4.8862973621
 20
3.9582606744
 30
0.0
 10
4.8870501086
 20
3.9609105041
 30
0.0
 10
4.8873819135
 20
3.962748098
 30
0.0
 10
4.8875038494
 20
3.9636922027
 30
0.0
  0
LINE
  5
3AC
100
AcDbEntity
  8
ALL_FEATURES
100
AcDbLine
 62
7
  6
CONTINUOUS
 10
4.8875038494
 20
3.9636922027
 11
4.887745608
 21
3.9675171245
  0
LINE
  5
3AD
100
AcDbEntity
  8
ALL_FEATURES
100
AcDbLine
 62
7
  6
CONTINUOUS
 10
4.887745608
 20
3.9675171245
 11
4.8878377221
 21
3.9600418421
  0
LINE
  5
3AE
100
AcDbEntity
  8
ALL_FEATURES
100
AcDbLine
 62
7
  6
CONTINUOUS
 10
4.8911101807
 20
3.8241735664
 11
4.8913855116
 21
3.8166416819
  0
SPLINE
  5
3AF
100
AcDbEntity
  8
ALL_FEATURES
100
AcDbSpline
 62
7
  6
CONTINUOUS
 70
0
 71
3
 72
13
 73
9
 74
0
 42
0.0000001
 43
0.0000001
 44
0.0000000001
 40
0.0
 40
0.0
 40
0.0
 40
0.0
 40
0.2576367109
 40
0.5115682332
 40
0.6364900298
 40
0.7597038588
 40
0.8809566258
 40
1.0
 40
1.0
 40
1.0
 40
1.0
 10
4.8913855116
 20
3.8166416819
 30
0.0
 10
4.8926140694
 20
3.7836599329
 30
0.0
 10
4.8956501612
 20
3.7181911362
 30
0.0
 10
4.9011190885
 20
3.6368296176
 30
0.0
 10
4.9065927052
 20
3.5727439947
 30
0.0
 10
4.9112314275
 20
3.5256497996
 30
0.0
 10
4.9164466371
 20
3.4793736544
 30
0.0
 10
4.9203605942
 20
3.4488387075
 30
0.0
 10
4.9224266175
 20
3.4337292194
 30
0.0
  0
SPLINE
  5
3B0
100
AcDbEntity
  8
ALL_FEATURES
100
AcDbSpline
 62
7
  6
CONTINUOUS
 70
0
 71
3
 72
29
 73
25
 74
0
 42
0.0000001
 43
0.0000001
 44
0.0000000001
 40
0.0
 40
0.0
 40
0.0
 40
0.0
 40
0.1480518487
 40
0.2184088308
 40
0.2865584091
 40
0.3526592362
 40
0.4167992323
 40
0.4790591291
 40
0.5395187704
 40
0.5982884265
 40
0.655532734
 40
0.7114789299
 40
0.7664243094
 40
0.7936851055
 40
0.8209224182
 40
0.8482740044
 40
0.8759417084
 40
0.9042234361
 40
0.9187392835
 40
0.9335989444
 40
0.9489074962
 40
0.9648770466
 40
0.9817943834
 40
1.0
 40
1.0
 40
1.0
 40
1.0
 10
4.6622914073
 20
3.2954304387
 30
0.0
 10
4.6778674107
 20
3.2954304387
 30
0.0
 10
4.700865276
 20
3.2963917802
 30
0.0
 10
4.7308368158
 20
3.2997156725
 30
0.0
 10
4.7521092926
 20
3.3030610992
 30
0.0
 10
4.7725649793
 20
3.307246865
 30
0.0
 10
4.7921912941
 20
3.3122785111
 30
0.0
 10
4.8109601024
 20
3.3181600128
 30
0.0
 10
4.8288309982
 20
3.32491607
 30
0.0
 10
4.8457607202
 20
3.3325714447
 30
0.0
 10
4.8616847446
 20
3.341193625
 30
0.0
 10
4.8765339079
 20
3.3508458806
 30
0.0
 10
4.8879178912
 20
3.3599307187
 30
0.0
 10
4.896274985
 20
3.3678603157
 30
0.0
 10
4.9021341485
 20
3.3741795986
 30
0.0
 10
4.9075599451
 20
3.3809322934
 30
0.0
 10
4.9124698767
 20
3.3882045512
 30
0.0
 10
4.9160321724
 20
3.3947220957
 30
0.0
 10
4.9184961909
 20
3.400268214
 30
0.0
 10
4.9201540833
 20
3.4046700675
 30
0.0
 10
4.9215887932
 20
3.4093109675
 30
0.0
 10
4.9227131643
 20
3.4142612466
 30
0.0
 10
4.9234434816
 20
3.4195937035
 30
0.0
 10
4.9236057888
 20
3.4232915208
 30
0.0
 10
4.9236057888
 20
3.4252068683
 30
0.0
  0
SPLINE
  5
3B1
100
AcDbEntity
  8
ALL_FEATURES
100
AcDbSpline
 62
7
  6
CONTINUOUS
 70
0
 71
3
 72
9
 73
5
 74
0
 42
0.0000001
 43
0.0000001
 44
0.0000000001
 40
0.0
 40
0.0
 40
0.0
 40
0.0
 40
0.5166737202
 40
1.0
 40
1.0
 40
1.0
 40
1.0
 10
4.9337752053
 20
3.3589398704
 30
0.0
 10
4.9337752053
 20
3.3607905325
 30
0.0
 10
4.9336301898
 20
3.3643743198
 30
0.0
 10
4.9331832892
 20
3.367932793
 30
0.0
 10
4.9328968211
 20
3.3696401429
 30
0.0
  0
SPLINE
  5
3B2
100
AcDbEntity
  8
ALL_FEATURES
100
AcDbSpline
 62
7
  6
CONTINUOUS
 70
0
 71
3
 72
11
 73
7
 74
0
 42
0.0000001
 43
0.0000001
 44
0.0000000001
 40
0.0
 40
0.0
 40
0.0
 40
0.0
 40
0.2731052177
 40
0.5279895418
 40
0.7690269149
 40
1.0
 40
1.0
 40
1.0
 40
1.0
 10
5.0165752837
 20
3.0211399558
 30
0.0
 10
5.0165752837
 20
3.0233156738
 30
0.0
 10
5.0164018674
 20
3.0275246033
 30
0.0
 10
5.0156165204
 20
3.0336079822
 30
0.0
 10
5.0143917707
 20
3.0392742966
 30
0.0
 10
5.0133148182
 20
3.0428809599
 30
0.0
 10
5.0127296236
 20
3.044625494
 30
0.0
  0
SPLINE
  5
3B3
100
AcDbEntity
  8
ALL_FEATURES
100
AcDbSpline
 62
7
  6
CONTINUOUS
 70
0
 71
3
 72
31
 73
27
 74
0
 42
0.0000001
 43
0.0000001
 44
0.0000000001
 40
0.0
 40
0.0
 40
0.0
 40
0.0
 40
0.0747615748
 40
0.1469211772
 40
0.2167094072
 40
0.2843454487
 40
0.350016367
 40
0.4138308674
 40
0.4758862087
 40
0.5362750039
 40
0.5951142155
 40
0.6525639245
 40
0.7088395325
 40
0.764220329
 40
0.7917299073
 40
0.8192306929
 40
0.8468550156
 40
0.8747996012
 40
0.8889816484
 40
0.9033669944
 40
0.9180202486
 40
0.9330167407
 40
0.9484621672
 40
0.9645712692
 40
0.981635132
 40
1.0
 40
1.0
 40
1.0
 40
1.0
 10
4.6622914073
 20
3.2208203585
 30
0.0
 10
4.6704993093
 20
3.2208203585
 30
0.0
 10
4.6866321693
 20
3.2211831432
 30
0.0
 10
4.7103756317
 20
3.2228282156
 30
0.0
 10
4.7332382432
 20
3.225502744
 30
0.0
 10
4.755244424
 20
3.2291453646
 30
0.0
 10
4.7764118765
 20
3.2336911589
 30
0.0
 10
4.7967323185
 20
3.2391397693
 30
0.0
 10
4.8161817031
 20
3.2454889855
 30
0.0
 10
4.8347221539
 20
3.2527585468
 30
0.0
 10
4.8523122289
 20
3.260967763
 30
0.0
 10
4.8688859809
 20
3.2701819565
 30
0.0
 10
4.8843720399
 20
3.2804619175
 30
0.0
 10
4.8962654748
 20
3.2901009499
 30
0.0
 10
4.9050160725
 20
3.2984951354
 30
0.0
 10
4.9111618244
 20
3.305177729
 30
0.0
 10
4.9168608395
 20
3.3123083306
 30
0.0
 10
4.9211431395
 20
3.3186698142
 30
0.0
 10
4.9242472471
 20
3.324044174
 30
0.0
 10
4.9264108324
 20
3.3282698377
 30
0.0
 10
4.9283771359
 20
3.3326892249
 30
0.0
 10
4.9301267656
 20
3.3373235528
 30
0.0
 10
4.931642343
 20
3.3422083883
 30
0.0
 10
4.9328309442
 20
3.3474184572
 30
0.0
 10
4.9336034579
 20
3.3530311696
 30
0.0
 10
4.9337752053
 20
3.3569236337
 30
0.0
 10
4.9337752053
 20
3.3589398704
 30
0.0
  0
SPLINE
  5
3B4
100
AcDbEntity
  8
ALL_FEATURES
100
AcDbSpline
 62
7
  6
CONTINUOUS
 70
0
 71
3
 72
11
 73
7
 74
0
 42
0.0000001
 43
0.0000001
 44
0.0000000001
 40
0.0
 40
0.0
 40
0.0
 40
0.0
 40
0.2736638451
 40
0.5284997642
 40
0.7692575867
 40
1.0
 40
1.0
 40
1.0
 40
1.0
 10
5.0231847326
 20
3.0017201712
 30
0.0
 10
5.0231847326
 20
3.0040130765
 30
0.0
 10
5.0229938708
 20
3.0084442163
 30
0.0
 10
5.0221293561
 20
3.0148397419
 30
0.0
 10
5.0207854966
 20
3.0207824539
 30
0.0
 10
5.0196090714
 20
3.024557951
 30
0.0
 10
5.0189718625
 20
3.0263832071
 30
0.0
  0
LINE
  5
3B5
100
AcDbEntity
  8
ALL_FEATURES
100
AcDbLine
 62
7
  6
CONTINUOUS
 10
4.8873090074
 20
4.0302608441
 11
4.8873289529
 21
4.0231197016
  0
LINE
  5
3B6
100
AcDbEntity
  8
ALL_FEATURES
100
AcDbLine
 62
7
  6
CONTINUOUS
 10
4.8873390574
 20
4.0202577798
 11
4.8873770896
 21
4.0115861026
  0
SPLINE
  5
3B7
100
AcDbEntity
  8
ALL_FEATURES
100
AcDbSpline
 62
7
  6
CONTINUOUS
 70
0
 71
3
 72
11
 73
7
 74
0
 42
0.0000001
 43
0.0000001
 44
0.0000000001
 40
0.0
 40
0.0
 40
0.0
 40
0.0
 40
0.2735160524
 40
0.5320903994
 40
0.774635981
 40
1.0
 40
1.0
 40
1.0
 40
1.0
 10
4.9337752053
 20
3.3589398704
 30
0.0
 10
4.9386118216
 20
3.3300254758
 30
0.0
 10
4.9490223522
 20
3.2739380535
 30
0.0
 10
4.9670791395
 20
3.1928808303
 30
0.0
 10
4.9866781179
 20
3.117505492
 30
0.0
 10
5.0010027985
 20
3.0694300539
 30
0.0
 10
5.008331995
 20
3.0464137494
 30
0.0
  0
LINE
  5
3B8
100
AcDbEntity
  8
ALL_FEATURES
100
AcDbLine
 62
7
  6
CONTINUOUS
 10
5.008331995
 20
3.0464137494
 11
5.0092763774
 21
3.0434562974
  0
SPLINE
  5
3B9
100
AcDbEntity
  8
ALL_FEATURES
100
AcDbSpline
 62
7
  6
CONTINUOUS
 70
0
 71
3
 72
19
 73
15
 74
0
 42
0.0000001
 43
0.0000001
 44
0.0000000001
 40
0.0
 40
0.0
 40
0.0
 40
0.0
 40
0.1434916815
 40
0.2804723821
 40
0.3467776675
 40
0.4117519161
 40
0.4754856296
 40
0.5380327409
 40
0.5994287899
 40
0.6597124448
 40
0.7770608882
 40
0.8342131884
 40
0.8903966461
 40
1.0
 40
1.0
 40
1.0
 40
1.0
 10
4.6622914073
 20
2.8604280091
 30
0.0
 10
4.6756378287
 20
2.8604280091
 30
0.0
 10
4.7017300899
 20
2.8610605304
 30
0.0
 10
4.7339079666
 20
2.863489038
 30
0.0
 10
4.758698163
 20
2.8663419079
 30
0.0
 10
4.776659959
 20
2.8688827065
 30
0.0
 10
4.7942055347
 20
2.8718275198
 30
0.0
 10
4.8113400859
 20
2.8751738775
 30
0.0
 10
4.8280618248
 20
2.8789274259
 30
0.0
 10
4.8496053624
 20
2.8844275122
 30
0.0
 10
4.870512969
 20
2.8907963973
 30
0.0
 10
4.890686719
 20
2.8981168555
 30
0.0
 10
4.9099054806
 20
2.9059097265
 30
0.0
 10
4.9238435907
 20
2.9125674302
 30
0.0
 10
4.9328176992
 20
2.9174038859
 30
0.0
  0
SPLINE
  5
3BA
100
AcDbEntity
  8
ALL_FEATURES
100
AcDbSpline
 62
7
  6
CONTINUOUS
 70
0
 71
3
 72
26
 73
22
 74
0
 42
0.0000001
 43
0.0000001
 44
0.0000000001
 40
0.0
 40
0.0
 40
0.0
 40
0.0
 40
0.1232805419
 40
0.2446058805
 40
0.3046658848
 40
0.3644094137
 40
0.423922343
 40
0.4833215863
 40
0.5427631759
 40
0.602466741
 40
0.6325133128
 40
0.6627483914
 40
0.7240268853
 40
0.755242241
 40
0.7869619394
 40
0.8192955615
 40
0.8524312586
 40
0.8866729283
 40
0.9223889723
 40
0.9600058871
 40
1.0
 40
1.0
 40
1.0
 40
1.0
 10
4.9328176992
 20
2.9174038859
 30
0.0
 10
4.9378724442
 20
2.9201280619
 30
0.0
 10
4.947754392
 20
2.9258136945
 30
0.0
 10
4.9595723638
 20
2.9336924897
 30
0.0
 10
4.96854785
 20
2.9404480177
 30
0.0
 10
4.9750146073
 20
2.9457377595
 30
0.0
 10
4.9812148844
 20
2.9512921992
 30
0.0
 10
4.9871247704
 20
2.9571355491
 30
0.0
 10
4.9927162966
 20
2.9632973429
 30
0.0
 10
4.9970597087
 20
2.9687287532
 30
0.0
 10
5.000319336
 20
2.9732696444
 30
0.0
 10
5.0034530945
 20
2.9779863797
 30
0.0
 10
5.0063332217
 20
2.9829334175
 30
0.0
 10
5.0089079911
 20
2.9881162875
 30
0.0
 10
5.0106962888
 20
2.9921791838
 30
0.0
 10
5.0123233762
 20
2.9964053682
 30
0.0
 10
5.0137618837
 20
3.0008239727
 30
0.0
 10
5.0149594487
 20
3.0054777082
 30
0.0
 10
5.0158704293
 20
3.0104091381
 30
0.0
 10
5.0164478386
 20
3.0156605836
 30
0.0
 10
5.0165752837
 20
3.0192771334
 30
0.0
 10
5.0165752837
 20
3.0211399558
 30
0.0
  0
SPLINE
  5
3BB
100
AcDbEntity
  8
ALL_FEATURES
100
AcDbSpline
 62
7
  6
CONTINUOUS
 70
0
 71
3
 72
31
 73
27
 74
0
 42
0.0000001
 43
0.0000001
 44
0.0000000001
 40
0.0
 40
0.0
 40
0.0
 40
0.0
 40
0.1492180891
 40
0.2199168242
 40
0.2883368374
 40
0.3546944362
 40
0.419101367
 40
0.4816511173
 40
0.5424290853
 40
0.6015346301
 40
0.6590718412
 40
0.7151898811
 40
0.7427790105
 40
0.7701045221
 40
0.7972272717
 40
0.824228215
 40
0.8512288898
 40
0.8784190928
 40
0.892177819
 40
0.9061118668
 40
0.9202907424
 40
0.9347974459
 40
0.949748014
 40
0.9653742029
 40
0.9819962775
 40
1.0
 40
1.0
 40
1.0
 40
1.0
 10
4.6622914073
 20
2.8416077039
 30
0.0
 10
4.6834281841
 20
2.8416077039
 30
0.0
 10
4.7145997194
 20
2.842725989
 30
0.0
 10
4.7552650521
 20
2.8466123455
 30
0.0
 10
4.7841156153
 20
2.8505174612
 30
0.0
 10
4.8119124782
 20
2.8553984268
 30
0.0
 10
4.8386660398
 20
2.8612774262
 30
0.0
 10
4.8643594925
 20
2.8681743359
 30
0.0
 10
4.8889559759
 20
2.8761385112
 30
0.0
 10
4.9124077862
 20
2.8852158484
 30
0.0
 10
4.9346242811
 20
2.8955196562
 30
0.0
 10
4.9521221569
 20
2.9052744284
 30
0.0
 10
4.9652941392
 20
2.9138794382
 30
0.0
 10
4.9746879914
 20
2.9207295575
 30
0.0
 10
4.9836189773
 20
2.9280443954
 30
0.0
 10
4.9920252181
 20
2.9358924838
 30
0.0
 10
4.9998435467
 20
2.9443431576
 30
0.0
 10
5.0057417715
 20
2.9519695662
 30
0.0
 10
5.0100220795
 20
2.9584631285
 30
0.0
 10
5.0130060509
 20
2.9635929735
 30
0.0
 10
5.015720757
 20
2.9689897306
 30
0.0
 10
5.018138606
 20
2.9746828885
 30
0.0
 10
5.0202351894
 20
2.980721364
 30
0.0
 10
5.0218805234
 20
2.9872115739
 30
0.0
 10
5.0229493599
 20
2.9942607683
 30
0.0
 10
5.0231847326
 20
2.9991699397
 30
0.0
 10
5.0231847326
 20
3.0017201712
 30
0.0
  0
SPLINE
  5
3BC
100
AcDbEntity
  8
ALL_FEATURES
100
AcDbSpline
 62
7
  6
CONTINUOUS
 70
0
 71
3
 72
30
 73
26
 74
0
 42
0.0000001
 43
0.0000001
 44
0.0000000001
 40
0.0
 40
0.0
 40
0.0
 40
0.0
 40
0.1701991446
 40
0.2520609874
 40
0.331331238
 40
0.4076843265
 40
0.4807941141
 40
0.5503395189
 40
0.6159979219
 40
0.6774886696
 40
0.7346495597
 40
0.7615813734
 40
0.7873975768
 40
0.8120960846
 40
0.835689419
 40
0.8582099579
 40
0.8797225397
 40
0.9003287489
 40
0.9201802143
 40
0.9395151956
 40
0.9587103503
 40
0.9684375402
 40
0.9784211147
 40
0.9888616536
 40
1.0
 40
1.0
 40
1.0
 40
1.0
 10
4.6622914073
 20
3.979334631
 30
0.0
 10
4.6763182647
 20
3.979334631
 30
0.0
 10
4.6970977493
 20
3.979885852
 30
0.0
 10
4.7243450818
 20
3.9817152655
 30
0.0
 10
4.7438333425
 20
3.9835538419
 30
0.0
 10
4.7625473343
 20
3.9858425629
 30
0.0
 10
4.7803920714
 20
3.9885732578
 30
0.0
 10
4.7972697127
 20
3.9917371704
 30
0.0
 10
4.8130807369
 20
3.995334916
 30
0.0
 10
4.8277308116
 20
3.9993695755
 30
0.0
 10
4.8391156691
 20
4.0031829416
 30
0.0
 10
4.8475475644
 20
4.0064972341
 30
0.0
 10
4.853394646
 20
4.0090612642
 30
0.0
 10
4.8588754364
 20
4.01176156
 30
0.0
 10
4.8639740388
 20
4.0146069878
 30
0.0
 10
4.8686756145
 20
4.0176070408
 30
0.0
 10
4.8729601931
 20
4.0207810065
 30
0.0
 10
4.8768085828
 20
4.0241490327
 30
0.0
 10
4.8801834057
 20
4.0277528441
 30
0.0
 10
4.8830454665
 20
4.0316368041
 30
0.0
 10
4.8849309947
 20
4.0351578073
 30
0.0
 10
4.8860948226
 20
4.0381493744
 30
0.0
 10
4.8867682519
 20
4.0405460989
 30
0.0
 10
4.8871974361
 20
4.0431168356
 30
0.0
 10
4.8872914073
 20
4.0448971428
 30
0.0
 10
4.8872914073
 20
4.0458151028
 30
0.0
  0
ENDSEC
  0
SECTION
  2
OBJECTS
  0
DICTIONARY
  5
C
100
AcDbDictionary
280
0
281
1
  3
ACAD_GROUP
350
D
  3
ACAD_MLINESTYLE
350
17
  3
ACAD_LAYOUT
350
1A
  3
ACAD_PLOTSETTINGS
350
19
  3
ACAD_PLOTSTYLENAME
350
E
  0
DICTIONARY
  5
D
102
{ACAD_REACTORS
330
C
102
}
100
AcDbDictionary
280
0
281
1
  0
ACDBDICTIONARYWDFLT
  5
E
102
{ACAD_REACTORS
330
C
102
}
100
AcDbDictionary
281
1
  3
Normal
350
F
100
AcDbDictionaryWithDefault
340
F
  0
DICTIONARY
  5
17
102
{ACAD_REACTORS
330
C
102
}
100
AcDbDictionary
280
0
281
1
  3
Standard
350
18
  0
DICTIONARY
  5
19
102
{ACAD_REACTORS
330
C
102
}
100
AcDbDictionary
281
1
  0
DICTIONARY
  5
1A
102
{ACAD_REACTORS
330
C
102
}
100
AcDbDictionary
281
1
  3
Model
350
3BD
  3
Layout1
350
3BE
  0
ACDBPLACEHOLDER
  5
F
102
{ACAD_REACTORS
330
E
102
}
  0
MLINESTYLE
  5
18
102
{ACAD_REACTORS
330
17
102
}
100
AcDbMlineStyle
  2
STANDARD
 70
0
  3

 62
256
 51
90.0
 52
90.0
 71
2
 49
0.5
 62
256
  6
BYLAYER
 49
-0.5
 62
256
  6
BYLAYER
  0
LAYOUT
  5
3BD
102
{ACAD_REACTORS
330
1A
102
}
100
AcDbPlotSettings
  1

  2
none_device
  4
ANSI_A_(11.00_x_8.50_Inches)
  6

 40
0.0
 41
0.0
 42
0.0
 43
0.0
 44
279.4
 45
215.9
 46
0.0
 47
0.0
 48
0.0
 49
0.0
140
0.0
141
0.0
142
1.0
143
1.0
 70
1024
 72
0
 73
0
 74
0
  7

 75
0
147
1.0
148
0.0
149
0.0
100
AcDbLayout
  1
Model
 70
0
 71
0
 10
0.0
 20
0.0
 11
11.0
 21
8.5
 12
0.0
 22
0.0
 32
0.0
 14
0.0
 24
0.0
 34
0.0
 15
0.0
 25
0.0
 35
0.0
146
0.0
 13
0.0
 23
0.0
 33
0.0
 16
1.0
 26
0.0
 36
0.0
 17
0.0
 27
1.0
 37
0.0
 76
0
330
21A
345
0
346
0
  0
LAYOUT
  5
3BE
102
{ACAD_REACTORS
330
1A
102
}
100
AcDbPlotSettings
  1

  2
none_device
  4
ANSI_A_(11.00_x_8.50_Inches)
  6

 40
0.0
 41
0.0
 42
0.0
 43
0.0
 44
279.4
 45
215.9
 46
0.0
 47
0.0
 48
0.0
 49
0.0
140
0.0
141
0.0
142
1.0
143
1.0
 70
0
 72
0
 73
0
 74
0
  7

 75
0
147
1.0
148
0.0
149
0.0
100
AcDbLayout
  1
Layout1
 70
0
 71
1
 10
0.0
 20
0.0
 11
11.0
 21
8.5
 12
0.0
 22
0.0
 32
0.0
 14
0.0
 24
0.0
 34
0.0
 15
0.0
 25
0.0
 35
0.0
146
0.0
 13
0.0
 23
0.0
 33
0.0
 16
1.0
 26
0.0
 36
0.0
 17
0.0
 27
1.0
 37
0.0
 76
0
330
21B
345
0
346
0
  0
ENDSEC
  0
EOF
