999
DXF file: E:\BT Custom\CADOUTPUT\_TOP.dxf
999
Pro/ENGINEER 2018400 by Parametric Technology Corporation
  0
SECTION
  2
HEADER
  9
$ACADVER
  1
AC1018
  9
$DWGCODEPAGE
  3
ANSI_1252
  9
$EXTMAX
 10
22.0
 20
17.0
 30
0.0
  9
$EXTMIN
 10
0.0
 20
0.0
 30
0.0
  9
$LIMMIN
 10
0.0
 20
0.0
  9
$LIMMAX
 10
22.0
 20
17.0
  9
$VIEWCTR
 10
11.0
 20
8.5
  9
$VIEWSIZE
 40
17.0
  9
$CLAYER
  8
0
  9
$LTSCALE
 40
1.21
  9
$CELTYPE
  6
BYLAYER
  9
$DIMSCALE
 40
1.0
  9
$DIMASZ
 40
0.1
  9
$DIMEXO
 40
0.0625
  9
$DIMDLI
 40
0.836
  9
$DIMEXE
 40
0.125
  9
$DIMCEN
 40
0.198
  9
$DIMLFAC
 40
1.0
  9
$DIMBLK
  1
_FILLED
  9
$DIMALT
 70
1
  9
$DIMALTD
 70
2
  9
$DIMALTTD
 70
2
  9
$DIMALTF
 40
25.4
  9
$DIMTXT
 40
0.08
  9
$DIMTOL
 70
1
  9
$DIMLIM
 70
0
  9
$DIMTFAC
 40
1.0
  9
$DIMTP
 40
0.001
  9
$DIMTM
 40
0.001
  9
$DIMGAP
 40
0.09
  9
$DIMDSEP
 70
46
  9
$AUNITS
 70
0
  9
$PDMODE
 70
3
  9
$PDSIZE
 40
0.06
  9
$HANDSEED
  5
2F1
  9
$TILEMODE
 70
1
  9
$MEASUREMENT
 70
0
  9
$INSUNITS
 70
1
  0
ENDSEC
  0
SECTION
  2
CLASSES
  0
CLASS
  1
ACDBDICTIONARYWDFLT
  2
AcDbDictionaryWithDefault
  3
AutoCAD 2000
 90
0
 91
1
280
0
281
0
  0
CLASS
  1
ACDBPLACEHOLDER
  2
AcDbPlaceHolder
  3
AutoCAD 2000
 90
0
 91
1
280
0
281
0
  0
CLASS
  1
LAYOUT
  2
AcDbLayout
  3
AutoCAD 2000
 90
0
 91
0
280
0
281
0
  0
ENDSEC
  0
SECTION
  2
TABLES
  0
TABLE
  2
VPORT
  5
8
100
AcDbSymbolTable
 70
2
  0
VPORT
  5
1F4
100
AcDbSymbolTableRecord
100
AcDbViewportTableRecord
  2
*ACTIVE
 70
0
 10
0.0
 20
0.0
 11
1.0
 21
1.0
 12
11.0
 22
8.5
 13
0.0
 23
0.0
 14
1.0
 24
1.0
 15
0.0
 25
0.0
 16
0.0
 26
0.0
 36
1.0
 17
0.0
 27
0.0
 37
0.0
 40
17.0
 41
1.2941176471
 42
50.0
 43
0.0
 44
0.0
 50
0.0
 51
0.0
 71
0
 72
100
 73
1
 74
1
 75
0
 76
0
 77
0
 78
0
  0
ENDTAB
  0
TABLE
  2
LTYPE
  5
5
100
AcDbSymbolTable
 70
6
  0
LTYPE
  5
14
100
AcDbSymbolTableRecord
100
AcDbLinetypeTableRecord
  2
BYBLOCK
 70
0
  3

 72
65
 73
0
 40
0.0
  0
LTYPE
  5
15
100
AcDbSymbolTableRecord
100
AcDbLinetypeTableRecord
  2
BYLAYER
 70
0
  3

 72
65
 73
0
 40
0.0
  0
LTYPE
  5
16
100
AcDbSymbolTableRecord
100
AcDbLinetypeTableRecord
  2
CONTINUOUS
 70
64
  3
Solid line
 72
65
 73
0
 40
0.0
  0
LTYPE
  5
1F5
100
AcDbSymbolTableRecord
100
AcDbLinetypeTableRecord
  2
CENTER
 70
64
  3
____ _ ____ _ ____ _ ____ _ ____ _ ____ _ ____
 72
65
 73
4
 40
0.6
 49
0.375
 74
0
 49
-0.075
 74
0
 49
0.075
 74
0
 49
-0.075
 74
0
  0
LTYPE
  5
1F6
100
AcDbSymbolTableRecord
100
AcDbLinetypeTableRecord
  2
HIDDEN
 70
64
  3
- - - - - - - - - - - - - - - - - - - -
 72
65
 73
2
 40
0.2
 49
0.1
 74
0
 49
-0.1
 74
0
  0
LTYPE
  5
1F7
100
AcDbSymbolTableRecord
100
AcDbLinetypeTableRecord
  2
PHANTOM
 70
64
  3
_____ _ _ _____ _ _ _____ _ _ _____
 72
65
 73
6
 40
0.8
 49
0.45
 74
0
 49
-0.05
 74
0
 49
0.1
 74
0
 49
-0.05
 74
0
 49
0.1
 74
0
 49
-0.05
 74
0
  0
LTYPE
  5
1F8
100
AcDbSymbolTableRecord
100
AcDbLinetypeTableRecord
  2
DOT
 70
64
  3
. . . . . . . . . . . . . . . . . . . .
 72
65
 73
2
 40
0.2
 49
0.1
 74
0
 49
-0.1
 74
0
  0
LTYPE
  5
1F9
100
AcDbSymbolTableRecord
100
AcDbLinetypeTableRecord
  2
DASHED
 70
64
  3
- - - - - - - - - - - - - - - - - - - -
 72
65
 73
2
 40
0.2
 49
0.1
 74
0
 49
-0.1
 74
0
  0
ENDTAB
  0
TABLE
  2
LAYER
  5
2
100
AcDbSymbolTable
 70
36
  0
LAYER
  5
10
100
AcDbSymbolTableRecord
100
AcDbLayerTableRecord
  2
0
 70
0
 62
7
  6
CONTINUOUS
370
-3
390
F
  0
LAYER
  5
1FA
100
AcDbSymbolTableRecord
100
AcDbLayerTableRecord
  2
DEFAULT_1
 70
0
 62
7
  6
CENTER
370
-3
390
F
  0
LAYER
  5
1FB
100
AcDbSymbolTableRecord
100
AcDbLayerTableRecord
  2
DEFAULT_2
 70
0
 62
8
  6
HIDDEN
370
-3
390
F
  0
LAYER
  5
1FC
100
AcDbSymbolTableRecord
100
AcDbLayerTableRecord
  2
DEFAULT_3
 70
0
 62
7
  6
PHANTOM
370
-3
390
F
  0
LAYER
  5
1FD
100
AcDbSymbolTableRecord
100
AcDbLayerTableRecord
  2
ALL_FEATURES
 70
0
 62
7
  6
CONTINUOUS
370
-3
390
F
  0
LAYER
  5
1FE
100
AcDbSymbolTableRecord
100
AcDbLayerTableRecord
  2
AXES_FEATURES
 70
0
 62
7
  6
CONTINUOUS
370
-3
390
F
  0
LAYER
  5
1FF
100
AcDbSymbolTableRecord
100
AcDbLayerTableRecord
  2
DIMENSIONS
 70
0
 62
7
  6
CONTINUOUS
370
-3
390
F
  0
ENDTAB
  0
TABLE
  2
STYLE
  5
3
100
AcDbSymbolTable
 70
1
  0
STYLE
  5
11
100
AcDbSymbolTableRecord
100
AcDbTextStyleTableRecord
  2
STANDARD
 70
0
 40
0.0
 41
0.8
 50
0.0
 71
0
 42
0.2
  3
txt
  4

  0
STYLE
  5
200
100
AcDbSymbolTableRecord
100
AcDbTextStyleTableRecord
  2
TEXTSTYLE_1
 70
0
 40
0.0
 41
0.8
 50
0.0
 71
0
 42
0.2
  3
gdt
  4

  0
ENDTAB
  0
TABLE
  2
VIEW
  5
6
100
AcDbSymbolTable
 70
0
  0
ENDTAB
  0
TABLE
  2
UCS
  5
7
100
AcDbSymbolTable
 70
0
  0
ENDTAB
  0
TABLE
  2
APPID
  5
9
100
AcDbSymbolTable
 70
1
  0
APPID
  5
201
100
AcDbSymbolTableRecord
100
AcDbRegAppTableRecord
  2
ACAD
 70
0
  0
ENDTAB
  0
TABLE
  2
BLOCK_RECORD
  5
1
100
AcDbSymbolTable
 70
0
  0
BLOCK_RECORD
  5
202
100
AcDbSymbolTableRecord
100
AcDbBlockTableRecord
  2
*Model_Space
  0
BLOCK_RECORD
  5
203
100
AcDbSymbolTableRecord
100
AcDbBlockTableRecord
  2
*Paper_Space
  0
BLOCK_RECORD
  5
204
100
AcDbSymbolTableRecord
100
AcDbBlockTableRecord
  2
_FILLED
  0
ENDTAB
  0
TABLE
  2
DIMSTYLE
  5
A
100
AcDbSymbolTable
 70
1
100
AcDbDimStyleTable
 71
0
  0
DIMSTYLE
105
205
100
AcDbSymbolTableRecord
100
AcDbDimStyleTableRecord
  2
STANDARD
 70
0
  3

  4

 40
1.0
 41
0.1
 42
0.0625
 43
0.38
 44
0.125
 45
0.0
 46
0.0
 47
0.001
 48
0.001
140
0.08
141
0.09
142
0.0
143
25.4
144
1.0
145
0.0
146
1.0
147
0.09
 71
1.0
 72
0.0
 73
1
 74
1
 75
0
 76
0
 77
0
 78
4
 79
1
170
1
171
2
172
0
173
0
174
0
175
0
176
0
177
0
178
0
270
2
179
3
271
3
272
3
273
2
274
2
275
0
280
0
281
0
282
0
283
1
284
4
285
0
286
0
287
3
288
0
340
11
278
46
341
204
342
204
343
204
344
204
  0
ENDTAB
  0
ENDSEC
  0
SECTION
  2
BLOCKS
  0
BLOCK
  5
20
100
AcDbEntity
  8
0
100
AcDbBlockBegin
  2
*Model_Space
 70
0
 10
0.0
 20
0.0
 30
0.0
  3
*Model_Space
  1

  0
ENDBLK
  5
21
100
AcDbEntity
  8
0
100
AcDbBlockEnd
  0
BLOCK
  5
1C
100
AcDbEntity
  8
0
100
AcDbBlockBegin
  2
*Paper_Space
 70
0
 10
0.0
 20
0.0
 30
0.0
  3
*Paper_Space
  1

  0
ENDBLK
  5
1D
100
AcDbEntity
  8
0
100
AcDbBlockEnd
  0
BLOCK
  5
206
100
AcDbEntity
  8
0
100
AcDbBlockBegin
  2
_FILLED
 70
64
 10
0.0
 20
0.0
  3
_FILLED
  1

  0
SOLID
  5
207
100
AcDbEntity
  8
0
  6
BYBLOCK
 62
0
100
AcDbTrace
 10
0.0
 20
0.0
 11
-1.0
 21
0.2
 12
-1.0
 22
-0.2
 13
-1.0
 23
-0.2
  0
ENDBLK
  5
208
100
AcDbEntity
  8
0
  6
BYBLOCK
 62
0
100
AcDbBlockEnd
  0
ENDSEC
  0
SECTION
  2
ENTITIES
  0
LINE
  5
209
100
AcDbEntity
  8
0
100
AcDbLine
 62
7
  6
CONTINUOUS
 10
3.7473183383
 20
10.9306628622
 11
3.7473183383
 21
10.431654221
  0
LINE
  5
20A
100
AcDbEntity
  8
0
100
AcDbLine
 62
9
  6
CONTINUOUS
 10
3.7698056477
 20
10.9774901838
 11
3.7698056477
 21
10.3848268994
  0
LINE
  5
20B
100
AcDbEntity
  8
0
100
AcDbLine
 62
9
  6
CONTINUOUS
 10
3.8673641451
 20
11.127875745
 11
3.8673641451
 21
10.2344413382
  0
LINE
  5
20C
100
AcDbEntity
  8
0
100
AcDbLine
 62
9
  6
CONTINUOUS
 10
3.9254154667
 20
11.1727085416
 11
3.9254154667
 21
10.1896085416
  0
LINE
  5
20D
100
AcDbEntity
  8
0
100
AcDbLine
 62
9
  6
CONTINUOUS
 10
3.9473183383
 20
10.1896085416
 11
3.9473183383
 21
11.1727085416
  0
LINE
  5
20E
100
AcDbEntity
  8
0
100
AcDbLine
 62
7
  6
CONTINUOUS
 10
3.9873183383
 20
10.2296085416
 11
3.9873183383
 21
11.1326797288
  0
LINE
  5
20F
100
AcDbEntity
  8
0
100
AcDbLine
 62
7
  6
CONTINUOUS
 10
6.162318338
 20
10.9601585332
 11
6.162318338
 21
10.4021585416
  0
LINE
  5
210
100
AcDbEntity
  8
0
100
AcDbLine
 62
9
  6
CONTINUOUS
 10
6.2426937264
 20
11.0078625167
 11
6.2426937264
 21
10.3544545665
  0
LINE
  5
211
100
AcDbEntity
  8
0
100
AcDbLine
 62
9
  6
CONTINUOUS
 10
6.510316113
 20
10.9835382588
 11
6.510316113
 21
10.3787788244
  0
LINE
  5
212
100
AcDbEntity
  8
0
100
AcDbLine
 62
7
  6
CONTINUOUS
 10
6.5573183383
 20
10.4181611661
 11
6.5573183383
 21
10.9441093197
  0
LINE
  5
213
100
AcDbEntity
  8
0
100
AcDbLine
 62
7
  6
CONTINUOUS
 10
6.6593183383
 20
10.4505085416
 11
6.6593183383
 21
10.9118085416
  0
LINE
  5
214
100
AcDbEntity
  8
0
100
AcDbLine
 62
7
  6
CONTINUOUS
 10
10.3453183383
 20
9.7161585416
 11
10.3453183383
 21
9.8311585416
  0
LINE
  5
215
100
AcDbEntity
  8
0
100
AcDbLine
 62
7
  6
CONTINUOUS
 10
10.3953183383
 20
8.5531585416
 11
10.3953183383
 21
8.5591491079
  0
LINE
  5
216
100
AcDbEntity
  8
0
100
AcDbLine
 62
7
  6
CONTINUOUS
 10
10.4473183383
 20
7.4391585416
 11
10.4473311148
 21
8.5331585474
  0
LWPOLYLINE
  5
217
100
AcDbEntity
  8
0
100
AcDbPolyline
 62
7
  6
CONTINUOUS
 90
4
 70
0
 10
10.4490301101
 20
6.7555513779
 10
10.448816385
 20
6.5067779363
 10
10.447069101
 20
6.2599066752
 10
10.4439569374
 20
6.0556950902
  0
LINE
  5
218
100
AcDbEntity
  8
0
100
AcDbLine
 62
9
  6
CONTINUOUS
 10
10.4439319581
 20
6.05314963
 11
10.4439569374
 21
6.0556950902
  0
LINE
  5
219
100
AcDbEntity
  8
0
100
AcDbLine
 62
7
  6
CONTINUOUS
 10
10.4439569374
 20
6.0556950902
 11
10.4439569953
 21
6.0556980303
  0
LWPOLYLINE
  5
21A
100
AcDbEntity
  8
0
100
AcDbPolyline
 62
7
  6
CONTINUOUS
 90
4
 70
0
 10
10.4439569953
 20
6.0556980303
 10
10.4299973019
 20
5.6184249497
 10
10.4036220821
 20
5.2055776753
 10
10.3672348083
 20
4.86189145
  0
LINE
  5
21B
100
AcDbEntity
  8
0
100
AcDbLine
 62
9
  6
CONTINUOUS
 10
10.365638725
 20
4.837005183
 11
10.3672348083
 21
4.86189145
  0
LWPOLYLINE
  5
21C
100
AcDbEntity
  8
0
100
AcDbPolyline
 62
7
  6
CONTINUOUS
 90
3
 70
0
 10
12.131623282
 20
3.3925965125
 10
12.0932292356
 20
3.4859806149
 10
12.0482843814
 20
3.6004585916
  0
LINE
  5
21D
100
AcDbEntity
  8
0
100
AcDbLine
 62
9
  6
CONTINUOUS
 10
11.0473183383
 20
2.8335051792
 11
11.0473183387
 21
8.5331585483
  0
LINE
  5
21E
100
AcDbEntity
  8
0
100
AcDbLine
 62
9
  6
CONTINUOUS
 10
10.2485677578
 20
4.2122755665
 11
10.2545351277
 21
4.2613362207
  0
LINE
  5
21F
100
AcDbEntity
  8
0
100
AcDbLine
 62
7
  6
CONTINUOUS
 10
10.3672348083
 20
4.86189145
 11
10.3672354395
 21
4.8618962942
  0
LWPOLYLINE
  5
220
100
AcDbEntity
  8
0
100
AcDbPolyline
 62
7
  6
CONTINUOUS
 90
4
 70
0
 10
10.3672354395
 20
4.8618962942
 10
10.3397958226
 20
4.6745534127
 10
10.3003774663
 20
4.4618900069
 10
10.2545351277
 20
4.2613362207
  0
LINE
  5
221
100
AcDbEntity
  8
0
100
AcDbLine
 62
7
  6
CONTINUOUS
 10
10.2545351277
 20
4.2613362207
 11
10.254540085
 21
4.2613561593
  0
LWPOLYLINE
  5
222
100
AcDbEntity
  8
0
100
AcDbPolyline
 62
7
  6
CONTINUOUS
 90
4
 70
0
 10
10.254540085
 20
4.2613561593
 10
10.2128202657
 20
4.1036423168
 10
10.1641933308
 20
3.9396574955
 10
10.1180918499
 20
3.7986174288
  0
LINE
  5
223
100
AcDbEntity
  8
0
100
AcDbLine
 62
7
  6
CONTINUOUS
 10
12.0482843814
 20
3.6004585916
 11
12.0055498485
 21
3.7157653805
  0
LINE
  5
224
100
AcDbEntity
  8
0
100
AcDbLine
 62
7
  6
CONTINUOUS
 10
12.0055522751
 20
3.7157586276
 11
11.9973171611
 21
3.7388449329
  0
LWPOLYLINE
  5
225
100
AcDbEntity
  8
0
100
AcDbPolyline
 62
7
  6
CONTINUOUS
 90
3
 70
0
 10
11.9973171611
 20
3.7388449329
 10
11.9848504988
 20
3.7744468019
 10
11.9765492713
 20
3.7986043965
  0
LWPOLYLINE
  5
226
100
AcDbEntity
  8
0
100
AcDbPolyline
 62
7
  6
CONTINUOUS
 90
3
 70
0
 10
11.9765448267
 20
3.7986174288
 10
11.9304433458
 20
3.9396574955
 10
11.8818164109
 20
4.1036423168
  0
LINE
  5
227
100
AcDbEntity
  8
0
100
AcDbLine
 62
7
  6
CONTINUOUS
 10
11.8818164109
 20
4.1036423168
 11
11.8400965916
 21
4.2613561593
  0
LINE
  5
228
100
AcDbEntity
  8
0
100
AcDbLine
 62
7
  6
CONTINUOUS
 10
11.8400965916
 20
4.2613561593
 11
11.8401015489
 21
4.2613362207
  0
LWPOLYLINE
  5
229
100
AcDbEntity
  8
0
100
AcDbPolyline
 62
7
  6
CONTINUOUS
 90
3
 70
0
 10
11.8401015489
 20
4.2613362207
 10
11.7942592103
 20
4.4618900069
 10
11.754840854
 20
4.6745534127
  0
LINE
  5
22A
100
AcDbEntity
  8
0
100
AcDbLine
 62
7
  6
CONTINUOUS
 10
10.5201397986
 20
9.4886618912
 11
10.5362921613
 21
9.3465614544
  0
LWPOLYLINE
  5
22B
100
AcDbEntity
  8
0
100
AcDbPolyline
 62
7
  6
CONTINUOUS
 90
3
 70
0
 10
11.7274018682
 20
4.86189145
 10
11.6910145945
 20
5.2055776753
 10
11.6646393747
 20
5.6184249497
  0
LINE
  5
22C
100
AcDbEntity
  8
0
100
AcDbLine
 62
9
  6
CONTINUOUS
 10
11.7274018682
 20
4.86189145
 11
11.7289979516
 21
4.837005183
  0
LINE
  5
22D
100
AcDbEntity
  8
0
100
AcDbLine
 62
7
  6
CONTINUOUS
 10
11.6646393747
 20
5.6184249497
 11
11.6506796812
 21
6.0556980303
  0
LINE
  5
22E
100
AcDbEntity
  8
0
100
AcDbLine
 62
7
  6
CONTINUOUS
 10
11.6506796812
 20
6.0556980303
 11
11.6506797392
 21
6.0556950902
  0
LWPOLYLINE
  5
22F
100
AcDbEntity
  8
0
100
AcDbPolyline
 62
7
  6
CONTINUOUS
 90
3
 70
0
 10
11.6506797392
 20
6.0556950902
 10
11.6475675756
 20
6.2599066752
 10
11.6458202916
 20
6.5067779363
  0
LINE
  5
230
100
AcDbEntity
  8
0
100
AcDbLine
 62
9
  6
CONTINUOUS
 10
11.6506797392
 20
6.0556950902
 11
11.6507047185
 21
6.05314963
  0
LINE
  5
231
100
AcDbEntity
  8
0
100
AcDbLine
 62
7
  6
CONTINUOUS
 10
11.6473183383
 20
7.4391585416
 11
11.6473055618
 21
8.5331585501
  0
LINE
  5
232
100
AcDbEntity
  8
0
100
AcDbLine
 62
7
  6
CONTINUOUS
 10
11.6993183383
 20
8.5531585416
 11
11.6993183383
 21
8.5591491079
  0
LINE
  5
233
100
AcDbEntity
  8
0
100
AcDbLine
 62
7
  6
CONTINUOUS
 10
11.6458202916
 20
6.5067779363
 11
11.6456065665
 21
6.7555513779
  0
LINE
  5
234
100
AcDbEntity
  8
0
100
AcDbLine
 62
7
  6
CONTINUOUS
 10
11.574496878
 20
9.4886618912
 11
11.5583445152
 21
9.3465614544
  0
LWPOLYLINE
  5
235
100
AcDbEntity
  8
0
100
AcDbPolyline
 62
7
  6
CONTINUOUS
 90
3
 70
0
 10
10.1180918499
 20
3.7986174288
 10
10.1097861777
 20
3.7744468019
 10
10.0973195154
 20
3.7388449329
  0
LINE
  5
236
100
AcDbEntity
  8
0
100
AcDbLine
 62
7
  6
CONTINUOUS
 10
10.0973195154
 20
3.7388449329
 11
10.0890844014
 21
3.7157586276
  0
LWPOLYLINE
  5
237
100
AcDbEntity
  8
0
100
AcDbPolyline
 62
7
  6
CONTINUOUS
 90
4
 70
0
 10
10.089086828
 20
3.7157653805
 10
10.0463522952
 20
3.6004585916
 10
10.001407441
 20
3.4859806149
 10
9.9630133945
 20
3.3925965125
  0
LINE
  5
238
100
AcDbEntity
  8
0
100
AcDbLine
 62
7
  6
CONTINUOUS
 10
11.754840854
 20
4.6745534127
 11
11.727401237
 21
4.8618962942
  0
LINE
  5
239
100
AcDbEntity
  8
0
100
AcDbLine
 62
7
  6
CONTINUOUS
 10
11.727401237
 20
4.8618962942
 11
11.7274018682
 21
4.86189145
  0
LINE
  5
23A
100
AcDbEntity
  8
0
100
AcDbLine
 62
9
  6
CONTINUOUS
 10
11.8401015489
 20
4.2613362207
 11
11.8460689187
 21
4.2122755665
  0
LINE
  5
23B
100
AcDbEntity
  8
0
100
AcDbLine
 62
7
  6
CONTINUOUS
 10
11.7493183383
 20
9.7161585416
 11
11.7493183383
 21
9.8311585416
  0
LINE
  5
23C
100
AcDbEntity
  8
0
100
AcDbLine
 62
7
  6
CONTINUOUS
 10
10.4153454268
 20
8.5331585416
 11
11.6792912498
 21
8.5331585416
  0
LINE
  5
23D
100
AcDbEntity
  8
0
100
AcDbLine
 62
9
  6
CONTINUOUS
 10
10.3953183383
 20
8.5531585416
 11
11.6993183383
 21
8.5531585416
  0
LINE
  5
23E
100
AcDbEntity
  8
0
100
AcDbLine
 62
9
  6
CONTINUOUS
 10
11.6993183383
 20
8.5591491079
 11
10.3953183383
 21
8.5591491079
  0
LINE
  5
23F
100
AcDbEntity
  8
0
100
AcDbLine
 62
9
  6
CONTINUOUS
 10
11.7433632821
 20
8.6306140219
 11
10.3512733945
 21
8.6306140219
  0
LINE
  5
240
100
AcDbEntity
  8
0
100
AcDbLine
 62
9
  6
CONTINUOUS
 10
11.7534493313
 20
8.7998520884
 11
10.3411873452
 21
8.7998520884
  0
LINE
  5
241
100
AcDbEntity
  8
0
100
AcDbLine
 62
9
  6
CONTINUOUS
 10
11.6127942013
 20
8.9699460453
 11
10.4818424753
 21
8.9699460453
  0
LINE
  5
242
100
AcDbEntity
  8
0
100
AcDbLine
 62
9
  6
CONTINUOUS
 10
10.5362921613
 20
9.3465614544
 11
11.5583445152
 21
9.3465614544
  0
LINE
  5
243
100
AcDbEntity
  8
0
100
AcDbLine
 62
9
  6
CONTINUOUS
 10
11.574496878
 20
9.4886618912
 11
10.5201397986
 21
9.4886618912
  0
LINE
  5
244
100
AcDbEntity
  8
0
100
AcDbLine
 62
9
  6
CONTINUOUS
 10
11.7166642916
 20
9.6692637881
 11
10.377972385
 21
9.6692637881
  0
LINE
  5
245
100
AcDbEntity
  8
0
100
AcDbLine
 62
9
  6
CONTINUOUS
 10
10.3453183383
 20
9.7161585416
 11
11.7493183383
 21
9.7161585416
  0
LINE
  5
246
100
AcDbEntity
  8
0
100
AcDbLine
 62
9
  6
CONTINUOUS
 10
11.7493183383
 20
9.8311585416
 11
10.3453183383
 21
9.8311585416
  0
LINE
  5
247
100
AcDbEntity
  8
0
100
AcDbLine
 62
7
  6
CONTINUOUS
 10
10.3900512693
 20
9.8811585416
 11
11.7045584699
 21
9.8811585416
  0
LINE
  5
248
100
AcDbEntity
  8
0
100
AcDbLine
 62
7
  6
CONTINUOUS
 10
18.1692212098
 20
10.1896085416
 11
18.1473183383
 21
10.1896085416
  0
LINE
  5
249
100
AcDbEntity
  8
0
100
AcDbLine
 62
7
  6
CONTINUOUS
 10
3.9254154667
 20
10.1896085416
 11
3.9473183383
 21
10.1896085416
  0
LINE
  5
24A
100
AcDbEntity
  8
0
100
AcDbLine
 62
9
  6
CONTINUOUS
 10
11.7174665269
 20
9.885858972
 11
10.3771537584
 21
9.8858728026
  0
LINE
  5
24B
100
AcDbEntity
  8
0
100
AcDbLine
 62
7
  6
CONTINUOUS
 10
15.5373183383
 20
10.4505085416
 11
15.4353183383
 21
10.4505085416
  0
LINE
  5
24C
100
AcDbEntity
  8
0
100
AcDbLine
 62
7
  6
CONTINUOUS
 10
6.5573183383
 20
10.4505085416
 11
6.6593183383
 21
10.4505085416
  0
LINE
  5
24D
100
AcDbEntity
  8
0
100
AcDbLine
 62
7
  6
CONTINUOUS
 10
15.5373183383
 20
10.9118085416
 11
15.4353183383
 21
10.9118085416
  0
LINE
  5
24E
100
AcDbEntity
  8
0
100
AcDbLine
 62
7
  6
CONTINUOUS
 10
6.5573183383
 20
10.9118085416
 11
6.6593183383
 21
10.9118085416
  0
LINE
  5
24F
100
AcDbEntity
  8
0
100
AcDbLine
 62
7
  6
CONTINUOUS
 10
18.1692212098
 20
11.1727085416
 11
18.1473183383
 21
11.1727085416
  0
LINE
  5
250
100
AcDbEntity
  8
0
100
AcDbLine
 62
7
  6
CONTINUOUS
 10
3.9254154667
 20
11.1727085416
 11
3.9473183383
 21
11.1727085416
  0
LINE
  5
251
100
AcDbEntity
  8
0
100
AcDbLine
 62
7
  6
CONTINUOUS
 10
15.4353183383
 20
10.9118085416
 11
15.4353183383
 21
10.4505085416
  0
LINE
  5
252
100
AcDbEntity
  8
0
100
AcDbLine
 62
7
  6
CONTINUOUS
 10
15.5373183383
 20
10.944155917
 11
15.5373183383
 21
10.4182077635
  0
LINE
  5
253
100
AcDbEntity
  8
0
100
AcDbLine
 62
9
  6
CONTINUOUS
 10
15.5843205636
 20
10.3787788244
 11
15.5843205636
 21
10.9835382588
  0
LINE
  5
254
100
AcDbEntity
  8
0
100
AcDbLine
 62
9
  6
CONTINUOUS
 10
15.8519429501
 20
10.3544545665
 11
15.8519429501
 21
11.0078625167
  0
LINE
  5
255
100
AcDbEntity
  8
0
100
AcDbLine
 62
7
  6
CONTINUOUS
 10
15.9323183386
 20
10.40215855
 11
15.9323183386
 21
10.9601585416
  0
LINE
  5
256
100
AcDbEntity
  8
0
100
AcDbLine
 62
7
  6
CONTINUOUS
 10
18.1073183383
 20
11.1327085416
 11
18.1073183383
 21
10.2296373544
  0
LINE
  5
257
100
AcDbEntity
  8
0
100
AcDbLine
 62
9
  6
CONTINUOUS
 10
18.1473183383
 20
11.1727085416
 11
18.1473183383
 21
10.1896085416
  0
LINE
  5
258
100
AcDbEntity
  8
0
100
AcDbLine
 62
9
  6
CONTINUOUS
 10
18.1692212098
 20
10.1896085416
 11
18.1692212098
 21
11.1727085416
  0
LINE
  5
259
100
AcDbEntity
  8
0
100
AcDbLine
 62
9
  6
CONTINUOUS
 10
18.2272725315
 20
10.2344413382
 11
18.2272725315
 21
11.127875745
  0
LINE
  5
25A
100
AcDbEntity
  8
0
100
AcDbLine
 62
9
  6
CONTINUOUS
 10
18.3248310289
 20
10.3848268994
 11
18.3248310289
 21
10.9774901838
  0
LINE
  5
25B
100
AcDbEntity
  8
0
100
AcDbLine
 62
7
  6
CONTINUOUS
 10
18.3473183383
 20
10.431654221
 11
18.3473183383
 21
10.9306628622
  0
ARC
  5
25C
100
AcDbEntity
  8
0
100
AcDbCircle
 62
7
  6
CONTINUOUS
 10
1.9744264486
 20
-30.8304869542
 40
41.9999581991
100
AcDbArc
 50
84.2774244856
 51
87.2529875987
  0
ARC
  5
25D
100
AcDbEntity
  8
0
100
AcDbCircle
 62
9
  6
CONTINUOUS
 10
-9.5625140223
 20
6.4459615289
 40
20.0103018957
100
AcDbArc
 50
358.5982561358
 51
358.8751839018
  0
ARC
  5
25E
100
AcDbEntity
  8
0
100
AcDbCircle
 62
9
  6
CONTINUOUS
 10
-5.1627900429
 20
6.3245898114
 40
15.6089315023
100
AcDbArc
 50
357.3834456521
 51
358.6485693391
  0
ARC
  5
25F
100
AcDbEntity
  8
0
100
AcDbCircle
 62
9
  6
CONTINUOUS
 10
2.3697492035
 20
6.4621676756
 40
8.2060712103
100
AcDbArc
 50
337.4025501241
 51
337.9814897299
  0
ARC
  5
260
100
AcDbEntity
  8
0
100
AcDbCircle
 62
9
  6
CONTINUOUS
 10
3.0353601671
 20
6.1914308975
 40
7.4875073239
100
AcDbArc
 50
337.9925729303
 51
338.1645102525
  0
ARC
  5
261
100
AcDbEntity
  8
0
100
AcDbCircle
 62
9
  6
CONTINUOUS
 10
3.6978906815
 20
5.9291538495
 40
6.7749582188
100
AcDbArc
 50
338.1394490971
 51
340.3192458157
  0
ARC
  5
262
100
AcDbEntity
  8
0
100
AcDbCircle
 62
9
  6
CONTINUOUS
 10
3.6864426581
 20
5.704629539
 40
6.7353123257
100
AcDbArc
 50
352.598749406
 51
352.806456553
  0
ARC
  5
263
100
AcDbEntity
  8
0
100
AcDbCircle
 62
9
  6
CONTINUOUS
 10
4.0663459766
 20
5.7948636191
 40
6.3828010096
100
AcDbArc
 50
340.3404082132
 51
340.886670478
  0
ARC
  5
264
100
AcDbEntity
  8
0
100
AcDbCircle
 62
9
  6
CONTINUOUS
 10
4.1475476946
 20
5.7665958353
 40
6.2968197804
100
AcDbArc
 50
340.8877710479
 51
341.1705761088
  0
ARC
  5
265
100
AcDbEntity
  8
0
100
AcDbCircle
 62
9
  6
CONTINUOUS
 10
4.2160795783
 20
5.7432368787
 40
6.224416335
100
AcDbArc
 50
341.170484633
 51
341.7508510334
  0
ARC
  5
266
100
AcDbEntity
  8
0
100
AcDbCircle
 62
9
  6
CONTINUOUS
 10
4.5149085665
 20
5.6463953708
 40
5.9102916456
100
AcDbArc
 50
341.7352679102
 51
345.9571260917
  0
ARC
  5
267
100
AcDbEntity
  8
0
100
AcDbCircle
 62
9
  6
CONTINUOUS
 10
4.8059369092
 20
5.5680677037
 40
5.6089573785
100
AcDbArc
 50
346.0119746481
 51
346.5025667783
  0
ARC
  5
268
100
AcDbEntity
  8
0
100
AcDbCircle
 62
7
  6
CONTINUOUS
 10
11.0473181331
 20
10.6811581304
 40
1.0399979218
100
AcDbArc
 50
310.1192368785
 51
229.8808278225
  0
ARC
  5
269
100
AcDbEntity
  8
0
100
AcDbCircle
 62
7
  6
CONTINUOUS
 10
9.7798183383
 20
9.2636859151
 40
0.761
100
AcDbArc
 50
337.2946647959
 51
6.2521091861
  0
ARC
  5
26A
100
AcDbEntity
  8
0
100
AcDbCircle
 62
7
  6
CONTINUOUS
 10
6.4210377405
 20
9.8766539672
 40
0.51
100
AcDbArc
 50
79.9181044226
 51
110.4686088224
  0
ARC
  5
26B
100
AcDbEntity
  8
0
100
AcDbCircle
 62
7
  6
CONTINUOUS
 10
7.0473178346
 20
10.6811573644
 40
0.4510000025
100
AcDbArc
 50
0.0001495526
 51
149.3512943874
  0
ARC
  5
26C
100
AcDbEntity
  8
0
100
AcDbCircle
 62
7
  6
CONTINUOUS
 10
10.1312916578
 20
9.1166229842
 40
0.38
100
AcDbArc
 50
303.5288687144
 51
337.2946647958
  0
ARC
  5
26D
100
AcDbEntity
  8
0
100
AcDbCircle
 62
7
  6
CONTINUOUS
 10
3.5916203675
 20
10.1623971219
 40
0.285
100
AcDbArc
 50
14.6424776248
 51
51.3022866218
  0
ARC
  5
26E
100
AcDbEntity
  8
0
100
AcDbCircle
 62
7
  6
CONTINUOUS
 10
10.3016501905
 20
9.4629268728
 40
0.22
100
AcDbArc
 50
6.717689132
 51
69.701013227
  0
ARC
  5
26F
100
AcDbEntity
  8
0
100
AcDbCircle
 62
7
  6
CONTINUOUS
 10
10.3953183383
 20
8.7181585416
 40
0.098
100
AcDbArc
 50
123.5288687144
 51
243.2923546978
  0
ARC
  5
270
100
AcDbEntity
  8
0
100
AcDbCircle
 62
7
  6
CONTINUOUS
 10
10.3153183383
 20
8.5591491079
 40
0.08
100
AcDbArc
 50
0.0
 51
63.2923546977
  0
ARC
  5
271
100
AcDbEntity
  8
0
100
AcDbCircle
 62
7
  6
CONTINUOUS
 10
3.8073183383
 20
10.431654221
 40
0.06
100
AcDbArc
 50
180.0
 51
231.3022866216
  0
ARC
  5
272
100
AcDbEntity
  8
0
100
AcDbCircle
 62
7
  6
CONTINUOUS
 10
3.9254154667
 20
10.2496085416
 40
0.06
100
AcDbArc
 50
194.6424776248
 51
270.0
  0
ARC
  5
273
100
AcDbEntity
  8
0
100
AcDbCircle
 62
7
  6
CONTINUOUS
 10
6.2217120777
 20
10.4106664017
 40
0.06
100
AcDbArc
 50
188.151882933
 51
290.4686088221
  0
ARC
  5
274
100
AcDbEntity
  8
0
100
AcDbCircle
 62
7
  6
CONTINUOUS
 10
10.3953183383
 20
9.7161585416
 40
0.05
100
AcDbArc
 50
180.0
 51
249.7010132269
  0
ARC
  5
275
100
AcDbEntity
  8
0
100
AcDbCircle
 62
7
  6
CONTINUOUS
 10
10.3953183383
 20
9.8311585416
 40
0.05
100
AcDbArc
 50
90.0
 51
180.0
  0
ARC
  5
276
100
AcDbEntity
  8
0
100
AcDbCircle
 62
7
  6
CONTINUOUS
 10
3.9473183383
 20
10.2296085416
 40
0.04
100
AcDbArc
 50
270.0
 51
360.0
  0
ARC
  5
277
100
AcDbEntity
  8
0
100
AcDbCircle
 62
7
  6
CONTINUOUS
 10
6.5173183383
 20
10.4181611661
 40
0.04
100
AcDbArc
 50
259.9181044224
 51
360.0
  0
ARC
  5
278
100
AcDbEntity
  8
0
100
AcDbCircle
 62
7
  6
CONTINUOUS
 10
10.4153183383
 20
8.5531585416
 40
0.02
100
AcDbArc
 50
180.0
 51
270.0
  0
ARC
  5
279
100
AcDbEntity
  8
0
100
AcDbCircle
 62
7
  6
CONTINUOUS
 10
10.3900512693
 20
9.9011585416
 40
0.02
100
AcDbArc
 50
229.8808331016
 51
270.0
  0
ARC
  5
27A
100
AcDbEntity
  8
0
100
AcDbCircle
 62
7
  6
CONTINUOUS
 10
3.5916203675
 20
11.1999199613
 40
0.285
100
AcDbArc
 50
308.6977133782
 51
345.3575223752
  0
ARC
  5
27B
100
AcDbEntity
  8
0
100
AcDbCircle
 62
7
  6
CONTINUOUS
 10
3.9254154667
 20
11.1127085416
 40
0.06
100
AcDbArc
 50
90.0
 51
165.3575223752
  0
ARC
  5
27C
100
AcDbEntity
  8
0
100
AcDbCircle
 62
7
  6
CONTINUOUS
 10
3.8073183383
 20
10.9306628622
 40
0.06
100
AcDbArc
 50
128.6977133784
 51
180.0
  0
ARC
  5
27D
100
AcDbEntity
  8
0
100
AcDbCircle
 62
7
  6
CONTINUOUS
 10
3.9473183383
 20
11.1327085416
 40
0.04
100
AcDbArc
 50
0.0
 51
90.0
  0
ARC
  5
27E
100
AcDbEntity
  8
0
100
AcDbCircle
 62
7
  6
CONTINUOUS
 10
1.9744264691
 20
52.1928037029
 40
41.999957864
100
AcDbArc
 50
272.7470123953
 51
275.7225755321
  0
ARC
  5
27F
100
AcDbEntity
  8
0
100
AcDbCircle
 62
7
  6
CONTINUOUS
 10
6.2217120777
 20
10.9516506815
 40
0.06
100
AcDbArc
 50
69.5313911779
 51
171.8481170681
  0
ARC
  5
280
100
AcDbEntity
  8
0
100
AcDbCircle
 62
7
  6
CONTINUOUS
 10
6.5173183383
 20
10.944155917
 40
0.04
100
AcDbArc
 50
0.0
 51
100.0818955776
  0
ARC
  5
281
100
AcDbEntity
  8
0
100
AcDbCircle
 62
7
  6
CONTINUOUS
 10
6.4210377405
 20
11.485663116
 40
0.51
100
AcDbArc
 50
249.531391178
 51
280.0818955774
  0
ARC
  5
282
100
AcDbEntity
  8
0
100
AcDbCircle
 62
7
  6
CONTINUOUS
 10
7.0473183383
 20
10.6811585416
 40
1.1
100
AcDbArc
 50
195.5771348809
 51
164.4228651102
  0
ARC
  5
283
100
AcDbEntity
  8
0
100
AcDbCircle
 62
9
  6
CONTINUOUS
 10
7.0473183383
 20
10.6811585416
 40
1.0192765548
100
AcDbArc
 50
196.4161799769
 51
163.5861786235
  0
ARC
  5
284
100
AcDbEntity
  8
0
100
AcDbCircle
 62
9
  6
CONTINUOUS
 10
7.0473183383
 20
10.6811585416
 40
0.835574485
100
AcDbArc
 50
202.3015426816
 51
157.696710381
  0
ARC
  5
285
100
AcDbEntity
  8
0
100
AcDbCircle
 62
9
  6
CONTINUOUS
 10
7.0473183383
 20
10.6811585416
 40
0.8181730746
100
AcDbArc
 50
202.4233995341
 51
157.5771835858
  0
ARC
  5
286
100
AcDbEntity
  8
0
100
AcDbCircle
 62
7
  6
CONTINUOUS
 10
7.0473183383
 20
10.6811585416
 40
0.745
100
AcDbArc
 50
203.6407382668
 51
156.3592166114
  0
ARC
  5
287
100
AcDbEntity
  8
0
100
AcDbCircle
 62
7
  6
CONTINUOUS
 10
7.0473183383
 20
10.6811585416
 40
0.71
100
AcDbArc
 50
204.6935077555
 51
155.3064922445
  0
ARC
  5
288
100
AcDbEntity
  8
0
100
AcDbCircle
 62
7
  6
CONTINUOUS
 10
7.0473183383
 20
10.6811585416
 40
0.5877311806
100
AcDbArc
 50
210.2298342599
 51
149.7701657401
  0
ARC
  5
289
100
AcDbEntity
  8
0
100
AcDbCircle
 62
9
  6
CONTINUOUS
 10
7.0473183383
 20
10.6811585416
 40
0.5277311806
100
AcDbArc
 50
205.924322876
 51
154.0540575862
  0
ARC
  5
28A
100
AcDbEntity
  8
0
100
AcDbCircle
 62
7
  6
CONTINUOUS
 10
7.047317738
 20
10.681159563
 40
0.4509998703
100
AcDbArc
 50
210.6486927886
 51
359.9998702403
  0
CIRCLE
  5
28B
100
AcDbEntity
  8
0
100
AcDbCircle
 62
9
  6
CONTINUOUS
 10
7.0473183383
 20
10.6811585416
 40
0.2988618956
  0
CIRCLE
  5
28C
100
AcDbEntity
  8
0
100
AcDbCircle
 62
9
  6
CONTINUOUS
 10
7.0473183383
 20
10.6811585416
 40
0.292235246
  0
CIRCLE
  5
28D
100
AcDbEntity
  8
0
100
AcDbCircle
 62
7
  6
CONTINUOUS
 10
7.0473183383
 20
10.6811585416
 40
0.28
  0
ARC
  5
28E
100
AcDbEntity
  8
0
100
AcDbCircle
 62
7
  6
CONTINUOUS
 10
7.0473183383
 20
10.6811585416
 40
0.28
100
AcDbArc
 50
270.0
 51
90.0
  0
CIRCLE
  5
28F
100
AcDbEntity
  8
0
100
AcDbCircle
 62
9
  6
CONTINUOUS
 10
7.0473183383
 20
10.6811585416
 40
0.2258064516
  0
ARC
  5
290
100
AcDbEntity
  8
0
100
AcDbCircle
 62
9
  6
CONTINUOUS
 10
7.0473183383
 20
10.6811585416
 40
0.2258064516
100
AcDbArc
 50
90.0
 51
90.2842530319
  0
ARC
  5
291
100
AcDbEntity
  8
0
100
AcDbCircle
 62
7
  6
CONTINUOUS
 10
20.1202102075
 20
-30.8304866197
 40
41.999957864
100
AcDbArc
 50
92.7470123953
 51
95.7225755321
  0
ARC
  5
292
100
AcDbEntity
  8
0
100
AcDbCircle
 62
9
  6
CONTINUOUS
 10
31.6571507002
 20
6.445961529
 40
20.010301897
100
AcDbArc
 50
181.1248160982
 51
181.4017438642
  0
ARC
  5
293
100
AcDbEntity
  8
0
100
AcDbCircle
 62
9
  6
CONTINUOUS
 10
27.2574267195
 20
6.3245898114
 40
15.6089315023
100
AcDbArc
 50
181.3514306609
 51
182.6165543479
  0
ARC
  5
294
100
AcDbEntity
  8
0
100
AcDbCircle
 62
9
  6
CONTINUOUS
 10
19.7248874731
 20
6.4621676756
 40
8.2060712103
100
AcDbArc
 50
202.0185102701
 51
202.5974498759
  0
ARC
  5
295
100
AcDbEntity
  8
0
100
AcDbCircle
 62
9
  6
CONTINUOUS
 10
19.0592765103
 20
6.1914308978
 40
7.4875073247
100
AcDbArc
 50
201.8354897475
 51
202.0074270697
  0
ARC
  5
296
100
AcDbEntity
  8
0
100
AcDbCircle
 62
9
  6
CONTINUOUS
 10
18.3967459951
 20
5.9291538495
 40
6.7749582188
100
AcDbArc
 50
199.6807541843
 51
201.8605509029
  0
ARC
  5
297
100
AcDbEntity
  8
0
100
AcDbCircle
 62
9
  6
CONTINUOUS
 10
18.4081940148
 20
5.7046295385
 40
6.7353123219
100
AcDbArc
 50
187.193543447
 51
187.4012505941
  0
ARC
  5
298
100
AcDbEntity
  8
0
100
AcDbCircle
 62
9
  6
CONTINUOUS
 10
18.0282906999
 20
5.794863619
 40
6.3828010095
100
AcDbArc
 50
199.113329522
 51
199.6595917868
  0
ARC
  5
299
100
AcDbEntity
  8
0
100
AcDbCircle
 62
9
  6
CONTINUOUS
 10
17.9470889817
 20
5.7665958352
 40
6.2968197801
100
AcDbArc
 50
198.8294238912
 51
199.1122289521
  0
ARC
  5
29A
100
AcDbEntity
  8
0
100
AcDbCircle
 62
9
  6
CONTINUOUS
 10
17.8785570984
 20
5.7432368787
 40
6.2244163352
100
AcDbArc
 50
198.2491489666
 51
198.829515367
  0
ARC
  5
29B
100
AcDbEntity
  8
0
100
AcDbCircle
 62
9
  6
CONTINUOUS
 10
17.5797281101
 20
5.6463953708
 40
5.9102916456
100
AcDbArc
 50
194.0428739083
 51
198.2647320898
  0
ARC
  5
29C
100
AcDbEntity
  8
0
100
AcDbCircle
 62
9
  6
CONTINUOUS
 10
17.2886997674
 20
5.5680677037
 40
5.6089573785
100
AcDbArc
 50
193.4974332217
 51
193.9880253519
  0
ARC
  5
29D
100
AcDbEntity
  8
0
100
AcDbCircle
 62
7
  6
CONTINUOUS
 10
12.3148183383
 20
9.2636859151
 40
0.761
100
AcDbArc
 50
173.7478908139
 51
202.7053352041
  0
ARC
  5
29E
100
AcDbEntity
  8
0
100
AcDbCircle
 62
7
  6
CONTINUOUS
 10
15.673598936
 20
9.8766539672
 40
0.51
100
AcDbArc
 50
69.531391178
 51
100.0818955774
  0
ARC
  5
29F
100
AcDbEntity
  8
0
100
AcDbCircle
 62
7
  6
CONTINUOUS
 10
15.0473189556
 20
10.6811575194
 40
0.4509998703
100
AcDbArc
 50
30.6486939824
 51
179.999870135
  0
ARC
  5
2A0
100
AcDbEntity
  8
0
100
AcDbCircle
 62
7
  6
CONTINUOUS
 10
11.9633450187
 20
9.1166229842
 40
0.38
100
AcDbArc
 50
202.7053352042
 51
236.4711312856
  0
ARC
  5
2A1
100
AcDbEntity
  8
0
100
AcDbCircle
 62
7
  6
CONTINUOUS
 10
18.5030163091
 20
10.1623971219
 40
0.285
100
AcDbArc
 50
128.6977133782
 51
165.3575223752
  0
ARC
  5
2A2
100
AcDbEntity
  8
0
100
AcDbCircle
 62
7
  6
CONTINUOUS
 10
11.792986486
 20
9.4629268728
 40
0.22
100
AcDbArc
 50
110.298986773
 51
173.282310868
  0
ARC
  5
2A3
100
AcDbEntity
  8
0
100
AcDbCircle
 62
7
  6
CONTINUOUS
 10
11.6993183383
 20
8.7181585416
 40
0.098
100
AcDbArc
 50
296.7076453022
 51
56.4711312856
  0
ARC
  5
2A4
100
AcDbEntity
  8
0
100
AcDbCircle
 62
7
  6
CONTINUOUS
 10
11.7793183383
 20
8.5591491079
 40
0.08
100
AcDbArc
 50
116.7076453023
 51
180.0
  0
ARC
  5
2A5
100
AcDbEntity
  8
0
100
AcDbCircle
 62
7
  6
CONTINUOUS
 10
18.1692212098
 20
10.2496085416
 40
0.06
100
AcDbArc
 50
270.0
 51
345.3575223752
  0
ARC
  5
2A6
100
AcDbEntity
  8
0
100
AcDbCircle
 62
7
  6
CONTINUOUS
 10
18.2873183383
 20
10.431654221
 40
0.06
100
AcDbArc
 50
308.6977133784
 51
360.0
  0
ARC
  5
2A7
100
AcDbEntity
  8
0
100
AcDbCircle
 62
7
  6
CONTINUOUS
 10
15.8729245989
 20
10.4106664017
 40
0.06
100
AcDbArc
 50
249.5313911779
 51
351.8481170681
  0
ARC
  5
2A8
100
AcDbEntity
  8
0
100
AcDbCircle
 62
7
  6
CONTINUOUS
 10
11.6993183383
 20
9.7161585416
 40
0.05
100
AcDbArc
 50
290.2989867731
 51
360.0
  0
ARC
  5
2A9
100
AcDbEntity
  8
0
100
AcDbCircle
 62
7
  6
CONTINUOUS
 10
11.6993183383
 20
9.8311585416
 40
0.05
100
AcDbArc
 50
0.0
 51
90.0
  0
ARC
  5
2AA
100
AcDbEntity
  8
0
100
AcDbCircle
 62
7
  6
CONTINUOUS
 10
18.1473183383
 20
10.2296085416
 40
0.04
100
AcDbArc
 50
180.0
 51
270.0
  0
ARC
  5
2AB
100
AcDbEntity
  8
0
100
AcDbCircle
 62
7
  6
CONTINUOUS
 10
15.5773183383
 20
10.4181611661
 40
0.04
100
AcDbArc
 50
180.0
 51
280.0818955776
  0
ARC
  5
2AC
100
AcDbEntity
  8
0
100
AcDbCircle
 62
7
  6
CONTINUOUS
 10
11.6793183383
 20
8.5531585416
 40
0.02
100
AcDbArc
 50
270.0
 51
360.0
  0
ARC
  5
2AD
100
AcDbEntity
  8
0
100
AcDbCircle
 62
7
  6
CONTINUOUS
 10
11.7045854073
 20
9.9011585416
 40
0.02
100
AcDbArc
 50
270.0
 51
310.1191668984
  0
ARC
  5
2AE
100
AcDbEntity
  8
0
100
AcDbCircle
 62
7
  6
CONTINUOUS
 10
11.0473183383
 20
10.6811585416
 40
1.45
100
AcDbArc
 50
290.6360564446
 51
249.3639435554
  0
ARC
  5
2AF
100
AcDbEntity
  8
0
100
AcDbCircle
 62
9
  6
CONTINUOUS
 10
11.0473183383
 20
10.6811585416
 40
1.3917919205
100
AcDbArc
 50
291.8279095676
 51
248.1807581883
  0
ARC
  5
2B0
100
AcDbEntity
  8
0
100
AcDbCircle
 62
9
  6
CONTINUOUS
 10
11.0473183383
 20
10.6811585416
 40
1.2438960743
100
AcDbArc
 50
296.8430762074
 51
243.1532799164
  0
ARC
  5
2B1
100
AcDbEntity
  8
0
100
AcDbCircle
 62
7
  6
CONTINUOUS
 10
11.0473183383
 20
10.6811585416
 40
1.18
100
AcDbArc
 50
306.6886359783
 51
233.3113640217
  0
ARC
  5
2B2
100
AcDbEntity
  8
0
100
AcDbCircle
 62
9
  6
CONTINUOUS
 10
11.0473183383
 20
10.6811585416
 40
1.13
100
AcDbArc
 50
308.5792075804
 51
231.4119333488
  0
ARC
  5
2B3
100
AcDbEntity
  8
0
100
AcDbCircle
 62
7
  6
CONTINUOUS
 10
11.0473183383
 20
10.6811585416
 40
1.07
100
AcDbArc
 50
310.1434793977
 51
229.8565206023
  0
CIRCLE
  5
2B4
100
AcDbEntity
  8
0
100
AcDbCircle
 62
7
  6
CONTINUOUS
 10
11.0473183383
 20
10.6811585416
 40
0.55
  0
ARC
  5
2B5
100
AcDbEntity
  8
0
100
AcDbCircle
 62
7
  6
CONTINUOUS
 10
11.0473183383
 20
10.6811585416
 40
0.55
100
AcDbArc
 50
270.0
 51
90.0
  0
CIRCLE
  5
2B6
100
AcDbEntity
  8
0
100
AcDbCircle
 62
9
  6
CONTINUOUS
 10
11.0473183383
 20
10.6811585416
 40
0.53
  0
CIRCLE
  5
2B7
100
AcDbEntity
  8
0
100
AcDbCircle
 62
7
  6
CONTINUOUS
 10
11.0473183383
 20
10.6811585416
 40
0.4824935233
  0
ARC
  5
2B8
100
AcDbEntity
  8
0
100
AcDbCircle
 62
7
  6
CONTINUOUS
 10
15.0473183383
 20
10.6811585416
 40
1.1
100
AcDbArc
 50
15.5771348809
 51
344.4228651102
  0
ARC
  5
2B9
100
AcDbEntity
  8
0
100
AcDbCircle
 62
9
  6
CONTINUOUS
 10
15.0473183383
 20
10.6811585416
 40
1.0192765548
100
AcDbArc
 50
16.4161799769
 51
343.5861786235
  0
ARC
  5
2BA
100
AcDbEntity
  8
0
100
AcDbCircle
 62
9
  6
CONTINUOUS
 10
15.0473183383
 20
10.6811585416
 40
0.835574485
100
AcDbArc
 50
22.3015426816
 51
337.696710381
  0
ARC
  5
2BB
100
AcDbEntity
  8
0
100
AcDbCircle
 62
9
  6
CONTINUOUS
 10
15.0473183383
 20
10.6811585416
 40
0.8181730746
100
AcDbArc
 50
22.4233995341
 51
337.5771835858
  0
ARC
  5
2BC
100
AcDbEntity
  8
0
100
AcDbCircle
 62
7
  6
CONTINUOUS
 10
15.0473183383
 20
10.6811585416
 40
0.745
100
AcDbArc
 50
23.6407382668
 51
336.3592166114
  0
ARC
  5
2BD
100
AcDbEntity
  8
0
100
AcDbCircle
 62
7
  6
CONTINUOUS
 10
15.0473183383
 20
10.6811585416
 40
0.71
100
AcDbArc
 50
24.6935077555
 51
335.3064922445
  0
ARC
  5
2BE
100
AcDbEntity
  8
0
100
AcDbCircle
 62
7
  6
CONTINUOUS
 10
15.0473183383
 20
10.6811585416
 40
0.5877311806
100
AcDbArc
 50
30.2298342599
 51
329.7701657401
  0
ARC
  5
2BF
100
AcDbEntity
  8
0
100
AcDbCircle
 62
9
  6
CONTINUOUS
 10
15.0473183383
 20
10.6811585416
 40
0.5277311806
100
AcDbArc
 50
25.924322876
 51
334.0540575862
  0
ARC
  5
2C0
100
AcDbEntity
  8
0
100
AcDbCircle
 62
7
  6
CONTINUOUS
 10
15.0473188471
 20
10.6811597175
 40
0.4510000025
100
AcDbArc
 50
180.000149395
 51
329.3512941864
  0
CIRCLE
  5
2C1
100
AcDbEntity
  8
0
100
AcDbCircle
 62
9
  6
CONTINUOUS
 10
15.0473183383
 20
10.6811585416
 40
0.2988618956
  0
CIRCLE
  5
2C2
100
AcDbEntity
  8
0
100
AcDbCircle
 62
9
  6
CONTINUOUS
 10
15.0473183383
 20
10.6811585416
 40
0.292235246
  0
CIRCLE
  5
2C3
100
AcDbEntity
  8
0
100
AcDbCircle
 62
7
  6
CONTINUOUS
 10
15.0473183383
 20
10.6811585416
 40
0.28
  0
ARC
  5
2C4
100
AcDbEntity
  8
0
100
AcDbCircle
 62
7
  6
CONTINUOUS
 10
15.0473183383
 20
10.6811585416
 40
0.28
100
AcDbArc
 50
270.0
 51
90.0
  0
CIRCLE
  5
2C5
100
AcDbEntity
  8
0
100
AcDbCircle
 62
9
  6
CONTINUOUS
 10
15.0473183383
 20
10.6811585416
 40
0.2258064516
  0
ARC
  5
2C6
100
AcDbEntity
  8
0
100
AcDbCircle
 62
9
  6
CONTINUOUS
 10
15.0473183383
 20
10.6811585416
 40
0.2258064516
100
AcDbArc
 50
270.0
 51
270.2842530319
  0
ARC
  5
2C7
100
AcDbEntity
  8
0
100
AcDbCircle
 62
7
  6
CONTINUOUS
 10
15.5773183383
 20
10.944155917
 40
0.04
100
AcDbArc
 50
79.9181044224
 51
180.0
  0
ARC
  5
2C8
100
AcDbEntity
  8
0
100
AcDbCircle
 62
7
  6
CONTINUOUS
 10
15.673598936
 20
11.485663116
 40
0.51
100
AcDbArc
 50
259.9181044226
 51
290.4686088224
  0
ARC
  5
2C9
100
AcDbEntity
  8
0
100
AcDbCircle
 62
7
  6
CONTINUOUS
 10
18.5030163091
 20
11.1999199613
 40
0.285
100
AcDbArc
 50
194.6424776248
 51
231.3022866218
  0
ARC
  5
2CA
100
AcDbEntity
  8
0
100
AcDbCircle
 62
7
  6
CONTINUOUS
 10
18.2873183383
 20
10.9306628622
 40
0.06
100
AcDbArc
 50
0.0
 51
51.3022866216
  0
ARC
  5
2CB
100
AcDbEntity
  8
0
100
AcDbCircle
 62
7
  6
CONTINUOUS
 10
18.1692212098
 20
11.1127085416
 40
0.06
100
AcDbArc
 50
14.6424776248
 51
90.0
  0
ARC
  5
2CC
100
AcDbEntity
  8
0
100
AcDbCircle
 62
7
  6
CONTINUOUS
 10
15.8729245989
 20
10.9516506815
 40
0.06
100
AcDbArc
 50
8.151882933
 51
110.4686088221
  0
ARC
  5
2CD
100
AcDbEntity
  8
0
100
AcDbCircle
 62
7
  6
CONTINUOUS
 10
18.1473183383
 20
11.1327085416
 40
0.04
100
AcDbArc
 50
90.0
 51
180.0
  0
ARC
  5
2CE
100
AcDbEntity
  8
0
100
AcDbCircle
 62
7
  6
CONTINUOUS
 10
20.1202102279
 20
52.1928040374
 40
41.9999581991
100
AcDbArc
 50
264.2774244856
 51
267.2529875987
  0
SPLINE
  5
2CF
100
AcDbEntity
  8
0
100
AcDbSpline
 62
7
  6
CONTINUOUS
 70
0
 71
3
 72
11
 73
7
 74
0
 42
0.0000001
 43
0.0000001
 44
0.0000000001
 40
0.0
 40
0.0
 40
0.0
 40
0.0
 40
0.228581164
 40
0.4674820553
 40
0.7223196243
 40
1.0
 40
1.0
 40
1.0
 40
1.0
 10
9.9630125558
 20
3.3925945091
 30
0.0
 10
9.9604835707
 20
3.3865533484
 30
0.0
 10
9.955745815
 20
3.3740078271
 30
0.0
 10
9.9502178559
 20
3.3540291544
 30
0.0
 10
9.9466094202
 20
3.3321798388
 30
0.0
 10
9.9458183383
 20
3.3169059939
 30
0.0
 10
9.9458183383
 20
3.3089500851
 30
0.0
  0
SPLINE
  5
2D0
100
AcDbEntity
  8
0
100
AcDbSpline
 62
7
  6
CONTINUOUS
 70
0
 71
3
 72
9
 73
5
 74
0
 42
0.0000001
 43
0.0000001
 44
0.0000000001
 40
0.0
 40
0.0
 40
0.0
 40
0.0
 40
0.5038162479
 40
1.0
 40
1.0
 40
1.0
 40
1.0
 10
10.4490301101
 20
6.7555513779
 30
0.0
 10
10.4488781757
 20
6.8703557751
 30
0.0
 10
10.4480331539
 20
7.0982240768
 30
0.0
 10
10.4473183383
 20
7.326093259
 30
0.0
 10
10.4473183383
 20
7.4391585416
 30
0.0
  0
SPLINE
  5
2D1
100
AcDbEntity
  8
0
100
AcDbSpline
 62
7
  6
CONTINUOUS
 70
0
 71
3
 72
9
 73
5
 74
0
 42
0.0000001
 43
0.0000001
 44
0.0000000001
 40
0.0
 40
0.0
 40
0.0
 40
0.0
 40
0.5038162479
 40
1.0
 40
1.0
 40
1.0
 40
1.0
 10
11.6456065665
 20
6.7555513779
 30
0.0
 10
11.6457585008
 20
6.8703557751
 30
0.0
 10
11.6466035226
 20
7.0982240768
 30
0.0
 10
11.6473183383
 20
7.326093259
 30
0.0
 10
11.6473183383
 20
7.4391585416
 30
0.0
  0
LINE
  5
2D2
100
AcDbEntity
  8
0
100
AcDbLine
 62
7
  6
CONTINUOUS
 10
10.4439319581
 20
6.05314963
 11
10.4439819569
 21
6.0556957262
  0
SPLINE
  5
2D3
100
AcDbEntity
  8
0
100
AcDbSpline
 62
7
  6
CONTINUOUS
 70
0
 71
3
 72
9
 73
5
 74
0
 42
0.0000001
 43
0.0000001
 44
0.0000000001
 40
0.0
 40
0.0
 40
0.0
 40
0.0
 40
0.4991006889
 40
1.0
 40
1.0
 40
1.0
 40
1.0
 10
10.4439819569
 20
6.0556957262
 30
0.0
 10
10.4459936985
 20
6.1584523654
 30
0.0
 10
10.4485437575
 20
6.364365741
 30
0.0
 10
10.4490919822
 20
6.5702896459
 30
0.0
 10
10.4490880639
 20
6.6734363536
 30
0.0
  0
LINE
  5
2D4
100
AcDbEntity
  8
0
100
AcDbLine
 62
7
  6
CONTINUOUS
 10
11.6507047185
 20
6.05314963
 11
11.6506547197
 21
6.0556957262
  0
SPLINE
  5
2D5
100
AcDbEntity
  8
0
100
AcDbSpline
 62
7
  6
CONTINUOUS
 70
0
 71
3
 72
9
 73
5
 74
0
 42
0.0000001
 43
0.0000001
 44
0.0000000001
 40
0.0
 40
0.0
 40
0.0
 40
0.0
 40
0.4991006889
 40
1.0
 40
1.0
 40
1.0
 40
1.0
 10
11.6506547197
 20
6.0556957262
 30
0.0
 10
11.648642978
 20
6.1584523654
 30
0.0
 10
11.646092919
 20
6.364365741
 30
0.0
 10
11.6455446943
 20
6.5702896459
 30
0.0
 10
11.6455486127
 20
6.6734363536
 30
0.0
  0
SPLINE
  5
2D6
100
AcDbEntity
  8
0
100
AcDbSpline
 62
7
  6
CONTINUOUS
 70
0
 71
3
 72
29
 73
25
 74
0
 42
0.0000001
 43
0.0000001
 44
0.0000000001
 40
0.0
 40
0.0
 40
0.0
 40
0.0
 40
0.1488749596
 40
0.2195271698
 40
0.287984935
 40
0.3544624875
 40
0.4190654795
 40
0.481877622
 40
0.5429704573
 40
0.6024220827
 40
0.6602988665
 40
0.7167023793
 40
0.7717716076
 40
0.7989166511
 40
0.8258829379
 40
0.8527800881
 40
0.8797867677
 40
0.9071991588
 40
0.9212114149
 40
0.935531984
 40
0.950280725
 40
0.9657017251
 40
0.9821366791
 40
1.0
 40
1.0
 40
1.0
 40
1.0
 10
11.0473183383
 20
2.8335051792
 30
0.0
 10
11.1112167428
 20
2.8335051792
 30
0.0
 10
11.2054995625
 20
2.8369064239
 30
0.0
 10
11.3285708257
 20
2.8486238853
 30
0.0
 10
11.4160481506
 20
2.8603738558
 30
0.0
 10
11.5004519993
 20
2.8750207776
 30
0.0
 10
11.581817645
 20
2.8926117516
 30
0.0
 10
11.6600969385
 20
2.9131865612
 30
0.0
 10
11.7351800478
 20
2.9368763726
 30
0.0
 10
11.8069166838
 20
2.9637974575
 30
0.0
 10
11.8750269411
 20
2.9942817277
 30
0.0
 10
11.939166806
 20
3.0286287994
 30
0.0
 10
11.9889852986
 20
3.0613550856
 30
0.0
 10
12.0259197718
 20
3.0902364895
 30
0.0
 10
12.0519117453
 20
3.1133703342
 30
0.0
 10
12.0761250159
 20
3.1382925837
 30
0.0
 10
12.0981705551
 20
3.1654146274
 30
0.0
 10
12.1142895348
 20
3.1900519015
 30
0.0
 10
12.1254748945
 20
3.2112199584
 30
0.0
 10
12.133017464
 20
3.2281176992
 30
0.0
 10
12.1395745595
 20
3.2460728275
 30
0.0
 10
12.1447305002
 20
3.265433465
 30
0.0
 10
12.1480831994
 20
3.2865471653
 30
0.0
 10
12.1488183383
 20
3.3012829951
 30
0.0
 10
12.1488183383
 20
3.3089500851
 30
0.0
  0
SPLINE
  5
2D7
100
AcDbEntity
  8
0
100
AcDbSpline
 62
7
  6
CONTINUOUS
 70
0
 71
3
 72
11
 73
7
 74
0
 42
0.0000001
 43
0.0000001
 44
0.0000000001
 40
0.0
 40
0.0
 40
0.0
 40
0.0
 40
0.2776801341
 40
0.5325177459
 40
0.7714187616
 40
1.0
 40
1.0
 40
1.0
 40
1.0
 10
12.1488183383
 20
3.3089500851
 30
0.0
 10
12.1488183383
 20
3.3169058729
 30
0.0
 10
12.1480272803
 20
3.3321794924
 30
0.0
 10
12.1444189536
 20
3.3540285006
 30
0.0
 10
12.138891153
 20
3.3740069151
 30
0.0
 10
12.1341535195
 20
3.386552283
 30
0.0
 10
12.1316245974
 20
3.3925933705
 30
0.0
  0
SPLINE
  5
2D8
100
AcDbEntity
  8
0
100
AcDbSpline
 62
7
  6
CONTINUOUS
 70
0
 71
3
 72
29
 73
25
 74
0
 42
0.0000001
 43
0.0000001
 44
0.0000000001
 40
0.0
 40
0.0
 40
0.0
 40
0.0
 40
0.0178633209
 40
0.0342982749
 40
0.049719275
 40
0.064468016
 40
0.0787885851
 40
0.0928008412
 40
0.1202132323
 40
0.1472199119
 40
0.1741170621
 40
0.2010833489
 40
0.2282283924
 40
0.2832976207
 40
0.3397011335
 40
0.3975779173
 40
0.4570295427
 40
0.518122378
 40
0.5809345205
 40
0.6455375125
 40
0.712015065
 40
0.7804728302
 40
0.8511250404
 40
1.0
 40
1.0
 40
1.0
 40
1.0
 10
9.9458183383
 20
3.3089500851
 30
0.0
 10
9.9458183383
 20
3.3012829951
 30
0.0
 10
9.9465534772
 20
3.2865471653
 30
0.0
 10
9.9499061763
 20
3.265433465
 30
0.0
 10
9.955062117
 20
3.2460728275
 30
0.0
 10
9.9616192126
 20
3.2281176992
 30
0.0
 10
9.969161782
 20
3.2112199584
 30
0.0
 10
9.9803471417
 20
3.1900519015
 30
0.0
 10
9.9964661215
 20
3.1654146274
 30
0.0
 10
10.0185116607
 20
3.1382925837
 30
0.0
 10
10.0427249313
 20
3.1133703342
 30
0.0
 10
10.0687169048
 20
3.0902364895
 30
0.0
 10
10.105651378
 20
3.0613550856
 30
0.0
 10
10.1554698705
 20
3.0286287994
 30
0.0
 10
10.2196097355
 20
2.9942817277
 30
0.0
 10
10.2877199927
 20
2.9637974575
 30
0.0
 10
10.3594566288
 20
2.9368763726
 30
0.0
 10
10.4345397381
 20
2.9131865612
 30
0.0
 10
10.5128190315
 20
2.8926117516
 30
0.0
 10
10.5941846773
 20
2.8750207776
 30
0.0
 10
10.678588526
 20
2.8603738558
 30
0.0
 10
10.7660658509
 20
2.8486238853
 30
0.0
 10
10.889137114
 20
2.8369064239
 30
0.0
 10
10.9834199337
 20
2.8335051792
 30
0.0
 10
11.0473183383
 20
2.8335051792
 30
0.0
  0
SPLINE
  5
2D9
100
AcDbEntity
  8
0
100
AcDbSpline
 62
9
  6
CONTINUOUS
 70
0
 71
3
 72
11
 73
7
 74
0
 42
0.0000001
 43
0.0000001
 44
0.0000000001
 40
0.0
 40
0.0
 40
0.0
 40
0.0
 40
0.2302587907
 40
0.4709065112
 40
0.7259414899
 40
1.0
 40
1.0
 40
1.0
 40
1.0
 10
11.976549271
 20
3.7986043974
 30
0.0
 10
11.9781716455
 20
3.793846842
 30
0.0
 10
11.9811641418
 20
3.7840013557
 30
0.0
 10
11.9845758465
 20
3.7685073491
 30
0.0
 10
11.9867685278
 20
3.7518264053
 30
0.0
 10
11.98725209
 20
3.7402686308
 30
0.0
 10
11.98725209
 20
3.7342859058
 30
0.0
  0
SPLINE
  5
2DA
100
AcDbEntity
  8
0
100
AcDbSpline
 62
9
  6
CONTINUOUS
 70
0
 71
3
 72
11
 73
7
 74
0
 42
0.0000001
 43
0.0000001
 44
0.0000000001
 40
0.0
 40
0.0
 40
0.0
 40
0.0
 40
0.2300199228
 40
0.4703186411
 40
0.7252657465
 40
1.0
 40
1.0
 40
1.0
 40
1.0
 10
12.0055522751
 20
3.7157586276
 30
0.0
 10
12.0073582424
 20
3.7107326353
 30
0.0
 10
12.0107026067
 20
3.700325403
 30
0.0
 10
12.0145367265
 20
3.6839070377
 30
0.0
 10
12.0170104129
 20
3.6661763889
 30
0.0
 10
12.017555612
 20
3.653869027
 30
0.0
 10
12.0175556126
 20
3.6474902381
 30
0.0
  0
SPLINE
  5
2DB
100
AcDbEntity
  8
0
100
AcDbSpline
 62
9
  6
CONTINUOUS
 70
0
 71
3
 72
28
 73
24
 74
0
 42
0.0000001
 43
0.0000001
 44
0.0000000001
 40
0.0
 40
0.0
 40
0.0
 40
0.0
 40
0.0081596929
 40
0.0158456609
 40
0.0232748727
 40
0.0306256116
 40
0.0455388191
 40
0.0611884008
 40
0.0779051031
 40
0.0958836028
 40
0.115234863
 40
0.136026938
 40
0.1582949639
 40
0.1820417106
 40
0.2338943592
 40
0.2913745193
 40
0.3542314813
 40
0.422157067
 40
0.4947112777
 40
0.5714141332
 40
0.65178936
 40
0.8215803779
 40
1.0
 40
1.0
 40
1.0
 40
1.0
 10
11.6473183383
 20
7.4391585416
 30
0.0
 10
11.6473183383
 20
7.4374278733
 30
0.0
 10
11.6471076296
 20
7.4340618298
 30
0.0
 10
11.64613332
 20
7.4292078516
 30
0.0
 10
11.6445886868
 20
7.4246865643
 30
0.0
 10
11.6418661537
 20
7.4189957452
 30
0.0
 10
11.6373457056
 20
7.41228754
 30
0.0
 10
11.6304428041
 20
7.4049684438
 30
0.0
 10
11.6221793526
 20
7.3981701706
 30
0.0
 10
11.612627544
 20
7.3918053588
 30
0.0
 10
11.6018542133
 20
7.3857923519
 30
0.0
 10
11.5898970245
 20
7.3800956886
 30
0.0
 10
11.5767970403
 20
7.3746804021
 30
0.0
 10
11.5572764541
 20
7.3676055517
 30
0.0
 10
11.5302141992
 20
7.3595074582
 30
0.0
 10
11.4947073584
 20
7.3509095732
 30
0.0
 10
11.4555272584
 20
7.3431538041
 30
0.0
 10
11.4129545606
 20
7.3362161605
 30
0.0
 10
11.3672929521
 20
7.3300983336
 30
0.0
 10
11.3188720378
 20
7.3248061882
 30
0.0
 10
11.2498017882
 20
7.3187731626
 30
0.0
 10
11.1590234827
 20
7.3135866538
 30
0.0
 10
11.0851610831
 20
7.3121584395
 30
0.0
 10
11.0473183383
 20
7.3121584395
 30
0.0
  0
SPLINE
  5
2DC
100
AcDbEntity
  8
0
100
AcDbSpline
 62
9
  6
CONTINUOUS
 70
0
 71
3
 72
28
 73
24
 74
0
 42
0.0000001
 43
0.0000001
 44
0.0000000001
 40
0.0
 40
0.0
 40
0.0
 40
0.0
 40
0.1784196221
 40
0.3482106399
 40
0.4285858668
 40
0.5052887223
 40
0.577842933
 40
0.6457685187
 40
0.7086254807
 40
0.7661056408
 40
0.8179582894
 40
0.8417050361
 40
0.863973062
 40
0.884765137
 40
0.9041163972
 40
0.9220948969
 40
0.9388115992
 40
0.9544611809
 40
0.9693743884
 40
0.9767251273
 40
0.9841543391
 40
0.9918403071
 40
1.0
 40
1.0
 40
1.0
 40
1.0
 10
11.0473183383
 20
7.3121584395
 30
0.0
 10
11.0094755934
 20
7.3121584395
 30
0.0
 10
10.9356131939
 20
7.3135866538
 30
0.0
 10
10.8448348884
 20
7.3187731626
 30
0.0
 10
10.7757646388
 20
7.3248061882
 30
0.0
 10
10.7273437245
 20
7.3300983336
 30
0.0
 10
10.681682116
 20
7.3362161605
 30
0.0
 10
10.6391094182
 20
7.3431538041
 30
0.0
 10
10.5999293181
 20
7.3509095732
 30
0.0
 10
10.5644224774
 20
7.3595074582
 30
0.0
 10
10.5373602225
 20
7.3676055517
 30
0.0
 10
10.5178396363
 20
7.3746804021
 30
0.0
 10
10.5047396521
 20
7.3800956886
 30
0.0
 10
10.4927824632
 20
7.3857923519
 30
0.0
 10
10.4820091326
 20
7.3918053588
 30
0.0
 10
10.472457324
 20
7.3981701706
 30
0.0
 10
10.4641938725
 20
7.4049684438
 30
0.0
 10
10.457290971
 20
7.41228754
 30
0.0
 10
10.4527705229
 20
7.4189957452
 30
0.0
 10
10.4500479898
 20
7.4246865643
 30
0.0
 10
10.4485033566
 20
7.4292078516
 30
0.0
 10
10.447529047
 20
7.4340618298
 30
0.0
 10
10.4473183383
 20
7.4374278733
 30
0.0
 10
10.4473183383
 20
7.4391585416
 30
0.0
  0
SPLINE
  5
2DD
100
AcDbEntity
  8
0
100
AcDbSpline
 62
9
  6
CONTINUOUS
 70
0
 71
3
 72
27
 73
23
 74
0
 42
0.0000001
 43
0.0000001
 44
0.0000000001
 40
0.0
 40
0.0
 40
0.0
 40
0.0
 40
0.1665779667
 40
0.3241070075
 40
0.3988139017
 40
0.4704464514
 40
0.5387383007
 40
0.6034254658
 40
0.6642908129
 40
0.7212378692
 40
0.774250247
 40
0.8233834012
 40
0.8465888452
 40
0.8689786908
 40
0.890673581
 40
0.9118483246
 40
0.9327668988
 40
0.9538352374
 40
0.9646173036
 40
0.9757515609
 40
0.9874582352
 40
1.0
 40
1.0
 40
1.0
 40
1.0
 10
11.0473183383
 20
6.5631585416
 30
0.0
 10
11.0103003569
 20
6.5631585416
 30
0.0
 10
10.9382602751
 20
6.5650695499
 30
0.0
 10
10.8498761195
 20
6.5722627257
 30
0.0
 10
10.7828708431
 20
6.5807201434
 30
0.0
 10
10.7357576377
 20
6.5882176936
 30
0.0
 10
10.691128786
 20
6.5969820311
 30
0.0
 10
10.6492280639
 20
6.6070434419
 30
0.0
 10
10.6102853032
 20
6.6184377011
 30
0.0
 10
10.57452192
 20
6.6312494879
 30
0.0
 10
10.5421521551
 20
6.6455559469
 30
0.0
 10
10.5177904391
 20
6.6591916879
 30
0.0
 10
10.5004496613
 20
6.6711524146
 30
0.0
 10
10.4887683183
 20
6.6805115946
 30
0.0
 10
10.47821996
 20
6.6904924155
 30
0.0
 10
10.4689168934
 20
6.7012232545
 30
0.0
 10
10.4609756644
 20
6.7128402696
 30
0.0
 10
10.4557212114
 20
6.7233735548
 30
0.0
 10
10.4524400561
 20
6.732354493
 30
0.0
 10
10.4505251124
 20
6.7395897357
 30
0.0
 10
10.4492990458
 20
6.7473704727
 30
0.0
 10
10.4490301101
 20
6.7527642697
 30
0.0
 10
10.4490301101
 20
6.7555513779
 30
0.0
  0
SPLINE
  5
2DE
100
AcDbEntity
  8
0
100
AcDbSpline
 62
9
  6
CONTINUOUS
 70
0
 71
3
 72
27
 73
23
 74
0
 42
0.0000001
 43
0.0000001
 44
0.0000000001
 40
0.0
 40
0.0
 40
0.0
 40
0.0
 40
0.0125417648
 40
0.0242484391
 40
0.0353826964
 40
0.0461647626
 40
0.0672331012
 40
0.0881516754
 40
0.109326419
 40
0.1310213092
 40
0.1534111548
 40
0.1766165988
 40
0.225749753
 40
0.2787621308
 40
0.3357091871
 40
0.3965745342
 40
0.4612616993
 40
0.5295535486
 40
0.6011860983
 40
0.6758929925
 40
0.8334220333
 40
1.0
 40
1.0
 40
1.0
 40
1.0
 10
11.6456065665
 20
6.7555513779
 30
0.0
 10
11.6456065665
 20
6.7527642697
 30
0.0
 10
11.6453376308
 20
6.7473704727
 30
0.0
 10
11.6441115642
 20
6.7395897357
 30
0.0
 10
11.6421966205
 20
6.732354493
 30
0.0
 10
11.6389154651
 20
6.7233735548
 30
0.0
 10
11.6336610122
 20
6.7128402696
 30
0.0
 10
11.6257197832
 20
6.7012232545
 30
0.0
 10
11.6164167166
 20
6.6904924155
 30
0.0
 10
11.6058683582
 20
6.6805115946
 30
0.0
 10
11.5941870152
 20
6.6711524146
 30
0.0
 10
11.5768462375
 20
6.6591916879
 30
0.0
 10
11.5524845214
 20
6.6455559469
 30
0.0
 10
11.5201147566
 20
6.6312494879
 30
0.0
 10
11.4843513734
 20
6.6184377011
 30
0.0
 10
11.4454086127
 20
6.6070434419
 30
0.0
 10
11.4035078905
 20
6.5969820311
 30
0.0
 10
11.3588790388
 20
6.5882176936
 30
0.0
 10
11.3117658334
 20
6.5807201434
 30
0.0
 10
11.2447605571
 20
6.5722627257
 30
0.0
 10
11.1563764014
 20
6.5650695499
 30
0.0
 10
11.0843363197
 20
6.5631585416
 30
0.0
 10
11.0473183383
 20
6.5631585416
 30
0.0
  0
SPLINE
  5
2DF
100
AcDbEntity
  8
0
100
AcDbSpline
 62
9
  6
CONTINUOUS
 70
0
 71
3
 72
26
 73
22
 74
0
 42
0.0000001
 43
0.0000001
 44
0.0000000001
 40
0.0
 40
0.0
 40
0.0
 40
0.0
 40
0.0164069185
 40
0.031644658
 40
0.0460257827
 40
0.0598151212
 40
0.0862974585
 40
0.1118908591
 40
0.1370615791
 40
0.1621207568
 40
0.212682177
 40
0.2647332315
 40
0.3188586174
 40
0.3753608509
 40
0.4344426011
 40
0.4962103027
 40
0.560659329
 40
0.6277302035
 40
0.6973522155
 40
0.8439344902
 40
1.0
 40
1.0
 40
1.0
 40
1.0
 10
11.6507047185
 20
6.05314963
 30
0.0
 10
11.6507047185
 20
6.0493016133
 30
0.0
 10
11.6503749843
 20
6.0418742184
 30
0.0
 10
11.6488834325
 20
6.0311682827
 30
0.0
 10
11.6465766383
 20
6.0212388956
 30
0.0
 10
11.6426890105
 20
6.0090151896
 30
0.0
 10
11.6366104074
 20
5.9947664296
 30
0.0
 10
11.6275435758
 20
5.9790394526
 30
0.0
 10
11.6171061308
 20
5.9646061776
 30
0.0
 10
11.6015329712
 20
5.9467864216
 30
0.0
 10
11.5791945983
 20
5.926676007
 30
0.0
 10
11.54890802
 20
5.9057081496
 30
0.0
 10
11.5153941156
 20
5.8873545592
 30
0.0
 10
11.47897243
 20
5.8712059828
 30
0.0
 10
11.4398151341
 20
5.8570863941
 30
0.0
 10
11.3980997959
 20
5.8448198673
 30
0.0
 10
11.3539854043
 20
5.8343037774
 30
0.0
 10
11.3076357023
 20
5.8254411592
 30
0.0
 10
11.2419181985
 20
5.8155852077
 30
0.0
 10
11.1549247816
 20
5.8073428506
 30
0.0
 10
11.0839213534
 20
5.8052520428
 30
0.0
 10
11.0473183383
 20
5.8052520428
 30
0.0
  0
SPLINE
  5
2E0
100
AcDbEntity
  8
0
100
AcDbSpline
 62
9
  6
CONTINUOUS
 70
0
 71
3
 72
26
 73
22
 74
0
 42
0.0000001
 43
0.0000001
 44
0.0000000001
 40
0.0
 40
0.0
 40
0.0
 40
0.0
 40
0.1560655098
 40
0.3026477845
 40
0.3722697965
 40
0.439340671
 40
0.5037896973
 40
0.5655573989
 40
0.6246391491
 40
0.6811413826
 40
0.7352667685
 40
0.787317823
 40
0.8378792432
 40
0.8629384209
 40
0.8881091409
 40
0.9137025415
 40
0.9401848788
 40
0.9539742173
 40
0.968355342
 40
0.9835930815
 40
1.0
 40
1.0
 40
1.0
 40
1.0
 10
11.0473183383
 20
5.8052520428
 30
0.0
 10
11.0107153232
 20
5.8052520428
 30
0.0
 10
10.939711895
 20
5.8073428506
 30
0.0
 10
10.8527184781
 20
5.8155852077
 30
0.0
 10
10.7870009743
 20
5.8254411592
 30
0.0
 10
10.7406512723
 20
5.8343037774
 30
0.0
 10
10.6965368807
 20
5.8448198673
 30
0.0
 10
10.6548215425
 20
5.8570863941
 30
0.0
 10
10.6156642465
 20
5.8712059828
 30
0.0
 10
10.579242561
 20
5.8873545592
 30
0.0
 10
10.5457286565
 20
5.9057081496
 30
0.0
 10
10.5154420783
 20
5.926676007
 30
0.0
 10
10.4931037054
 20
5.9467864216
 30
0.0
 10
10.4775305458
 20
5.9646061776
 30
0.0
 10
10.4670931007
 20
5.9790394526
 30
0.0
 10
10.4580262691
 20
5.9947664296
 30
0.0
 10
10.451947666
 20
6.0090151896
 30
0.0
 10
10.4480600383
 20
6.0212388956
 30
0.0
 10
10.445753244
 20
6.0311682827
 30
0.0
 10
10.4442616922
 20
6.0418742184
 30
0.0
 10
10.4439319581
 20
6.0493016133
 30
0.0
 10
10.4439319581
 20
6.05314963
 30
0.0
  0
SPLINE
  5
2E1
100
AcDbEntity
  8
0
100
AcDbSpline
 62
9
  6
CONTINUOUS
 70
0
 71
3
 72
11
 73
7
 74
0
 42
0.0000001
 43
0.0000001
 44
0.0000000001
 40
0.0
 40
0.0
 40
0.0
 40
0.0
 40
0.2422688514
 40
0.4901319049
 40
0.7429386361
 40
1.0
 40
1.0
 40
1.0
 40
1.0
 10
11.7258965581
 20
4.8612240762
 30
0.0
 10
11.7182766088
 20
4.9215918187
 30
0.0
 10
11.7044887176
 20
5.0439307216
 30
0.0
 10
11.6878148359
 20
5.2297890138
 30
0.0
 10
11.6745288574
 20
5.419642211
 30
0.0
 10
11.6677363367
 20
5.5475231374
 30
0.0
 10
11.6647687541
 20
5.6120168537
 30
0.0
  0
SPLINE
  5
2E2
100
AcDbEntity
  8
0
100
AcDbSpline
 62
9
  6
CONTINUOUS
 70
0
 71
3
 72
25
 73
21
 74
0
 42
0.0000001
 43
0.0000001
 44
0.0000000001
 40
0.0
 40
0.0
 40
0.0
 40
0.0
 40
0.0200862115
 40
0.0386979761
 40
0.0562066457
 40
0.0729272103
 40
0.1048080902
 40
0.1352358416
 40
0.1647143048
 40
0.1935708516
 40
0.2502335584
 40
0.3064138215
 40
0.3627778573
 40
0.4197507745
 40
0.4776706576
 40
0.5972930241
 40
0.6594229166
 40
0.7232926509
 40
0.8569120434
 40
1.0
 40
1.0
 40
1.0
 40
1.0
 10
11.7289979516
 20
4.837005183
 30
0.0
 10
11.7289979516
 20
4.8313690173
 30
0.0
 10
11.7285407189
 20
4.8205031893
 30
0.0
 10
11.72648689
 20
4.8048471776
 30
0.0
 10
11.7233366523
 20
4.7903420889
 30
0.0
 10
11.7180898411
 20
4.7725382555
 30
0.0
 10
11.7100410427
 20
4.75182315
 30
0.0
 10
11.6982266357
 20
4.7288931205
 30
0.0
 10
11.6848633743
 20
4.7078387988
 30
0.0
 10
11.6654182523
 20
4.6820535102
 30
0.0
 10
11.6382329529
 20
4.6528773813
 30
0.0
 10
11.6020162371
 20
4.6220415744
 30
0.0
 10
11.5628339518
 20
4.5949538342
 30
0.0
 10
11.5210960798
 20
4.5710345318
 30
0.0
 10
11.4616272944
 20
4.5427445616
 30
0.0
 10
11.3980549815
 20
4.5201781812
 30
0.0
 10
11.3313879058
 20
4.5026200514
 30
0.0
 10
11.2600407287
 20
4.4877538905
 30
0.0
 10
11.1651628004
 20
4.475139857
 30
0.0
 10
11.0874686388
 20
4.4719804716
 30
0.0
 10
11.0473183383
 20
4.4719804716
 30
0.0
  0
SPLINE
  5
2E3
100
AcDbEntity
  8
0
100
AcDbSpline
 62
9
  6
CONTINUOUS
 70
0
 71
3
 72
11
 73
7
 74
0
 42
0.0000001
 43
0.0000001
 44
0.0000000001
 40
0.0
 40
0.0
 40
0.0
 40
0.0
 40
0.2422688514
 40
0.4901319049
 40
0.7429386361
 40
1.0
 40
1.0
 40
1.0
 40
1.0
 10
10.3687401185
 20
4.8612240762
 30
0.0
 10
10.3763600678
 20
4.9215918187
 30
0.0
 10
10.390147959
 20
5.0439307216
 30
0.0
 10
10.4068218406
 20
5.2297890138
 30
0.0
 10
10.4201078192
 20
5.419642211
 30
0.0
 10
10.4269003399
 20
5.5475231374
 30
0.0
 10
10.4298679224
 20
5.6120168537
 30
0.0
  0
SPLINE
  5
2E4
100
AcDbEntity
  8
0
100
AcDbSpline
 62
9
  6
CONTINUOUS
 70
0
 71
3
 72
25
 73
21
 74
0
 42
0.0000001
 43
0.0000001
 44
0.0000000001
 40
0.0
 40
0.0
 40
0.0
 40
0.0
 40
0.1430879566
 40
0.2767073491
 40
0.3405770834
 40
0.4027069759
 40
0.5223293424
 40
0.5802492255
 40
0.6372221427
 40
0.6935861785
 40
0.7497664416
 40
0.8064291484
 40
0.8352856952
 40
0.8647641584
 40
0.8951919098
 40
0.9270727897
 40
0.9437933543
 40
0.9613020239
 40
0.9799137885
 40
1.0
 40
1.0
 40
1.0
 40
1.0
 10
11.0473183383
 20
4.4719804716
 30
0.0
 10
11.0071680378
 20
4.4719804716
 30
0.0
 10
10.9294738762
 20
4.475139857
 30
0.0
 10
10.8345959479
 20
4.4877538905
 30
0.0
 10
10.7632487708
 20
4.5026200514
 30
0.0
 10
10.6965816951
 20
4.5201781812
 30
0.0
 10
10.6330093822
 20
4.5427445616
 30
0.0
 10
10.5735405967
 20
4.5710345318
 30
0.0
 10
10.5318027248
 20
4.5949538342
 30
0.0
 10
10.4926204395
 20
4.6220415744
 30
0.0
 10
10.4564037237
 20
4.6528773813
 30
0.0
 10
10.4292184242
 20
4.6820535102
 30
0.0
 10
10.4097733023
 20
4.7078387988
 30
0.0
 10
10.3964100409
 20
4.7288931205
 30
0.0
 10
10.3845956339
 20
4.75182315
 30
0.0
 10
10.3765468354
 20
4.7725382555
 30
0.0
 10
10.3713000243
 20
4.7903420889
 30
0.0
 10
10.3681497866
 20
4.8048471776
 30
0.0
 10
10.3660959577
 20
4.8205031893
 30
0.0
 10
10.365638725
 20
4.8313690173
 30
0.0
 10
10.365638725
 20
4.837005183
 30
0.0
  0
SPLINE
  5
2E5
100
AcDbEntity
  8
0
100
AcDbSpline
 62
9
  6
CONTINUOUS
 70
0
 71
3
 72
12
 73
8
 74
0
 42
0.0000001
 43
0.0000001
 44
0.0000000001
 40
0.0
 40
0.0
 40
0.0
 40
0.0
 40
0.239394514
 40
0.3619195906
 40
0.4862225193
 40
0.7399045268
 40
1.0
 40
1.0
 40
1.0
 40
1.0
 10
11.8346596744
 20
4.2589269404
 30
0.0
 10
11.8237103866
 20
4.3045471067
 30
0.0
 10
11.8080317694
 20
4.3737311474
 30
0.0
 10
11.7888512758
 20
4.4670713909
 30
0.0
 10
11.7704758986
 20
4.5634264478
 30
0.0
 10
11.749708748
 20
4.6867556219
 30
0.0
 10
11.7355642839
 20
4.7864572492
 30
0.0
 10
11.7289979516
 20
4.837005183
 30
0.0
  0
SPLINE
  5
2E6
100
AcDbEntity
  8
0
100
AcDbSpline
 62
9
  6
CONTINUOUS
 70
0
 71
3
 72
26
 73
22
 74
0
 42
0.0000001
 43
0.0000001
 44
0.0000000001
 40
0.0
 40
0.0
 40
0.0
 40
0.0
 40
0.0195586827
 40
0.037668369
 40
0.0547145962
 40
0.0710209713
 40
0.102227415
 40
0.1321850229
 40
0.1613816019
 40
0.190121277
 40
0.2469418361
 40
0.3036327079
 40
0.3606990935
 40
0.4184362215
 40
0.4770779645
 40
0.5368112528
 40
0.5978003379
 40
0.7241032692
 40
0.7897907246
 40
0.8574744374
 40
1.0
 40
1.0
 40
1.0
 40
1.0
 10
11.8460689187
 20
4.2122755665
 30
0.0
 10
11.8460689187
 20
4.2058724966
 30
0.0
 10
11.8455216496
 20
4.1935315261
 30
0.0
 10
11.8430584142
 20
4.1757654698
 30
0.0
 10
11.8392806255
 20
4.1593260704
 30
0.0
 10
11.8329845197
 20
4.1391367018
 30
0.0
 10
11.8233229914
 20
4.115623099
 30
0.0
 10
11.8091814036
 20
4.0895873942
 30
0.0
 10
11.7932107448
 20
4.0656104416
 30
0.0
 10
11.7699542465
 20
4.0360666874
 30
0.0
 10
11.7375465013
 20
4.0024502496
 30
0.0
 10
11.6946334956
 20
3.9665817706
 30
0.0
 10
11.6483610445
 20
3.9346673895
 30
0.0
 10
11.5992301089
 20
3.9061018013
 30
0.0
 10
11.5474361582
 20
3.88067695
 30
0.0
 10
11.4931564332
 20
3.858179106
 30
0.0
 10
11.4167060189
 20
3.8316947475
 30
0.0
 10
11.3362677811
 20
3.8112200187
 30
0.0
 10
11.252527318
 20
3.7964275346
 30
0.0
 10
11.1628697434
 20
3.78523219
 30
0.0
 10
11.0939779804
 20
3.7819920536
 30
0.0
 10
11.0473183383
 20
3.7819920536
 30
0.0
  0
SPLINE
  5
2E7
100
AcDbEntity
  8
0
100
AcDbSpline
 62
9
  6
CONTINUOUS
 70
0
 71
3
 72
12
 73
8
 74
0
 42
0.0000001
 43
0.0000001
 44
0.0000000001
 40
0.0
 40
0.0
 40
0.0
 40
0.0
 40
0.239394514
 40
0.3619195906
 40
0.4862225193
 40
0.7399045268
 40
1.0
 40
1.0
 40
1.0
 40
1.0
 10
10.2599770022
 20
4.2589269404
 30
0.0
 10
10.2709262899
 20
4.3045471067
 30
0.0
 10
10.2866049071
 20
4.3737311474
 30
0.0
 10
10.3057854008
 20
4.4670713909
 30
0.0
 10
10.3241607779
 20
4.5634264478
 30
0.0
 10
10.3449279286
 20
4.6867556219
 30
0.0
 10
10.3590723927
 20
4.7864572492
 30
0.0
 10
10.365638725
 20
4.837005183
 30
0.0
  0
SPLINE
  5
2E8
100
AcDbEntity
  8
0
100
AcDbSpline
 62
9
  6
CONTINUOUS
 70
0
 71
3
 72
26
 73
22
 74
0
 42
0.0000001
 43
0.0000001
 44
0.0000000001
 40
0.0
 40
0.0
 40
0.0
 40
0.0
 40
0.1425255626
 40
0.2102092754
 40
0.2758967308
 40
0.4021996621
 40
0.4631887472
 40
0.5229220355
 40
0.5815637785
 40
0.6393009065
 40
0.6963672921
 40
0.7530581639
 40
0.809878723
 40
0.8386183981
 40
0.8678149771
 40
0.897772585
 40
0.9289790287
 40
0.9452854038
 40
0.962331631
 40
0.9804413173
 40
1.0
 40
1.0
 40
1.0
 40
1.0
 10
11.0473183383
 20
3.7819920536
 30
0.0
 10
11.0006586961
 20
3.7819920536
 30
0.0
 10
10.9317669332
 20
3.78523219
 30
0.0
 10
10.8421093585
 20
3.7964275346
 30
0.0
 10
10.7583688955
 20
3.8112200187
 30
0.0
 10
10.6779306577
 20
3.8316947475
 30
0.0
 10
10.6014802434
 20
3.858179106
 30
0.0
 10
10.5472005183
 20
3.88067695
 30
0.0
 10
10.4954065677
 20
3.9061018013
 30
0.0
 10
10.446275632
 20
3.9346673895
 30
0.0
 10
10.4000031809
 20
3.9665817706
 30
0.0
 10
10.3570901753
 20
4.0024502496
 30
0.0
 10
10.32468243
 20
4.0360666874
 30
0.0
 10
10.3014259318
 20
4.0656104416
 30
0.0
 10
10.2854552729
 20
4.0895873942
 30
0.0
 10
10.2713136851
 20
4.115623099
 30
0.0
 10
10.2616521569
 20
4.1391367018
 30
0.0
 10
10.255356051
 20
4.1593260704
 30
0.0
 10
10.2515782623
 20
4.1757654698
 30
0.0
 10
10.249115027
 20
4.1935315261
 30
0.0
 10
10.2485677578
 20
4.2058724966
 30
0.0
 10
10.2485677578
 20
4.2122755665
 30
0.0
  0
SPLINE
  5
2E9
100
AcDbEntity
  8
0
100
AcDbSpline
 62
9
  6
CONTINUOUS
 70
0
 71
3
 72
28
 73
24
 74
0
 42
0.0000001
 43
0.0000001
 44
0.0000000001
 40
0.0
 40
0.0
 40
0.0
 40
0.0
 40
0.1473427612
 40
0.2172446155
 40
0.2849703265
 40
0.3507429856
 40
0.4146859769
 40
0.4769046482
 40
0.5374951429
 40
0.596566551
 40
0.6542337072
 40
0.7106548029
 40
0.7660367321
 40
0.7934716086
 40
0.8208320183
 40
0.8482400828
 40
0.8758875757
 40
0.9040794768
 40
0.9333178589
 40
0.9485770549
 40
0.9645408205
 40
0.9815463565
 40
1.0
 40
1.0
 40
1.0
 40
1.0
 10
11.0473183383
 20
3.3023957176
 30
0.0
 10
10.9926106811
 20
3.3023957176
 30
0.0
 10
10.9118904618
 20
3.3054728854
 30
0.0
 10
10.8065980487
 20
3.3161260186
 30
0.0
 10
10.7318157449
 20
3.3268276335
 30
0.0
 10
10.6597138099
 20
3.340194791
 30
0.0
 10
10.5902609589
 20
3.3562705633
 30
0.0
 10
10.5234945345
 20
3.3750916679
 30
0.0
 10
10.4595042255
 20
3.396774562
 30
0.0
 10
10.398408187
 20
3.4214258072
 30
0.0
 10
10.3404314886
 20
3.4493343881
 30
0.0
 10
10.2858436754
 20
3.480764982
 30
0.0
 10
10.243517328
 20
3.5106216966
 30
0.0
 10
10.2121427058
 20
3.5369062301
 30
0.0
 10
10.1900199202
 20
3.5579671808
 30
0.0
 10
10.1694010182
 20
3.5806205859
 30
0.0
 10
10.1506179786
 20
3.6052234727
 30
0.0
 10
10.1340044112
 20
3.6321628962
 30
0.0
 10
10.122664402
 20
3.6567410961
 30
0.0
 10
10.115300524
 20
3.6779665972
 30
0.0
 10
10.1108882591
 20
3.6953491182
 30
0.0
 10
10.108016778
 20
3.7142563371
 30
0.0
 10
10.1073845866
 20
3.7274341569
 30
0.0
 10
10.1073845866
 20
3.7342859058
 30
0.0
  0
SPLINE
  5
2EA
100
AcDbEntity
  8
0
100
AcDbSpline
 62
9
  6
CONTINUOUS
 70
0
 71
3
 72
11
 73
7
 74
0
 42
0.0000001
 43
0.0000001
 44
0.0000000001
 40
0.0
 40
0.0
 40
0.0
 40
0.0
 40
0.2740585101
 40
0.5290934888
 40
0.7697412093
 40
1.0
 40
1.0
 40
1.0
 40
1.0
 10
10.1073845866
 20
3.7342859058
 30
0.0
 10
10.1073845866
 20
3.7402686308
 30
0.0
 10
10.1078681488
 20
3.7518264053
 30
0.0
 10
10.1100608301
 20
3.7685073491
 30
0.0
 10
10.1134725348
 20
3.7840013557
 30
0.0
 10
10.116465031
 20
3.7938468419
 30
0.0
 10
10.1180874056
 20
3.7986043974
 30
0.0
  0
SPLINE
  5
2EB
100
AcDbEntity
  8
0
100
AcDbSpline
 62
9
  6
CONTINUOUS
 70
0
 71
3
 72
28
 73
24
 74
0
 42
0.0000001
 43
0.0000001
 44
0.0000000001
 40
0.0
 40
0.0
 40
0.0
 40
0.0
 40
0.0184536435
 40
0.0354591795
 40
0.0514229451
 40
0.0666821411
 40
0.0959205232
 40
0.1241124243
 40
0.1517599172
 40
0.1791679817
 40
0.2065283914
 40
0.2339632679
 40
0.2893451971
 40
0.3457662928
 40
0.403433449
 40
0.4625048571
 40
0.5230953518
 40
0.5853140231
 40
0.6492570144
 40
0.7150296735
 40
0.7827553845
 40
0.8526572388
 40
1.0
 40
1.0
 40
1.0
 40
1.0
 10
11.98725209
 20
3.7342859058
 30
0.0
 10
11.98725209
 20
3.7274341569
 30
0.0
 10
11.9866198986
 20
3.7142563371
 30
0.0
 10
11.9837484175
 20
3.6953491182
 30
0.0
 10
11.9793361525
 20
3.6779665972
 30
0.0
 10
11.9719722745
 20
3.6567410961
 30
0.0
 10
11.9606322654
 20
3.6321628962
 30
0.0
 10
11.9440186979
 20
3.6052234727
 30
0.0
 10
11.9252356584
 20
3.5806205859
 30
0.0
 10
11.9046167564
 20
3.5579671808
 30
0.0
 10
11.8824939707
 20
3.5369062301
 30
0.0
 10
11.8511193485
 20
3.5106216966
 30
0.0
 10
11.8087930012
 20
3.480764982
 30
0.0
 10
11.754205188
 20
3.4493343881
 30
0.0
 10
11.6962284895
 20
3.4214258072
 30
0.0
 10
11.635132451
 20
3.396774562
 30
0.0
 10
11.5711421421
 20
3.3750916679
 30
0.0
 10
11.5043757177
 20
3.3562705633
 30
0.0
 10
11.4349228667
 20
3.340194791
 30
0.0
 10
11.3628209317
 20
3.3268276335
 30
0.0
 10
11.2880386279
 20
3.3161260186
 30
0.0
 10
11.1827462148
 20
3.3054728854
 30
0.0
 10
11.1020259955
 20
3.3023957176
 30
0.0
 10
11.0473183383
 20
3.3023957176
 30
0.0
  0
SPLINE
  5
2EC
100
AcDbEntity
  8
0
100
AcDbSpline
 62
9
  6
CONTINUOUS
 70
0
 71
3
 72
29
 73
25
 74
0
 42
0.0000001
 43
0.0000001
 44
0.0000000001
 40
0.0
 40
0.0
 40
0.0
 40
0.0
 40
0.018333562
 40
0.0352074383
 40
0.0510322262
 40
0.0661483958
 40
0.0808011542
 40
0.095110819
 40
0.1230171485
 40
0.150393562
 40
0.1775507518
 40
0.2046831943
 40
0.2319149279
 40
0.2869684101
 40
0.3431703524
 40
0.4007250083
 40
0.4597866732
 40
0.5204636183
 40
0.5828592031
 40
0.6470620842
 40
0.7131684338
 40
0.7812911781
 40
0.8516435524
 40
1.0
 40
1.0
 40
1.0
 40
1.0
 10
12.0175556126
 20
3.6474902381
 30
0.0
 10
12.0175556133
 20
3.6405160028
 30
0.0
 10
12.0169059438
 20
3.6271102692
 30
0.0
 10
12.0139486857
 20
3.6078907426
 30
0.0
 10
12.009403399
 20
3.5902502084
 30
0.0
 10
12.0036252431
 20
3.5738792258
 30
0.0
 10
11.9969825928
 20
3.5584703786
 30
0.0
 10
11.9871468236
 20
3.5391875892
 30
0.0
 10
11.9729851463
 20
3.5167476483
 30
0.0
 10
11.953603741
 20
3.4920360843
 30
0.0
 10
11.9323232987
 20
3.4693562677
 30
0.0
 10
11.9094862822
 20
3.4483399091
 30
0.0
 10
11.8770782435
 20
3.4221840493
 30
0.0
 10
11.8333453451
 20
3.3926246536
 30
0.0
 10
11.7769708796
 20
3.3617292498
 30
0.0
 10
11.7170925792
 20
3.3344645886
 30
0.0
 10
11.6539959722
 20
3.3105287981
 30
0.0
 10
11.5879156756
 20
3.2895936758
 30
0.0
 10
11.5189774451
 20
3.2715196798
 30
0.0
 10
11.4472753077
 20
3.2561565253
 30
0.0
 10
11.3728498642
 20
3.2434356851
 30
0.0
 10
11.29567027
 20
3.2332824965
 30
0.0
 10
11.1870041239
 20
3.2232040932
 30
0.0
 10
11.1037543305
 20
3.2203139787
 30
0.0
 10
11.0473183383
 20
3.2203139787
 30
0.0
  0
SPLINE
  5
2ED
100
AcDbEntity
  8
0
100
AcDbSpline
 62
9
  6
CONTINUOUS
 70
0
 71
3
 72
29
 73
25
 74
0
 42
0.0000001
 43
0.0000001
 44
0.0000000001
 40
0.0
 40
0.0
 40
0.0
 40
0.0
 40
0.1483564476
 40
0.2187088219
 40
0.2868315662
 40
0.3529379158
 40
0.4171407969
 40
0.4795363817
 40
0.5402133268
 40
0.5992749917
 40
0.6568296476
 40
0.7130315899
 40
0.7680850721
 40
0.7953168057
 40
0.8224492482
 40
0.849606438
 40
0.8769828515
 40
0.904889181
 40
0.9191988458
 40
0.9338516042
 40
0.9489677738
 40
0.9647925617
 40
0.981666438
 40
1.0
 40
1.0
 40
1.0
 40
1.0
 10
11.0473183383
 20
3.2203139787
 30
0.0
 10
10.9908823461
 20
3.2203139787
 30
0.0
 10
10.9076325526
 20
3.2232040932
 30
0.0
 10
10.7989664065
 20
3.2332824965
 30
0.0
 10
10.7217868123
 20
3.2434356851
 30
0.0
 10
10.6473613689
 20
3.2561565253
 30
0.0
 10
10.5756592315
 20
3.2715196798
 30
0.0
 10
10.506721001
 20
3.2895936758
 30
0.0
 10
10.4406407043
 20
3.3105287981
 30
0.0
 10
10.3775440973
 20
3.3344645886
 30
0.0
 10
10.3176657969
 20
3.3617292498
 30
0.0
 10
10.2612913315
 20
3.3926246536
 30
0.0
 10
10.2175584331
 20
3.4221840493
 30
0.0
 10
10.1851503943
 20
3.4483399091
 30
0.0
 10
10.1623133778
 20
3.4693562677
 30
0.0
 10
10.1410329356
 20
3.4920360843
 30
0.0
 10
10.1216515302
 20
3.5167476483
 30
0.0
 10
10.1074898529
 20
3.5391875892
 30
0.0
 10
10.0976540838
 20
3.5584703786
 30
0.0
 10
10.0910114335
 20
3.5738792258
 30
0.0
 10
10.0852332776
 20
3.5902502084
 30
0.0
 10
10.0806879908
 20
3.6078907426
 30
0.0
 10
10.0777307328
 20
3.6271102692
 30
0.0
 10
10.0770810633
 20
3.6405160028
 30
0.0
 10
10.077081064
 20
3.6474902381
 30
0.0
  0
SPLINE
  5
2EE
100
AcDbEntity
  8
0
100
AcDbSpline
 62
9
  6
CONTINUOUS
 70
0
 71
3
 72
11
 73
7
 74
0
 42
0.0000001
 43
0.0000001
 44
0.0000000001
 40
0.0
 40
0.0
 40
0.0
 40
0.0
 40
0.2747342535
 40
0.5296813589
 40
0.7699800772
 40
1.0
 40
1.0
 40
1.0
 40
1.0
 10
10.077081064
 20
3.6474902381
 30
0.0
 10
10.0770810646
 20
3.653869027
 30
0.0
 10
10.0776262637
 20
3.6661763889
 30
0.0
 10
10.08009995
 20
3.6839070377
 30
0.0
 10
10.0839340699
 20
3.700325403
 30
0.0
 10
10.0872784342
 20
3.7107326353
 30
0.0
 10
10.0890844014
 20
3.7157586276
 30
0.0
  0
ENDSEC
  0
SECTION
  2
OBJECTS
  0
DICTIONARY
  5
C
100
AcDbDictionary
280
0
281
1
  3
ACAD_GROUP
350
D
  3
ACAD_MLINESTYLE
350
17
  3
ACAD_LAYOUT
350
1A
  3
ACAD_PLOTSETTINGS
350
19
  3
ACAD_PLOTSTYLENAME
350
E
  0
DICTIONARY
  5
D
102
{ACAD_REACTORS
330
C
102
}
100
AcDbDictionary
280
0
281
1
  0
ACDBDICTIONARYWDFLT
  5
E
102
{ACAD_REACTORS
330
C
102
}
100
AcDbDictionary
281
1
  3
Normal
350
F
100
AcDbDictionaryWithDefault
340
F
  0
DICTIONARY
  5
17
102
{ACAD_REACTORS
330
C
102
}
100
AcDbDictionary
280
0
281
1
  3
Standard
350
18
  0
DICTIONARY
  5
19
102
{ACAD_REACTORS
330
C
102
}
100
AcDbDictionary
281
1
  0
DICTIONARY
  5
1A
102
{ACAD_REACTORS
330
C
102
}
100
AcDbDictionary
281
1
  3
Model
350
2EF
  3
Layout1
350
2F0
  0
ACDBPLACEHOLDER
  5
F
102
{ACAD_REACTORS
330
E
102
}
  0
MLINESTYLE
  5
18
102
{ACAD_REACTORS
330
17
102
}
100
AcDbMlineStyle
  2
STANDARD
 70
0
  3

 62
256
 51
90.0
 52
90.0
 71
2
 49
0.5
 62
256
  6
BYLAYER
 49
-0.5
 62
256
  6
BYLAYER
  0
LAYOUT
  5
2EF
102
{ACAD_REACTORS
330
1A
102
}
100
AcDbPlotSettings
  1

  2
none_device
  4
ANSI_C_(22.00_x_17.00_Inches)
  6

 40
0.0
 41
0.0
 42
0.0
 43
0.0
 44
558.8
 45
431.8
 46
0.0
 47
0.0
 48
0.0
 49
0.0
140
0.0
141
0.0
142
1.0
143
1.0
 70
1024
 72
0
 73
0
 74
0
  7

 75
0
147
1.0
148
0.0
149
0.0
100
AcDbLayout
  1
Model
 70
0
 71
0
 10
0.0
 20
0.0
 11
22.0
 21
17.0
 12
0.0
 22
0.0
 32
0.0
 14
0.0
 24
0.0
 34
0.0
 15
0.0
 25
0.0
 35
0.0
146
0.0
 13
0.0
 23
0.0
 33
0.0
 16
1.0
 26
0.0
 36
0.0
 17
0.0
 27
1.0
 37
0.0
 76
0
330
202
345
0
346
0
  0
LAYOUT
  5
2F0
102
{ACAD_REACTORS
330
1A
102
}
100
AcDbPlotSettings
  1

  2
none_device
  4
ANSI_C_(22.00_x_17.00_Inches)
  6

 40
0.0
 41
0.0
 42
0.0
 43
0.0
 44
558.8
 45
431.8
 46
0.0
 47
0.0
 48
0.0
 49
0.0
140
0.0
141
0.0
142
1.0
143
1.0
 70
0
 72
0
 73
0
 74
0
  7

 75
0
147
1.0
148
0.0
149
0.0
100
AcDbLayout
  1
Layout1
 70
0
 71
1
 10
0.0
 20
0.0
 11
22.0
 21
17.0
 12
0.0
 22
0.0
 32
0.0
 14
0.0
 24
0.0
 34
0.0
 15
0.0
 25
0.0
 35
0.0
146
0.0
 13
0.0
 23
0.0
 33
0.0
 16
1.0
 26
0.0
 36
0.0
 17
0.0
 27
1.0
 37
0.0
 76
0
330
203
345
0
346
0
  0
ENDSEC
  0
EOF
