999
DXF file: 3-2461_TOP.dxf
999
Pro/ENGINEER 2018400 by Parametric Technology Corporation
  0
SECTION
  2
HEADER
  9
$ACADVER
  1
AC1027
  9
$DWGCODEPAGE
  3
ANSI_1252
  9
$EXTMAX
 10
11.0
 20
8.5
 30
0.0
  9
$EXTMIN
 10
0.0
 20
0.0
 30
0.0
  9
$LIMMIN
 10
0.0
 20
0.0
  9
$LIMMAX
 10
11.0
 20
8.5
  9
$VIEWCTR
 10
5.5
 20
4.25
  9
$VIEWSIZE
 40
8.5
  9
$CLAYER
  8
0
  9
$LTSCALE
 40
0.605
  9
$CELTYPE
  6
BYLAYER
  9
$DIMSCALE
 40
1.0
  9
$DIMASZ
 40
0.1
  9
$DIMEXO
 40
0.0625
  9
$DIMDLI
 40
0.418
  9
$DIMEXE
 40
0.125
  9
$DIMCEN
 40
0.099
  9
$DIMLFAC
 40
1.0
  9
$DIMBLK
  1
_FILLED
  9
$DIMALT
 70
1
  9
$DIMALTD
 70
2
  9
$DIMALTTD
 70
2
  9
$DIMALTF
 40
25.4
  9
$DIMTXT
 40
0.08
  9
$DIMTOL
 70
1
  9
$DIMLIM
 70
0
  9
$DIMTFAC
 40
1.0
  9
$DIMTP
 40
0.001
  9
$DIMTM
 40
0.001
  9
$DIMGAP
 40
0.09
  9
$DIMDSEP
 70
46
  9
$AUNITS
 70
0
  9
$PDMODE
 70
3
  9
$PDSIZE
 40
0.3125
  9
$HANDSEED
  5
37E
  9
$TILEMODE
 70
1
  9
$MEASUREMENT
 70
0
  9
$INSUNITS
 70
1
  0
ENDSEC
  0
SECTION
  2
CLASSES
  0
CLASS
  1
ACDBDICTIONARYWDFLT
  2
AcDbDictionaryWithDefault
  3
AutoCAD 2000
 90
0
 91
1
280
0
281
0
  0
CLASS
  1
ACDBPLACEHOLDER
  2
AcDbPlaceHolder
  3
AutoCAD 2000
 90
0
 91
1
280
0
281
0
  0
CLASS
  1
LAYOUT
  2
AcDbLayout
  3
AutoCAD 2000
 90
0
 91
0
280
0
281
0
  0
ENDSEC
  0
SECTION
  2
TABLES
  0
TABLE
  2
VPORT
  5
8
100
AcDbSymbolTable
 70
2
  0
VPORT
  5
1F4
100
AcDbSymbolTableRecord
100
AcDbViewportTableRecord
  2
*ACTIVE
 70
0
 10
0.0
 20
0.0
 11
1.0
 21
1.0
 12
5.5
 22
4.25
 13
0.0
 23
0.0
 14
1.0
 24
1.0
 15
0.0
 25
0.0
 16
0.0
 26
0.0
 36
1.0
 17
0.0
 27
0.0
 37
0.0
 40
8.5
 41
1.2941176471
 42
50.0
 43
0.0
 44
0.0
 50
0.0
 51
0.0
 71
0
 72
100
 73
1
 74
1
 75
0
 76
0
 77
0
 78
0
  0
ENDTAB
  0
TABLE
  2
LTYPE
  5
5
100
AcDbSymbolTable
 70
6
  0
LTYPE
  5
14
100
AcDbSymbolTableRecord
100
AcDbLinetypeTableRecord
  2
BYBLOCK
 70
0
  3

 72
65
 73
0
 40
0.0
  0
LTYPE
  5
15
100
AcDbSymbolTableRecord
100
AcDbLinetypeTableRecord
  2
BYLAYER
 70
0
  3

 72
65
 73
0
 40
0.0
  0
LTYPE
  5
16
100
AcDbSymbolTableRecord
100
AcDbLinetypeTableRecord
  2
CONTINUOUS
 70
64
  3
Solid line
 72
65
 73
0
 40
0.0
  0
LTYPE
  5
1F5
100
AcDbSymbolTableRecord
100
AcDbLinetypeTableRecord
  2
CENTER
 70
64
  3
____ _ ____ _ ____ _ ____ _ ____ _ ____ _ ____
 72
65
 73
4
 40
0.6
 49
0.375
 74
0
 49
-0.075
 74
0
 49
0.075
 74
0
 49
-0.075
 74
0
  0
LTYPE
  5
1F6
100
AcDbSymbolTableRecord
100
AcDbLinetypeTableRecord
  2
HIDDEN
 70
64
  3
- - - - - - - - - - - - - - - - - - - -
 72
65
 73
2
 40
0.2
 49
0.1
 74
0
 49
-0.1
 74
0
  0
LTYPE
  5
1F7
100
AcDbSymbolTableRecord
100
AcDbLinetypeTableRecord
  2
PHANTOM
 70
64
  3
_____ _ _ _____ _ _ _____ _ _ _____
 72
65
 73
6
 40
0.8
 49
0.45
 74
0
 49
-0.05
 74
0
 49
0.1
 74
0
 49
-0.05
 74
0
 49
0.1
 74
0
 49
-0.05
 74
0
  0
LTYPE
  5
1F8
100
AcDbSymbolTableRecord
100
AcDbLinetypeTableRecord
  2
DOT
 70
64
  3
. . . . . . . . . . . . . . . . . . . .
 72
65
 73
2
 40
0.2
 49
0.1
 74
0
 49
-0.1
 74
0
  0
LTYPE
  5
1F9
100
AcDbSymbolTableRecord
100
AcDbLinetypeTableRecord
  2
DASHED
 70
64
  3
- - - - - - - - - - - - - - - - - - - -
 72
65
 73
2
 40
0.2
 49
0.1
 74
0
 49
-0.1
 74
0
  0
ENDTAB
  0
TABLE
  2
LAYER
  5
2
100
AcDbSymbolTable
 70
36
  0
LAYER
  5
10
100
AcDbSymbolTableRecord
100
AcDbLayerTableRecord
  2
0
 70
0
 62
7
  6
CONTINUOUS
370
-3
390
F
  0
LAYER
  5
1FA
100
AcDbSymbolTableRecord
100
AcDbLayerTableRecord
  2
DEFAULT_1
 70
0
 62
7
  6
CENTER
370
-3
390
F
  0
LAYER
  5
1FB
100
AcDbSymbolTableRecord
100
AcDbLayerTableRecord
  2
DEFAULT_2
 70
0
 62
8
  6
HIDDEN
370
-3
390
F
  0
LAYER
  5
1FC
100
AcDbSymbolTableRecord
100
AcDbLayerTableRecord
  2
DEFAULT_3
 70
0
 62
7
  6
PHANTOM
370
-3
390
F
  0
LAYER
  5
1FD
100
AcDbSymbolTableRecord
100
AcDbLayerTableRecord
  2
2-125_ASSY_PLANES
 70
0
 62
7
  6
CONTINUOUS
370
-3
390
F
  0
LAYER
  5
1FE
100
AcDbSymbolTableRecord
100
AcDbLayerTableRecord
  2
ALL_ASSEMBLY_MEMBERS
 70
0
 62
7
  6
CONTINUOUS
370
-3
390
F
  0
LAYER
  5
1FF
100
AcDbSymbolTableRecord
100
AcDbLayerTableRecord
  2
ALL_FEATURES
 70
0
 62
7
  6
CONTINUOUS
370
-3
390
F
  0
LAYER
  5
200
100
AcDbSymbolTableRecord
100
AcDbLayerTableRecord
  2
AXES_FEATURES
 70
0
 62
7
  6
CONTINUOUS
370
-3
390
F
  0
LAYER
  5
201
100
AcDbSymbolTableRecord
100
AcDbLayerTableRecord
  2
CHAMFER_FEATURES
 70
0
 62
7
  6
CONTINUOUS
370
-3
390
F
  0
LAYER
  5
202
100
AcDbSymbolTableRecord
100
AcDbLayerTableRecord
  2
CUT_FEATURES
 70
0
 62
7
  6
CONTINUOUS
370
-3
390
F
  0
LAYER
  5
203
100
AcDbSymbolTableRecord
100
AcDbLayerTableRecord
  2
DATUM_CURVES
 70
0
 62
7
  6
CONTINUOUS
370
-3
390
F
  0
LAYER
  5
204
100
AcDbSymbolTableRecord
100
AcDbLayerTableRecord
  2
DATUM_PLANES
 70
0
 62
7
  6
CONTINUOUS
370
-3
390
F
  0
LAYER
  5
205
100
AcDbSymbolTableRecord
100
AcDbLayerTableRecord
  2
DATUM_POINTS
 70
0
 62
7
  6
CONTINUOUS
370
-3
390
F
  0
LAYER
  5
206
100
AcDbSymbolTableRecord
100
AcDbLayerTableRecord
  2
DEFAULT_COORDINATE_SYSTEM
 70
0
 62
7
  6
CONTINUOUS
370
-3
390
F
  0
LAYER
  5
207
100
AcDbSymbolTableRecord
100
AcDbLayerTableRecord
  2
DEFAULT_DATUM_AXES
 70
0
 62
7
  6
CONTINUOUS
370
-3
390
F
  0
LAYER
  5
208
100
AcDbSymbolTableRecord
100
AcDbLayerTableRecord
  2
DEFAULT_DATUM_CURVES
 70
0
 62
7
  6
CONTINUOUS
370
-3
390
F
  0
LAYER
  5
209
100
AcDbSymbolTableRecord
100
AcDbLayerTableRecord
  2
DEFAULT_DATUM_PLANES
 70
0
 62
7
  6
CONTINUOUS
370
-3
390
F
  0
LAYER
  5
20A
100
AcDbSymbolTableRecord
100
AcDbLayerTableRecord
  2
DEFAULT_SURFACES
 70
0
 62
7
  6
CONTINUOUS
370
-3
390
F
  0
LAYER
  5
20B
100
AcDbSymbolTableRecord
100
AcDbLayerTableRecord
  2
DIMENSIONS
 70
0
 62
7
  6
CONTINUOUS
370
-3
390
F
  0
LAYER
  5
20C
100
AcDbSymbolTableRecord
100
AcDbLayerTableRecord
  2
HOLE_FEATURES
 70
0
 62
7
  6
CONTINUOUS
370
-3
390
F
  0
LAYER
  5
20D
100
AcDbSymbolTableRecord
100
AcDbLayerTableRecord
  2
PART_REFERENCE_DIMENSIONS
 70
0
 62
7
  6
CONTINUOUS
370
-3
390
F
  0
LAYER
  5
20E
100
AcDbSymbolTableRecord
100
AcDbLayerTableRecord
  2
PLATED_SURFACE_AREA
 70
0
 62
7
  6
CONTINUOUS
370
-3
390
F
  0
LAYER
  5
20F
100
AcDbSymbolTableRecord
100
AcDbLayerTableRecord
  2
POINTS
 70
0
 62
7
  6
CONTINUOUS
370
-3
390
F
  0
LAYER
  5
210
100
AcDbSymbolTableRecord
100
AcDbLayerTableRecord
  2
PROTRUSION_FEATURES
 70
0
 62
7
  6
CONTINUOUS
370
-3
390
F
  0
LAYER
  5
211
100
AcDbSymbolTableRecord
100
AcDbLayerTableRecord
  2
QUILTS
 70
0
 62
7
  6
CONTINUOUS
370
-3
390
F
  0
LAYER
  5
212
100
AcDbSymbolTableRecord
100
AcDbLayerTableRecord
  2
REFERENCE_DIMENSIONS
 70
0
 62
7
  6
CONTINUOUS
370
-3
390
F
  0
LAYER
  5
213
100
AcDbSymbolTableRecord
100
AcDbLayerTableRecord
  2
ROUND_FEATURES
 70
0
 62
7
  6
CONTINUOUS
370
-3
390
F
  0
LAYER
  5
214
100
AcDbSymbolTableRecord
100
AcDbLayerTableRecord
  2
SHELL_FEATURES
 70
0
 62
7
  6
CONTINUOUS
370
-3
390
F
  0
LAYER
  5
215
100
AcDbSymbolTableRecord
100
AcDbLayerTableRecord
  2
SURFACE_FEATURES
 70
0
 62
7
  6
CONTINUOUS
370
-3
390
F
  0
LAYER
  5
216
100
AcDbSymbolTableRecord
100
AcDbLayerTableRecord
  2
WETTED_SURFACE_AREA
 70
0
 62
7
  6
CONTINUOUS
370
-3
390
F
  0
ENDTAB
  0
TABLE
  2
STYLE
  5
3
100
AcDbSymbolTable
 70
1
  0
STYLE
  5
11
100
AcDbSymbolTableRecord
100
AcDbTextStyleTableRecord
  2
STANDARD
 70
0
 40
0.0
 41
0.8
 50
0.0
 71
0
 42
0.2
  3
txt
  4

  0
STYLE
  5
217
100
AcDbSymbolTableRecord
100
AcDbTextStyleTableRecord
  2
TEXTSTYLE_1
 70
0
 40
0.0
 41
0.8
 50
0.0
 71
0
 42
0.2
  3
gdt
  4

  0
ENDTAB
  0
TABLE
  2
VIEW
  5
6
100
AcDbSymbolTable
 70
0
  0
ENDTAB
  0
TABLE
  2
UCS
  5
7
100
AcDbSymbolTable
 70
0
  0
ENDTAB
  0
TABLE
  2
APPID
  5
9
100
AcDbSymbolTable
 70
1
  0
APPID
  5
218
100
AcDbSymbolTableRecord
100
AcDbRegAppTableRecord
  2
ACAD
 70
0
  0
ENDTAB
  0
TABLE
  2
BLOCK_RECORD
  5
1
100
AcDbSymbolTable
 70
0
  0
BLOCK_RECORD
  5
219
100
AcDbSymbolTableRecord
100
AcDbBlockTableRecord
  2
*Model_Space
  0
BLOCK_RECORD
  5
21A
100
AcDbSymbolTableRecord
100
AcDbBlockTableRecord
  2
*Paper_Space
  0
BLOCK_RECORD
  5
21B
100
AcDbSymbolTableRecord
100
AcDbBlockTableRecord
  2
_FILLED
  0
ENDTAB
  0
TABLE
  2
DIMSTYLE
  5
A
100
AcDbSymbolTable
 70
1
100
AcDbDimStyleTable
 71
0
  0
DIMSTYLE
105
21C
100
AcDbSymbolTableRecord
100
AcDbDimStyleTableRecord
  2
STANDARD
 70
0
  3

  4

 40
1.0
 41
0.1
 42
0.0625
 43
0.38
 44
0.125
 45
0.0
 46
0.0
 47
0.001
 48
0.001
140
0.08
141
0.09
142
0.0
143
25.4
144
1.0
145
0.0
146
1.0
147
0.09
 71
1.0
 72
0.0
 73
1
 74
1
 75
0
 76
0
 77
0
 78
4
 79
1
170
1
171
2
172
0
173
0
174
0
175
0
176
0
177
0
178
0
270
2
179
3
271
3
272
3
273
2
274
2
275
0
280
0
281
0
282
0
283
1
284
4
285
0
286
0
287
3
288
0
340
11
278
46
341
21B
342
21B
343
21B
344
21B
  0
ENDTAB
  0
ENDSEC
  0
SECTION
  2
BLOCKS
  0
BLOCK
  5
20
100
AcDbEntity
  8
0
100
AcDbBlockBegin
  2
*Model_Space
 70
0
 10
0.0
 20
0.0
 30
0.0
  3
*Model_Space
  1

  0
ENDBLK
  5
21
100
AcDbEntity
  8
0
100
AcDbBlockEnd
  0
BLOCK
  5
1C
100
AcDbEntity
  8
0
100
AcDbBlockBegin
  2
*Paper_Space
 70
0
 10
0.0
 20
0.0
 30
0.0
  3
*Paper_Space
  1

  0
ENDBLK
  5
1D
100
AcDbEntity
  8
0
100
AcDbBlockEnd
  0
BLOCK
  5
21D
100
AcDbEntity
  8
0
100
AcDbBlockBegin
  2
_FILLED
 70
64
 10
0.0
 20
0.0
  3
_FILLED
  1

  0
SOLID
  5
21E
100
AcDbEntity
  8
0
  6
BYBLOCK
 62
0
100
AcDbTrace
 10
0.0
 20
0.0
 11
-1.0
 21
0.2
 12
-1.0
 22
-0.2
 13
-1.0
 23
-0.2
  0
ENDBLK
  5
21F
100
AcDbEntity
  8
0
  6
BYBLOCK
 62
0
100
AcDbBlockEnd
  0
ENDSEC
  0
SECTION
  2
ENTITIES
  0
MTEXT
  5
220
100
AcDbEntity
  8
0
100
AcDbMText
 62
2
  6
CONTINUOUS
  7
STANDARD
 71
3
 72
1
 10
3.7936335404
 20
1.3844805907
 30
0.0
 11
1.0
 21
0.0
 31
0.0
 73
2
 44
0.9
  1
SCALE  .500
 40
0.08
 41
0.704
  0
LINE
  5
221
100
AcDbEntity
  8
0
100
AcDbLine
 62
7
  6
CONTINUOUS
 10
0.0
 20
0.0
 11
0.0
 21
8.5
  0
LINE
  5
222
100
AcDbEntity
  8
0
100
AcDbLine
 62
7
  6
CONTINUOUS
 10
0.0
 20
0.0
 11
11.0
 21
0.0
  0
LINE
  5
223
100
AcDbEntity
  8
0
100
AcDbLine
 62
7
  6
CONTINUOUS
 10
0.0
 20
8.5
 11
11.0
 21
8.5
  0
LINE
  5
224
100
AcDbEntity
  8
0
100
AcDbLine
 62
7
  6
CONTINUOUS
 10
11.0
 20
0.0
 11
11.0
 21
8.5
  0
LINE
  5
225
100
AcDbEntity
  8
0
100
AcDbLine
 62
7
  6
CONTINUOUS
 10
2.5667107315
 20
5.5885687353
 11
2.5667107315
 21
5.3683213617
  0
LINE
  5
226
100
AcDbEntity
  8
0
100
AcDbLine
 62
7
  6
CONTINUOUS
 10
2.5784259615
 20
5.3220492175
 11
2.5784259615
 21
5.6348408794
  0
LINE
  5
227
100
AcDbEntity
  8
0
100
AcDbLine
 62
7
  6
CONTINUOUS
 10
2.6033869642
 20
5.2984450485
 11
2.6033869642
 21
5.6584450485
  0
LINE
  5
228
100
AcDbEntity
  8
0
100
AcDbLine
 62
7
  6
CONTINUOUS
 10
2.6108714524
 20
5.2984450485
 11
2.6108714524
 21
5.6584450485
  0
LINE
  5
229
100
AcDbEntity
  8
0
100
AcDbLine
 62
7
  6
CONTINUOUS
 10
2.6337653142
 20
5.3134015885
 11
2.6337653142
 21
5.6434885085
  0
LINE
  5
22A
100
AcDbEntity
  8
0
100
AcDbLine
 62
7
  6
CONTINUOUS
 10
2.6499711212
 20
5.6316348143
 11
2.6499711212
 21
5.3252552826
  0
LINE
  5
22B
100
AcDbEntity
  8
0
100
AcDbLine
 62
7
  6
CONTINUOUS
 10
3.7256918213
 20
6.8674204839
 11
3.6414419188
 21
6.7865912026
  0
LINE
  5
22C
100
AcDbEntity
  8
0
100
AcDbLine
 62
7
  6
CONTINUOUS
 10
2.9018998321
 20
5.3696152472
 11
2.9018998321
 21
5.5872748498
  0
LINE
  5
22D
100
AcDbEntity
  8
0
100
AcDbLine
 62
7
  6
CONTINUOUS
 10
3.5821278902
 20
6.6800297243
 11
3.6320633447
 21
6.7416948751
  0
LINE
  5
22E
100
AcDbEntity
  8
0
100
AcDbLine
 62
7
  6
CONTINUOUS
 10
2.9170804037
 20
5.3884450485
 11
2.9170804037
 21
5.5684450485
  0
LINE
  5
22F
100
AcDbEntity
  8
0
100
AcDbLine
 62
7
  6
CONTINUOUS
 10
2.9490804037
 20
5.8536948751
 11
2.9490804037
 21
5.8561144766
  0
LINE
  5
230
100
AcDbEntity
  8
0
100
AcDbLine
 62
7
  6
CONTINUOUS
 10
2.9620804037
 20
5.3884450485
 11
2.9620804037
 21
5.5684450485
  0
LINE
  5
231
100
AcDbEntity
  8
0
100
AcDbLine
 62
7
  6
CONTINUOUS
 10
2.9670804037
 20
5.567894755
 11
2.9670804037
 21
5.3889953419
  0
LINE
  5
232
100
AcDbEntity
  8
0
100
AcDbLine
 62
7
  6
CONTINUOUS
 10
3.0118304037
 20
5.7836948751
 11
3.0118304037
 21
5.8236948751
  0
LINE
  5
233
100
AcDbEntity
  8
0
100
AcDbLine
 62
7
  6
CONTINUOUS
 10
3.0340804037
 20
5.2948810584
 11
3.0340804037
 21
5.2983090734
  0
LINE
  5
234
100
AcDbEntity
  8
ALL_FEATURES
100
AcDbLine
 62
7
  6
CONTINUOUS
 10
3.0448304037
 20
5.6586948751
 11
3.0448304037
 21
5.7836948751
  0
LINE
  5
235
100
AcDbEntity
  8
ALL_FEATURES
100
AcDbLine
 62
7
  6
CONTINUOUS
 10
3.3033304037
 20
5.6586948751
 11
3.3033304037
 21
5.7836948751
  0
LINE
  5
236
100
AcDbEntity
  8
0
100
AcDbLine
 62
7
  6
CONTINUOUS
 10
3.3140804037
 20
5.2948810584
 11
3.3140804037
 21
5.2983090734
  0
LINE
  5
237
100
AcDbEntity
  8
0
100
AcDbLine
 62
7
  6
CONTINUOUS
 10
3.3363304037
 20
5.7836948751
 11
3.3363304037
 21
5.8236948751
  0
LINE
  5
238
100
AcDbEntity
  8
0
100
AcDbLine
 62
7
  6
CONTINUOUS
 10
3.3810804037
 20
5.3889953419
 11
3.3810804037
 21
5.567894755
  0
LINE
  5
239
100
AcDbEntity
  8
0
100
AcDbLine
 62
7
  6
CONTINUOUS
 10
3.3860804037
 20
5.5684450485
 11
3.3860804037
 21
5.3884450485
  0
LINE
  5
23A
100
AcDbEntity
  8
0
100
AcDbLine
 62
7
  6
CONTINUOUS
 10
3.3990804037
 20
5.8536948751
 11
3.3990804037
 21
5.8561144766
  0
LINE
  5
23B
100
AcDbEntity
  8
0
100
AcDbLine
 62
7
  6
CONTINUOUS
 10
3.4310804037
 20
5.5684450485
 11
3.4310804037
 21
5.3884450485
  0
LINE
  5
23C
100
AcDbEntity
  8
0
100
AcDbLine
 62
7
  6
CONTINUOUS
 10
3.4462609754
 20
5.5872748498
 11
3.4462609754
 21
5.3696152472
  0
LINE
  5
23D
100
AcDbEntity
  8
0
100
AcDbLine
 62
7
  6
CONTINUOUS
 10
3.6981896863
 20
5.3252552826
 11
3.6981896863
 21
5.6316348143
  0
LINE
  5
23E
100
AcDbEntity
  8
0
100
AcDbLine
 62
7
  6
CONTINUOUS
 10
3.7143954932
 20
5.6434885085
 11
3.7143954932
 21
5.3134015885
  0
LINE
  5
23F
100
AcDbEntity
  8
0
100
AcDbLine
 62
7
  6
CONTINUOUS
 10
3.7372893551
 20
5.6584450485
 11
3.7372893551
 21
5.2984450485
  0
LINE
  5
240
100
AcDbEntity
  8
0
100
AcDbLine
 62
7
  6
CONTINUOUS
 10
3.7447738433
 20
5.6584450485
 11
3.7447738433
 21
5.2984450485
  0
LINE
  5
241
100
AcDbEntity
  8
0
100
AcDbLine
 62
7
  6
CONTINUOUS
 10
3.769734846
 20
5.6348408794
 11
3.769734846
 21
5.3220492175
  0
LINE
  5
242
100
AcDbEntity
  8
0
100
AcDbLine
 62
7
  6
CONTINUOUS
 10
3.781450076
 20
5.3683213617
 11
3.781450076
 21
5.5885687353
  0
LINE
  5
243
100
AcDbEntity
  8
0
100
AcDbLine
 62
7
  6
CONTINUOUS
 10
2.7660329173
 20
6.6800297243
 11
2.7160974628
 21
6.7416948751
  0
LINE
  5
244
100
AcDbEntity
  8
ALL_FEATURES
100
AcDbLine
 62
7
  6
CONTINUOUS
 10
4.8415854037
 20
6.4396948751
 11
4.8415854037
 21
6.4696948751
  0
LINE
  5
245
100
AcDbEntity
  8
ALL_FEATURES
100
AcDbLine
 62
7
  6
CONTINUOUS
 10
4.8825854037
 20
5.0096948751
 11
4.8825854037
 21
5.0146948751
  0
LINE
  5
246
100
AcDbEntity
  8
ALL_FEATURES
100
AcDbLine
 62
7
  6
CONTINUOUS
 10
4.8825854037
 20
6.1821070882
 11
4.8825854037
 21
6.382782662
  0
LINE
  5
247
100
AcDbEntity
  8
ALL_FEATURES
100
AcDbLine
 62
7
  6
CONTINUOUS
 10
4.9550854037
 20
4.9796948751
 11
4.9550854037
 21
2.7851948751
  0
LINE
  5
248
100
AcDbEntity
  8
0
100
AcDbLine
 62
7
  6
CONTINUOUS
 10
5.6629030309
 20
6.7541867183
 11
5.6649287855
 21
6.7610973977
  0
LINE
  5
249
100
AcDbEntity
  8
0
100
AcDbLine
 62
7
  6
CONTINUOUS
 10
2.6224689861
 20
6.8674204839
 11
2.7067188887
 21
6.7865912026
  0
LINE
  5
24A
100
AcDbEntity
  8
ALL_FEATURES
100
AcDbLine
 62
7
  6
CONTINUOUS
 10
5.3300854037
 20
4.9796948751
 11
5.3300854037
 21
2.7851948751
  0
LINE
  5
24B
100
AcDbEntity
  8
0
100
AcDbLine
 62
7
  6
CONTINUOUS
 10
7.6627018213
 20
6.8674204839
 11
7.5784519188
 21
6.7865912026
  0
LINE
  5
24C
100
AcDbEntity
  8
ALL_FEATURES
100
AcDbLine
 62
7
  6
CONTINUOUS
 10
5.3300854037
 20
4.8771948751
 11
4.9550854037
 21
4.8771948751
  0
LINE
  5
24D
100
AcDbEntity
  8
0
100
AcDbLine
 62
7
  6
CONTINUOUS
 10
4.6222677766
 20
6.7541867183
 11
4.620242022
 21
6.7610973977
  0
LINE
  5
24E
100
AcDbEntity
  8
ALL_FEATURES
100
AcDbLine
 62
7
  6
CONTINUOUS
 10
5.4025854037
 20
5.0096948751
 11
5.4025854037
 21
5.0146948751
  0
LINE
  5
24F
100
AcDbEntity
  8
ALL_FEATURES
100
AcDbLine
 62
7
  6
CONTINUOUS
 10
5.4025854037
 20
6.1821070882
 11
5.4025854037
 21
6.382782662
  0
LINE
  5
250
100
AcDbEntity
  8
ALL_FEATURES
100
AcDbLine
 62
7
  6
CONTINUOUS
 10
5.4435854037
 20
6.4396948751
 11
5.4435854037
 21
6.4696948751
  0
LINE
  5
251
100
AcDbEntity
  8
0
100
AcDbLine
 62
7
  6
CONTINUOUS
 10
5.3725849947
 20
4.9796948751
 11
4.9125858128
 21
4.9796948751
  0
LINE
  5
252
100
AcDbEntity
  8
0
100
AcDbLine
 62
7
  6
CONTINUOUS
 10
5.4025854037
 20
5.0096948751
 11
4.8825854037
 21
5.0096948751
  0
LINE
  5
253
100
AcDbEntity
  8
0
100
AcDbLine
 62
7
  6
CONTINUOUS
 10
5.4025854037
 20
5.0146948751
 11
4.8825854037
 21
5.0146948751
  0
LINE
  5
254
100
AcDbEntity
  8
0
100
AcDbLine
 62
7
  6
CONTINUOUS
 10
5.3822456907
 20
5.0464765677
 11
4.9029251168
 21
5.0464765677
  0
LINE
  5
255
100
AcDbEntity
  8
0
100
AcDbLine
 62
7
  6
CONTINUOUS
 10
5.367717983
 20
5.0693592625
 11
4.9174528245
 21
5.0693592625
  0
LINE
  5
256
100
AcDbEntity
  8
0
100
AcDbLine
 62
7
  6
CONTINUOUS
 10
7.5191378902
 20
6.6800297243
 11
7.5690733447
 21
6.7416948751
  0
LINE
  5
257
100
AcDbEntity
  8
0
100
AcDbLine
 62
7
  6
CONTINUOUS
 10
3.0611771779
 20
5.2570193791
 11
3.2869836295
 21
5.2570193791
  0
LINE
  5
258
100
AcDbEntity
  8
0
100
AcDbLine
 62
7
  6
CONTINUOUS
 10
6.9981871779
 20
5.2570193791
 11
7.2239936295
 21
5.2570193791
  0
LINE
  5
259
100
AcDbEntity
  8
0
100
AcDbLine
 62
7
  6
CONTINUOUS
 10
3.0340804037
 20
5.2948810584
 11
3.3140804037
 21
5.2948810584
  0
LINE
  5
25A
100
AcDbEntity
  8
0
100
AcDbLine
 62
7
  6
CONTINUOUS
 10
6.9710904037
 20
5.2948810584
 11
7.2510904037
 21
5.2948810584
  0
LINE
  5
25B
100
AcDbEntity
  8
0
100
AcDbLine
 62
7
  6
CONTINUOUS
 10
3.0340804037
 20
5.2983090734
 11
3.3140804037
 21
5.2983090734
  0
LINE
  5
25C
100
AcDbEntity
  8
0
100
AcDbLine
 62
7
  6
CONTINUOUS
 10
6.9710904037
 20
5.2983090734
 11
7.2510904037
 21
5.2983090734
  0
LINE
  5
25D
100
AcDbEntity
  8
0
100
AcDbLine
 62
7
  6
CONTINUOUS
 10
7.6817838433
 20
5.2984450485
 11
7.6742993551
 21
5.2984450485
  0
LINE
  5
25E
100
AcDbEntity
  8
0
100
AcDbLine
 62
7
  6
CONTINUOUS
 10
3.7447738433
 20
5.2984450485
 11
3.7372893551
 21
5.2984450485
  0
LINE
  5
25F
100
AcDbEntity
  8
0
100
AcDbLine
 62
7
  6
CONTINUOUS
 10
2.6033869642
 20
5.2984450485
 11
2.6108714524
 21
5.2984450485
  0
LINE
  5
260
100
AcDbEntity
  8
0
100
AcDbLine
 62
7
  6
CONTINUOUS
 10
6.5403969642
 20
5.2984450485
 11
6.5478814524
 21
5.2984450485
  0
LINE
  5
261
100
AcDbEntity
  8
0
100
AcDbLine
 62
7
  6
CONTINUOUS
 10
7.2572054668
 20
5.3083090734
 11
7.1698525818
 21
5.3083090734
  0
LINE
  5
262
100
AcDbEntity
  8
0
100
AcDbLine
 62
7
  6
CONTINUOUS
 10
7.0524253592
 20
5.3083090734
 11
6.9649753407
 21
5.3083090734
  0
LINE
  5
263
100
AcDbEntity
  8
0
100
AcDbLine
 62
7
  6
CONTINUOUS
 10
3.3201954668
 20
5.3083090734
 11
3.2328425818
 21
5.3083090734
  0
LINE
  5
264
100
AcDbEntity
  8
0
100
AcDbLine
 62
7
  6
CONTINUOUS
 10
3.1154153592
 20
5.3083090734
 11
3.0279653407
 21
5.3083090734
  0
LINE
  5
265
100
AcDbEntity
  8
0
100
AcDbLine
 62
7
  6
CONTINUOUS
 10
7.2605213515
 20
5.3095644935
 11
7.1732275514
 21
5.3095644935
  0
LINE
  5
266
100
AcDbEntity
  8
0
100
AcDbLine
 62
7
  6
CONTINUOUS
 10
7.0489117327
 20
5.3095644935
 11
6.9616594559
 21
5.3095644935
  0
LINE
  5
267
100
AcDbEntity
  8
0
100
AcDbLine
 62
7
  6
CONTINUOUS
 10
3.3235113515
 20
5.3095644935
 11
3.2362175514
 21
5.3095644935
  0
LINE
  5
268
100
AcDbEntity
  8
0
100
AcDbLine
 62
7
  6
CONTINUOUS
 10
3.1119017327
 20
5.3095644935
 11
3.0246494559
 21
5.3095644935
  0
LINE
  5
269
100
AcDbEntity
  8
0
100
AcDbLine
 62
7
  6
CONTINUOUS
 10
7.3680904037
 20
5.3884450485
 11
7.3230904037
 21
5.3884450485
  0
LINE
  5
26A
100
AcDbEntity
  8
0
100
AcDbLine
 62
7
  6
CONTINUOUS
 10
3.4310804037
 20
5.3884450485
 11
3.3860804037
 21
5.3884450485
  0
LINE
  5
26B
100
AcDbEntity
  8
0
100
AcDbLine
 62
7
  6
CONTINUOUS
 10
2.9170804037
 20
5.3884450485
 11
2.9620804037
 21
5.3884450485
  0
LINE
  5
26C
100
AcDbEntity
  8
0
100
AcDbLine
 62
7
  6
CONTINUOUS
 10
6.8540904037
 20
5.3884450485
 11
6.8990904037
 21
5.3884450485
  0
LINE
  5
26D
100
AcDbEntity
  8
0
100
AcDbLine
 62
7
  6
CONTINUOUS
 10
7.3680904037
 20
5.5684450485
 11
7.3230904037
 21
5.5684450485
  0
LINE
  5
26E
100
AcDbEntity
  8
0
100
AcDbLine
 62
7
  6
CONTINUOUS
 10
3.4310804037
 20
5.5684450485
 11
3.3860804037
 21
5.5684450485
  0
LINE
  5
26F
100
AcDbEntity
  8
0
100
AcDbLine
 62
7
  6
CONTINUOUS
 10
2.9170804037
 20
5.5684450485
 11
2.9620804037
 21
5.5684450485
  0
LINE
  5
270
100
AcDbEntity
  8
0
100
AcDbLine
 62
7
  6
CONTINUOUS
 10
6.8540904037
 20
5.5684450485
 11
6.8990904037
 21
5.5684450485
  0
LINE
  5
271
100
AcDbEntity
  8
0
100
AcDbLine
 62
7
  6
CONTINUOUS
 10
7.6817838433
 20
5.6584450485
 11
7.6742993551
 21
5.6584450485
  0
LINE
  5
272
100
AcDbEntity
  8
0
100
AcDbLine
 62
7
  6
CONTINUOUS
 10
3.7447738433
 20
5.6584450485
 11
3.7372893551
 21
5.6584450485
  0
LINE
  5
273
100
AcDbEntity
  8
0
100
AcDbLine
 62
7
  6
CONTINUOUS
 10
2.6033869642
 20
5.6584450485
 11
2.6108714524
 21
5.6584450485
  0
LINE
  5
274
100
AcDbEntity
  8
0
100
AcDbLine
 62
7
  6
CONTINUOUS
 10
6.5403969642
 20
5.6584450485
 11
6.5478814524
 21
5.6584450485
  0
LINE
  5
275
100
AcDbEntity
  8
ALL_FEATURES
100
AcDbLine
 62
7
  6
CONTINUOUS
 10
3.0385804037
 20
5.6586948751
 11
3.3095804037
 21
5.6586948751
  0
LINE
  5
276
100
AcDbEntity
  8
ALL_FEATURES
100
AcDbLine
 62
7
  6
CONTINUOUS
 10
6.9755904037
 20
5.6586948751
 11
7.2465904037
 21
5.6586948751
  0
LINE
  5
277
100
AcDbEntity
  8
0
100
AcDbLine
 62
7
  6
CONTINUOUS
 10
3.0118304037
 20
5.7836948751
 11
3.3363304037
 21
5.7836948751
  0
LINE
  5
278
100
AcDbEntity
  8
0
100
AcDbLine
 62
7
  6
CONTINUOUS
 10
6.9488404037
 20
5.7836948751
 11
7.2733404037
 21
5.7836948751
  0
LINE
  5
279
100
AcDbEntity
  8
0
100
AcDbLine
 62
7
  6
CONTINUOUS
 10
7.3060904036
 20
5.8236948751
 11
6.9160904038
 21
5.8236948751
  0
LINE
  5
27A
100
AcDbEntity
  8
0
100
AcDbLine
 62
7
  6
CONTINUOUS
 10
3.3690804036
 20
5.8236948751
 11
2.9790804038
 21
5.8236948751
  0
LINE
  5
27B
100
AcDbEntity
  8
0
100
AcDbLine
 62
7
  6
CONTINUOUS
 10
7.3360904037
 20
5.8536948751
 11
6.8860904037
 21
5.8536948751
  0
LINE
  5
27C
100
AcDbEntity
  8
0
100
AcDbLine
 62
7
  6
CONTINUOUS
 10
3.3990804037
 20
5.8536948751
 11
2.9490804037
 21
5.8536948751
  0
LINE
  5
27D
100
AcDbEntity
  8
0
100
AcDbLine
 62
7
  6
CONTINUOUS
 10
7.3360904037
 20
5.8561144924
 11
6.8860904037
 21
5.8561144924
  0
LINE
  5
27E
100
AcDbEntity
  8
0
100
AcDbLine
 62
7
  6
CONTINUOUS
 10
3.3990804037
 20
5.8561144924
 11
2.9490804037
 21
5.8561144924
  0
LINE
  5
27F
100
AcDbEntity
  8
0
100
AcDbLine
 62
7
  6
CONTINUOUS
 10
6.5037207315
 20
5.5885687353
 11
6.5037207315
 21
5.3683213617
  0
LINE
  5
280
100
AcDbEntity
  8
0
100
AcDbLine
 62
7
  6
CONTINUOUS
 10
6.5154359615
 20
5.3220492175
 11
6.5154359615
 21
5.6348408794
  0
LINE
  5
281
100
AcDbEntity
  8
0
100
AcDbLine
 62
7
  6
CONTINUOUS
 10
3.3855719016
 20
5.8811750133
 11
2.9625889058
 21
5.8811750133
  0
LINE
  5
282
100
AcDbEntity
  8
0
100
AcDbLine
 62
7
  6
CONTINUOUS
 10
7.3225819016
 20
5.8811750133
 11
6.8995989058
 21
5.8811750133
  0
LINE
  5
283
100
AcDbEntity
  8
0
100
AcDbLine
 62
7
  6
CONTINUOUS
 10
7.3092296029
 20
5.9031781357
 11
6.9129512046
 21
5.9031781357
  0
LINE
  5
284
100
AcDbEntity
  8
0
100
AcDbLine
 62
7
  6
CONTINUOUS
 10
3.3722196029
 20
5.9031781357
 11
2.9759412046
 21
5.9031781357
  0
LINE
  5
285
100
AcDbEntity
  8
0
100
AcDbLine
 62
7
  6
CONTINUOUS
 10
4.8838469359
 20
6.069360338
 11
5.4013238716
 21
6.069360338
  0
LINE
  5
286
100
AcDbEntity
  8
0
100
AcDbLine
 62
7
  6
CONTINUOUS
 10
4.8662641437
 20
6.0917513168
 11
5.4189066638
 21
6.0917513168
  0
LINE
  5
287
100
AcDbEntity
  8
0
100
AcDbLine
 62
7
  6
CONTINUOUS
 10
6.5403969642
 20
5.2984450485
 11
6.5403969642
 21
5.6584450485
  0
LINE
  5
288
100
AcDbEntity
  8
0
100
AcDbLine
 62
7
  6
CONTINUOUS
 10
6.5478814524
 20
5.2984450485
 11
6.5478814524
 21
5.6584450485
  0
LINE
  5
289
100
AcDbEntity
  8
0
100
AcDbLine
 62
7
  6
CONTINUOUS
 10
6.5707753142
 20
5.3134015885
 11
6.5707753142
 21
5.6434885085
  0
LINE
  5
28A
100
AcDbEntity
  8
0
100
AcDbLine
 62
7
  6
CONTINUOUS
 10
6.5869811212
 20
5.6316348143
 11
6.5869811212
 21
5.3252552826
  0
LINE
  5
28B
100
AcDbEntity
  8
0
100
AcDbLine
 62
7
  6
CONTINUOUS
 10
4.8655020707
 20
6.1583936662
 11
5.4196687368
 21
6.1583936662
  0
LINE
  5
28C
100
AcDbEntity
  8
0
100
AcDbLine
 62
7
  6
CONTINUOUS
 10
4.8825854037
 20
6.1821070882
 11
5.4025854037
 21
6.1821070882
  0
LINE
  5
28D
100
AcDbEntity
  8
0
100
AcDbLine
 62
7
  6
CONTINUOUS
 10
6.8389098321
 20
5.3696152472
 11
6.8389098321
 21
5.5872748498
  0
LINE
  5
28E
100
AcDbEntity
  8
0
100
AcDbLine
 62
7
  6
CONTINUOUS
 10
6.8540904037
 20
5.3884450485
 11
6.8540904037
 21
5.5684450485
  0
LINE
  5
28F
100
AcDbEntity
  8
0
100
AcDbLine
 62
7
  6
CONTINUOUS
 10
6.8860904037
 20
5.8536948751
 11
6.8860904037
 21
5.8561144766
  0
LINE
  5
290
100
AcDbEntity
  8
0
100
AcDbLine
 62
7
  6
CONTINUOUS
 10
6.8990904037
 20
5.3884450485
 11
6.8990904037
 21
5.5684450485
  0
LINE
  5
291
100
AcDbEntity
  8
0
100
AcDbLine
 62
7
  6
CONTINUOUS
 10
6.9040904037
 20
5.567894755
 11
6.9040904037
 21
5.3889953419
  0
LINE
  5
292
100
AcDbEntity
  8
0
100
AcDbLine
 62
7
  6
CONTINUOUS
 10
6.9488404037
 20
5.7836948751
 11
6.9488404037
 21
5.8236948751
  0
LINE
  5
293
100
AcDbEntity
  8
0
100
AcDbLine
 62
7
  6
CONTINUOUS
 10
6.9710904037
 20
5.2948810584
 11
6.9710904037
 21
5.2983090734
  0
LINE
  5
294
100
AcDbEntity
  8
0
100
AcDbLine
 62
7
  6
CONTINUOUS
 10
4.8825854037
 20
6.382782662
 11
5.4025854037
 21
6.382782662
  0
LINE
  5
295
100
AcDbEntity
  8
0
100
AcDbLine
 62
7
  6
CONTINUOUS
 10
4.8655020704
 20
6.4064960841
 11
5.419668737
 21
6.4064960841
  0
LINE
  5
296
100
AcDbEntity
  8
0
100
AcDbLine
 62
7
  6
CONTINUOUS
 10
5.4435854037
 20
6.4396948751
 11
4.8415854037
 21
6.4396948751
  0
LINE
  5
297
100
AcDbEntity
  8
0
100
AcDbLine
 62
7
  6
CONTINUOUS
 10
5.4435854037
 20
6.4696948751
 11
4.8415854037
 21
6.4696948751
  0
LINE
  5
298
100
AcDbEntity
  8
0
100
AcDbLine
 62
7
  6
CONTINUOUS
 10
4.8483864203
 20
6.4796948751
 11
5.4367843872
 21
6.4796948751
  0
LINE
  5
299
100
AcDbEntity
  8
0
100
AcDbLine
 62
7
  6
CONTINUOUS
 10
4.8390112346
 20
6.4829856525
 11
5.4461595729
 21
6.4829856525
  0
LINE
  5
29A
100
AcDbEntity
  8
0
100
AcDbLine
 62
7
  6
CONTINUOUS
 10
2.9584751412
 20
6.4892794654
 11
3.3896856663
 21
6.4892794654
  0
LINE
  5
29B
100
AcDbEntity
  8
0
100
AcDbLine
 62
7
  6
CONTINUOUS
 10
6.8954851412
 20
6.4892794654
 11
7.3266956663
 21
6.4892794654
  0
LINE
  5
29C
100
AcDbEntity
  8
0
100
AcDbLine
 62
7
  6
CONTINUOUS
 10
2.9361913569
 20
6.5135423409
 11
3.4119694505
 21
6.5135423409
  0
LINE
  5
29D
100
AcDbEntity
  8
0
100
AcDbLine
 62
7
  6
CONTINUOUS
 10
6.8732013569
 20
6.5135423409
 11
7.3489794505
 21
6.5135423409
  0
LINE
  5
29E
100
AcDbEntity
  8
ALL_FEATURES
100
AcDbLine
 62
7
  6
CONTINUOUS
 10
6.9818404037
 20
5.6586948751
 11
6.9818404037
 21
5.7836948751
  0
LINE
  5
29F
100
AcDbEntity
  8
0
100
AcDbLine
 62
7
  6
CONTINUOUS
 10
2.9215865336
 20
6.5586948751
 11
3.4265742739
 21
6.5586948751
  0
LINE
  5
2A0
100
AcDbEntity
  8
0
100
AcDbLine
 62
7
  6
CONTINUOUS
 10
6.8585965336
 20
6.5586948751
 11
7.3635904037
 21
6.5586948751
  0
LINE
  5
2A1
100
AcDbEntity
  8
0
100
AcDbLine
 62
7
  6
CONTINUOUS
 10
5.6174929979
 20
6.6618609895
 11
4.6676778096
 21
6.6618609895
  0
LINE
  5
2A2
100
AcDbEntity
  8
0
100
AcDbLine
 62
7
  6
CONTINUOUS
 10
2.7942979524
 20
6.667055938
 11
3.5549277815
 21
6.667055938
  0
LINE
  5
2A3
100
AcDbEntity
  8
0
100
AcDbLine
 62
7
  6
CONTINUOUS
 10
6.7302430259
 20
6.667055938
 11
7.4919377815
 21
6.667055938
  0
LINE
  5
2A4
100
AcDbEntity
  8
0
100
AcDbLine
 62
7
  6
CONTINUOUS
 10
2.7660329173
 20
6.6800297243
 11
3.5821278902
 21
6.6800297243
  0
LINE
  5
2A5
100
AcDbEntity
  8
0
100
AcDbLine
 62
7
  6
CONTINUOUS
 10
6.7030429173
 20
6.6800297243
 11
7.5191378902
 21
6.6800297243
  0
LINE
  5
2A6
100
AcDbEntity
  8
0
100
AcDbLine
 62
7
  6
CONTINUOUS
 10
5.6432163613
 20
6.6867516994
 11
4.6419544462
 21
6.6867516994
  0
LINE
  5
2A7
100
AcDbEntity
  8
0
100
AcDbLine
 62
7
  6
CONTINUOUS
 10
2.7160974628
 20
6.7416948751
 11
3.6320633447
 21
6.7416948751
  0
LINE
  5
2A8
100
AcDbEntity
  8
0
100
AcDbLine
 62
7
  6
CONTINUOUS
 10
6.6531074628
 20
6.7416948751
 11
7.5690733447
 21
6.7416948751
  0
LINE
  5
2A9
100
AcDbEntity
  8
0
100
AcDbLine
 62
7
  6
CONTINUOUS
 10
5.6629030308
 20
6.7541867182
 11
4.6222677766
 21
6.7541867182
  0
LINE
  5
2AA
100
AcDbEntity
  8
0
100
AcDbLine
 62
7
  6
CONTINUOUS
 10
5.6649287501
 20
6.7610971849
 11
4.6202420574
 21
6.7610971849
  0
LINE
  5
2AB
100
AcDbEntity
  8
0
100
AcDbLine
 62
7
  6
CONTINUOUS
 10
2.7113243159
 20
6.7667873862
 11
3.6368364915
 21
6.7667873862
  0
LINE
  5
2AC
100
AcDbEntity
  8
0
100
AcDbLine
 62
7
  6
CONTINUOUS
 10
6.6483343159
 20
6.7667873862
 11
7.5738464915
 21
6.7667873862
  0
LINE
  5
2AD
100
AcDbEntity
  8
0
100
AcDbLine
 62
7
  6
CONTINUOUS
 10
5.6631841651
 20
6.7731292536
 11
4.6219866423
 21
6.7731292536
  0
LINE
  5
2AE
100
AcDbEntity
  8
ALL_FEATURES
100
AcDbLine
 62
7
  6
CONTINUOUS
 10
7.2403404037
 20
5.6586948751
 11
7.2403404037
 21
5.7836948751
  0
LINE
  5
2AF
100
AcDbEntity
  8
0
100
AcDbLine
 62
7
  6
CONTINUOUS
 10
7.2510904037
 20
5.2948810584
 11
7.2510904037
 21
5.2983090734
  0
LINE
  5
2B0
100
AcDbEntity
  8
0
100
AcDbLine
 62
7
  6
CONTINUOUS
 10
7.2733404037
 20
5.7836948751
 11
7.2733404037
 21
5.8236948751
  0
LINE
  5
2B1
100
AcDbEntity
  8
0
100
AcDbLine
 62
7
  6
CONTINUOUS
 10
7.3180904037
 20
5.3889953419
 11
7.3180904037
 21
5.567894755
  0
LINE
  5
2B2
100
AcDbEntity
  8
0
100
AcDbLine
 62
7
  6
CONTINUOUS
 10
7.3230904037
 20
5.5684450485
 11
7.3230904037
 21
5.3884450485
  0
LINE
  5
2B3
100
AcDbEntity
  8
0
100
AcDbLine
 62
7
  6
CONTINUOUS
 10
7.3360904037
 20
5.8536948751
 11
7.3360904037
 21
5.8561144766
  0
LINE
  5
2B4
100
AcDbEntity
  8
0
100
AcDbLine
 62
7
  6
CONTINUOUS
 10
7.3680904037
 20
5.5684450485
 11
7.3680904037
 21
5.3884450485
  0
LINE
  5
2B5
100
AcDbEntity
  8
0
100
AcDbLine
 62
7
  6
CONTINUOUS
 10
7.3832709754
 20
5.5872748498
 11
7.3832709754
 21
5.3696152472
  0
LINE
  5
2B6
100
AcDbEntity
  8
0
100
AcDbLine
 62
7
  6
CONTINUOUS
 10
2.7067188887
 20
6.7865912026
 11
3.6414419187
 21
6.7865912026
  0
LINE
  5
2B7
100
AcDbEntity
  8
0
100
AcDbLine
 62
7
  6
CONTINUOUS
 10
6.6437288887
 20
6.7865912026
 11
7.5784519187
 21
6.7865912026
  0
LINE
  5
2B8
100
AcDbEntity
  8
0
100
AcDbLine
 62
7
  6
CONTINUOUS
 10
5.6687007063
 20
6.7975176455
 11
4.6164701012
 21
6.7975176455
  0
LINE
  5
2B9
100
AcDbEntity
  8
0
100
AcDbLine
 62
7
  6
CONTINUOUS
 10
5.7331430262
 20
6.8609918448
 11
4.5520277812
 21
6.8609918448
  0
LINE
  5
2BA
100
AcDbEntity
  8
0
100
AcDbLine
 62
7
  6
CONTINUOUS
 10
7.6627018213
 20
6.8674204839
 11
6.5594789861
 21
6.8674204839
  0
LINE
  5
2BB
100
AcDbEntity
  8
0
100
AcDbLine
 62
7
  6
CONTINUOUS
 10
3.7256918213
 20
6.8674204839
 11
2.6224689861
 21
6.8674204839
  0
LINE
  5
2BC
100
AcDbEntity
  8
0
100
AcDbLine
 62
7
  6
CONTINUOUS
 10
7.6528079796
 20
6.8936948751
 11
6.5693728279
 21
6.8936948751
  0
LINE
  5
2BD
100
AcDbEntity
  8
0
100
AcDbLine
 62
7
  6
CONTINUOUS
 10
5.7176952749
 20
6.8936948751
 11
4.5674755326
 21
6.8936948751
  0
LINE
  5
2BE
100
AcDbEntity
  8
0
100
AcDbLine
 62
7
  6
CONTINUOUS
 10
3.7157979796
 20
6.8936948751
 11
2.6323628279
 21
6.8936948751
  0
LINE
  5
2BF
100
AcDbEntity
  8
0
100
AcDbLine
 62
7
  6
CONTINUOUS
 10
7.6351996863
 20
5.3252552826
 11
7.6351996863
 21
5.6316348143
  0
LINE
  5
2C0
100
AcDbEntity
  8
0
100
AcDbLine
 62
7
  6
CONTINUOUS
 10
7.6514054932
 20
5.6434885085
 11
7.6514054932
 21
5.3134015885
  0
LINE
  5
2C1
100
AcDbEntity
  8
0
100
AcDbLine
 62
7
  6
CONTINUOUS
 10
6.7030429173
 20
6.6800297243
 11
6.6531074628
 21
6.7416948751
  0
LINE
  5
2C2
100
AcDbEntity
  8
0
100
AcDbLine
 62
7
  6
CONTINUOUS
 10
7.6742993551
 20
5.6584450485
 11
7.6742993551
 21
5.2984450485
  0
LINE
  5
2C3
100
AcDbEntity
  8
0
100
AcDbLine
 62
7
  6
CONTINUOUS
 10
7.6817838433
 20
5.6584450485
 11
7.6817838433
 21
5.2984450485
  0
LINE
  5
2C4
100
AcDbEntity
  8
0
100
AcDbLine
 62
7
  6
CONTINUOUS
 10
7.706744846
 20
5.6348408794
 11
7.706744846
 21
5.3220492175
  0
LINE
  5
2C5
100
AcDbEntity
  8
0
100
AcDbLine
 62
7
  6
CONTINUOUS
 10
7.718460076
 20
5.3683213617
 11
7.718460076
 21
5.5885687353
  0
LINE
  5
2C6
100
AcDbEntity
  8
0
100
AcDbLine
 62
7
  6
CONTINUOUS
 10
6.5594789861
 20
6.8674204839
 11
6.6437288887
 21
6.7865912026
  0
ARC
  5
2C7
100
AcDbEntity
  8
ALL_FEATURES
100
AcDbCircle
 62
7
  6
CONTINUOUS
 10
-14.0820465255
 20
4.9314301057
 40
19.0
100
AcDbArc
 50
0.415938314
 51
3.4335599994
  0
ARC
  5
2C8
100
AcDbEntity
  8
0
100
AcDbCircle
 62
7
  6
CONTINUOUS
 10
3.8948802863
 20
3.7770357181
 40
1.865
100
AcDbArc
 50
96.0539076486
 51
103.9188002726
  0
ARC
  5
2C9
100
AcDbEntity
  8
0
100
AcDbCircle
 62
7
  6
CONTINUOUS
 10
2.4532805212
 20
3.7770357181
 40
1.865
100
AcDbArc
 50
76.0811997274
 51
83.9460923514
  0
ARC
  5
2CA
100
AcDbEntity
  8
0
100
AcDbCircle
 62
7
  6
CONTINUOUS
 10
5.1417780164
 20
2.7782629244
 40
0.1887327747
100
AcDbArc
 50
171.6142562617
 51
172.8875620608
  0
ARC
  5
2CB
100
AcDbEntity
  8
0
100
AcDbCircle
 62
7
  6
CONTINUOUS
 10
5.1421875039
 20
2.7852160504
 40
0.1886265382
100
AcDbArc
 50
174.9997302903
 51
176.8141024592
  0
ARC
  5
2CC
100
AcDbEntity
  8
0
100
AcDbCircle
 62
7
  6
CONTINUOUS
 10
5.1414981513
 20
2.7782964941
 40
0.1884509066
100
AcDbArc
 50
172.8871544431
 51
174.7014359309
  0
ARC
  5
2CD
100
AcDbEntity
  8
0
100
AcDbCircle
 62
7
  6
CONTINUOUS
 10
2.8005804037
 20
5.4784450485
 40
0.2585
100
AcDbArc
 50
154.7853651812
 51
205.2146348188
  0
ARC
  5
2CE
100
AcDbEntity
  8
0
100
AcDbCircle
 62
7
  6
CONTINUOUS
 10
2.453620948
 20
5.6418200345
 40
0.125
100
AcDbArc
 50
334.7853651812
 51
356.7993265714
  0
ARC
  5
2CF
100
AcDbEntity
  8
0
100
AcDbCircle
 62
7
  6
CONTINUOUS
 10
2.453620948
 20
5.3150700624
 40
0.125
100
AcDbArc
 50
3.2006734286
 51
25.2146348188
  0
ARC
  5
2D0
100
AcDbEntity
  8
0
100
AcDbCircle
 62
7
  6
CONTINUOUS
 10
2.6033869642
 20
5.6334450485
 40
0.025
100
AcDbArc
 50
90.0
 51
176.7993265714
  0
ARC
  5
2D1
100
AcDbEntity
  8
0
100
AcDbCircle
 62
7
  6
CONTINUOUS
 10
2.6033869642
 20
5.3234450485
 40
0.025
100
AcDbArc
 50
183.2006734286
 51
270.0
  0
ARC
  5
2D2
100
AcDbEntity
  8
0
100
AcDbCircle
 62
7
  6
CONTINUOUS
 10
2.6108714524
 20
5.3234450485
 40
0.025
100
AcDbArc
 50
270.0
 51
336.3131006371
  0
ARC
  5
2D3
100
AcDbEntity
  8
0
100
AcDbCircle
 62
7
  6
CONTINUOUS
 10
2.6108714524
 20
5.6334450485
 40
0.025
100
AcDbArc
 50
23.6868993629
 51
90.0
  0
ARC
  5
2D4
100
AcDbEntity
  8
0
100
AcDbCircle
 62
7
  6
CONTINUOUS
 10
2.6520804037
 20
5.6515232765
 40
0.02
100
AcDbArc
 50
203.6868993629
 51
263.9460923514
  0
ARC
  5
2D5
100
AcDbEntity
  8
0
100
AcDbCircle
 62
7
  6
CONTINUOUS
 10
2.6520804037
 20
5.3053668204
 40
0.02
100
AcDbArc
 50
96.0539076486
 51
156.3131006371
  0
ARC
  5
2D6
100
AcDbEntity
  8
0
100
AcDbCircle
 62
7
  6
CONTINUOUS
 10
0.7580496912
 20
6.1303949589
 40
2.2295
100
AcDbArc
 50
354.150613569
 51
9.2632522166
  0
ARC
  5
2D7
100
AcDbEntity
  8
0
100
AcDbCircle
 62
7
  6
CONTINUOUS
 10
2.4532805212
 20
7.1798543789
 40
1.865
100
AcDbArc
 50
276.0539076486
 51
283.9188002726
  0
ARC
  5
2D8
100
AcDbEntity
  8
0
100
AcDbCircle
 62
7
  6
CONTINUOUS
 10
2.7932330259
 20
6.702055938
 40
0.035
100
AcDbArc
 50
219.0
 51
270.0
  0
ARC
  5
2D9
100
AcDbEntity
  8
0
100
AcDbCircle
 62
7
  6
CONTINUOUS
 10
2.7370804037
 20
6.7586865257
 40
0.027
100
AcDbArc
 50
162.5404824817
 51
219.0
  0
ARC
  5
2DA
100
AcDbEntity
  8
0
100
AcDbCircle
 62
7
  6
CONTINUOUS
 10
2.6922457324
 20
6.7727880237
 40
0.02
100
AcDbArc
 50
342.5404824817
 51
43.6426919198
  0
ARC
  5
2DB
100
AcDbEntity
  8
0
100
AcDbCircle
 62
7
  6
CONTINUOUS
 10
2.6323628279
 20
6.8786948751
 40
0.015
100
AcDbArc
 50
90.0
 51
228.7314307292
  0
ARC
  5
2DC
100
AcDbEntity
  8
0
100
AcDbCircle
 62
7
  6
CONTINUOUS
 10
3.5475804037
 20
5.4784450485
 40
0.2585
100
AcDbArc
 50
334.7853651812
 51
25.2146348188
  0
ARC
  5
2DD
100
AcDbEntity
  8
ALL_FEATURES
100
AcDbCircle
 62
7
  6
CONTINUOUS
 10
3.1740804037
 20
5.4784450485
 40
0.2255
100
AcDbArc
 50
126.933444909
 51
156.629659503
  0
ARC
  5
2DE
100
AcDbEntity
  8
ALL_FEATURES
100
AcDbCircle
 62
7
  6
CONTINUOUS
 10
3.1740804037
 20
5.4784450485
 40
0.2255
100
AcDbArc
 50
203.370340497
 51
228.4965643543
  0
ARC
  5
2DF
100
AcDbEntity
  8
ALL_FEATURES
100
AcDbCircle
 62
7
  6
CONTINUOUS
 10
3.1740804037
 20
5.4784450485
 40
0.2255
100
AcDbArc
 50
23.370340497
 51
53.066555091
  0
ARC
  5
2E0
100
AcDbEntity
  8
ALL_FEATURES
100
AcDbCircle
 62
7
  6
CONTINUOUS
 10
3.1740804037
 20
5.4784450485
 40
0.2255
100
AcDbArc
 50
311.5034356457
 51
336.629659503
  0
CIRCLE
  5
2E1
100
AcDbEntity
  8
0
100
AcDbCircle
 62
7
  6
CONTINUOUS
 10
3.1740804037
 20
5.4784450485
 40
0.18
  0
CIRCLE
  5
2E2
100
AcDbEntity
  8
0
100
AcDbCircle
 62
7
  6
CONTINUOUS
 10
3.1740804037
 20
5.4784450485
 40
0.1563958287
  0
ARC
  5
2E3
100
AcDbEntity
  8
0
100
AcDbCircle
 62
7
  6
CONTINUOUS
 10
3.8945398595
 20
5.3150700624
 40
0.125
100
AcDbArc
 50
154.7853651812
 51
176.7993265714
  0
CIRCLE
  5
2E4
100
AcDbEntity
  8
0
100
AcDbCircle
 62
7
  6
CONTINUOUS
 10
3.1740804037
 20
5.4784450485
 40
0.1101236858
  0
ARC
  5
2E5
100
AcDbEntity
  8
0
100
AcDbCircle
 62
7
  6
CONTINUOUS
 10
3.0740804037
 20
5.2948810584
 40
0.04
100
AcDbArc
 50
180.0
 51
251.180936631
  0
ARC
  5
2E6
100
AcDbEntity
  8
0
100
AcDbCircle
 62
7
  6
CONTINUOUS
 10
3.2740804037
 20
5.2948810584
 40
0.04
100
AcDbArc
 50
288.819063369
 51
360.0
  0
ARC
  5
2E7
100
AcDbEntity
  8
0
100
AcDbCircle
 62
7
  6
CONTINUOUS
 10
3.7372893551
 20
5.3234450485
 40
0.025
100
AcDbArc
 50
203.6868993629
 51
270.0
  0
ARC
  5
2E8
100
AcDbEntity
  8
0
100
AcDbCircle
 62
7
  6
CONTINUOUS
 10
3.7447738433
 20
5.3234450485
 40
0.025
100
AcDbArc
 50
270.0
 51
356.7993265714
  0
ARC
  5
2E9
100
AcDbEntity
  8
0
100
AcDbCircle
 62
7
  6
CONTINUOUS
 10
3.6960804037
 20
5.3053668204
 40
0.02
100
AcDbArc
 50
23.6868993629
 51
83.9460923514
  0
ARC
  5
2EA
100
AcDbEntity
  8
0
100
AcDbCircle
 62
7
  6
CONTINUOUS
 10
3.4510719061
 20
5.3890279993
 40
0.02
100
AcDbArc
 50
181.6702677144
 51
256.0811997271
  0
ARC
  5
2EB
100
AcDbEntity
  8
0
100
AcDbCircle
 62
7
  6
CONTINUOUS
 10
2.8970889013
 20
5.3890279993
 40
0.02
100
AcDbArc
 50
283.9188002729
 51
358.3297322856
  0
ARC
  5
2EC
100
AcDbEntity
  8
0
100
AcDbCircle
 62
7
  6
CONTINUOUS
 10
3.0440804037
 20
5.2983090734
 40
0.01
100
AcDbArc
 50
90.0
 51
180.0
  0
ARC
  5
2ED
100
AcDbEntity
  8
0
100
AcDbCircle
 62
7
  6
CONTINUOUS
 10
3.3040804037
 20
5.2983090734
 40
0.01
100
AcDbArc
 50
0.0
 51
90.0
  0
ARC
  5
2EE
100
AcDbEntity
  8
0
100
AcDbCircle
 62
7
  6
CONTINUOUS
 10
3.3860804037
 20
5.3934450485
 40
0.005
100
AcDbArc
 50
180.0
 51
270.0
  0
ARC
  5
2EF
100
AcDbEntity
  8
0
100
AcDbCircle
 62
7
  6
CONTINUOUS
 10
2.9620804037
 20
5.3934450485
 40
0.005
100
AcDbArc
 50
270.0
 51
360.0
  0
ARC
  5
2F0
100
AcDbEntity
  8
0
100
AcDbCircle
 62
7
  6
CONTINUOUS
 10
3.3201980267
 20
5.3133090734
 40
0.005
100
AcDbArc
 50
270.0
 51
311.5034356457
  0
ARC
  5
2F1
100
AcDbEntity
  8
0
100
AcDbCircle
 62
7
  6
CONTINUOUS
 10
3.0279627807
 20
5.3133090734
 40
0.005
100
AcDbArc
 50
228.4965643543
 51
270.0
  0
ARC
  5
2F2
100
AcDbEntity
  8
0
100
AcDbCircle
 62
7
  6
CONTINUOUS
 10
3.1740804037
 20
5.5883090734
 40
0.35
100
AcDbArc
 50
251.180936631
 51
288.819063369
  0
ARC
  5
2F3
100
AcDbEntity
  8
0
100
AcDbCircle
 62
7
  6
CONTINUOUS
 10
3.8945398595
 20
5.6418200345
 40
0.125
100
AcDbArc
 50
183.2006734286
 51
205.2146348188
  0
ARC
  5
2F4
100
AcDbEntity
  8
0
100
AcDbCircle
 62
7
  6
CONTINUOUS
 10
2.9790804037
 20
5.8536948751
 40
0.03
100
AcDbArc
 50
180.0
 51
270.0
  0
ARC
  5
2F5
100
AcDbEntity
  8
0
100
AcDbCircle
 62
7
  6
CONTINUOUS
 10
3.3690804037
 20
5.8536948751
 40
0.03
100
AcDbArc
 50
270.0
 51
360.0
  0
ARC
  5
2F6
100
AcDbEntity
  8
0
100
AcDbCircle
 62
7
  6
CONTINUOUS
 10
2.9790804037
 20
5.8561144766
 40
0.03
100
AcDbArc
 50
123.3475728893
 51
180.0
  0
ARC
  5
2F7
100
AcDbEntity
  8
0
100
AcDbCircle
 62
7
  6
CONTINUOUS
 10
3.3690804037
 20
5.8561144766
 40
0.03
100
AcDbArc
 50
0.0
 51
56.6524271095
  0
ARC
  5
2F8
100
AcDbEntity
  8
0
100
AcDbCircle
 62
7
  6
CONTINUOUS
 10
2.9460974076
 20
5.9062355497
 40
0.03
100
AcDbArc
 50
303.3475728893
 51
354.150613569
  0
ARC
  5
2F9
100
AcDbEntity
  8
0
100
AcDbCircle
 62
7
  6
CONTINUOUS
 10
3.4020633999
 20
5.9062355497
 40
0.03
100
AcDbArc
 50
185.8493864313
 51
236.6524271095
  0
ARC
  5
2FA
100
AcDbEntity
  8
0
100
AcDbCircle
 62
7
  6
CONTINUOUS
 10
3.7372893551
 20
5.6334450485
 40
0.025
100
AcDbArc
 50
90.0
 51
156.3131006371
  0
ARC
  5
2FB
100
AcDbEntity
  8
0
100
AcDbCircle
 62
7
  6
CONTINUOUS
 10
3.7447738433
 20
5.6334450485
 40
0.025
100
AcDbArc
 50
3.2006734286
 51
90.0
  0
ARC
  5
2FC
100
AcDbEntity
  8
0
100
AcDbCircle
 62
7
  6
CONTINUOUS
 10
3.6960804037
 20
5.6515232765
 40
0.02
100
AcDbArc
 50
276.0539076486
 51
336.3131006371
  0
ARC
  5
2FD
100
AcDbEntity
  8
0
100
AcDbCircle
 62
7
  6
CONTINUOUS
 10
3.4510719061
 20
5.5678620976
 40
0.02
100
AcDbArc
 50
103.9188002729
 51
178.3297322854
  0
ARC
  5
2FE
100
AcDbEntity
  8
0
100
AcDbCircle
 62
7
  6
CONTINUOUS
 10
2.8970889013
 20
5.5678620976
 40
0.02
100
AcDbArc
 50
1.6702677146
 51
76.0811997271
  0
ARC
  5
2FF
100
AcDbEntity
  8
0
100
AcDbCircle
 62
7
  6
CONTINUOUS
 10
3.3860804037
 20
5.5634450485
 40
0.005
100
AcDbArc
 50
90.0
 51
180.0
  0
ARC
  5
300
100
AcDbEntity
  8
0
100
AcDbCircle
 62
7
  6
CONTINUOUS
 10
2.9620804037
 20
5.5634450485
 40
0.005
100
AcDbArc
 50
0.0
 51
90.0
  0
ARC
  5
301
100
AcDbEntity
  8
0
100
AcDbCircle
 62
7
  6
CONTINUOUS
 10
4.9175854037
 20
5.0146948751
 40
0.035
100
AcDbArc
 50
114.7629724818
 51
180.0
  0
ARC
  5
302
100
AcDbEntity
  8
0
100
AcDbCircle
 62
7
  6
CONTINUOUS
 10
4.9125854037
 20
5.0096948751
 40
0.03
100
AcDbArc
 50
180.0
 51
270.0
  0
ARC
  5
303
100
AcDbEntity
  8
0
100
AcDbCircle
 62
7
  6
CONTINUOUS
 10
4.8924534832
 20
5.0691777767
 40
0.025
100
AcDbArc
 50
294.7629724818
 51
0.415938314
  0
ARC
  5
304
100
AcDbEntity
  8
0
100
AcDbCircle
 62
7
  6
CONTINUOUS
 10
4.8588918129
 20
6.0678630616
 40
0.025
100
AcDbArc
 50
3.4335599994
 51
72.8488678732
  0
ARC
  5
305
100
AcDbEntity
  8
0
100
AcDbCircle
 62
7
  6
CONTINUOUS
 10
4.6950596912
 20
6.1303949589
 40
2.2295
100
AcDbArc
 50
354.1506135687
 51
9.2632522166
  0
ARC
  5
306
100
AcDbEntity
  8
0
100
AcDbCircle
 62
7
  6
CONTINUOUS
 10
3.8948802863
 20
7.1798543789
 40
1.865
100
AcDbArc
 50
256.0811997274
 51
263.9460923514
  0
ARC
  5
307
100
AcDbEntity
  8
0
100
AcDbCircle
 62
7
  6
CONTINUOUS
 10
4.8570854037
 20
7.2187151363
 40
0.9425
100
AcDbArc
 50
308.6830961977
 51
323.7843060467
  0
ARC
  5
308
100
AcDbEntity
  8
0
100
AcDbCircle
 62
7
  6
CONTINUOUS
 10
3.1585804037
 20
6.958764869
 40
0.465
100
AcDbArc
 50
218.831504768
 51
239.3576548026
  0
ARC
  5
309
100
AcDbEntity
  8
0
100
AcDbCircle
 62
7
  6
CONTINUOUS
 10
3.1895804037
 20
6.958764869
 40
0.465
100
AcDbArc
 50
300.6423451974
 51
321.168495232
  0
ARC
  5
30A
100
AcDbEntity
  8
0
100
AcDbCircle
 62
7
  6
CONTINUOUS
 10
4.8860854037
 20
7.1356948751
 40
0.4325
100
AcDbArc
 50
219.4312229684
 51
231.4360327532
  0
ARC
  5
30B
100
AcDbEntity
  8
0
100
AcDbCircle
 62
7
  6
CONTINUOUS
 10
4.3557807143
 20
6.6397985825
 40
0.29
100
AcDbArc
 50
9.3176200745
 51
23.2311680814
  0
ARC
  5
30C
100
AcDbEntity
  8
0
100
AcDbCircle
 62
7
  6
CONTINUOUS
 10
3.5549277815
 20
6.702055938
 40
0.035
100
AcDbArc
 50
270.0
 51
321.0
  0
ARC
  5
30D
100
AcDbEntity
  8
0
100
AcDbCircle
 62
7
  6
CONTINUOUS
 10
4.8765854037
 20
6.1251948751
 40
0.035
100
AcDbArc
 50
108.4614582968
 51
252.8488678732
  0
ARC
  5
30E
100
AcDbEntity
  8
0
100
AcDbCircle
 62
7
  6
CONTINUOUS
 10
4.8765854037
 20
6.4396948751
 40
0.035
100
AcDbArc
 50
180.0
 51
251.5385417032
  0
ARC
  5
30F
100
AcDbEntity
  8
0
100
AcDbCircle
 62
7
  6
CONTINUOUS
 10
2.9288663663
 20
6.48445034
 40
0.03
100
AcDbArc
 50
9.2632522166
 51
75.8674273336
  0
ARC
  5
310
100
AcDbEntity
  8
0
100
AcDbCircle
 62
7
  6
CONTINUOUS
 10
3.4192944411
 20
6.48445034
 40
0.03
100
AcDbArc
 50
104.1325726664
 51
170.7367477834
  0
ARC
  5
311
100
AcDbEntity
  8
0
100
AcDbCircle
 62
7
  6
CONTINUOUS
 10
4.6715586253
 20
6.6916089183
 40
0.03
100
AcDbArc
 50
189.3176200745
 51
262.5673589294
  0
ARC
  5
312
100
AcDbEntity
  8
0
100
AcDbCircle
 62
7
  6
CONTINUOUS
 10
3.4051327931
 20
6.5406948751
 40
0.028
100
AcDbArc
 50
284.1325726664
 51
40.0052008849
  0
ARC
  5
313
100
AcDbEntity
  8
0
100
AcDbCircle
 62
7
  6
CONTINUOUS
 10
2.9430280143
 20
6.5406948751
 40
0.028
100
AcDbArc
 50
139.9947991151
 51
255.8674273336
  0
ARC
  5
314
100
AcDbEntity
  8
0
100
AcDbCircle
 62
7
  6
CONTINUOUS
 10
3.6110804037
 20
6.7586865257
 40
0.027
100
AcDbArc
 50
321.0
 51
17.4595175183
  0
ARC
  5
315
100
AcDbEntity
  8
0
100
AcDbCircle
 62
7
  6
CONTINUOUS
 10
4.8575854037
 20
6.1821070882
 40
0.025
100
AcDbArc
 50
288.4614582968
 51
360.0
  0
ARC
  5
316
100
AcDbEntity
  8
0
100
AcDbCircle
 62
7
  6
CONTINUOUS
 10
4.8575854037
 20
6.382782662
 40
0.025
100
AcDbArc
 50
0.0
 51
71.5385417032
  0
ARC
  5
317
100
AcDbEntity
  8
0
100
AcDbCircle
 62
7
  6
CONTINUOUS
 10
3.6559150751
 20
6.7727880237
 40
0.02
100
AcDbArc
 50
136.3573080802
 51
197.4595175183
  0
ARC
  5
318
100
AcDbEntity
  8
0
100
AcDbCircle
 62
7
  6
CONTINUOUS
 10
4.6040023415
 20
6.7818793921
 40
0.02
100
AcDbArc
 50
334.0550789202
 51
51.4360327532
  0
ARC
  5
319
100
AcDbEntity
  8
0
100
AcDbCircle
 62
7
  6
CONTINUOUS
 10
4.5674755326
 20
6.8736948751
 40
0.02
100
AcDbArc
 50
90.0
 51
219.4312229684
  0
ARC
  5
31A
100
AcDbEntity
  8
0
100
AcDbCircle
 62
7
  6
CONTINUOUS
 10
4.6399709431
 20
6.7643791151
 40
0.02
100
AcDbArc
 50
154.0550789202
 51
189.4441349046
  0
ARC
  5
31B
100
AcDbEntity
  8
0
100
AcDbCircle
 62
7
  6
CONTINUOUS
 10
3.7157979796
 20
6.8786948751
 40
0.015
100
AcDbArc
 50
311.2685692708
 51
90.0
  0
ARC
  5
31C
100
AcDbEntity
  8
0
100
AcDbCircle
 62
7
  6
CONTINUOUS
 10
4.8483864203
 20
6.4946948751
 40
0.015
100
AcDbArc
 50
231.3169038023
 51
270.0
  0
ARC
  5
31D
100
AcDbEntity
  8
0
100
AcDbCircle
 62
7
  6
CONTINUOUS
 10
4.8515854037
 20
6.4696948751
 40
0.01
100
AcDbArc
 50
90.0
 51
180.0
  0
ARC
  5
31E
100
AcDbEntity
  8
ALL_FEATURES
100
AcDbCircle
 62
7
  6
CONTINUOUS
 10
24.3672173329
 20
4.9314301057
 40
19.0
100
AcDbArc
 50
176.5664400006
 51
179.584061686
  0
ARC
  5
31F
100
AcDbEntity
  8
0
100
AcDbCircle
 62
7
  6
CONTINUOUS
 10
7.8318902863
 20
3.7770357181
 40
1.865
100
AcDbArc
 50
96.0539076486
 51
103.9188002726
  0
ARC
  5
320
100
AcDbEntity
  8
0
100
AcDbCircle
 62
7
  6
CONTINUOUS
 10
6.3902905212
 20
3.7770357181
 40
1.865
100
AcDbArc
 50
76.0811997274
 51
83.9460923514
  0
ARC
  5
321
100
AcDbEntity
  8
0
100
AcDbCircle
 62
7
  6
CONTINUOUS
 10
5.1425854037
 20
2.7851948751
 40
0.245
100
AcDbArc
 50
139.9386467777
 51
40.0612568562
  0
ARC
  5
322
100
AcDbEntity
  8
0
100
AcDbCircle
 62
7
  6
CONTINUOUS
 10
5.1425854037
 20
2.7851948751
 40
0.2099999998
100
AcDbArc
 50
153.242139316
 51
26.7576943007
  0
ARC
  5
323
100
AcDbEntity
  8
0
100
AcDbCircle
 62
7
  6
CONTINUOUS
 10
5.1425854037
 20
2.7851948751
 40
0.194
100
AcDbArc
 50
165.1872375005
 51
14.8127624995
  0
ARC
  5
324
100
AcDbEntity
  8
0
100
AcDbCircle
 62
7
  6
CONTINUOUS
 10
5.1427494335
 20
2.7851687581
 40
0.1891904513
100
AcDbArc
 50
172.8493609502
 51
175.0002953026
  0
ARC
  5
325
100
AcDbEntity
  8
0
100
AcDbCircle
 62
7
  6
CONTINUOUS
 10
5.1425854037
 20
2.7851948751
 40
0.1890249998
100
AcDbArc
 50
172.8373033636
 51
176.8143967726
  0
ARC
  5
326
100
AcDbEntity
  8
ALL_FEATURES
100
AcDbCircle
 62
7
  6
CONTINUOUS
 10
5.1425854037
 20
2.7851948751
 40
0.1875
100
AcDbArc
 50
180.0
 51
360.0
  0
ARC
  5
327
100
AcDbEntity
  8
0
100
AcDbCircle
 62
7
  6
CONTINUOUS
 10
5.3675854037
 20
5.0146948751
 40
0.035
100
AcDbArc
 50
0.0
 51
65.2370275182
  0
ARC
  5
328
100
AcDbEntity
  8
0
100
AcDbCircle
 62
7
  6
CONTINUOUS
 10
5.3725854037
 20
5.0096948751
 40
0.03
100
AcDbArc
 50
270.0
 51
360.0
  0
ARC
  5
329
100
AcDbEntity
  8
0
100
AcDbCircle
 62
7
  6
CONTINUOUS
 10
5.3927173242
 20
5.0691777767
 40
0.025
100
AcDbArc
 50
179.584061686
 51
245.2370275182
  0
ARC
  5
32A
100
AcDbEntity
  8
0
100
AcDbCircle
 62
7
  6
CONTINUOUS
 10
5.4262789946
 20
6.0678630616
 40
0.025
100
AcDbArc
 50
107.1511321268
 51
176.5664400006
  0
ARC
  5
32B
100
AcDbEntity
  8
0
100
AcDbCircle
 62
7
  6
CONTINUOUS
 10
6.7375904037
 20
5.4784450485
 40
0.2585
100
AcDbArc
 50
154.7853651812
 51
205.2146348188
  0
ARC
  5
32C
100
AcDbEntity
  8
ALL_FEATURES
100
AcDbCircle
 62
7
  6
CONTINUOUS
 10
7.1110904037
 20
5.4784450485
 40
0.2255
100
AcDbArc
 50
23.370340497
 51
53.066555091
  0
ARC
  5
32D
100
AcDbEntity
  8
ALL_FEATURES
100
AcDbCircle
 62
7
  6
CONTINUOUS
 10
7.1110904037
 20
5.4784450485
 40
0.2255
100
AcDbArc
 50
311.5034356457
 51
336.629659503
  0
ARC
  5
32E
100
AcDbEntity
  8
ALL_FEATURES
100
AcDbCircle
 62
7
  6
CONTINUOUS
 10
7.1110904037
 20
5.4784450485
 40
0.2255
100
AcDbArc
 50
126.933444909
 51
156.629659503
  0
ARC
  5
32F
100
AcDbEntity
  8
ALL_FEATURES
100
AcDbCircle
 62
7
  6
CONTINUOUS
 10
7.1110904037
 20
5.4784450485
 40
0.2255
100
AcDbArc
 50
203.370340497
 51
228.4965643543
  0
CIRCLE
  5
330
100
AcDbEntity
  8
0
100
AcDbCircle
 62
7
  6
CONTINUOUS
 10
7.1110904037
 20
5.4784450485
 40
0.18
  0
CIRCLE
  5
331
100
AcDbEntity
  8
0
100
AcDbCircle
 62
7
  6
CONTINUOUS
 10
7.1110904037
 20
5.4784450485
 40
0.1563958287
  0
ARC
  5
332
100
AcDbEntity
  8
0
100
AcDbCircle
 62
7
  6
CONTINUOUS
 10
6.390630948
 20
5.3150700624
 40
0.125
100
AcDbArc
 50
3.2006734286
 51
25.2146348188
  0
CIRCLE
  5
333
100
AcDbEntity
  8
0
100
AcDbCircle
 62
7
  6
CONTINUOUS
 10
7.1110904037
 20
5.4784450485
 40
0.1101236858
  0
ARC
  5
334
100
AcDbEntity
  8
0
100
AcDbCircle
 62
7
  6
CONTINUOUS
 10
7.2110904037
 20
5.2948810584
 40
0.04
100
AcDbArc
 50
288.819063369
 51
360.0
  0
ARC
  5
335
100
AcDbEntity
  8
0
100
AcDbCircle
 62
7
  6
CONTINUOUS
 10
7.0110904037
 20
5.2948810584
 40
0.04
100
AcDbArc
 50
180.0
 51
251.180936631
  0
ARC
  5
336
100
AcDbEntity
  8
0
100
AcDbCircle
 62
7
  6
CONTINUOUS
 10
6.5403969642
 20
5.3234450485
 40
0.025
100
AcDbArc
 50
183.2006734286
 51
270.0
  0
ARC
  5
337
100
AcDbEntity
  8
0
100
AcDbCircle
 62
7
  6
CONTINUOUS
 10
6.5478814524
 20
5.3234450485
 40
0.025
100
AcDbArc
 50
270.0
 51
336.3131006371
  0
ARC
  5
338
100
AcDbEntity
  8
0
100
AcDbCircle
 62
7
  6
CONTINUOUS
 10
7.3880819061
 20
5.3890279993
 40
0.02
100
AcDbArc
 50
181.6702677144
 51
256.0811997271
  0
ARC
  5
339
100
AcDbEntity
  8
0
100
AcDbCircle
 62
7
  6
CONTINUOUS
 10
6.5890904037
 20
5.3053668204
 40
0.02
100
AcDbArc
 50
96.0539076486
 51
156.3131006371
  0
ARC
  5
33A
100
AcDbEntity
  8
0
100
AcDbCircle
 62
7
  6
CONTINUOUS
 10
6.8340989013
 20
5.3890279993
 40
0.02
100
AcDbArc
 50
283.9188002729
 51
358.3297322856
  0
ARC
  5
33B
100
AcDbEntity
  8
0
100
AcDbCircle
 62
7
  6
CONTINUOUS
 10
7.2410904037
 20
5.2983090734
 40
0.01
100
AcDbArc
 50
0.0
 51
90.0
  0
ARC
  5
33C
100
AcDbEntity
  8
0
100
AcDbCircle
 62
7
  6
CONTINUOUS
 10
6.9810904037
 20
5.2983090734
 40
0.01
100
AcDbArc
 50
90.0
 51
180.0
  0
ARC
  5
33D
100
AcDbEntity
  8
0
100
AcDbCircle
 62
7
  6
CONTINUOUS
 10
7.3230904037
 20
5.3934450485
 40
0.005
100
AcDbArc
 50
180.0
 51
270.0
  0
ARC
  5
33E
100
AcDbEntity
  8
0
100
AcDbCircle
 62
7
  6
CONTINUOUS
 10
6.8990904037
 20
5.3934450485
 40
0.005
100
AcDbArc
 50
270.0
 51
360.0
  0
ARC
  5
33F
100
AcDbEntity
  8
0
100
AcDbCircle
 62
7
  6
CONTINUOUS
 10
6.9649727807
 20
5.3133090734
 40
0.005
100
AcDbArc
 50
228.4965643543
 51
270.0
  0
ARC
  5
340
100
AcDbEntity
  8
0
100
AcDbCircle
 62
7
  6
CONTINUOUS
 10
7.2572080267
 20
5.3133090734
 40
0.005
100
AcDbArc
 50
270.0
 51
311.5034356457
  0
ARC
  5
341
100
AcDbEntity
  8
0
100
AcDbCircle
 62
7
  6
CONTINUOUS
 10
7.1110904037
 20
5.5883090734
 40
0.35
100
AcDbArc
 50
251.180936631
 51
288.819063369
  0
ARC
  5
342
100
AcDbEntity
  8
0
100
AcDbCircle
 62
7
  6
CONTINUOUS
 10
6.390630948
 20
5.6418200345
 40
0.125
100
AcDbArc
 50
334.7853651812
 51
356.7993265714
  0
ARC
  5
343
100
AcDbEntity
  8
0
100
AcDbCircle
 62
7
  6
CONTINUOUS
 10
7.3060904037
 20
5.8536948751
 40
0.03
100
AcDbArc
 50
270.0
 51
360.0
  0
ARC
  5
344
100
AcDbEntity
  8
0
100
AcDbCircle
 62
7
  6
CONTINUOUS
 10
6.9160904037
 20
5.8536948751
 40
0.03
100
AcDbArc
 50
180.0
 51
270.0
  0
ARC
  5
345
100
AcDbEntity
  8
0
100
AcDbCircle
 62
7
  6
CONTINUOUS
 10
7.3060904037
 20
5.8561144766
 40
0.03
100
AcDbArc
 50
0.0
 51
56.6524271107
  0
ARC
  5
346
100
AcDbEntity
  8
0
100
AcDbCircle
 62
7
  6
CONTINUOUS
 10
6.9160904037
 20
5.8561144766
 40
0.03
100
AcDbArc
 50
123.3475728905
 51
180.0
  0
ARC
  5
347
100
AcDbEntity
  8
0
100
AcDbCircle
 62
7
  6
CONTINUOUS
 10
7.3390733999
 20
5.9062355497
 40
0.03
100
AcDbArc
 50
185.849386431
 51
236.6524271107
  0
ARC
  5
348
100
AcDbEntity
  8
0
100
AcDbCircle
 62
7
  6
CONTINUOUS
 10
6.8831074076
 20
5.9062355497
 40
0.03
100
AcDbArc
 50
303.3475728905
 51
354.1506135687
  0
ARC
  5
349
100
AcDbEntity
  8
0
100
AcDbCircle
 62
7
  6
CONTINUOUS
 10
6.5403969642
 20
5.6334450485
 40
0.025
100
AcDbArc
 50
90.0
 51
176.7993265714
  0
ARC
  5
34A
100
AcDbEntity
  8
0
100
AcDbCircle
 62
7
  6
CONTINUOUS
 10
6.5478814524
 20
5.6334450485
 40
0.025
100
AcDbArc
 50
23.6868993629
 51
90.0
  0
ARC
  5
34B
100
AcDbEntity
  8
0
100
AcDbCircle
 62
7
  6
CONTINUOUS
 10
7.3880819061
 20
5.5678620976
 40
0.02
100
AcDbArc
 50
103.9188002729
 51
178.3297322854
  0
ARC
  5
34C
100
AcDbEntity
  8
0
100
AcDbCircle
 62
7
  6
CONTINUOUS
 10
6.5890904037
 20
5.6515232765
 40
0.02
100
AcDbArc
 50
203.6868993629
 51
263.9460923514
  0
ARC
  5
34D
100
AcDbEntity
  8
0
100
AcDbCircle
 62
7
  6
CONTINUOUS
 10
6.8340989013
 20
5.5678620976
 40
0.02
100
AcDbArc
 50
1.6702677146
 51
76.0811997271
  0
ARC
  5
34E
100
AcDbEntity
  8
0
100
AcDbCircle
 62
7
  6
CONTINUOUS
 10
7.3230904037
 20
5.5634450485
 40
0.005
100
AcDbArc
 50
90.0
 51
180.0
  0
ARC
  5
34F
100
AcDbEntity
  8
0
100
AcDbCircle
 62
7
  6
CONTINUOUS
 10
6.8990904037
 20
5.5634450485
 40
0.005
100
AcDbArc
 50
0.0
 51
90.0
  0
ARC
  5
350
100
AcDbEntity
  8
0
100
AcDbCircle
 62
7
  6
CONTINUOUS
 10
5.5901111163
 20
6.1303949589
 40
2.2295
100
AcDbArc
 50
170.7367477834
 51
185.8493864313
  0
ARC
  5
351
100
AcDbEntity
  8
0
100
AcDbCircle
 62
7
  6
CONTINUOUS
 10
6.3902905212
 20
7.1798543789
 40
1.865
100
AcDbArc
 50
276.0539076486
 51
283.9188002726
  0
ARC
  5
352
100
AcDbEntity
  8
0
100
AcDbCircle
 62
7
  6
CONTINUOUS
 10
5.4280854037
 20
7.2187151363
 40
0.9425
100
AcDbArc
 50
216.2156939533
 51
231.3169038023
  0
ARC
  5
353
100
AcDbEntity
  8
0
100
AcDbCircle
 62
7
  6
CONTINUOUS
 10
7.1265904037
 20
6.958764869
 40
0.465
100
AcDbArc
 50
300.6423451974
 51
321.168495232
  0
ARC
  5
354
100
AcDbEntity
  8
0
100
AcDbCircle
 62
7
  6
CONTINUOUS
 10
7.0955904037
 20
6.958764869
 40
0.465
100
AcDbArc
 50
218.831504768
 51
239.3576548026
  0
ARC
  5
355
100
AcDbEntity
  8
0
100
AcDbCircle
 62
7
  6
CONTINUOUS
 10
5.3990854037
 20
7.1356948751
 40
0.4325
100
AcDbArc
 50
308.5639672484
 51
320.5687770316
  0
ARC
  5
356
100
AcDbEntity
  8
0
100
AcDbCircle
 62
7
  6
CONTINUOUS
 10
5.9293900932
 20
6.6397985825
 40
0.29
100
AcDbArc
 50
156.7688319186
 51
170.6823799255
  0
ARC
  5
357
100
AcDbEntity
  8
0
100
AcDbCircle
 62
7
  6
CONTINUOUS
 10
6.7302430259
 20
6.702055938
 40
0.035
100
AcDbArc
 50
219.0
 51
270.0
  0
ARC
  5
358
100
AcDbEntity
  8
0
100
AcDbCircle
 62
7
  6
CONTINUOUS
 10
5.4085854037
 20
6.1251948751
 40
0.035
100
AcDbArc
 50
287.1511321268
 51
71.5385417032
  0
ARC
  5
359
100
AcDbEntity
  8
0
100
AcDbCircle
 62
7
  6
CONTINUOUS
 10
5.4085854037
 20
6.4396948751
 40
0.035
100
AcDbArc
 50
288.4614582968
 51
360.0
  0
ARC
  5
35A
100
AcDbEntity
  8
0
100
AcDbCircle
 62
7
  6
CONTINUOUS
 10
7.3563044411
 20
6.48445034
 40
0.03
100
AcDbArc
 50
104.1325726664
 51
170.7367477834
  0
ARC
  5
35B
100
AcDbEntity
  8
0
100
AcDbCircle
 62
7
  6
CONTINUOUS
 10
6.8658763663
 20
6.48445034
 40
0.03
100
AcDbArc
 50
9.2632522166
 51
75.8674273336
  0
ARC
  5
35C
100
AcDbEntity
  8
0
100
AcDbCircle
 62
7
  6
CONTINUOUS
 10
5.6136121821
 20
6.6916089183
 40
0.03
100
AcDbArc
 50
277.4326410706
 51
350.6823799255
  0
ARC
  5
35D
100
AcDbEntity
  8
0
100
AcDbCircle
 62
7
  6
CONTINUOUS
 10
6.8800380143
 20
6.5406948751
 40
0.028
100
AcDbArc
 50
139.9947991151
 51
255.8674273336
  0
ARC
  5
35E
100
AcDbEntity
  8
0
100
AcDbCircle
 62
7
  6
CONTINUOUS
 10
7.3421427931
 20
6.5406948751
 40
0.028
100
AcDbArc
 50
284.1325726664
 51
40.0052008849
  0
ARC
  5
35F
100
AcDbEntity
  8
0
100
AcDbCircle
 62
7
  6
CONTINUOUS
 10
6.6740904037
 20
6.7586865257
 40
0.027
100
AcDbArc
 50
162.5404824817
 51
219.0
  0
ARC
  5
360
100
AcDbEntity
  8
0
100
AcDbCircle
 62
7
  6
CONTINUOUS
 10
5.4275854037
 20
6.1821070882
 40
0.025
100
AcDbArc
 50
180.0
 51
251.5385417032
  0
ARC
  5
361
100
AcDbEntity
  8
0
100
AcDbCircle
 62
7
  6
CONTINUOUS
 10
5.4275854037
 20
6.382782662
 40
0.025
100
AcDbArc
 50
108.4614582968
 51
180.0
  0
ARC
  5
362
100
AcDbEntity
  8
0
100
AcDbCircle
 62
7
  6
CONTINUOUS
 10
6.6292557324
 20
6.7727880237
 40
0.02
100
AcDbArc
 50
342.5404824817
 51
43.6426919198
  0
ARC
  5
363
100
AcDbEntity
  8
0
100
AcDbCircle
 62
7
  6
CONTINUOUS
 10
5.681168466
 20
6.7818793921
 40
0.02
100
AcDbArc
 50
128.5639672484
 51
205.944921058
  0
ARC
  5
364
100
AcDbEntity
  8
0
100
AcDbCircle
 62
7
  6
CONTINUOUS
 10
5.7176952749
 20
6.8736948751
 40
0.02
100
AcDbArc
 50
320.5687770316
 51
90.0
  0
ARC
  5
365
100
AcDbEntity
  8
0
100
AcDbCircle
 62
7
  6
CONTINUOUS
 10
5.6451998643
 20
6.7643791151
 40
0.02
100
AcDbArc
 50
350.5558652223
 51
25.944921058
  0
ARC
  5
366
100
AcDbEntity
  8
0
100
AcDbCircle
 62
7
  6
CONTINUOUS
 10
6.5693728279
 20
6.8786948751
 40
0.015
100
AcDbArc
 50
90.0
 51
228.7314307292
  0
ARC
  5
367
100
AcDbEntity
  8
0
100
AcDbCircle
 62
7
  6
CONTINUOUS
 10
5.4367843872
 20
6.4946948751
 40
0.015
100
AcDbArc
 50
270.0
 51
308.6830961977
  0
ARC
  5
368
100
AcDbEntity
  8
0
100
AcDbCircle
 62
7
  6
CONTINUOUS
 10
5.4335854037
 20
6.4696948751
 40
0.01
100
AcDbArc
 50
0.0
 51
90.0
  0
ARC
  5
369
100
AcDbEntity
  8
0
100
AcDbCircle
 62
7
  6
CONTINUOUS
 10
7.4845904037
 20
5.4784450485
 40
0.2585
100
AcDbArc
 50
334.7853651812
 51
25.2146348188
  0
ARC
  5
36A
100
AcDbEntity
  8
0
100
AcDbCircle
 62
7
  6
CONTINUOUS
 10
7.8315498595
 20
5.6418200345
 40
0.125
100
AcDbArc
 50
183.2006734286
 51
205.2146348188
  0
ARC
  5
36B
100
AcDbEntity
  8
0
100
AcDbCircle
 62
7
  6
CONTINUOUS
 10
7.8315498595
 20
5.3150700624
 40
0.125
100
AcDbArc
 50
154.7853651812
 51
176.7993265714
  0
ARC
  5
36C
100
AcDbEntity
  8
0
100
AcDbCircle
 62
7
  6
CONTINUOUS
 10
7.6742993551
 20
5.6334450485
 40
0.025
100
AcDbArc
 50
90.0
 51
156.3131006371
  0
ARC
  5
36D
100
AcDbEntity
  8
0
100
AcDbCircle
 62
7
  6
CONTINUOUS
 10
7.6742993551
 20
5.3234450485
 40
0.025
100
AcDbArc
 50
203.6868993629
 51
270.0
  0
ARC
  5
36E
100
AcDbEntity
  8
0
100
AcDbCircle
 62
7
  6
CONTINUOUS
 10
7.6817838433
 20
5.6334450485
 40
0.025
100
AcDbArc
 50
3.2006734286
 51
90.0
  0
ARC
  5
36F
100
AcDbEntity
  8
0
100
AcDbCircle
 62
7
  6
CONTINUOUS
 10
7.6817838433
 20
5.3234450485
 40
0.025
100
AcDbArc
 50
270.0
 51
356.7993265714
  0
ARC
  5
370
100
AcDbEntity
  8
0
100
AcDbCircle
 62
7
  6
CONTINUOUS
 10
7.6330904037
 20
5.6515232765
 40
0.02
100
AcDbArc
 50
276.0539076486
 51
336.3131006371
  0
ARC
  5
371
100
AcDbEntity
  8
0
100
AcDbCircle
 62
7
  6
CONTINUOUS
 10
7.6330904037
 20
5.3053668204
 40
0.02
100
AcDbArc
 50
23.6868993629
 51
83.9460923514
  0
ARC
  5
372
100
AcDbEntity
  8
0
100
AcDbCircle
 62
7
  6
CONTINUOUS
 10
9.5271211163
 20
6.1303949589
 40
2.2295
100
AcDbArc
 50
170.7367477834
 51
185.849386431
  0
ARC
  5
373
100
AcDbEntity
  8
0
100
AcDbCircle
 62
7
  6
CONTINUOUS
 10
7.8318902863
 20
7.1798543789
 40
1.865
100
AcDbArc
 50
256.0811997274
 51
263.9460923514
  0
ARC
  5
374
100
AcDbEntity
  8
0
100
AcDbCircle
 62
7
  6
CONTINUOUS
 10
7.4919377815
 20
6.702055938
 40
0.035
100
AcDbArc
 50
270.0
 51
321.0
  0
ARC
  5
375
100
AcDbEntity
  8
0
100
AcDbCircle
 62
7
  6
CONTINUOUS
 10
7.5480904037
 20
6.7586865257
 40
0.027
100
AcDbArc
 50
321.0
 51
17.4595175183
  0
ARC
  5
376
100
AcDbEntity
  8
0
100
AcDbCircle
 62
7
  6
CONTINUOUS
 10
7.5929250751
 20
6.7727880237
 40
0.02
100
AcDbArc
 50
136.3573080802
 51
197.4595175183
  0
ARC
  5
377
100
AcDbEntity
  8
0
100
AcDbCircle
 62
7
  6
CONTINUOUS
 10
7.6528079796
 20
6.8786948751
 40
0.015
100
AcDbArc
 50
311.2685692708
 51
90.0
  0
SPLINE
  5
378
100
AcDbEntity
  8
ALL_FEATURES
100
AcDbSpline
 62
7
  6
CONTINUOUS
 70
0
 71
3
 72
31
 73
27
 74
0
 42
0.0000001
 43
0.0000001
 44
0.0000000001
 40
0.0
 40
0.0
 40
0.0
 40
0.0
 40
0.0150464724
 40
0.0303629898
 40
0.04620147
 40
0.0627859399
 40
0.0803080354
 40
0.0989214584
 40
0.1187407706
 40
0.1398514331
 40
0.162315855
 40
0.1861766336
 40
0.2114512043
 40
0.238140274
 40
0.2662345493
 40
0.2957170071
 40
0.3265596449
 40
0.3587203832
 40
0.4267964016
 40
0.4995243807
 40
0.5763631495
 40
0.6567147718
 40
0.7399528468
 40
0.8254279085
 40
0.9124038722
 40
1.0
 40
1.0
 40
1.0
 40
1.0
 10
5.3300854037
 20
4.6634322855
 30
0.0
 10
5.3300854037
 20
4.6644838679
 30
0.0
 10
5.3299309341
 20
4.6666089418
 30
0.0
 10
5.3292414681
 20
4.6697734728
 30
0.0
 10
5.3280984007
 20
4.6729180187
 30
0.0
 10
5.3265068933
 20
4.6760336973
 30
0.0
 10
5.3244714706
 20
4.6791132109
 30
0.0
 10
5.3219985657
 20
4.6821499607
 30
0.0
 10
5.3190963007
 20
4.685138753
 30
0.0
 10
5.3157719287
 20
4.6880734541
 30
0.0
 10
5.3120327435
 20
4.6909476977
 30
0.0
 10
5.3078865747
 20
4.6937541996
 30
0.0
 10
5.303343937
 20
4.6964874358
 30
0.0
 10
5.2984161215
 20
4.6991414334
 30
0.0
 10
5.2931146764
 20
4.7017099314
 30
0.0
 10
5.2874514716
 20
4.7041862812
 30
0.0
 10
5.2814397107
 20
4.706564316
 30
0.0
 10
5.272814779
 20
4.7096560587
 30
0.0
 10
5.2612549127
 20
4.7132151556
 30
0.0
 10
5.246499743
 20
4.7169335287
 30
0.0
 10
5.230749969
 20
4.7201451316
 30
0.0
 10
5.2141558505
 20
4.7228162521
 30
0.0
 10
5.1968727282
 20
4.7249215265
 30
0.0
 10
5.1790637423
 20
4.7264401718
 30
0.0
 10
5.1609090416
 20
4.7273555631
 30
0.0
 10
5.1487074065
 20
4.7275610624
 30
0.0
 10
5.1425854037
 20
4.7275610624
 30
0.0
  0
SPLINE
  5
379
100
AcDbEntity
  8
ALL_FEATURES
100
AcDbSpline
 62
7
  6
CONTINUOUS
 70
0
 71
3
 72
31
 73
27
 74
0
 42
0.0000001
 43
0.0000001
 44
0.0000000001
 40
0.0
 40
0.0
 40
0.0
 40
0.0
 40
0.0150464724
 40
0.0303629898
 40
0.04620147
 40
0.0627859399
 40
0.0803080354
 40
0.0989214584
 40
0.1187407706
 40
0.1398514331
 40
0.162315855
 40
0.1861766336
 40
0.2114512043
 40
0.238140274
 40
0.2662345493
 40
0.2957170071
 40
0.3265596449
 40
0.3587203832
 40
0.4267964016
 40
0.4995243807
 40
0.5763631495
 40
0.6567147718
 40
0.7399528468
 40
0.8254279085
 40
0.9124038722
 40
1.0
 40
1.0
 40
1.0
 40
1.0
 10
5.3300854037
 20
3.6239574647
 30
0.0
 10
5.3300854037
 20
3.6250090471
 30
0.0
 10
5.3299309341
 20
3.627134121
 30
0.0
 10
5.3292414681
 20
3.630298652
 30
0.0
 10
5.3280984007
 20
3.6334431979
 30
0.0
 10
5.3265068933
 20
3.6365588764
 30
0.0
 10
5.3244714706
 20
3.63963839
 30
0.0
 10
5.3219985657
 20
3.6426751398
 30
0.0
 10
5.3190963007
 20
3.6456639321
 30
0.0
 10
5.3157719287
 20
3.6485986332
 30
0.0
 10
5.3120327435
 20
3.6514728769
 30
0.0
 10
5.3078865747
 20
3.6542793788
 30
0.0
 10
5.303343937
 20
3.657012615
 30
0.0
 10
5.2984161215
 20
3.6596666125
 30
0.0
 10
5.2931146764
 20
3.6622351106
 30
0.0
 10
5.2874514716
 20
3.6647114604
 30
0.0
 10
5.2814397107
 20
3.6670894952
 30
0.0
 10
5.272814779
 20
3.6701812378
 30
0.0
 10
5.2612549127
 20
3.6737403348
 30
0.0
 10
5.246499743
 20
3.6774587079
 30
0.0
 10
5.230749969
 20
3.6806703107
 30
0.0
 10
5.2141558505
 20
3.6833414312
 30
0.0
 10
5.1968727282
 20
3.6854467056
 30
0.0
 10
5.1790637423
 20
3.686965351
 30
0.0
 10
5.1609090416
 20
3.6878807422
 30
0.0
 10
5.1487074065
 20
3.6880862415
 30
0.0
 10
5.1425854037
 20
3.6880862415
 30
0.0
  0
SPLINE
  5
37A
100
AcDbEntity
  8
ALL_FEATURES
100
AcDbSpline
 62
7
  6
CONTINUOUS
 70
0
 71
3
 72
31
 73
27
 74
0
 42
0.0000001
 43
0.0000001
 44
0.0000000001
 40
0.0
 40
0.0
 40
0.0
 40
0.0
 40
0.0875961278
 40
0.1745720915
 40
0.2600471532
 40
0.3432852282
 40
0.4236368505
 40
0.5004756193
 40
0.5732035984
 40
0.6412796168
 40
0.6734403551
 40
0.7042829929
 40
0.7337654507
 40
0.761859726
 40
0.7885487957
 40
0.8138233664
 40
0.837684145
 40
0.8601485669
 40
0.8812592294
 40
0.9010785416
 40
0.9196919646
 40
0.9372140601
 40
0.95379853
 40
0.9696370102
 40
0.9849535276
 40
1.0
 40
1.0
 40
1.0
 40
1.0
 10
5.1425854037
 20
4.7275610624
 30
0.0
 10
5.136463401
 20
4.7275610624
 30
0.0
 10
5.1242617658
 20
4.7273555631
 30
0.0
 10
5.1061070652
 20
4.7264401718
 30
0.0
 10
5.0882980792
 20
4.7249215265
 30
0.0
 10
5.0710149569
 20
4.7228162521
 30
0.0
 10
5.0544208384
 20
4.7201451316
 30
0.0
 10
5.0386710644
 20
4.7169335287
 30
0.0
 10
5.0239158947
 20
4.7132151556
 30
0.0
 10
5.0123560284
 20
4.7096560587
 30
0.0
 10
5.0037310967
 20
4.706564316
 30
0.0
 10
4.9977193358
 20
4.7041862812
 30
0.0
 10
4.9920561311
 20
4.7017099314
 30
0.0
 10
4.986754686
 20
4.6991414334
 30
0.0
 10
4.9818268704
 20
4.6964874358
 30
0.0
 10
4.9772842328
 20
4.6937541996
 30
0.0
 10
4.9731380639
 20
4.6909476977
 30
0.0
 10
4.9693988787
 20
4.6880734541
 30
0.0
 10
4.9660745068
 20
4.685138753
 30
0.0
 10
4.9631722417
 20
4.6821499607
 30
0.0
 10
4.9606993368
 20
4.6791132109
 30
0.0
 10
4.9586639142
 20
4.6760336973
 30
0.0
 10
4.9570724068
 20
4.6729180187
 30
0.0
 10
4.9559293393
 20
4.6697734728
 30
0.0
 10
4.9552398734
 20
4.6666089418
 30
0.0
 10
4.9550854037
 20
4.6644838679
 30
0.0
 10
4.9550854037
 20
4.6634322855
 30
0.0
  0
SPLINE
  5
37B
100
AcDbEntity
  8
ALL_FEATURES
100
AcDbSpline
 62
7
  6
CONTINUOUS
 70
0
 71
3
 72
31
 73
27
 74
0
 42
0.0000001
 43
0.0000001
 44
0.0000000001
 40
0.0
 40
0.0
 40
0.0
 40
0.0
 40
0.0875961278
 40
0.1745720915
 40
0.2600471532
 40
0.3432852282
 40
0.4236368505
 40
0.5004756193
 40
0.5732035984
 40
0.6412796168
 40
0.6734403551
 40
0.7042829929
 40
0.7337654507
 40
0.761859726
 40
0.7885487957
 40
0.8138233664
 40
0.837684145
 40
0.8601485669
 40
0.8812592294
 40
0.9010785416
 40
0.9196919646
 40
0.9372140601
 40
0.95379853
 40
0.9696370102
 40
0.9849535276
 40
1.0
 40
1.0
 40
1.0
 40
1.0
 10
5.1425854037
 20
3.6880862415
 30
0.0
 10
5.136463401
 20
3.6880862415
 30
0.0
 10
5.1242617658
 20
3.6878807422
 30
0.0
 10
5.1061070652
 20
3.686965351
 30
0.0
 10
5.0882980792
 20
3.6854467056
 30
0.0
 10
5.0710149569
 20
3.6833414312
 30
0.0
 10
5.0544208384
 20
3.6806703107
 30
0.0
 10
5.0386710644
 20
3.6774587079
 30
0.0
 10
5.0239158947
 20
3.6737403348
 30
0.0
 10
5.0123560284
 20
3.6701812378
 30
0.0
 10
5.0037310967
 20
3.6670894952
 30
0.0
 10
4.9977193358
 20
3.6647114604
 30
0.0
 10
4.9920561311
 20
3.6622351106
 30
0.0
 10
4.986754686
 20
3.6596666125
 30
0.0
 10
4.9818268704
 20
3.657012615
 30
0.0
 10
4.9772842328
 20
3.6542793788
 30
0.0
 10
4.9731380639
 20
3.6514728769
 30
0.0
 10
4.9693988787
 20
3.6485986332
 30
0.0
 10
4.9660745068
 20
3.6456639321
 30
0.0
 10
4.9631722417
 20
3.6426751398
 30
0.0
 10
4.9606993368
 20
3.63963839
 30
0.0
 10
4.9586639142
 20
3.6365588764
 30
0.0
 10
4.9570724068
 20
3.6334431979
 30
0.0
 10
4.9559293393
 20
3.630298652
 30
0.0
 10
4.9552398734
 20
3.627134121
 30
0.0
 10
4.9550854037
 20
3.6250090471
 30
0.0
 10
4.9550854037
 20
3.6239574647
 30
0.0
  0
ENDSEC
  0
SECTION
  2
OBJECTS
  0
DICTIONARY
  5
C
100
AcDbDictionary
280
0
281
1
  3
ACAD_GROUP
350
D
  3
ACAD_MLINESTYLE
350
17
  3
ACAD_LAYOUT
350
1A
  3
ACAD_PLOTSETTINGS
350
19
  3
ACAD_PLOTSTYLENAME
350
E
  0
DICTIONARY
  5
D
102
{ACAD_REACTORS
330
C
102
}
100
AcDbDictionary
280
0
281
1
  0
ACDBDICTIONARYWDFLT
  5
E
102
{ACAD_REACTORS
330
C
102
}
100
AcDbDictionary
281
1
  3
Normal
350
F
100
AcDbDictionaryWithDefault
340
F
  0
DICTIONARY
  5
17
102
{ACAD_REACTORS
330
C
102
}
100
AcDbDictionary
280
0
281
1
  3
Standard
350
18
  0
DICTIONARY
  5
19
102
{ACAD_REACTORS
330
C
102
}
100
AcDbDictionary
281
1
  0
DICTIONARY
  5
1A
102
{ACAD_REACTORS
330
C
102
}
100
AcDbDictionary
281
1
  3
Model
350
37C
  3
Layout1
350
37D
  0
ACDBPLACEHOLDER
  5
F
102
{ACAD_REACTORS
330
E
102
}
  0
MLINESTYLE
  5
18
102
{ACAD_REACTORS
330
17
102
}
100
AcDbMlineStyle
  2
STANDARD
 70
0
  3

 62
256
 51
90.0
 52
90.0
 71
2
 49
0.5
 62
256
  6
BYLAYER
 49
-0.5
 62
256
  6
BYLAYER
  0
LAYOUT
  5
37C
102
{ACAD_REACTORS
330
1A
102
}
100
AcDbPlotSettings
  1

  2
none_device
  4
ANSI_A_(11.00_x_8.50_Inches)
  6

 40
0.0
 41
0.0
 42
0.0
 43
0.0
 44
279.4
 45
215.9
 46
0.0
 47
0.0
 48
0.0
 49
0.0
140
0.0
141
0.0
142
1.0
143
1.0
 70
1024
 72
0
 73
0
 74
0
  7

 75
0
147
1.0
148
0.0
149
0.0
100
AcDbLayout
  1
Model
 70
0
 71
0
 10
0.0
 20
0.0
 11
11.0
 21
8.5
 12
0.0
 22
0.0
 32
0.0
 14
0.0
 24
0.0
 34
0.0
 15
0.0
 25
0.0
 35
0.0
146
0.0
 13
0.0
 23
0.0
 33
0.0
 16
1.0
 26
0.0
 36
0.0
 17
0.0
 27
1.0
 37
0.0
 76
0
330
219
345
0
346
0
  0
LAYOUT
  5
37D
102
{ACAD_REACTORS
330
1A
102
}
100
AcDbPlotSettings
  1

  2
none_device
  4
ANSI_A_(11.00_x_8.50_Inches)
  6

 40
0.0
 41
0.0
 42
0.0
 43
0.0
 44
279.4
 45
215.9
 46
0.0
 47
0.0
 48
0.0
 49
0.0
140
0.0
141
0.0
142
1.0
143
1.0
 70
0
 72
0
 73
0
 74
0
  7

 75
0
147
1.0
148
0.0
149
0.0
100
AcDbLayout
  1
Layout1
 70
0
 71
1
 10
0.0
 20
0.0
 11
11.0
 21
8.5
 12
0.0
 22
0.0
 32
0.0
 14
0.0
 24
0.0
 34
0.0
 15
0.0
 25
0.0
 35
0.0
146
0.0
 13
0.0
 23
0.0
 33
0.0
 16
1.0
 26
0.0
 36
0.0
 17
0.0
 27
1.0
 37
0.0
 76
0
330
21A
345
0
346
0
  0
ENDSEC
  0
EOF
