999
DXF file: 3-2481_RIGHT.dxf
999
Pro/ENGINEER 2018400 by Parametric Technology Corporation
  0
SECTION
  2
HEADER
  9
$ACADVER
  1
AC1027
  9
$DWGCODEPAGE
  3
ANSI_1252
  9
$EXTMAX
 10
11.0
 20
8.5
 30
0.0
  9
$EXTMIN
 10
0.0
 20
0.0
 30
0.0
  9
$LIMMIN
 10
0.0
 20
0.0
  9
$LIMMAX
 10
11.0
 20
8.5
  9
$VIEWCTR
 10
5.5
 20
4.25
  9
$VIEWSIZE
 40
8.5
  9
$CLAYER
  8
0
  9
$LTSCALE
 40
0.605
  9
$CELTYPE
  6
BYLAYER
  9
$DIMSCALE
 40
1.0
  9
$DIMASZ
 40
0.1
  9
$DIMEXO
 40
0.0625
  9
$DIMDLI
 40
0.418
  9
$DIMEXE
 40
0.125
  9
$DIMCEN
 40
0.099
  9
$DIMLFAC
 40
1.0
  9
$DIMBLK
  1
_FILLED
  9
$DIMALT
 70
1
  9
$DIMALTD
 70
2
  9
$DIMALTTD
 70
2
  9
$DIMALTF
 40
25.4
  9
$DIMTXT
 40
0.08
  9
$DIMTOL
 70
1
  9
$DIMLIM
 70
0
  9
$DIMTFAC
 40
1.0
  9
$DIMTP
 40
0.001
  9
$DIMTM
 40
0.001
  9
$DIMGAP
 40
0.09
  9
$DIMDSEP
 70
46
  9
$AUNITS
 70
0
  9
$PDMODE
 70
3
  9
$PDSIZE
 40
0.3125
  9
$HANDSEED
  5
290
  9
$TILEMODE
 70
1
  9
$MEASUREMENT
 70
0
  9
$INSUNITS
 70
1
  0
ENDSEC
  0
SECTION
  2
CLASSES
  0
CLASS
  1
ACDBDICTIONARYWDFLT
  2
AcDbDictionaryWithDefault
  3
AutoCAD 2000
 90
0
 91
1
280
0
281
0
  0
CLASS
  1
ACDBPLACEHOLDER
  2
AcDbPlaceHolder
  3
AutoCAD 2000
 90
0
 91
1
280
0
281
0
  0
CLASS
  1
LAYOUT
  2
AcDbLayout
  3
AutoCAD 2000
 90
0
 91
0
280
0
281
0
  0
ENDSEC
  0
SECTION
  2
TABLES
  0
TABLE
  2
VPORT
  5
8
100
AcDbSymbolTable
 70
2
  0
VPORT
  5
1F4
100
AcDbSymbolTableRecord
100
AcDbViewportTableRecord
  2
*ACTIVE
 70
0
 10
0.0
 20
0.0
 11
1.0
 21
1.0
 12
5.5
 22
4.25
 13
0.0
 23
0.0
 14
1.0
 24
1.0
 15
0.0
 25
0.0
 16
0.0
 26
0.0
 36
1.0
 17
0.0
 27
0.0
 37
0.0
 40
8.5
 41
1.2941176471
 42
50.0
 43
0.0
 44
0.0
 50
0.0
 51
0.0
 71
0
 72
100
 73
1
 74
1
 75
0
 76
0
 77
0
 78
0
  0
ENDTAB
  0
TABLE
  2
LTYPE
  5
5
100
AcDbSymbolTable
 70
6
  0
LTYPE
  5
14
100
AcDbSymbolTableRecord
100
AcDbLinetypeTableRecord
  2
BYBLOCK
 70
0
  3

 72
65
 73
0
 40
0.0
  0
LTYPE
  5
15
100
AcDbSymbolTableRecord
100
AcDbLinetypeTableRecord
  2
BYLAYER
 70
0
  3

 72
65
 73
0
 40
0.0
  0
LTYPE
  5
16
100
AcDbSymbolTableRecord
100
AcDbLinetypeTableRecord
  2
CONTINUOUS
 70
64
  3
Solid line
 72
65
 73
0
 40
0.0
  0
LTYPE
  5
1F5
100
AcDbSymbolTableRecord
100
AcDbLinetypeTableRecord
  2
CENTER
 70
64
  3
____ _ ____ _ ____ _ ____ _ ____ _ ____ _ ____
 72
65
 73
4
 40
0.6
 49
0.375
 74
0
 49
-0.075
 74
0
 49
0.075
 74
0
 49
-0.075
 74
0
  0
LTYPE
  5
1F6
100
AcDbSymbolTableRecord
100
AcDbLinetypeTableRecord
  2
HIDDEN
 70
64
  3
- - - - - - - - - - - - - - - - - - - -
 72
65
 73
2
 40
0.2
 49
0.1
 74
0
 49
-0.1
 74
0
  0
LTYPE
  5
1F7
100
AcDbSymbolTableRecord
100
AcDbLinetypeTableRecord
  2
PHANTOM
 70
64
  3
_____ _ _ _____ _ _ _____ _ _ _____
 72
65
 73
6
 40
0.8
 49
0.45
 74
0
 49
-0.05
 74
0
 49
0.1
 74
0
 49
-0.05
 74
0
 49
0.1
 74
0
 49
-0.05
 74
0
  0
LTYPE
  5
1F8
100
AcDbSymbolTableRecord
100
AcDbLinetypeTableRecord
  2
DOT
 70
64
  3
. . . . . . . . . . . . . . . . . . . .
 72
65
 73
2
 40
0.2
 49
0.1
 74
0
 49
-0.1
 74
0
  0
LTYPE
  5
1F9
100
AcDbSymbolTableRecord
100
AcDbLinetypeTableRecord
  2
DASHED
 70
64
  3
- - - - - - - - - - - - - - - - - - - -
 72
65
 73
2
 40
0.2
 49
0.1
 74
0
 49
-0.1
 74
0
  0
ENDTAB
  0
TABLE
  2
LAYER
  5
2
100
AcDbSymbolTable
 70
36
  0
LAYER
  5
10
100
AcDbSymbolTableRecord
100
AcDbLayerTableRecord
  2
0
 70
0
 62
7
  6
CONTINUOUS
370
-3
390
F
  0
LAYER
  5
1FA
100
AcDbSymbolTableRecord
100
AcDbLayerTableRecord
  2
DEFAULT_1
 70
0
 62
7
  6
CENTER
370
-3
390
F
  0
LAYER
  5
1FB
100
AcDbSymbolTableRecord
100
AcDbLayerTableRecord
  2
DEFAULT_2
 70
0
 62
8
  6
HIDDEN
370
-3
390
F
  0
LAYER
  5
1FC
100
AcDbSymbolTableRecord
100
AcDbLayerTableRecord
  2
DEFAULT_3
 70
0
 62
7
  6
PHANTOM
370
-3
390
F
  0
LAYER
  5
1FD
100
AcDbSymbolTableRecord
100
AcDbLayerTableRecord
  2
01_ALL_DTM_PLN
 70
0
 62
7
  6
CONTINUOUS
370
-3
390
F
  0
LAYER
  5
1FE
100
AcDbSymbolTableRecord
100
AcDbLayerTableRecord
  2
01__ASM_ALL_DTM_PLN
 70
0
 62
7
  6
CONTINUOUS
370
-3
390
F
  0
LAYER
  5
1FF
100
AcDbSymbolTableRecord
100
AcDbLayerTableRecord
  2
01__ASM_DEF_DTM_PLN
 70
0
 62
7
  6
CONTINUOUS
370
-3
390
F
  0
LAYER
  5
200
100
AcDbSymbolTableRecord
100
AcDbLayerTableRecord
  2
01___PRT_ALL_DTM_PLN
 70
0
 62
7
  6
CONTINUOUS
370
-3
390
F
  0
LAYER
  5
201
100
AcDbSymbolTableRecord
100
AcDbLayerTableRecord
  2
01___PRT_DEF_DTM_PLN
 70
0
 62
7
  6
CONTINUOUS
370
-3
390
F
  0
LAYER
  5
202
100
AcDbSymbolTableRecord
100
AcDbLayerTableRecord
  2
02_ALL_AXES
 70
0
 62
7
  6
CONTINUOUS
370
-3
390
F
  0
LAYER
  5
203
100
AcDbSymbolTableRecord
100
AcDbLayerTableRecord
  2
02__ASM_ALL_AXES
 70
0
 62
7
  6
CONTINUOUS
370
-3
390
F
  0
LAYER
  5
204
100
AcDbSymbolTableRecord
100
AcDbLayerTableRecord
  2
02___PRT_ALL_AXES
 70
0
 62
7
  6
CONTINUOUS
370
-3
390
F
  0
LAYER
  5
205
100
AcDbSymbolTableRecord
100
AcDbLayerTableRecord
  2
03_ALL_CURVES
 70
0
 62
7
  6
CONTINUOUS
370
-3
390
F
  0
LAYER
  5
206
100
AcDbSymbolTableRecord
100
AcDbLayerTableRecord
  2
03__ASM_ALL_CURVES
 70
0
 62
7
  6
CONTINUOUS
370
-3
390
F
  0
LAYER
  5
207
100
AcDbSymbolTableRecord
100
AcDbLayerTableRecord
  2
03___PRT_ALL_CURVES
 70
0
 62
7
  6
CONTINUOUS
370
-3
390
F
  0
LAYER
  5
208
100
AcDbSymbolTableRecord
100
AcDbLayerTableRecord
  2
04_ALL_DTM_PNT
 70
0
 62
7
  6
CONTINUOUS
370
-3
390
F
  0
LAYER
  5
209
100
AcDbSymbolTableRecord
100
AcDbLayerTableRecord
  2
04__ASM_ALL_DTM_PNT
 70
0
 62
7
  6
CONTINUOUS
370
-3
390
F
  0
LAYER
  5
20A
100
AcDbSymbolTableRecord
100
AcDbLayerTableRecord
  2
04___PRT_ALL_DTM_PNT
 70
0
 62
7
  6
CONTINUOUS
370
-3
390
F
  0
LAYER
  5
20B
100
AcDbSymbolTableRecord
100
AcDbLayerTableRecord
  2
05_ALL_DTM_CSYS
 70
0
 62
7
  6
CONTINUOUS
370
-3
390
F
  0
LAYER
  5
20C
100
AcDbSymbolTableRecord
100
AcDbLayerTableRecord
  2
05__ASM_ALL_DTM_CSYS
 70
0
 62
7
  6
CONTINUOUS
370
-3
390
F
  0
LAYER
  5
20D
100
AcDbSymbolTableRecord
100
AcDbLayerTableRecord
  2
05__ASM_DEF_DTM_CSYS
 70
0
 62
7
  6
CONTINUOUS
370
-3
390
F
  0
LAYER
  5
20E
100
AcDbSymbolTableRecord
100
AcDbLayerTableRecord
  2
05___PRT_ALL_DTM_CSYS
 70
0
 62
7
  6
CONTINUOUS
370
-3
390
F
  0
LAYER
  5
20F
100
AcDbSymbolTableRecord
100
AcDbLayerTableRecord
  2
05___PRT_DEF_DTM_CSYS
 70
0
 62
7
  6
CONTINUOUS
370
-3
390
F
  0
LAYER
  5
210
100
AcDbSymbolTableRecord
100
AcDbLayerTableRecord
  2
06_ALL_SURFS
 70
0
 62
7
  6
CONTINUOUS
370
-3
390
F
  0
LAYER
  5
211
100
AcDbSymbolTableRecord
100
AcDbLayerTableRecord
  2
06__ASM_ALL_SURFS
 70
0
 62
7
  6
CONTINUOUS
370
-3
390
F
  0
LAYER
  5
212
100
AcDbSymbolTableRecord
100
AcDbLayerTableRecord
  2
06___PRT_ALL_SURFS
 70
0
 62
7
  6
CONTINUOUS
370
-3
390
F
  0
LAYER
  5
213
100
AcDbSymbolTableRecord
100
AcDbLayerTableRecord
  2
07__ASM_ALL_SKELETONS
 70
0
 62
7
  6
CONTINUOUS
370
-3
390
F
  0
LAYER
  5
214
100
AcDbSymbolTableRecord
100
AcDbLayerTableRecord
  2
ALL_ASSEMBLY_MEMBERS
 70
0
 62
7
  6
CONTINUOUS
370
-3
390
F
  0
LAYER
  5
215
100
AcDbSymbolTableRecord
100
AcDbLayerTableRecord
  2
ALL_FEATURES
 70
0
 62
7
  6
CONTINUOUS
370
-3
390
F
  0
LAYER
  5
216
100
AcDbSymbolTableRecord
100
AcDbLayerTableRecord
  2
AXES_FEATURES
 70
0
 62
7
  6
CONTINUOUS
370
-3
390
F
  0
LAYER
  5
217
100
AcDbSymbolTableRecord
100
AcDbLayerTableRecord
  2
CHAMFER_FEATURES
 70
0
 62
7
  6
CONTINUOUS
370
-3
390
F
  0
LAYER
  5
218
100
AcDbSymbolTableRecord
100
AcDbLayerTableRecord
  2
COSMETIC_SKETCHES
 70
0
 62
7
  6
CONTINUOUS
370
-3
390
F
  0
LAYER
  5
219
100
AcDbSymbolTableRecord
100
AcDbLayerTableRecord
  2
CUT_FEATURES
 70
0
 62
7
  6
CONTINUOUS
370
-3
390
F
  0
LAYER
  5
21A
100
AcDbSymbolTableRecord
100
AcDbLayerTableRecord
  2
DATUM_CURVES
 70
0
 62
7
  6
CONTINUOUS
370
-3
390
F
  0
LAYER
  5
21B
100
AcDbSymbolTableRecord
100
AcDbLayerTableRecord
  2
DATUM_PLANES
 70
0
 62
7
  6
CONTINUOUS
370
-3
390
F
  0
LAYER
  5
21C
100
AcDbSymbolTableRecord
100
AcDbLayerTableRecord
  2
DEFAULT_COORDINATE_SYSTEM
 70
0
 62
7
  6
CONTINUOUS
370
-3
390
F
  0
LAYER
  5
21D
100
AcDbSymbolTableRecord
100
AcDbLayerTableRecord
  2
DEFAULT_DATUM_AXES
 70
0
 62
7
  6
CONTINUOUS
370
-3
390
F
  0
LAYER
  5
21E
100
AcDbSymbolTableRecord
100
AcDbLayerTableRecord
  2
DEFAULT_DATUM_CURVES
 70
0
 62
7
  6
CONTINUOUS
370
-3
390
F
  0
LAYER
  5
21F
100
AcDbSymbolTableRecord
100
AcDbLayerTableRecord
  2
DEFAULT_DATUM_PLANES
 70
0
 62
7
  6
CONTINUOUS
370
-3
390
F
  0
LAYER
  5
220
100
AcDbSymbolTableRecord
100
AcDbLayerTableRecord
  2
DEFAULT_SURFACES
 70
0
 62
7
  6
CONTINUOUS
370
-3
390
F
  0
LAYER
  5
221
100
AcDbSymbolTableRecord
100
AcDbLayerTableRecord
  2
DIMENSIONS
 70
0
 62
7
  6
CONTINUOUS
370
-3
390
F
  0
LAYER
  5
222
100
AcDbSymbolTableRecord
100
AcDbLayerTableRecord
  2
HOLE_FEATURES
 70
0
 62
7
  6
CONTINUOUS
370
-3
390
F
  0
LAYER
  5
223
100
AcDbSymbolTableRecord
100
AcDbLayerTableRecord
  2
NONE
 70
0
 62
7
  6
CONTINUOUS
370
-3
390
F
  0
LAYER
  5
224
100
AcDbSymbolTableRecord
100
AcDbLayerTableRecord
  2
PART_REFERENCE_DIMENSIONS
 70
0
 62
7
  6
CONTINUOUS
370
-3
390
F
  0
LAYER
  5
225
100
AcDbSymbolTableRecord
100
AcDbLayerTableRecord
  2
PLATED_SURFACE_AREA
 70
0
 62
7
  6
CONTINUOUS
370
-3
390
F
  0
LAYER
  5
226
100
AcDbSymbolTableRecord
100
AcDbLayerTableRecord
  2
PROTRUSION_FEATURES
 70
0
 62
7
  6
CONTINUOUS
370
-3
390
F
  0
LAYER
  5
227
100
AcDbSymbolTableRecord
100
AcDbLayerTableRecord
  2
QUILTS
 70
0
 62
7
  6
CONTINUOUS
370
-3
390
F
  0
LAYER
  5
228
100
AcDbSymbolTableRecord
100
AcDbLayerTableRecord
  2
REFERENCE_DIMENSIONS
 70
0
 62
7
  6
CONTINUOUS
370
-3
390
F
  0
LAYER
  5
229
100
AcDbSymbolTableRecord
100
AcDbLayerTableRecord
  2
ROUND_FEATURES
 70
0
 62
7
  6
CONTINUOUS
370
-3
390
F
  0
LAYER
  5
22A
100
AcDbSymbolTableRecord
100
AcDbLayerTableRecord
  2
WETTED_SURFACES
 70
0
 62
7
  6
CONTINUOUS
370
-3
390
F
  0
LAYER
  5
22B
100
AcDbSymbolTableRecord
100
AcDbLayerTableRecord
  2
WETTED_SURFACE_AREA
 70
0
 62
7
  6
CONTINUOUS
370
-3
390
F
  0
LAYER
  5
22C
100
AcDbSymbolTableRecord
100
AcDbLayerTableRecord
  2
XSEC_DATUMS
 70
0
 62
7
  6
CONTINUOUS
370
-3
390
F
  0
ENDTAB
  0
TABLE
  2
STYLE
  5
3
100
AcDbSymbolTable
 70
1
  0
STYLE
  5
11
100
AcDbSymbolTableRecord
100
AcDbTextStyleTableRecord
  2
STANDARD
 70
0
 40
0.0
 41
0.8
 50
0.0
 71
0
 42
0.2
  3
txt
  4

  0
STYLE
  5
22D
100
AcDbSymbolTableRecord
100
AcDbTextStyleTableRecord
  2
TEXTSTYLE_1
 70
0
 40
0.0
 41
0.8
 50
0.0
 71
0
 42
0.2
  3
gdt
  4

  0
ENDTAB
  0
TABLE
  2
VIEW
  5
6
100
AcDbSymbolTable
 70
0
  0
ENDTAB
  0
TABLE
  2
UCS
  5
7
100
AcDbSymbolTable
 70
0
  0
ENDTAB
  0
TABLE
  2
APPID
  5
9
100
AcDbSymbolTable
 70
1
  0
APPID
  5
22E
100
AcDbSymbolTableRecord
100
AcDbRegAppTableRecord
  2
ACAD
 70
0
  0
ENDTAB
  0
TABLE
  2
BLOCK_RECORD
  5
1
100
AcDbSymbolTable
 70
0
  0
BLOCK_RECORD
  5
22F
100
AcDbSymbolTableRecord
100
AcDbBlockTableRecord
  2
*Model_Space
  0
BLOCK_RECORD
  5
230
100
AcDbSymbolTableRecord
100
AcDbBlockTableRecord
  2
*Paper_Space
  0
BLOCK_RECORD
  5
231
100
AcDbSymbolTableRecord
100
AcDbBlockTableRecord
  2
_FILLED
  0
ENDTAB
  0
TABLE
  2
DIMSTYLE
  5
A
100
AcDbSymbolTable
 70
1
100
AcDbDimStyleTable
 71
0
  0
DIMSTYLE
105
232
100
AcDbSymbolTableRecord
100
AcDbDimStyleTableRecord
  2
STANDARD
 70
0
  3

  4

 40
1.0
 41
0.1
 42
0.0625
 43
0.38
 44
0.125
 45
0.0
 46
0.0
 47
0.001
 48
0.001
140
0.08
141
0.09
142
0.0
143
25.4
144
1.0
145
0.0
146
1.0
147
0.09
 71
1.0
 72
0.0
 73
1
 74
1
 75
0
 76
0
 77
0
 78
4
 79
1
170
1
171
2
172
0
173
0
174
0
175
0
176
0
177
0
178
0
270
2
179
3
271
3
272
3
273
2
274
2
275
0
280
0
281
0
282
0
283
1
284
4
285
0
286
0
287
3
288
0
340
11
278
46
341
231
342
231
343
231
344
231
  0
ENDTAB
  0
ENDSEC
  0
SECTION
  2
BLOCKS
  0
BLOCK
  5
20
100
AcDbEntity
  8
0
100
AcDbBlockBegin
  2
*Model_Space
 70
0
 10
0.0
 20
0.0
 30
0.0
  3
*Model_Space
  1

  0
ENDBLK
  5
21
100
AcDbEntity
  8
0
100
AcDbBlockEnd
  0
BLOCK
  5
1C
100
AcDbEntity
  8
0
100
AcDbBlockBegin
  2
*Paper_Space
 70
0
 10
0.0
 20
0.0
 30
0.0
  3
*Paper_Space
  1

  0
ENDBLK
  5
1D
100
AcDbEntity
  8
0
100
AcDbBlockEnd
  0
BLOCK
  5
233
100
AcDbEntity
  8
0
100
AcDbBlockBegin
  2
_FILLED
 70
64
 10
0.0
 20
0.0
  3
_FILLED
  1

  0
SOLID
  5
234
100
AcDbEntity
  8
0
  6
BYBLOCK
 62
0
100
AcDbTrace
 10
0.0
 20
0.0
 11
-1.0
 21
0.2
 12
-1.0
 22
-0.2
 13
-1.0
 23
-0.2
  0
ENDBLK
  5
235
100
AcDbEntity
  8
0
  6
BYBLOCK
 62
0
100
AcDbBlockEnd
  0
ENDSEC
  0
SECTION
  2
ENTITIES
  0
MTEXT
  5
236
100
AcDbEntity
  8
0
100
AcDbMText
 62
2
  6
CONTINUOUS
  7
STANDARD
 71
3
 72
1
 10
4.4740907791
 20
2.3088470497
 30
0.0
 11
1.0
 21
0.0
 31
0.0
 73
2
 44
0.9
  1
SCALE  .500
 40
0.08
 41
0.704
  0
LINE
  5
237
100
AcDbEntity
  8
0
100
AcDbLine
 62
7
  6
CONTINUOUS
 10
0.0
 20
0.0
 11
0.0
 21
8.5
  0
LINE
  5
238
100
AcDbEntity
  8
0
100
AcDbLine
 62
7
  6
CONTINUOUS
 10
0.0
 20
0.0
 11
11.0
 21
0.0
  0
LINE
  5
239
100
AcDbEntity
  8
0
100
AcDbLine
 62
7
  6
CONTINUOUS
 10
0.0
 20
8.5
 11
11.0
 21
8.5
  0
LINE
  5
23A
100
AcDbEntity
  8
0
100
AcDbLine
 62
7
  6
CONTINUOUS
 10
11.0
 20
0.0
 11
11.0
 21
8.5
  0
LINE
  5
23B
100
AcDbEntity
  8
0
100
AcDbLine
 62
7
  6
CONTINUOUS
 10
3.2664906832
 20
3.3363936335
 11
3.2664906832
 21
3.0863936335
  0
LINE
  5
23C
100
AcDbEntity
  8
0
100
AcDbLine
 62
7
  6
CONTINUOUS
 10
3.7039906832
 20
3.3363936335
 11
3.7039906832
 21
3.0863936335
  0
LINE
  5
23D
100
AcDbEntity
  8
0
100
AcDbLine
 62
7
  6
CONTINUOUS
 10
4.2352406832
 20
3.8676436335
 11
4.2352406832
 21
4.3051436335
  0
LINE
  5
23E
100
AcDbEntity
  8
0
100
AcDbLine
 62
7
  6
CONTINUOUS
 10
3.7039906832
 20
3.0863936335
 11
3.2664906832
 21
3.0863936335
  0
LINE
  5
23F
100
AcDbEntity
  8
0
100
AcDbLine
 62
7
  6
CONTINUOUS
 10
3.7039906832
 20
3.3363936335
 11
3.2664906832
 21
3.3363936335
  0
LWPOLYLINE
  5
240
100
AcDbEntity
  8
ALL_ASSEMBLY_MEMBERS
100
AcDbPolyline
 62
7
  6
CONTINUOUS
 90
7
 70
0
 10
5.4101702138
 20
4.1480545873
 10
5.408502348
 20
4.1471972213
 10
5.4067957828
 20
4.1465117753
 10
5.4050913477
 20
4.1460004855
 10
5.4034148134
 20
4.1456534411
 10
5.4017742302
 20
4.145455654
 10
5.4002027077
 20
4.1453938166
  0
LINE
  5
241
100
AcDbEntity
  8
0
100
AcDbLine
 62
7
  6
CONTINUOUS
 10
7.0377406832
 20
3.6238936335
 11
6.9227406832
 21
3.6238936335
  0
LWPOLYLINE
  5
242
100
AcDbEntity
  8
ALL_ASSEMBLY_MEMBERS
100
AcDbPolyline
 62
7
  6
CONTINUOUS
 90
8
 70
0
 10
5.418897497
 20
4.1582873311
 10
5.4181136019
 20
4.1564944998
 10
5.4171485001
 20
4.1547712612
 10
5.4160116213
 20
4.1531432124
 10
5.414727603
 20
4.1516451129
 10
5.4133116892
 20
4.1502890382
 10
5.4117801242
 20
4.1490854336
 10
5.4101702138
 20
4.1480545873
  0
LINE
  5
243
100
AcDbEntity
  8
02___PRT_ALL_AXES
100
AcDbLine
 62
7
  6
CONTINUOUS
 10
7.2377406832
 20
3.8113936335
 11
7.0452406832
 21
3.8113936335
  0
LINE
  5
244
100
AcDbEntity
  8
ALL_ASSEMBLY_MEMBERS
100
AcDbLine
 62
7
  6
CONTINUOUS
 10
5.3127406832
 20
4.1253936335
 11
5.3127406832
 21
4.0473936335
  0
LINE
  5
245
100
AcDbEntity
  8
ALL_ASSEMBLY_MEMBERS
100
AcDbLine
 62
7
  6
CONTINUOUS
 10
5.3327406832
 20
4.0273936335
 11
5.3327406832
 21
4.1453936335
  0
LINE
  5
246
100
AcDbEntity
  8
ALL_ASSEMBLY_MEMBERS
100
AcDbLine
 62
7
  6
CONTINUOUS
 10
5.4190384769
 20
4.1586699095
 11
5.4190375504
 21
4.158667306
  0
LINE
  5
247
100
AcDbEntity
  8
0
100
AcDbLine
 62
7
  6
CONTINUOUS
 10
6.9127406832
 20
3.8676436335
 11
4.2352406832
 21
3.8676436335
  0
LINE
  5
248
100
AcDbEntity
  8
ALL_ASSEMBLY_MEMBERS
100
AcDbLine
 62
7
  6
CONTINUOUS
 10
6.9127406832
 20
3.8713936335
 11
6.7247406832
 21
3.8713936335
  0
LINE
  5
249
100
AcDbEntity
  8
ALL_ASSEMBLY_MEMBERS
100
AcDbLine
 62
7
  6
CONTINUOUS
 10
5.6215019005
 20
3.8713936339
 11
6.6997406832
 21
3.8713936335
  0
LINE
  5
24A
100
AcDbEntity
  8
ALL_ASSEMBLY_MEMBERS
100
AcDbLine
 62
7
  6
CONTINUOUS
 10
6.7217406832
 20
3.9163936335
 11
6.7247406832
 21
3.9163936335
  0
LINE
  5
24B
100
AcDbEntity
  8
ALL_ASSEMBLY_MEMBERS
100
AcDbLine
 62
7
  6
CONTINUOUS
 10
5.4291024374
 20
4.0073936335
 11
5.7856633334
 21
4.0073936335
  0
LINE
  5
24C
100
AcDbEntity
  8
ALL_ASSEMBLY_MEMBERS
100
AcDbLine
 62
7
  6
CONTINUOUS
 10
5.3327406832
 20
4.0273936335
 11
5.7847406832
 21
4.0273936335
  0
LINE
  5
24D
100
AcDbEntity
  8
ALL_ASSEMBLY_MEMBERS
100
AcDbLine
 62
7
  6
CONTINUOUS
 10
5.3127406832
 20
4.0473936335
 11
5.8047406832
 21
4.0473936335
  0
LWPOLYLINE
  5
24E
100
AcDbEntity
  8
ALL_ASSEMBLY_MEMBERS
100
AcDbPolyline
 62
7
  6
CONTINUOUS
 90
14
 70
0
 10
5.4002629776
 20
4.0273935262
 10
5.4019253671
 20
4.0273192637
 10
5.4036307358
 20
4.027097589
 10
5.4053646063
 20
4.0267159259
 10
5.4071199959
 20
4.0261591934
 10
5.4088669862
 20
4.0254192911
 10
5.4105566545
 20
4.0245047063
 10
5.4121701324
 20
4.0234177651
 10
5.4136881974
 20
4.0221629494
 10
5.4150704158
 20
4.0207705367
 10
5.4163050216
 20
4.0192555481
 10
5.4173819925
 20
4.0176338015
 10
5.4182795105
 20
4.0159503566
 10
5.4190381168
 20
4.014117858
  0
LINE
  5
24F
100
AcDbEntity
  8
ALL_ASSEMBLY_MEMBERS
100
AcDbLine
 62
7
  6
CONTINUOUS
 10
6.7212189807
 20
3.916431165
 11
6.7217406832
 21
3.9163936335
  0
LINE
  5
250
100
AcDbEntity
  8
ALL_ASSEMBLY_MEMBERS
100
AcDbLine
 62
7
  6
CONTINUOUS
 10
6.7212216397
 20
3.9164310093
 11
6.7217406832
 21
3.9163936335
  0
LWPOLYLINE
  5
251
100
AcDbEntity
  8
ALL_ASSEMBLY_MEMBERS
100
AcDbPolyline
 62
7
  6
CONTINUOUS
 90
24
 70
0
 10
5.4190372095
 20
4.0141203919
 10
5.4207299494
 20
4.0095431489
 10
5.4254852466
 20
3.9981137028
 10
5.430781584
 20
3.9871862913
 10
5.4365517936
 20
3.9768038295
 10
5.4427608653
 20
3.9669433729
 10
5.4494150295
 20
3.9575393868
 10
5.456481993
 20
3.9486035509
 10
5.4639331249
 20
3.9401409531
 10
5.4718004995
 20
3.9320960363
 10
5.4800635733
 20
3.9244856995
 10
5.4887054845
 20
3.9173246507
 10
5.4977749659
 20
3.9105785601
 10
5.5072549713
 20
3.9042735526
 10
5.5171344421
 20
3.8984356375
 10
5.5274751256
 20
3.8930548869
 10
5.5382743167
 20
3.8881655497
 10
5.5495087494
 20
3.8838124344
 10
5.5612131696
 20
3.8800250192
 10
5.5734680572
 20
3.8768331299
 10
5.5861628264
 20
3.874321181
 10
5.5990402522
 20
3.8725713385
 10
5.6120815535
 20
3.8716004929
 10
5.6215062345
 20
3.8713936243
  0
LINE
  5
252
100
AcDbEntity
  8
ALL_ASSEMBLY_MEMBERS
100
AcDbLine
 62
7
  6
CONTINUOUS
 10
5.4190373753
 20
4.0141199419
 11
5.4190382027
 21
4.0141176174
  0
LINE
  5
253
100
AcDbEntity
  8
ALL_ASSEMBLY_MEMBERS
100
AcDbLine
 62
7
  6
CONTINUOUS
 10
6.7217406832
 20
4.2563936335
 11
6.7212478824
 21
4.2563581085
  0
LINE
  5
254
100
AcDbEntity
  8
ALL_ASSEMBLY_MEMBERS
100
AcDbLine
 62
7
  6
CONTINUOUS
 10
5.3127406832
 20
4.1253936335
 11
5.8047406832
 21
4.1253936335
  0
LINE
  5
255
100
AcDbEntity
  8
ALL_ASSEMBLY_MEMBERS
100
AcDbLine
 62
7
  6
CONTINUOUS
 10
5.7847406832
 20
4.1453936335
 11
5.3327406832
 21
4.1453936335
  0
LINE
  5
256
100
AcDbEntity
  8
ALL_ASSEMBLY_MEMBERS
100
AcDbLine
 62
7
  6
CONTINUOUS
 10
5.7856632024
 20
4.1653936335
 11
5.4291022938
 21
4.1653936335
  0
LINE
  5
257
100
AcDbEntity
  8
ALL_ASSEMBLY_MEMBERS
100
AcDbLine
 62
7
  6
CONTINUOUS
 10
6.7217406832
 20
4.2563936335
 11
6.7247406832
 21
4.2563936335
  0
LINE
  5
258
100
AcDbEntity
  8
ALL_ASSEMBLY_MEMBERS
100
AcDbLine
 62
7
  6
CONTINUOUS
 10
5.7847406832
 20
4.0273936335
 11
5.7847406832
 21
4.1453936335
  0
LINE
  5
259
100
AcDbEntity
  8
ALL_ASSEMBLY_MEMBERS
100
AcDbLine
 62
7
  6
CONTINUOUS
 10
5.8047406832
 20
4.0473936335
 11
5.8047406832
 21
4.1253936335
  0
LINE
  5
25A
100
AcDbEntity
  8
ALL_ASSEMBLY_MEMBERS
100
AcDbLine
 62
7
  6
CONTINUOUS
 10
5.8247406832
 20
4.1220744846
 11
5.8247406832
 21
4.0507127825
  0
LWPOLYLINE
  5
25B
100
AcDbEntity
  8
ALL_ASSEMBLY_MEMBERS
100
AcDbPolyline
 62
7
  6
CONTINUOUS
 90
24
 70
0
 10
5.6215498001
 20
4.3013936423
 10
5.6124242503
 20
4.3012013653
 10
5.5993898803
 20
4.3002524015
 10
5.5865063806
 20
4.2985232944
 10
5.573797071
 20
4.2960291862
 10
5.5615269869
 20
4.2928535467
 10
5.5498091325
 20
4.2890815155
 10
5.538561187
 20
4.2847421262
 10
5.5277496908
 20
4.279865461
 10
5.5173977533
 20
4.2744975535
 10
5.5075079148
 20
4.2686724101
 10
5.4980183787
 20
4.2623798361
 10
5.4889397389
 20
4.2556461333
 10
5.4802883975
 20
4.2484977417
 10
5.472015519
 20
4.2408998463
 10
5.4641382945
 20
4.2328669673
 10
5.4566761376
 20
4.2244157583
 10
5.4495968597
 20
4.2154905155
 10
5.4429298703
 20
4.2060965675
 10
5.4367068344
 20
4.1962445363
 10
5.4309209384
 20
4.1858683444
 10
5.4256078964
 20
4.1749458027
 10
5.4208350423
 20
4.1635180851
 10
5.418897497
 20
4.1582873311
  0
LINE
  5
25C
100
AcDbEntity
  8
ALL_ASSEMBLY_MEMBERS
100
AcDbLine
 62
7
  6
CONTINUOUS
 10
6.9127406832
 20
4.3013936335
 11
6.7247406832
 21
4.3013936335
  0
LINE
  5
25D
100
AcDbEntity
  8
ALL_ASSEMBLY_MEMBERS
100
AcDbLine
 62
7
  6
CONTINUOUS
 10
6.6997406832
 20
4.3013936335
 11
5.6215253252
 21
4.3013936335
  0
LINE
  5
25E
100
AcDbEntity
  8
0
100
AcDbLine
 62
7
  6
CONTINUOUS
 10
6.9127406832
 20
4.3051436335
 11
4.2352406832
 21
4.3051436335
  0
LINE
  5
25F
100
AcDbEntity
  8
02___PRT_ALL_AXES
100
AcDbLine
 62
7
  6
CONTINUOUS
 10
7.2377406832
 20
4.3613936335
 11
7.0452406832
 21
4.3613936335
  0
LINE
  5
260
100
AcDbEntity
  8
0
100
AcDbLine
 62
7
  6
CONTINUOUS
 10
7.0377406832
 20
4.5488936335
 11
6.9227406832
 21
4.5488936335
  0
LINE
  5
261
100
AcDbEntity
  8
ALL_ASSEMBLY_MEMBERS
100
AcDbLine
 62
7
  6
CONTINUOUS
 10
6.6997406832
 20
3.8713936335
 11
6.6997406832
 21
4.3013936335
  0
LINE
  5
262
100
AcDbEntity
  8
ALL_ASSEMBLY_MEMBERS
100
AcDbLine
 62
7
  6
CONTINUOUS
 10
6.7247406832
 20
3.8713936335
 11
6.7247406832
 21
4.3013936335
  0
LINE
  5
263
100
AcDbEntity
  8
0
100
AcDbLine
 62
7
  6
CONTINUOUS
 10
6.9127406832
 20
3.6338973184
 11
6.9127406832
 21
4.5388899487
  0
LINE
  5
264
100
AcDbEntity
  8
0
100
AcDbLine
 62
7
  6
CONTINUOUS
 10
6.9227406832
 20
3.6238936335
 11
6.9227406832
 21
4.5488936335
  0
LINE
  5
265
100
AcDbEntity
  8
0
100
AcDbLine
 62
7
  6
CONTINUOUS
 10
7.0377406832
 20
4.5488936309
 11
7.0377406832
 21
3.6238936361
  0
LINE
  5
266
100
AcDbEntity
  8
ALL_FEATURES
100
AcDbLine
 62
7
  6
CONTINUOUS
 10
7.0452406832
 20
4.5073936335
 11
7.0452406832
 21
3.6653936335
  0
LINE
  5
267
100
AcDbEntity
  8
02___PRT_ALL_AXES
100
AcDbLine
 62
7
  6
CONTINUOUS
 10
7.2377406832
 20
4.3613936335
 11
7.2377406832
 21
3.8113936335
  0
ARC
  5
268
100
AcDbEntity
  8
0
100
AcDbCircle
 62
7
  6
CONTINUOUS
 10
4.2352406832
 20
3.3363936335
 40
0.96875
100
AcDbArc
 50
90.0
 51
180.0
  0
ARC
  5
269
100
AcDbEntity
  8
0
100
AcDbCircle
 62
7
  6
CONTINUOUS
 10
4.2352406832
 20
3.3363936335
 40
0.53125
100
AcDbArc
 50
90.0
 51
180.0
  0
ARC
  5
26A
100
AcDbEntity
  8
ALL_ASSEMBLY_MEMBERS
100
AcDbCircle
 62
7
  6
CONTINUOUS
 10
5.6073828346
 20
4.0863966737
 40
0.1949984607
100
AcDbArc
 50
23.8983815834
 51
156.1016390145
  0
ARC
  5
26B
100
AcDbEntity
  8
ALL_ASSEMBLY_MEMBERS
100
AcDbCircle
 62
7
  6
CONTINUOUS
 10
5.6073827753
 20
4.0863905728
 40
0.194998451
100
AcDbArc
 50
203.8983795869
 51
336.1016466124
  0
ARC
  5
26C
100
AcDbEntity
  8
ALL_ASSEMBLY_MEMBERS
100
AcDbCircle
 62
7
  6
CONTINUOUS
 10
6.7092099212
 20
4.4265267587
 40
0.1705937947
100
AcDbArc
 50
272.761568428
 51
273.3164225344
  0
ARC
  5
26D
100
AcDbEntity
  8
ALL_ASSEMBLY_MEMBERS
100
AcDbCircle
 62
7
  6
CONTINUOUS
 10
6.7092335756
 20
3.7464605902
 40
0.1703926555
100
AcDbArc
 50
85.9655925803
 51
86.4646651291
  0
ARC
  5
26E
100
AcDbEntity
  8
ALL_ASSEMBLY_MEMBERS
100
AcDbCircle
 62
7
  6
CONTINUOUS
 10
6.7092414643
 20
3.7469909081
 40
0.1698628621
100
AcDbArc
 50
86.4562905295
 51
93.2105659214
  0
ARC
  5
26F
100
AcDbEntity
  8
ALL_ASSEMBLY_MEMBERS
100
AcDbCircle
 62
7
  6
CONTINUOUS
 10
6.7092685849
 20
4.4257549561
 40
0.1698198915
100
AcDbArc
 50
273.3117271905
 51
274.045072056
  0
ARC
  5
270
100
AcDbEntity
  8
ALL_ASSEMBLY_MEMBERS
100
AcDbCircle
 62
7
  6
CONTINUOUS
 10
6.7092399138
 20
4.4257409906
 40
0.1698074943
100
AcDbArc
 50
266.788878864
 51
272.7642341267
  0
ARC
  5
271
100
AcDbEntity
  8
ALL_ASSEMBLY_MEMBERS
100
AcDbCircle
 62
7
  6
CONTINUOUS
 10
5.3327406832
 20
4.1253936335
 40
0.02
100
AcDbArc
 50
90.0
 51
180.0
  0
ARC
  5
272
100
AcDbEntity
  8
ALL_ASSEMBLY_MEMBERS
100
AcDbCircle
 62
7
  6
CONTINUOUS
 10
5.7847406832
 20
4.0473936335
 40
0.02
100
AcDbArc
 50
270.0
 51
360.0
  0
ARC
  5
273
100
AcDbEntity
  8
ALL_ASSEMBLY_MEMBERS
100
AcDbCircle
 62
7
  6
CONTINUOUS
 10
5.7847406832
 20
4.1253936335
 40
0.02
100
AcDbArc
 50
0.0
 51
90.0
  0
ARC
  5
274
100
AcDbEntity
  8
ALL_ASSEMBLY_MEMBERS
100
AcDbCircle
 62
7
  6
CONTINUOUS
 10
5.3327406832
 20
4.0473936335
 40
0.02
100
AcDbArc
 50
180.0
 51
270.0
  0
ARC
  5
275
100
AcDbEntity
  8
ALL_FEATURES
100
AcDbCircle
 62
7
  6
CONTINUOUS
 10
7.0277406832
 20
4.5073936335
 40
0.0175
100
AcDbArc
 50
0.0
 51
55.1063551026
  0
ARC
  5
276
100
AcDbEntity
  8
ALL_FEATURES
100
AcDbCircle
 62
7
  6
CONTINUOUS
 10
7.0277406832
 20
3.6653936335
 40
0.0175
100
AcDbArc
 50
304.8936448974
 51
360.0
  0
ARC
  5
277
100
AcDbEntity
  8
ALL_ASSEMBLY_MEMBERS
100
AcDbCircle
 62
7
  6
CONTINUOUS
 10
6.7092406832
 20
4.0863936335
 40
0.0125
100
AcDbArc
 50
220.4438584186
 51
139.5537424743
  0
ARC
  5
278
100
AcDbEntity
  8
0
100
AcDbCircle
 62
7
  6
CONTINUOUS
 10
6.9227406832
 20
4.5388936335
 40
0.01
100
AcDbArc
 50
90.0
 51
180.0
  0
ARC
  5
279
100
AcDbEntity
  8
0
100
AcDbCircle
 62
7
  6
CONTINUOUS
 10
6.9227406832
 20
3.6338936335
 40
0.01
100
AcDbArc
 50
180.0
 51
270.0
  0
SPLINE
  5
27A
100
AcDbEntity
  8
ALL_ASSEMBLY_MEMBERS
100
AcDbSpline
 62
7
  6
CONTINUOUS
 70
0
 71
3
 72
22
 73
18
 74
0
 42
0.0000001
 43
0.0000001
 44
0.0000000001
 40
0.0
 40
0.0
 40
0.0
 40
0.0
 40
0.0079150667
 40
0.0164830204
 40
0.0262003449
 40
0.0374008693
 40
0.0649787966
 40
0.1001340329
 40
0.1430204578
 40
0.1934861719
 40
0.2512602923
 40
0.315888391
 40
0.3867838407
 40
0.46333679
 40
0.6306772186
 40
0.8120056821
 40
1.0
 40
1.0
 40
1.0
 40
1.0
 10
5.8047406832
 20
4.1253936335
 30
0.0
 10
5.8047406832
 20
4.1253389136
 30
0.0
 10
5.804758584
 20
4.1252243967
 30
0.0
 10
5.8048355911
 20
4.1250584966
 30
0.0
 10
5.804960161
 20
4.1248955862
 30
0.0
 10
5.8052056661
 20
4.1246656494
 30
0.0
 10
5.8056414938
 20
4.1243915547
 30
0.0
 10
5.8063084457
 20
4.1240920341
 30
0.0
 10
5.8071497648
 20
4.1238034356
 30
0.0
 10
5.8081582354
 20
4.1235285756
 30
0.0
 10
5.8093255988
 20
4.1232707813
 30
0.0
 10
5.8106407802
 20
4.1230325046
 30
0.0
 10
5.8120910726
 20
4.1228159416
 30
0.0
 10
5.8142514593
 20
4.122551899
 30
0.0
 10
5.81718119
 20
4.1222982259
 30
0.0
 10
5.8208875179
 20
4.1221157485
 30
0.0
 10
5.8234410043
 20
4.1220744846
 30
0.0
 10
5.8247406832
 20
4.1220744846
 30
0.0
  0
SPLINE
  5
27B
100
AcDbEntity
  8
ALL_ASSEMBLY_MEMBERS
100
AcDbSpline
 62
7
  6
CONTINUOUS
 70
0
 71
3
 72
14
 73
10
 74
0
 42
0.0000001
 43
0.0000001
 44
0.0000000001
 40
0.0
 40
0.0
 40
0.0
 40
0.0
 40
0.2503406805
 40
0.3751807426
 40
0.4998268735
 40
0.6244928024
 40
0.7493170557
 40
0.8744808284
 40
1.0
 40
1.0
 40
1.0
 40
1.0
 10
5.8071008935
 20
4.1524222316
 30
0.0
 10
5.8097019698
 20
4.1508159332
 30
0.0
 10
5.8133461452
 20
4.1479486789
 30
0.0
 10
5.8173940678
 20
4.143365636
 30
0.0
 10
5.8199790741
 20
4.139582479
 30
0.0
 10
5.822060207
 20
4.1355010365
 30
0.0
 10
5.8235908621
 20
4.1311749001
 30
0.0
 10
5.824529369
 20
4.1266726944
 30
0.0
 10
5.8247407403
 20
4.1236072889
 30
0.0
 10
5.8247406832
 20
4.1220744846
 30
0.0
  0
SPLINE
  5
27C
100
AcDbEntity
  8
ALL_ASSEMBLY_MEMBERS
100
AcDbSpline
 62
7
  6
CONTINUOUS
 70
0
 71
3
 72
20
 73
16
 74
0
 42
0.0000001
 43
0.0000001
 44
0.0000000001
 40
0.0
 40
0.0
 40
0.0
 40
0.0
 40
0.0192785729
 40
0.042085921
 40
0.0705488728
 40
0.1057052271
 40
0.1479412174
 40
0.1971007866
 40
0.2529101014
 40
0.3150865577
 40
0.383364668
 40
0.4574759565
 40
0.6218178712
 40
0.8045323353
 40
1.0
 40
1.0
 40
1.0
 40
1.0
 10
5.7957718806
 20
4.0307110308
 30
0.0
 10
5.7958566116
 20
4.0307670449
 30
0.0
 10
5.7960735703
 20
4.0308430151
 30
0.0
 10
5.7964500106
 20
4.0308262892
 30
0.0
 10
5.7968909211
 20
4.0307039682
 30
0.0
 10
5.7974025834
 20
4.0304790091
 30
0.0
 10
5.7979855269
 20
4.0301538775
 30
0.0
 10
5.798632717
 20
4.0297253297
 30
0.0
 10
5.7993344514
 20
4.0291923888
 30
0.0
 10
5.8000804184
 20
4.0285539198
 30
0.0
 10
5.8008608852
 20
4.0278100375
 30
0.0
 10
5.8019857337
 20
4.0266492827
 30
0.0
 10
5.8034571231
 20
4.0249871346
 30
0.0
 10
5.8052834587
 20
4.0227878961
 30
0.0
 10
5.8064979608
 20
4.021207378
 30
0.0
 10
5.8071074421
 20
4.0203772402
 30
0.0
  0
SPLINE
  5
27D
100
AcDbEntity
  8
ALL_ASSEMBLY_MEMBERS
100
AcDbSpline
 62
7
  6
CONTINUOUS
 70
0
 71
3
 72
14
 73
10
 74
0
 42
0.0000001
 43
0.0000001
 44
0.0000000001
 40
0.0
 40
0.0
 40
0.0
 40
0.0
 40
0.2572902629
 40
0.3849590649
 40
0.5115934386
 40
0.6368246184
 40
0.7603437021
 40
0.881669625
 40
1.0
 40
1.0
 40
1.0
 40
1.0
 10
5.8071074421
 20
4.0203772402
 30
0.0
 10
5.8061688771
 20
4.0193028919
 30
0.0
 10
5.804678239
 20
4.0177673907
 30
0.0
 10
5.8025374514
 20
4.015904704
 30
0.0
 10
5.8008706401
 20
4.014617896
 30
0.0
 10
5.7991453341
 20
4.0134510269
 30
0.0
 10
5.79736898
 20
4.0124203916
 30
0.0
 10
5.7955584178
 20
4.0115354788
 30
0.0
 10
5.7943260087
 20
4.0110352467
 30
0.0
 10
5.7937096892
 20
4.0108102687
 30
0.0
  0
SPLINE
  5
27E
100
AcDbEntity
  8
ALL_ASSEMBLY_MEMBERS
100
AcDbSpline
 62
7
  6
CONTINUOUS
 70
0
 71
3
 72
17
 73
13
 74
0
 42
0.0000001
 43
0.0000001
 44
0.0000000001
 40
0.0
 40
0.0
 40
0.0
 40
0.0
 40
0.1678778611
 40
0.3283081144
 40
0.4769994758
 40
0.6112695522
 40
0.7294826135
 40
0.7825637424
 40
0.831783763
 40
0.9200249619
 40
0.9606347608
 40
1.0
 40
1.0
 40
1.0
 40
1.0
 10
5.7937096892
 20
4.0108102687
 30
0.0
 10
5.7936206557
 20
4.0119385976
 30
0.0
 10
5.7933571241
 20
4.0141393095
 30
0.0
 10
5.7927035382
 20
4.0172924578
 30
0.0
 10
5.7918098225
 20
4.0201511721
 30
0.0
 10
5.790708462
 20
4.0226288598
 30
0.0
 10
5.7896019891
 20
4.024379619
 30
0.0
 10
5.7886276461
 20
4.0255067003
 30
0.0
 10
5.7876823134
 20
4.0263784394
 30
0.0
 10
5.7866397456
 20
4.0270181786
 30
0.0
 10
5.7855466371
 20
4.0273400651
 30
0.0
 10
5.7850060845
 20
4.0273936243
 30
0.0
 10
5.7847406832
 20
4.0273936222
 30
0.0
  0
SPLINE
  5
27F
100
AcDbEntity
  8
ALL_ASSEMBLY_MEMBERS
100
AcDbSpline
 62
7
  6
CONTINUOUS
 70
0
 71
3
 72
9
 73
5
 74
0
 42
0.0000001
 43
0.0000001
 44
0.0000000001
 40
0.0
 40
0.0
 40
0.0
 40
0.0
 40
0.2346690707
 40
1.0
 40
1.0
 40
1.0
 40
1.0
 10
5.7856633742
 20
4.0073936335
 30
0.0
 10
5.7862760453
 20
4.0076977663
 30
0.0
 10
5.7889062317
 20
4.0089544854
 30
0.0
 10
5.7916115102
 20
4.0100526306
 30
0.0
 10
5.7937096713
 20
4.0108102619
 30
0.0
  0
SPLINE
  5
280
100
AcDbEntity
  8
ALL_ASSEMBLY_MEMBERS
100
AcDbSpline
 62
7
  6
CONTINUOUS
 70
0
 71
3
 72
17
 73
13
 74
0
 42
0.0000001
 43
0.0000001
 44
0.0000000001
 40
0.0
 40
0.0
 40
0.0
 40
0.0
 40
0.1448395821
 40
0.287205435
 40
0.4241815026
 40
0.5540299098
 40
0.6757128856
 40
0.7892895148
 40
0.8436009441
 40
0.8965989709
 40
0.9486129468
 40
1.0
 40
1.0
 40
1.0
 40
1.0
 10
5.7856633388
 20
4.0073936335
 30
0.0
 10
5.7856633367
 20
4.008696299
 30
0.0
 10
5.7854837074
 20
4.0112829226
 30
0.0
 10
5.7846905398
 20
4.015027369
 30
0.0
 10
5.7833964801
 20
4.0184885771
 30
0.0
 10
5.7816483056
 20
4.0215340272
 30
0.0
 10
5.7795106469
 20
4.0240533281
 30
0.0
 10
5.7774247591
 20
4.0256543913
 30
0.0
 10
5.7756494499
 20
4.0265564129
 30
0.0
 10
5.774294883
 20
4.0270367685
 30
0.0
 10
5.7729145799
 20
4.0273278093
 30
0.0
 10
5.7719833706
 20
4.0273936335
 30
0.0
 10
5.7715212032
 20
4.0273936335
 30
0.0
  0
SPLINE
  5
281
100
AcDbEntity
  8
ALL_ASSEMBLY_MEMBERS
100
AcDbSpline
 62
7
  6
CONTINUOUS
 70
0
 71
3
 72
16
 73
12
 74
0
 42
0.0000001
 43
0.0000001
 44
0.0000000001
 40
0.0
 40
0.0
 40
0.0
 40
0.0
 40
0.0295189127
 40
0.0639337647
 40
0.1035148662
 40
0.1482458774
 40
0.252423092
 40
0.37443924
 40
0.5121805651
 40
0.6635544875
 40
1.0
 40
1.0
 40
1.0
 40
1.0
 10
5.4190382769
 20
4.0141175878
 30
0.0
 10
5.4190787906
 20
4.0140041742
 30
0.0
 10
5.4191975798
 20
4.0137696125
 30
0.0
 10
5.4194464965
 20
4.0134272607
 30
0.0
 10
5.4197732715
 20
4.013068664
 30
0.0
 10
5.4203356623
 20
4.0125433509
 30
0.0
 10
5.4212104464
 20
4.0118646116
 30
0.0
 10
5.4224430254
 20
4.0110358559
 30
0.0
 10
5.4238776638
 20
4.0101657956
 30
0.0
 10
5.4261021857
 20
4.0089141958
 30
0.0
 10
5.4278728504
 20
4.0080038386
 30
0.0
 10
5.4291024051
 20
4.0073936335
 30
0.0
  0
SPLINE
  5
282
100
AcDbEntity
  8
ALL_ASSEMBLY_MEMBERS
100
AcDbSpline
 62
7
  6
CONTINUOUS
 70
0
 71
3
 72
14
 73
10
 74
0
 42
0.0000001
 43
0.0000001
 44
0.0000000001
 40
0.0
 40
0.0
 40
0.0
 40
0.0
 40
0.1183285859
 40
0.2396547992
 40
0.3631733771
 40
0.4884061005
 40
0.6150413577
 40
0.742709638
 40
1.0
 40
1.0
 40
1.0
 40
1.0
 10
5.7937096985
 20
4.1619768639
 30
0.0
 10
5.7943265908
 20
4.1617516166
 30
0.0
 10
5.7955601769
 20
4.1612508624
 30
0.0
 10
5.797372486
 20
4.160365062
 30
0.0
 10
5.7991504638
 20
4.1593332103
 30
0.0
 10
5.800877305
 20
4.15816496
 30
0.0
 10
5.8025454489
 20
4.156876487
 30
0.0
 10
5.8046875343
 20
4.1550110494
 30
0.0
 10
5.8061788503
 20
4.1534733342
 30
0.0
 10
5.8071181278
 20
4.1523977587
 30
0.0
  0
SPLINE
  5
283
100
AcDbEntity
  8
ALL_ASSEMBLY_MEMBERS
100
AcDbSpline
 62
7
  6
CONTINUOUS
 70
0
 71
3
 72
19
 73
15
 74
0
 42
0.0000001
 43
0.0000001
 44
0.0000000001
 40
0.0
 40
0.0
 40
0.0
 40
0.0
 40
0.1950771265
 40
0.3774960765
 40
0.541683925
 40
0.6836275686
 40
0.7452070645
 40
0.8001943144
 40
0.8485343155
 40
0.8903508885
 40
0.9260077394
 40
0.9416488992
 40
0.9558840855
 40
1.0
 40
1.0
 40
1.0
 40
1.0
 10
5.8071181278
 20
4.1523977587
 30
0.0
 10
5.8065108323
 20
4.1515666627
 30
0.0
 10
5.8052979756
 20
4.149985613
 30
0.0
 10
5.8034648621
 20
4.1477917162
 30
0.0
 10
5.8017357412
 20
4.1458789065
 30
0.0
 10
5.8003685046
 20
4.1445006454
 30
0.0
 10
5.7993603501
 20
4.1435813698
 30
0.0
 10
5.7986905359
 20
4.1430252458
 30
0.0
 10
5.7980696212
 20
4.142575665
 30
0.0
 10
5.7974957996
 20
4.1422387153
 30
0.0
 10
5.797039483
 20
4.1420513093
 30
0.0
 10
5.7967032065
 20
4.1419652615
 30
0.0
 10
5.7963202192
 20
4.1419068413
 30
0.0
 10
5.7959809996
 20
4.1419379745
 30
0.0
 10
5.7957867768
 20
4.1420662863
 30
0.0
  0
SPLINE
  5
284
100
AcDbEntity
  8
ALL_ASSEMBLY_MEMBERS
100
AcDbSpline
 62
7
  6
CONTINUOUS
 70
0
 71
3
 72
9
 73
5
 74
0
 42
0.0000001
 43
0.0000001
 44
0.0000000001
 40
0.0
 40
0.0
 40
0.0
 40
0.0
 40
0.2654325286
 40
1.0
 40
1.0
 40
1.0
 40
1.0
 10
5.7937097118
 20
4.1619768588
 30
0.0
 10
5.792982009
 20
4.1622396343
 30
0.0
 10
5.7902541774
 20
4.1632670278
 30
0.0
 10
5.7875810944
 20
4.1644415996
 30
0.0
 10
5.7856632449
 20
4.1653936335
 30
0.0
  0
SPLINE
  5
285
100
AcDbEntity
  8
ALL_ASSEMBLY_MEMBERS
100
AcDbSpline
 62
7
  6
CONTINUOUS
 70
0
 71
3
 72
22
 73
18
 74
0
 42
0.0000001
 43
0.0000001
 44
0.0000000001
 40
0.0
 40
0.0
 40
0.0
 40
0.0
 40
0.0544803003
 40
0.1091467509
 40
0.1641839765
 40
0.2197793586
 40
0.2761279454
 40
0.3334202926
 40
0.3918588595
 40
0.4516464219
 40
0.5129835643
 40
0.576080784
 40
0.6411255581
 40
0.7083066965
 40
0.7777486589
 40
0.8495528185
 40
1.0
 40
1.0
 40
1.0
 40
1.0
 10
5.6215247719
 20
3.8713931079
 30
0.0
 10
5.6261595808
 20
3.8713929768
 30
0.0
 10
5.6354491717
 20
3.8717588331
 30
0.0
 10
5.6493332071
 20
3.8734051142
 30
0.0
 10
5.6631392848
 20
3.8761547693
 30
0.0
 10
5.676823395
 20
3.88002261
 30
0.0
 10
5.690341739
 20
3.8850195776
 30
0.0
 10
5.70364392
 20
3.891168437
 30
0.0
 10
5.7166745315
 20
3.89849159
 30
0.0
 10
5.7293720667
 20
3.9070132716
 30
0.0
 10
5.741662583
 20
3.9167644108
 30
0.0
 10
5.753465354
 20
3.9277684989
 30
0.0
 10
5.7646810774
 20
3.9400537323
 30
0.0
 10
5.775198386
 20
3.9536318792
 30
0.0
 10
5.7848874943
 20
3.9685078945
 30
0.0
 10
5.7966824723
 20
3.9903628682
 30
0.0
 10
5.8035185168
 20
4.0081197871
 30
0.0
 10
5.8071142935
 20
4.0204033151
 30
0.0
  0
SPLINE
  5
286
100
AcDbEntity
  8
ALL_ASSEMBLY_MEMBERS
100
AcDbSpline
 62
7
  6
CONTINUOUS
 70
0
 71
3
 72
17
 73
13
 74
0
 42
0.0000001
 43
0.0000001
 44
0.0000000001
 40
0.0
 40
0.0
 40
0.0
 40
0.0
 40
0.1678781104
 40
0.3283084886
 40
0.4769998833
 40
0.6112699192
 40
0.7294828708
 40
0.7825639386
 40
0.8317839107
 40
0.9200250676
 40
0.9606348358
 40
1.0
 40
1.0
 40
1.0
 40
1.0
 10
5.7937097118
 20
4.1619768588
 30
0.0
 10
5.7936206693
 20
4.1608485407
 30
0.0
 10
5.7933571236
 20
4.1586478512
 30
0.0
 10
5.7927035229
 20
4.1554947372
 30
0.0
 10
5.7918097962
 20
4.152636058
 30
0.0
 10
5.7907084297
 20
4.1501584046
 30
0.0
 10
5.7896019568
 20
4.1484076724
 30
0.0
 10
5.7886276167
 20
4.1472806109
 30
0.0
 10
5.7876822879
 20
4.1464088887
 30
0.0
 10
5.7866397265
 20
4.145769165
 30
0.0
 10
5.7855466279
 20
4.1454472901
 30
0.0
 10
5.7850060813
 20
4.1453937352
 30
0.0
 10
5.7847406832
 20
4.1453937392
 30
0.0
  0
SPLINE
  5
287
100
AcDbEntity
  8
ALL_ASSEMBLY_MEMBERS
100
AcDbSpline
 62
7
  6
CONTINUOUS
 70
0
 71
3
 72
17
 73
13
 74
0
 42
0.0000001
 43
0.0000001
 44
0.0000000001
 40
0.0
 40
0.0
 40
0.0
 40
0.0
 40
0.1448395153
 40
0.2872052815
 40
0.4241812672
 40
0.5540296151
 40
0.6757125711
 40
0.7892892394
 40
0.8436007134
 40
0.8965988016
 40
0.9486128547
 40
1.0
 40
1.0
 40
1.0
 40
1.0
 10
5.4291024297
 20
4.0073936335
 30
0.0
 10
5.4291024297
 20
4.0086962988
 30
0.0
 10
5.428922804
 20
4.0112829222
 30
0.0
 10
5.4281296405
 20
4.0150273687
 30
0.0
 10
5.4268355833
 20
4.018488577
 30
0.0
 10
5.4250874096
 20
4.0215340274
 30
0.0
 10
5.4229497498
 20
4.0240533285
 30
0.0
 10
5.4208638599
 20
4.0256543915
 30
0.0
 10
5.4190885484
 20
4.026556413
 30
0.0
 10
5.4177339793
 20
4.0270367685
 30
0.0
 10
5.4163536735
 20
4.0273278093
 30
0.0
 10
5.4154224625
 20
4.0273936335
 30
0.0
 10
5.414960294
 20
4.0273936335
 30
0.0
  0
SPLINE
  5
288
100
AcDbEntity
  8
ALL_ASSEMBLY_MEMBERS
100
AcDbSpline
 62
7
  6
CONTINUOUS
 70
0
 71
3
 72
17
 73
13
 74
0
 42
0.0000001
 43
0.0000001
 44
0.0000000001
 40
0.0
 40
0.0
 40
0.0
 40
0.0
 40
0.1448395152
 40
0.2872052814
 40
0.4241812671
 40
0.554029615
 40
0.675712571
 40
0.7892892393
 40
0.8436007133
 40
0.8965988015
 40
0.9486128547
 40
1.0
 40
1.0
 40
1.0
 40
1.0
 10
5.785663208
 20
4.1653936335
 30
0.0
 10
5.785663208
 20
4.1640909682
 30
0.0
 10
5.7854835824
 20
4.1615043449
 30
0.0
 10
5.7846904189
 20
4.1577598984
 30
0.0
 10
5.7833963617
 20
4.15429869
 30
0.0
 10
5.781648188
 20
4.1512532397
 30
0.0
 10
5.7795105282
 20
4.1487339386
 30
0.0
 10
5.7774246383
 20
4.1471328756
 30
0.0
 10
5.7756493268
 20
4.1462308541
 30
0.0
 10
5.7742947576
 20
4.1457504986
 30
0.0
 10
5.7729144519
 20
4.1454594578
 30
0.0
 10
5.7719832408
 20
4.1453936335
 30
0.0
 10
5.7715210724
 20
4.1453936335
 30
0.0
  0
SPLINE
  5
289
100
AcDbEntity
  8
ALL_ASSEMBLY_MEMBERS
100
AcDbSpline
 62
7
  6
CONTINUOUS
 70
0
 71
3
 72
16
 73
12
 74
0
 42
0.0000001
 43
0.0000001
 44
0.0000000001
 40
0.0
 40
0.0
 40
0.0
 40
0.0
 40
0.3364289885
 40
0.4878021146
 40
0.6255404272
 40
0.7475619024
 40
0.8517439214
 40
0.8964769936
 40
0.9360613909
 40
0.9704790603
 40
1.0
 40
1.0
 40
1.0
 40
1.0
 10
5.429102244
 20
4.1653936335
 30
0.0
 10
5.4278727694
 20
4.1647835558
 30
0.0
 10
5.4261022648
 20
4.1638732319
 30
0.0
 10
5.4238779278
 20
4.1626217037
 30
0.0
 10
5.422443387
 20
4.1617516144
 30
0.0
 10
5.4212108481
 20
4.1609228673
 30
0.0
 10
5.4203360587
 20
4.1602441342
 30
0.0
 10
5.4197736552
 20
4.1597188247
 30
0.0
 10
5.4194468507
 20
4.1593602399
 30
0.0
 10
5.4191978921
 20
4.1590179014
 30
0.0
 10
5.4190790654
 20
4.1587833507
 30
0.0
 10
5.4190385306
 20
4.1586699416
 30
0.0
  0
SPLINE
  5
28A
100
AcDbEntity
  8
ALL_ASSEMBLY_MEMBERS
100
AcDbSpline
 62
7
  6
CONTINUOUS
 70
0
 71
3
 72
17
 73
13
 74
0
 42
0.0000001
 43
0.0000001
 44
0.0000000001
 40
0.0
 40
0.0
 40
0.0
 40
0.0
 40
0.1448393673
 40
0.2872049524
 40
0.4241807482
 40
0.5540289474
 40
0.6757118507
 40
0.7892886001
 40
0.8436001727
 40
0.8965984003
 40
0.9486126343
 40
1.0
 40
1.0
 40
1.0
 40
1.0
 10
5.4291022989
 20
4.1653936335
 30
0.0
 10
5.4291023039
 20
4.1640909685
 30
0.0
 10
5.4289226871
 20
4.1615043452
 30
0.0
 10
5.4281295333
 20
4.157759898
 30
0.0
 10
5.426835482
 20
4.154298689
 30
0.0
 10
5.42508731
 20
4.1512532383
 30
0.0
 10
5.4229496475
 20
4.148733937
 30
0.0
 10
5.4208637527
 20
4.1471328748
 30
0.0
 10
5.4190884358
 20
4.1462308538
 30
0.0
 10
5.4177338614
 20
4.1457504984
 30
0.0
 10
5.4163535495
 20
4.1454594577
 30
0.0
 10
5.415422334
 20
4.1453936335
 30
0.0
 10
5.4149601633
 20
4.1453936335
 30
0.0
  0
SPLINE
  5
28B
100
AcDbEntity
  8
ALL_ASSEMBLY_MEMBERS
100
AcDbSpline
 62
7
  6
CONTINUOUS
 70
0
 71
3
 72
22
 73
18
 74
0
 42
0.0000001
 43
0.0000001
 44
0.0000000001
 40
0.0
 40
0.0
 40
0.0
 40
0.0
 40
0.1504408084
 40
0.2222429317
 40
0.2916833491
 40
0.3588633351
 40
0.423907578
 40
0.4870048884
 40
0.5483426506
 40
0.6081312449
 40
0.6665711522
 40
0.7238649857
 40
0.7802151617
 40
0.8358121238
 40
0.8908508272
 40
0.9455186135
 40
1.0
 40
1.0
 40
1.0
 40
1.0
 10
5.8071008935
 20
4.1524222316
 30
0.0
 10
5.8035063235
 20
4.1647022374
 30
0.0
 10
5.7966690357
 20
4.1824530444
 30
0.0
 10
5.7848747931
 20
4.2043003638
 30
0.0
 10
5.7751868343
 20
4.2191713872
 30
0.0
 10
5.7646712693
 20
4.2327451291
 30
0.0
 10
5.7534576759
 20
4.2450265235
 30
0.0
 10
5.741657342
 20
4.2560273624
 30
0.0
 10
5.7293695061
 20
4.2657758406
 30
0.0
 10
5.7166748436
 20
4.2742954349
 30
0.0
 10
5.7036472538
 20
4.2816170461
 30
0.0
 10
5.6903482184
 20
4.2877649195
 30
0.0
 10
5.6768330936
 20
4.292761401
 30
0.0
 10
5.6631522601
 20
4.2966292831
 30
0.0
 10
5.6493494805
 20
4.2993794897
 30
0.0
 10
5.6354687338
 20
4.3010267951
 30
0.0
 10
5.6261812927
 20
4.3013936918
 30
0.0
 10
5.621547542
 20
4.3013941603
 30
0.0
  0
SPLINE
  5
28C
100
AcDbEntity
  8
ALL_ASSEMBLY_MEMBERS
100
AcDbSpline
 62
7
  6
CONTINUOUS
 70
0
 71
3
 72
22
 73
18
 74
0
 42
0.0000001
 43
0.0000001
 44
0.0000000001
 40
0.0
 40
0.0
 40
0.0
 40
0.0
 40
0.0079150587
 40
0.0164830056
 40
0.0262003249
 40
0.0374008452
 40
0.0649787674
 40
0.1001340014
 40
0.1430204261
 40
0.1934861412
 40
0.2512602634
 40
0.3158883648
 40
0.3867838179
 40
0.4633367706
 40
0.6306772061
 40
0.8120056754
 40
1.0
 40
1.0
 40
1.0
 40
1.0
 10
5.8047406832
 20
4.0473936335
 30
0.0
 10
5.8047406832
 20
4.0474483535
 30
0.0
 10
5.804758584
 20
4.0475628702
 30
0.0
 10
5.8048355911
 20
4.0477287701
 30
0.0
 10
5.804960161
 20
4.0478916804
 30
0.0
 10
5.8052056662
 20
4.048121617
 30
0.0
 10
5.8056414939
 20
4.0483957115
 30
0.0
 10
5.8063084457
 20
4.0486952319
 30
0.0
 10
5.8071497649
 20
4.0489838302
 30
0.0
 10
5.8081582355
 20
4.0492586901
 30
0.0
 10
5.8093255989
 20
4.0495164843
 30
0.0
 10
5.8106407803
 20
4.049754761
 30
0.0
 10
5.8120910727
 20
4.0499713241
 30
0.0
 10
5.8142514594
 20
4.0502353667
 30
0.0
 10
5.81718119
 20
4.05048904
 30
0.0
 10
5.8208875179
 20
4.0506715179
 30
0.0
 10
5.8234410044
 20
4.0507127822
 30
0.0
 10
5.8247406832
 20
4.0507127825
 30
0.0
  0
SPLINE
  5
28D
100
AcDbEntity
  8
ALL_ASSEMBLY_MEMBERS
100
AcDbSpline
 62
7
  6
CONTINUOUS
 70
0
 71
3
 72
14
 73
10
 74
0
 42
0.0000001
 43
0.0000001
 44
0.0000000001
 40
0.0
 40
0.0
 40
0.0
 40
0.0
 40
0.1255031802
 40
0.2506455267
 40
0.3754502618
 40
0.5001051725
 40
0.6247595293
 40
0.7496065013
 40
1.0
 40
1.0
 40
1.0
 40
1.0
 10
5.8247406832
 20
4.0507127825
 30
0.0
 10
5.8247406912
 20
4.0491815987
 30
0.0
 10
5.8245298059
 20
4.0461195212
 30
0.0
 10
5.8235936203
 20
4.0416219424
 30
0.0
 10
5.8220658686
 20
4.037299936
 30
0.0
 10
5.819987777
 20
4.0332221468
 30
0.0
 10
5.817410628
 20
4.0294390676
 30
0.0
 10
5.8133692467
 20
4.0248552073
 30
0.0
 10
5.8097139481
 20
4.0220077314
 30
0.0
 10
5.8071142935
 20
4.0204033151
 30
0.0
  0
ENDSEC
  0
SECTION
  2
OBJECTS
  0
DICTIONARY
  5
C
100
AcDbDictionary
280
0
281
1
  3
ACAD_GROUP
350
D
  3
ACAD_MLINESTYLE
350
17
  3
ACAD_LAYOUT
350
1A
  3
ACAD_PLOTSETTINGS
350
19
  3
ACAD_PLOTSTYLENAME
350
E
  0
DICTIONARY
  5
D
102
{ACAD_REACTORS
330
C
102
}
100
AcDbDictionary
280
0
281
1
  0
ACDBDICTIONARYWDFLT
  5
E
102
{ACAD_REACTORS
330
C
102
}
100
AcDbDictionary
281
1
  3
Normal
350
F
100
AcDbDictionaryWithDefault
340
F
  0
DICTIONARY
  5
17
102
{ACAD_REACTORS
330
C
102
}
100
AcDbDictionary
280
0
281
1
  3
Standard
350
18
  0
DICTIONARY
  5
19
102
{ACAD_REACTORS
330
C
102
}
100
AcDbDictionary
281
1
  0
DICTIONARY
  5
1A
102
{ACAD_REACTORS
330
C
102
}
100
AcDbDictionary
281
1
  3
Model
350
28E
  3
Layout1
350
28F
  0
ACDBPLACEHOLDER
  5
F
102
{ACAD_REACTORS
330
E
102
}
  0
MLINESTYLE
  5
18
102
{ACAD_REACTORS
330
17
102
}
100
AcDbMlineStyle
  2
STANDARD
 70
0
  3

 62
256
 51
90.0
 52
90.0
 71
2
 49
0.5
 62
256
  6
BYLAYER
 49
-0.5
 62
256
  6
BYLAYER
  0
LAYOUT
  5
28E
102
{ACAD_REACTORS
330
1A
102
}
100
AcDbPlotSettings
  1

  2
none_device
  4
ANSI_A_(11.00_x_8.50_Inches)
  6

 40
0.0
 41
0.0
 42
0.0
 43
0.0
 44
279.4
 45
215.9
 46
0.0
 47
0.0
 48
0.0
 49
0.0
140
0.0
141
0.0
142
1.0
143
1.0
 70
1024
 72
0
 73
0
 74
0
  7

 75
0
147
1.0
148
0.0
149
0.0
100
AcDbLayout
  1
Model
 70
0
 71
0
 10
0.0
 20
0.0
 11
11.0
 21
8.5
 12
0.0
 22
0.0
 32
0.0
 14
0.0
 24
0.0
 34
0.0
 15
0.0
 25
0.0
 35
0.0
146
0.0
 13
0.0
 23
0.0
 33
0.0
 16
1.0
 26
0.0
 36
0.0
 17
0.0
 27
1.0
 37
0.0
 76
0
330
22F
345
0
346
0
  0
LAYOUT
  5
28F
102
{ACAD_REACTORS
330
1A
102
}
100
AcDbPlotSettings
  1

  2
none_device
  4
ANSI_A_(11.00_x_8.50_Inches)
  6

 40
0.0
 41
0.0
 42
0.0
 43
0.0
 44
279.4
 45
215.9
 46
0.0
 47
0.0
 48
0.0
 49
0.0
140
0.0
141
0.0
142
1.0
143
1.0
 70
0
 72
0
 73
0
 74
0
  7

 75
0
147
1.0
148
0.0
149
0.0
100
AcDbLayout
  1
Layout1
 70
0
 71
1
 10
0.0
 20
0.0
 11
11.0
 21
8.5
 12
0.0
 22
0.0
 32
0.0
 14
0.0
 24
0.0
 34
0.0
 15
0.0
 25
0.0
 35
0.0
146
0.0
 13
0.0
 23
0.0
 33
0.0
 16
1.0
 26
0.0
 36
0.0
 17
0.0
 27
1.0
 37
0.0
 76
0
330
230
345
0
346
0
  0
ENDSEC
  0
EOF
