999
DXF file: 3-2481_TOP.dxf
999
Pro/ENGINEER 2018400 by Parametric Technology Corporation
  0
SECTION
  2
HEADER
  9
$ACADVER
  1
AC1027
  9
$DWGCODEPAGE
  3
ANSI_1252
  9
$EXTMAX
 10
11.0
 20
8.5
 30
0.0
  9
$EXTMIN
 10
0.0
 20
0.0
 30
0.0
  9
$LIMMIN
 10
0.0
 20
0.0
  9
$LIMMAX
 10
11.0
 20
8.5
  9
$VIEWCTR
 10
5.5
 20
4.25
  9
$VIEWSIZE
 40
8.5
  9
$CLAYER
  8
0
  9
$LTSCALE
 40
0.605
  9
$CELTYPE
  6
BYLAYER
  9
$DIMSCALE
 40
1.0
  9
$DIMASZ
 40
0.1
  9
$DIMEXO
 40
0.0625
  9
$DIMDLI
 40
0.418
  9
$DIMEXE
 40
0.125
  9
$DIMCEN
 40
0.099
  9
$DIMLFAC
 40
1.0
  9
$DIMBLK
  1
_FILLED
  9
$DIMALT
 70
1
  9
$DIMALTD
 70
2
  9
$DIMALTTD
 70
2
  9
$DIMALTF
 40
25.4
  9
$DIMTXT
 40
0.08
  9
$DIMTOL
 70
1
  9
$DIMLIM
 70
0
  9
$DIMTFAC
 40
1.0
  9
$DIMTP
 40
0.001
  9
$DIMTM
 40
0.001
  9
$DIMGAP
 40
0.09
  9
$DIMDSEP
 70
46
  9
$AUNITS
 70
0
  9
$PDMODE
 70
3
  9
$PDSIZE
 40
0.3125
  9
$HANDSEED
  5
2F4
  9
$TILEMODE
 70
1
  9
$MEASUREMENT
 70
0
  9
$INSUNITS
 70
1
  0
ENDSEC
  0
SECTION
  2
CLASSES
  0
CLASS
  1
ACDBDICTIONARYWDFLT
  2
AcDbDictionaryWithDefault
  3
AutoCAD 2000
 90
0
 91
1
280
0
281
0
  0
CLASS
  1
ACDBPLACEHOLDER
  2
AcDbPlaceHolder
  3
AutoCAD 2000
 90
0
 91
1
280
0
281
0
  0
CLASS
  1
LAYOUT
  2
AcDbLayout
  3
AutoCAD 2000
 90
0
 91
0
280
0
281
0
  0
ENDSEC
  0
SECTION
  2
TABLES
  0
TABLE
  2
VPORT
  5
8
100
AcDbSymbolTable
 70
2
  0
VPORT
  5
1F4
100
AcDbSymbolTableRecord
100
AcDbViewportTableRecord
  2
*ACTIVE
 70
0
 10
0.0
 20
0.0
 11
1.0
 21
1.0
 12
5.5
 22
4.25
 13
0.0
 23
0.0
 14
1.0
 24
1.0
 15
0.0
 25
0.0
 16
0.0
 26
0.0
 36
1.0
 17
0.0
 27
0.0
 37
0.0
 40
8.5
 41
1.2941176471
 42
50.0
 43
0.0
 44
0.0
 50
0.0
 51
0.0
 71
0
 72
100
 73
1
 74
1
 75
0
 76
0
 77
0
 78
0
  0
ENDTAB
  0
TABLE
  2
LTYPE
  5
5
100
AcDbSymbolTable
 70
6
  0
LTYPE
  5
14
100
AcDbSymbolTableRecord
100
AcDbLinetypeTableRecord
  2
BYBLOCK
 70
0
  3

 72
65
 73
0
 40
0.0
  0
LTYPE
  5
15
100
AcDbSymbolTableRecord
100
AcDbLinetypeTableRecord
  2
BYLAYER
 70
0
  3

 72
65
 73
0
 40
0.0
  0
LTYPE
  5
16
100
AcDbSymbolTableRecord
100
AcDbLinetypeTableRecord
  2
CONTINUOUS
 70
64
  3
Solid line
 72
65
 73
0
 40
0.0
  0
LTYPE
  5
1F5
100
AcDbSymbolTableRecord
100
AcDbLinetypeTableRecord
  2
CENTER
 70
64
  3
____ _ ____ _ ____ _ ____ _ ____ _ ____ _ ____
 72
65
 73
4
 40
0.6
 49
0.375
 74
0
 49
-0.075
 74
0
 49
0.075
 74
0
 49
-0.075
 74
0
  0
LTYPE
  5
1F6
100
AcDbSymbolTableRecord
100
AcDbLinetypeTableRecord
  2
HIDDEN
 70
64
  3
- - - - - - - - - - - - - - - - - - - -
 72
65
 73
2
 40
0.2
 49
0.1
 74
0
 49
-0.1
 74
0
  0
LTYPE
  5
1F7
100
AcDbSymbolTableRecord
100
AcDbLinetypeTableRecord
  2
PHANTOM
 70
64
  3
_____ _ _ _____ _ _ _____ _ _ _____
 72
65
 73
6
 40
0.8
 49
0.45
 74
0
 49
-0.05
 74
0
 49
0.1
 74
0
 49
-0.05
 74
0
 49
0.1
 74
0
 49
-0.05
 74
0
  0
LTYPE
  5
1F8
100
AcDbSymbolTableRecord
100
AcDbLinetypeTableRecord
  2
DOT
 70
64
  3
. . . . . . . . . . . . . . . . . . . .
 72
65
 73
2
 40
0.2
 49
0.1
 74
0
 49
-0.1
 74
0
  0
LTYPE
  5
1F9
100
AcDbSymbolTableRecord
100
AcDbLinetypeTableRecord
  2
DASHED
 70
64
  3
- - - - - - - - - - - - - - - - - - - -
 72
65
 73
2
 40
0.2
 49
0.1
 74
0
 49
-0.1
 74
0
  0
ENDTAB
  0
TABLE
  2
LAYER
  5
2
100
AcDbSymbolTable
 70
36
  0
LAYER
  5
10
100
AcDbSymbolTableRecord
100
AcDbLayerTableRecord
  2
0
 70
0
 62
7
  6
CONTINUOUS
370
-3
390
F
  0
LAYER
  5
1FA
100
AcDbSymbolTableRecord
100
AcDbLayerTableRecord
  2
DEFAULT_1
 70
0
 62
7
  6
CENTER
370
-3
390
F
  0
LAYER
  5
1FB
100
AcDbSymbolTableRecord
100
AcDbLayerTableRecord
  2
DEFAULT_2
 70
0
 62
8
  6
HIDDEN
370
-3
390
F
  0
LAYER
  5
1FC
100
AcDbSymbolTableRecord
100
AcDbLayerTableRecord
  2
DEFAULT_3
 70
0
 62
7
  6
PHANTOM
370
-3
390
F
  0
LAYER
  5
1FD
100
AcDbSymbolTableRecord
100
AcDbLayerTableRecord
  2
01_ALL_DTM_PLN
 70
0
 62
7
  6
CONTINUOUS
370
-3
390
F
  0
LAYER
  5
1FE
100
AcDbSymbolTableRecord
100
AcDbLayerTableRecord
  2
01__ASM_ALL_DTM_PLN
 70
0
 62
7
  6
CONTINUOUS
370
-3
390
F
  0
LAYER
  5
1FF
100
AcDbSymbolTableRecord
100
AcDbLayerTableRecord
  2
01__ASM_DEF_DTM_PLN
 70
0
 62
7
  6
CONTINUOUS
370
-3
390
F
  0
LAYER
  5
200
100
AcDbSymbolTableRecord
100
AcDbLayerTableRecord
  2
01___PRT_ALL_DTM_PLN
 70
0
 62
7
  6
CONTINUOUS
370
-3
390
F
  0
LAYER
  5
201
100
AcDbSymbolTableRecord
100
AcDbLayerTableRecord
  2
01___PRT_DEF_DTM_PLN
 70
0
 62
7
  6
CONTINUOUS
370
-3
390
F
  0
LAYER
  5
202
100
AcDbSymbolTableRecord
100
AcDbLayerTableRecord
  2
02_ALL_AXES
 70
0
 62
7
  6
CONTINUOUS
370
-3
390
F
  0
LAYER
  5
203
100
AcDbSymbolTableRecord
100
AcDbLayerTableRecord
  2
02__ASM_ALL_AXES
 70
0
 62
7
  6
CONTINUOUS
370
-3
390
F
  0
LAYER
  5
204
100
AcDbSymbolTableRecord
100
AcDbLayerTableRecord
  2
02___PRT_ALL_AXES
 70
0
 62
7
  6
CONTINUOUS
370
-3
390
F
  0
LAYER
  5
205
100
AcDbSymbolTableRecord
100
AcDbLayerTableRecord
  2
03_ALL_CURVES
 70
0
 62
7
  6
CONTINUOUS
370
-3
390
F
  0
LAYER
  5
206
100
AcDbSymbolTableRecord
100
AcDbLayerTableRecord
  2
03__ASM_ALL_CURVES
 70
0
 62
7
  6
CONTINUOUS
370
-3
390
F
  0
LAYER
  5
207
100
AcDbSymbolTableRecord
100
AcDbLayerTableRecord
  2
03___PRT_ALL_CURVES
 70
0
 62
7
  6
CONTINUOUS
370
-3
390
F
  0
LAYER
  5
208
100
AcDbSymbolTableRecord
100
AcDbLayerTableRecord
  2
04_ALL_DTM_PNT
 70
0
 62
7
  6
CONTINUOUS
370
-3
390
F
  0
LAYER
  5
209
100
AcDbSymbolTableRecord
100
AcDbLayerTableRecord
  2
04__ASM_ALL_DTM_PNT
 70
0
 62
7
  6
CONTINUOUS
370
-3
390
F
  0
LAYER
  5
20A
100
AcDbSymbolTableRecord
100
AcDbLayerTableRecord
  2
04___PRT_ALL_DTM_PNT
 70
0
 62
7
  6
CONTINUOUS
370
-3
390
F
  0
LAYER
  5
20B
100
AcDbSymbolTableRecord
100
AcDbLayerTableRecord
  2
05_ALL_DTM_CSYS
 70
0
 62
7
  6
CONTINUOUS
370
-3
390
F
  0
LAYER
  5
20C
100
AcDbSymbolTableRecord
100
AcDbLayerTableRecord
  2
05__ASM_ALL_DTM_CSYS
 70
0
 62
7
  6
CONTINUOUS
370
-3
390
F
  0
LAYER
  5
20D
100
AcDbSymbolTableRecord
100
AcDbLayerTableRecord
  2
05__ASM_DEF_DTM_CSYS
 70
0
 62
7
  6
CONTINUOUS
370
-3
390
F
  0
LAYER
  5
20E
100
AcDbSymbolTableRecord
100
AcDbLayerTableRecord
  2
05___PRT_ALL_DTM_CSYS
 70
0
 62
7
  6
CONTINUOUS
370
-3
390
F
  0
LAYER
  5
20F
100
AcDbSymbolTableRecord
100
AcDbLayerTableRecord
  2
05___PRT_DEF_DTM_CSYS
 70
0
 62
7
  6
CONTINUOUS
370
-3
390
F
  0
LAYER
  5
210
100
AcDbSymbolTableRecord
100
AcDbLayerTableRecord
  2
06_ALL_SURFS
 70
0
 62
7
  6
CONTINUOUS
370
-3
390
F
  0
LAYER
  5
211
100
AcDbSymbolTableRecord
100
AcDbLayerTableRecord
  2
06__ASM_ALL_SURFS
 70
0
 62
7
  6
CONTINUOUS
370
-3
390
F
  0
LAYER
  5
212
100
AcDbSymbolTableRecord
100
AcDbLayerTableRecord
  2
06___PRT_ALL_SURFS
 70
0
 62
7
  6
CONTINUOUS
370
-3
390
F
  0
LAYER
  5
213
100
AcDbSymbolTableRecord
100
AcDbLayerTableRecord
  2
07__ASM_ALL_SKELETONS
 70
0
 62
7
  6
CONTINUOUS
370
-3
390
F
  0
LAYER
  5
214
100
AcDbSymbolTableRecord
100
AcDbLayerTableRecord
  2
ALL_ASSEMBLY_MEMBERS
 70
0
 62
7
  6
CONTINUOUS
370
-3
390
F
  0
LAYER
  5
215
100
AcDbSymbolTableRecord
100
AcDbLayerTableRecord
  2
ALL_FEATURES
 70
0
 62
7
  6
CONTINUOUS
370
-3
390
F
  0
LAYER
  5
216
100
AcDbSymbolTableRecord
100
AcDbLayerTableRecord
  2
AXES_FEATURES
 70
0
 62
7
  6
CONTINUOUS
370
-3
390
F
  0
LAYER
  5
217
100
AcDbSymbolTableRecord
100
AcDbLayerTableRecord
  2
CHAMFER_FEATURES
 70
0
 62
7
  6
CONTINUOUS
370
-3
390
F
  0
LAYER
  5
218
100
AcDbSymbolTableRecord
100
AcDbLayerTableRecord
  2
COSMETIC_SKETCHES
 70
0
 62
7
  6
CONTINUOUS
370
-3
390
F
  0
LAYER
  5
219
100
AcDbSymbolTableRecord
100
AcDbLayerTableRecord
  2
CUT_FEATURES
 70
0
 62
7
  6
CONTINUOUS
370
-3
390
F
  0
LAYER
  5
21A
100
AcDbSymbolTableRecord
100
AcDbLayerTableRecord
  2
DATUM_CURVES
 70
0
 62
7
  6
CONTINUOUS
370
-3
390
F
  0
LAYER
  5
21B
100
AcDbSymbolTableRecord
100
AcDbLayerTableRecord
  2
DATUM_PLANES
 70
0
 62
7
  6
CONTINUOUS
370
-3
390
F
  0
LAYER
  5
21C
100
AcDbSymbolTableRecord
100
AcDbLayerTableRecord
  2
DEFAULT_COORDINATE_SYSTEM
 70
0
 62
7
  6
CONTINUOUS
370
-3
390
F
  0
LAYER
  5
21D
100
AcDbSymbolTableRecord
100
AcDbLayerTableRecord
  2
DEFAULT_DATUM_AXES
 70
0
 62
7
  6
CONTINUOUS
370
-3
390
F
  0
LAYER
  5
21E
100
AcDbSymbolTableRecord
100
AcDbLayerTableRecord
  2
DEFAULT_DATUM_CURVES
 70
0
 62
7
  6
CONTINUOUS
370
-3
390
F
  0
LAYER
  5
21F
100
AcDbSymbolTableRecord
100
AcDbLayerTableRecord
  2
DEFAULT_DATUM_PLANES
 70
0
 62
7
  6
CONTINUOUS
370
-3
390
F
  0
LAYER
  5
220
100
AcDbSymbolTableRecord
100
AcDbLayerTableRecord
  2
DEFAULT_SURFACES
 70
0
 62
7
  6
CONTINUOUS
370
-3
390
F
  0
LAYER
  5
221
100
AcDbSymbolTableRecord
100
AcDbLayerTableRecord
  2
DIMENSIONS
 70
0
 62
7
  6
CONTINUOUS
370
-3
390
F
  0
LAYER
  5
222
100
AcDbSymbolTableRecord
100
AcDbLayerTableRecord
  2
HOLE_FEATURES
 70
0
 62
7
  6
CONTINUOUS
370
-3
390
F
  0
LAYER
  5
223
100
AcDbSymbolTableRecord
100
AcDbLayerTableRecord
  2
NONE
 70
0
 62
7
  6
CONTINUOUS
370
-3
390
F
  0
LAYER
  5
224
100
AcDbSymbolTableRecord
100
AcDbLayerTableRecord
  2
PART_REFERENCE_DIMENSIONS
 70
0
 62
7
  6
CONTINUOUS
370
-3
390
F
  0
LAYER
  5
225
100
AcDbSymbolTableRecord
100
AcDbLayerTableRecord
  2
PLATED_SURFACE_AREA
 70
0
 62
7
  6
CONTINUOUS
370
-3
390
F
  0
LAYER
  5
226
100
AcDbSymbolTableRecord
100
AcDbLayerTableRecord
  2
PROTRUSION_FEATURES
 70
0
 62
7
  6
CONTINUOUS
370
-3
390
F
  0
LAYER
  5
227
100
AcDbSymbolTableRecord
100
AcDbLayerTableRecord
  2
QUILTS
 70
0
 62
7
  6
CONTINUOUS
370
-3
390
F
  0
LAYER
  5
228
100
AcDbSymbolTableRecord
100
AcDbLayerTableRecord
  2
REFERENCE_DIMENSIONS
 70
0
 62
7
  6
CONTINUOUS
370
-3
390
F
  0
LAYER
  5
229
100
AcDbSymbolTableRecord
100
AcDbLayerTableRecord
  2
ROUND_FEATURES
 70
0
 62
7
  6
CONTINUOUS
370
-3
390
F
  0
LAYER
  5
22A
100
AcDbSymbolTableRecord
100
AcDbLayerTableRecord
  2
WETTED_SURFACES
 70
0
 62
7
  6
CONTINUOUS
370
-3
390
F
  0
LAYER
  5
22B
100
AcDbSymbolTableRecord
100
AcDbLayerTableRecord
  2
WETTED_SURFACE_AREA
 70
0
 62
7
  6
CONTINUOUS
370
-3
390
F
  0
LAYER
  5
22C
100
AcDbSymbolTableRecord
100
AcDbLayerTableRecord
  2
XSEC_DATUMS
 70
0
 62
7
  6
CONTINUOUS
370
-3
390
F
  0
ENDTAB
  0
TABLE
  2
STYLE
  5
3
100
AcDbSymbolTable
 70
1
  0
STYLE
  5
11
100
AcDbSymbolTableRecord
100
AcDbTextStyleTableRecord
  2
STANDARD
 70
0
 40
0.0
 41
0.8
 50
0.0
 71
0
 42
0.2
  3
txt
  4

  0
STYLE
  5
22D
100
AcDbSymbolTableRecord
100
AcDbTextStyleTableRecord
  2
TEXTSTYLE_1
 70
0
 40
0.0
 41
0.8
 50
0.0
 71
0
 42
0.2
  3
gdt
  4

  0
ENDTAB
  0
TABLE
  2
VIEW
  5
6
100
AcDbSymbolTable
 70
0
  0
ENDTAB
  0
TABLE
  2
UCS
  5
7
100
AcDbSymbolTable
 70
0
  0
ENDTAB
  0
TABLE
  2
APPID
  5
9
100
AcDbSymbolTable
 70
1
  0
APPID
  5
22E
100
AcDbSymbolTableRecord
100
AcDbRegAppTableRecord
  2
ACAD
 70
0
  0
ENDTAB
  0
TABLE
  2
BLOCK_RECORD
  5
1
100
AcDbSymbolTable
 70
0
  0
BLOCK_RECORD
  5
22F
100
AcDbSymbolTableRecord
100
AcDbBlockTableRecord
  2
*Model_Space
  0
BLOCK_RECORD
  5
230
100
AcDbSymbolTableRecord
100
AcDbBlockTableRecord
  2
*Paper_Space
  0
BLOCK_RECORD
  5
231
100
AcDbSymbolTableRecord
100
AcDbBlockTableRecord
  2
_FILLED
  0
ENDTAB
  0
TABLE
  2
DIMSTYLE
  5
A
100
AcDbSymbolTable
 70
1
100
AcDbDimStyleTable
 71
0
  0
DIMSTYLE
105
232
100
AcDbSymbolTableRecord
100
AcDbDimStyleTableRecord
  2
STANDARD
 70
0
  3

  4

 40
1.0
 41
0.1
 42
0.0625
 43
0.38
 44
0.125
 45
0.0
 46
0.0
 47
0.001
 48
0.001
140
0.08
141
0.09
142
0.0
143
25.4
144
1.0
145
0.0
146
1.0
147
0.09
 71
1.0
 72
0.0
 73
1
 74
1
 75
0
 76
0
 77
0
 78
4
 79
1
170
1
171
2
172
0
173
0
174
0
175
0
176
0
177
0
178
0
270
2
179
3
271
3
272
3
273
2
274
2
275
0
280
0
281
0
282
0
283
1
284
4
285
0
286
0
287
3
288
0
340
11
278
46
341
231
342
231
343
231
344
231
  0
ENDTAB
  0
ENDSEC
  0
SECTION
  2
BLOCKS
  0
BLOCK
  5
20
100
AcDbEntity
  8
0
100
AcDbBlockBegin
  2
*Model_Space
 70
0
 10
0.0
 20
0.0
 30
0.0
  3
*Model_Space
  1

  0
ENDBLK
  5
21
100
AcDbEntity
  8
0
100
AcDbBlockEnd
  0
BLOCK
  5
1C
100
AcDbEntity
  8
0
100
AcDbBlockBegin
  2
*Paper_Space
 70
0
 10
0.0
 20
0.0
 30
0.0
  3
*Paper_Space
  1

  0
ENDBLK
  5
1D
100
AcDbEntity
  8
0
100
AcDbBlockEnd
  0
BLOCK
  5
233
100
AcDbEntity
  8
0
100
AcDbBlockBegin
  2
_FILLED
 70
64
 10
0.0
 20
0.0
  3
_FILLED
  1

  0
SOLID
  5
234
100
AcDbEntity
  8
0
  6
BYBLOCK
 62
0
100
AcDbTrace
 10
0.0
 20
0.0
 11
-1.0
 21
0.2
 12
-1.0
 22
-0.2
 13
-1.0
 23
-0.2
  0
ENDBLK
  5
235
100
AcDbEntity
  8
0
  6
BYBLOCK
 62
0
100
AcDbBlockEnd
  0
ENDSEC
  0
SECTION
  2
ENTITIES
  0
MTEXT
  5
236
100
AcDbEntity
  8
0
100
AcDbMText
 62
2
  6
CONTINUOUS
  7
STANDARD
 71
3
 72
1
 10
3.9792585404
 20
1.0544720497
 30
0.0
 11
1.0
 21
0.0
 31
0.0
 73
2
 44
0.9
  1
SCALE  .500
 40
0.08
 41
0.704
  0
LINE
  5
237
100
AcDbEntity
  8
0
100
AcDbLine
 62
7
  6
CONTINUOUS
 10
0.0
 20
0.0
 11
0.0
 21
8.5
  0
LINE
  5
238
100
AcDbEntity
  8
0
100
AcDbLine
 62
7
  6
CONTINUOUS
 10
0.0
 20
0.0
 11
11.0
 21
0.0
  0
LINE
  5
239
100
AcDbEntity
  8
0
100
AcDbLine
 62
7
  6
CONTINUOUS
 10
0.0
 20
8.5
 11
11.0
 21
8.5
  0
LINE
  5
23A
100
AcDbEntity
  8
0
100
AcDbLine
 62
7
  6
CONTINUOUS
 10
11.0
 20
0.0
 11
11.0
 21
8.5
  0
LINE
  5
23B
100
AcDbEntity
  8
ALL_ASSEMBLY_MEMBERS
100
AcDbLine
 62
7
  6
CONTINUOUS
 10
2.0036117462
 20
3.8982686335
 11
2.0036117462
 21
4.3502686335
  0
LINE
  5
23C
100
AcDbEntity
  8
ALL_ASSEMBLY_MEMBERS
100
AcDbLine
 62
7
  6
CONTINUOUS
 10
2.0236117462
 20
3.8782686335
 11
2.0236117462
 21
4.3702686335
  0
LINE
  5
23D
100
AcDbEntity
  8
0
100
AcDbLine
 62
7
  6
CONTINUOUS
 10
2.8211117462
 20
5.6032686335
 11
2.8211117462
 21
5.4882686335
  0
LINE
  5
23E
100
AcDbEntity
  8
ALL_ASSEMBLY_MEMBERS
100
AcDbLine
 62
7
  6
CONTINUOUS
 10
3.1136117462
 20
5.2872686335
 11
3.1136476468
 21
5.2867704248
  0
LINE
  5
23F
100
AcDbEntity
  8
ALL_ASSEMBLY_MEMBERS
100
AcDbLine
 62
7
  6
CONTINUOUS
 10
3.1136117462
 20
5.2872686335
 11
3.1136475464
 21
5.2867719442
  0
LINE
  5
240
100
AcDbEntity
  8
ALL_ASSEMBLY_MEMBERS
100
AcDbLine
 62
7
  6
CONTINUOUS
 10
3.0686117462
 20
5.4782686335
 11
3.0686117462
 21
5.2902686335
  0
LINE
  5
241
100
AcDbEntity
  8
ALL_ASSEMBLY_MEMBERS
100
AcDbLine
 62
7
  6
CONTINUOUS
 10
3.0686117462
 20
5.2652686335
 11
3.0686117462
 21
4.3902686335
  0
LINE
  5
242
100
AcDbEntity
  8
ALL_ASSEMBLY_MEMBERS
100
AcDbLine
 62
7
  6
CONTINUOUS
 10
3.1136117462
 20
5.2902686335
 11
3.1136117462
 21
5.2872686335
  0
LINE
  5
243
100
AcDbEntity
  8
ALL_ASSEMBLY_MEMBERS
100
AcDbLine
 62
7
  6
CONTINUOUS
 10
3.4536117462
 20
5.2902686335
 11
3.4536117462
 21
5.2872686335
  0
LINE
  5
244
100
AcDbEntity
  8
ALL_ASSEMBLY_MEMBERS
100
AcDbLine
 62
7
  6
CONTINUOUS
 10
3.4860990142
 20
4.0034021775
 11
3.4860990142
 21
4.3502686335
  0
LINE
  5
245
100
AcDbEntity
  8
ALL_ASSEMBLY_MEMBERS
100
AcDbLine
 62
7
  6
CONTINUOUS
 10
3.4986117462
 20
5.4782686335
 11
3.4986117462
 21
5.2902686335
  0
LINE
  5
246
100
AcDbEntity
  8
ALL_ASSEMBLY_MEMBERS
100
AcDbLine
 62
7
  6
CONTINUOUS
 10
3.4986117462
 20
5.2652686335
 11
3.4986117462
 21
4.3902686335
  0
LINE
  5
247
100
AcDbEntity
  8
ALL_ASSEMBLY_MEMBERS
100
AcDbLine
 62
7
  6
CONTINUOUS
 10
3.5049350392
 20
4.003410572
 11
3.5049350392
 21
4.3502686335
  0
LINE
  5
248
100
AcDbEntity
  8
ALL_ASSEMBLY_MEMBERS
100
AcDbLine
 62
7
  6
CONTINUOUS
 10
3.4535758803
 20
5.2867710013
 11
3.4536117462
 21
5.2872686335
  0
LINE
  5
249
100
AcDbEntity
  8
ALL_ASSEMBLY_MEMBERS
100
AcDbLine
 62
7
  6
CONTINUOUS
 10
3.0911890906
 20
4.3511912891
 11
3.077046955
 21
4.3370491535
  0
LINE
  5
24A
100
AcDbEntity
  8
ALL_ASSEMBLY_MEMBERS
100
AcDbLine
 62
7
  6
CONTINUOUS
 10
3.5771117462
 20
3.8782686335
 11
3.5771117462
 21
4.3702686335
  0
LINE
  5
24B
100
AcDbEntity
  8
ALL_ASSEMBLY_MEMBERS
100
AcDbLine
 62
7
  6
CONTINUOUS
 10
3.5971117462
 20
3.8982686335
 11
3.5971117462
 21
4.3502686335
  0
LINE
  5
24C
100
AcDbEntity
  8
0
100
AcDbLine
 62
7
  6
CONTINUOUS
 10
3.7461117462
 20
5.6032686335
 11
3.7461117462
 21
5.4882686335
  0
LINE
  5
24D
100
AcDbEntity
  8
ALL_ASSEMBLY_MEMBERS
100
AcDbLine
 62
7
  6
CONTINUOUS
 10
3.4477499998
 20
3.99463038
 11
3.4336078642
 21
3.9804882443
  0
LINE
  5
24E
100
AcDbEntity
  8
ALL_ASSEMBLY_MEMBERS
100
AcDbLine
 62
7
  6
CONTINUOUS
 10
3.0849115236
 20
4.3592376395
 11
3.0673648002
 21
4.3502686335
  0
LINE
  5
24F
100
AcDbEntity
  8
0
100
AcDbLine
 62
7
  6
CONTINUOUS
 10
5.4708656832
 20
2.8007686335
 11
5.0333656832
 21
2.8007686335
  0
LINE
  5
250
100
AcDbEntity
  8
ALL_ASSEMBLY_MEMBERS
100
AcDbLine
 62
7
  6
CONTINUOUS
 10
3.4860990142
 20
4.0034022733
 11
3.4825546046
 21
4.0065969772
  0
LINE
  5
251
100
AcDbEntity
  8
ALL_ASSEMBLY_MEMBERS
100
AcDbLine
 62
7
  6
CONTINUOUS
 10
3.0822137661
 20
4.3697364554
 11
3.0789894652
 21
4.3726422438
  0
LWPOLYLINE
  5
252
100
AcDbEntity
  8
ALL_ASSEMBLY_MEMBERS
100
AcDbPolyline
 62
7
  6
CONTINUOUS
 90
4
 70
0
 10
3.3126039135
 20
4.1607765099
 10
3.2857731359
 20
4.185076442
 10
3.2722720185
 20
4.1973526012
 10
3.2456059062
 20
4.2215041036
  0
LWPOLYLINE
  5
253
100
AcDbEntity
  8
ALL_ASSEMBLY_MEMBERS
100
AcDbPolyline
 62
7
  6
CONTINUOUS
 90
3
 70
0
 10
3.3514191266
 20
4.1255720407
 10
3.3258293005
 20
4.148752737
 10
3.3126039135
 20
4.1607765099
  0
LINE
  5
254
100
AcDbEntity
  8
ALL_ASSEMBLY_MEMBERS
100
AcDbLine
 62
7
  6
CONTINUOUS
 10
3.4860990142
 20
4.0034022733
 11
3.0789894652
 21
4.3726422438
  0
LWPOLYLINE
  5
255
100
AcDbEntity
  8
ALL_ASSEMBLY_MEMBERS
100
AcDbPolyline
 62
7
  6
CONTINUOUS
 90
3
 70
0
 10
3.3976508759
 20
4.0836250761
 10
3.3868400361
 20
4.093441635
 10
3.3755168225
 20
4.1036968506
  0
LWPOLYLINE
  5
256
100
AcDbEntity
  8
ALL_ASSEMBLY_MEMBERS
100
AcDbPolyline
 62
7
  6
CONTINUOUS
 90
5
 70
0
 10
3.2074204674
 20
4.2561386795
 10
3.1954413415
 20
4.2670225693
 10
3.1839523073
 20
4.2774423743
 10
3.1729895007
 20
4.2873724522
 10
3.1625628867
 20
4.2968384454
  0
LINE
  5
257
100
AcDbEntity
  8
ALL_ASSEMBLY_MEMBERS
100
AcDbLine
 62
7
  6
CONTINUOUS
 10
3.3636969942
 20
4.1144151172
 11
3.3514191266
 21
4.1255720407
  0
LWPOLYLINE
  5
258
100
AcDbEntity
  8
ALL_ASSEMBLY_MEMBERS
100
AcDbPolyline
 62
7
  6
CONTINUOUS
 90
3
 70
0
 10
3.2456059062
 20
4.2215041036
 10
3.2325427751
 20
4.2333794467
 10
3.2074204674
 20
4.2561386795
  0
LINE
  5
259
100
AcDbEntity
  8
ALL_ASSEMBLY_MEMBERS
100
AcDbLine
 62
7
  6
CONTINUOUS
 10
3.4825546046
 20
4.0065969772
 11
3.4739532931
 21
4.0144171019
  0
LINE
  5
25A
100
AcDbEntity
  8
ALL_ASSEMBLY_MEMBERS
100
AcDbLine
 62
7
  6
CONTINUOUS
 10
3.0901378629
 20
4.3625295197
 11
3.0822137661
 21
4.3697364554
  0
LINE
  5
25B
100
AcDbEntity
  8
ALL_ASSEMBLY_MEMBERS
100
AcDbLine
 62
7
  6
CONTINUOUS
 10
3.4336078642
 20
3.9804882443
 11
3.077046955
 21
4.3370491535
  0
LINE
  5
25C
100
AcDbEntity
  8
ALL_ASSEMBLY_MEMBERS
100
AcDbLine
 62
7
  6
CONTINUOUS
 10
3.447749992
 20
3.9946303877
 11
3.0911890961
 21
4.3511912837
  0
LINE
  5
25D
100
AcDbEntity
  8
0
100
AcDbLine
 62
7
  6
CONTINUOUS
 10
4.7896156832
 20
5.6032686335
 11
4.7896156832
 21
5.4932686335
  0
LINE
  5
25E
100
AcDbEntity
  8
02___PRT_ALL_AXES
100
AcDbLine
 62
7
  6
CONTINUOUS
 10
4.9771156832
 20
5.8032686335
 11
4.9771156832
 21
5.6107686335
  0
LINE
  5
25F
100
AcDbEntity
  8
0
100
AcDbLine
 62
7
  6
CONTINUOUS
 10
5.0333656832
 20
5.4782686335
 11
5.0333656832
 21
2.0507686335
  0
LINE
  5
260
100
AcDbEntity
  8
0
100
AcDbLine
 62
7
  6
CONTINUOUS
 10
5.4708656832
 20
5.4782686335
 11
5.4708656832
 21
2.0507686335
  0
LINE
  5
261
100
AcDbEntity
  8
02___PRT_ALL_AXES
100
AcDbLine
 62
7
  6
CONTINUOUS
 10
5.5271156832
 20
5.8032686335
 11
5.5271156832
 21
5.6107686335
  0
LINE
  5
262
100
AcDbEntity
  8
ALL_ASSEMBLY_MEMBERS
100
AcDbLine
 62
7
  6
CONTINUOUS
 10
3.5049350392
 20
4.0034267093
 11
3.4860990142
 21
4.0034021775
  0
LINE
  5
263
100
AcDbEntity
  8
ALL_ASSEMBLY_MEMBERS
100
AcDbLine
 62
7
  6
CONTINUOUS
 10
8.4806196202
 20
3.8782686335
 11
6.9271196202
 21
3.8782686335
  0
LINE
  5
264
100
AcDbEntity
  8
ALL_ASSEMBLY_MEMBERS
100
AcDbLine
 62
7
  6
CONTINUOUS
 10
3.5771117462
 20
3.8782686335
 11
2.0236117462
 21
3.8782686335
  0
LINE
  5
265
100
AcDbEntity
  8
ALL_ASSEMBLY_MEMBERS
100
AcDbLine
 62
7
  6
CONTINUOUS
 10
8.5006196202
 20
3.8982686335
 11
6.9071196202
 21
3.8982686335
  0
LINE
  5
266
100
AcDbEntity
  8
ALL_ASSEMBLY_MEMBERS
100
AcDbLine
 62
7
  6
CONTINUOUS
 10
2.0036117462
 20
3.8982686335
 11
3.5971117462
 21
3.8982686335
  0
LINE
  5
267
100
AcDbEntity
  8
ALL_ASSEMBLY_MEMBERS
100
AcDbLine
 62
7
  6
CONTINUOUS
 10
7.0181323522
 20
4.0034023345
 11
6.9992963273
 21
4.0034024195
  0
LINE
  5
268
100
AcDbEntity
  8
0
100
AcDbLine
 62
7
  6
CONTINUOUS
 10
5.7146156832
 20
5.6032686335
 11
5.7146156832
 21
5.4932686335
  0
LINE
  5
269
100
AcDbEntity
  8
ALL_ASSEMBLY_MEMBERS
100
AcDbLine
 62
7
  6
CONTINUOUS
 10
2.0036117462
 20
4.3502686335
 11
3.0673648002
 21
4.3502686335
  0
LINE
  5
26A
100
AcDbEntity
  8
ALL_ASSEMBLY_MEMBERS
100
AcDbLine
 62
7
  6
CONTINUOUS
 10
3.4860990142
 20
4.3502686335
 11
3.5971117462
 21
4.3502686335
  0
LINE
  5
26B
100
AcDbEntity
  8
ALL_ASSEMBLY_MEMBERS
100
AcDbLine
 62
7
  6
CONTINUOUS
 10
6.9071196202
 20
4.3502686335
 11
7.0181323522
 21
4.350268634
  0
LINE
  5
26C
100
AcDbEntity
  8
ALL_ASSEMBLY_MEMBERS
100
AcDbLine
 62
7
  6
CONTINUOUS
 10
7.4368665444
 20
4.3502686335
 11
8.5006196202
 21
4.3502686335
  0
LINE
  5
26D
100
AcDbEntity
  8
ALL_ASSEMBLY_MEMBERS
100
AcDbLine
 62
7
  6
CONTINUOUS
 10
2.0236117462
 20
4.3702686335
 11
3.0518705112
 21
4.3702686335
  0
LINE
  5
26E
100
AcDbEntity
  8
ALL_ASSEMBLY_MEMBERS
100
AcDbLine
 62
7
  6
CONTINUOUS
 10
3.5153529812
 20
4.3702686335
 11
3.5771117462
 21
4.3702686335
  0
LINE
  5
26F
100
AcDbEntity
  8
ALL_ASSEMBLY_MEMBERS
100
AcDbLine
 62
7
  6
CONTINUOUS
 10
6.9271196202
 20
4.3702686335
 11
6.9888783852
 21
4.3702686335
  0
LINE
  5
270
100
AcDbEntity
  8
ALL_ASSEMBLY_MEMBERS
100
AcDbLine
 62
7
  6
CONTINUOUS
 10
7.4523608552
 20
4.3702686335
 11
8.4806196202
 21
4.3702686335
  0
LINE
  5
271
100
AcDbEntity
  8
ALL_ASSEMBLY_MEMBERS
100
AcDbLine
 62
7
  6
CONTINUOUS
 10
3.0686117462
 20
4.3902686335
 11
3.0715931695
 21
4.3902686335
  0
LINE
  5
272
100
AcDbEntity
  8
ALL_ASSEMBLY_MEMBERS
100
AcDbLine
 62
7
  6
CONTINUOUS
 10
3.4956303229
 20
4.3902686335
 11
3.4986117462
 21
4.3902686335
  0
LINE
  5
273
100
AcDbEntity
  8
ALL_ASSEMBLY_MEMBERS
100
AcDbLine
 62
7
  6
CONTINUOUS
 10
7.0056196202
 20
4.3902686335
 11
7.0086010435
 21
4.3902686335
  0
LINE
  5
274
100
AcDbEntity
  8
ALL_ASSEMBLY_MEMBERS
100
AcDbLine
 62
7
  6
CONTINUOUS
 10
7.4326381969
 20
4.3902686335
 11
7.4356196202
 21
4.3902686335
  0
LINE
  5
275
100
AcDbEntity
  8
ALL_ASSEMBLY_MEMBERS
100
AcDbLine
 62
7
  6
CONTINUOUS
 10
7.0775928467
 20
4.057334679
 11
7.0538918355
 21
4.0358391429
  0
LWPOLYLINE
  5
276
100
AcDbEntity
  8
ALL_ASSEMBLY_MEMBERS
100
AcDbPolyline
 62
7
  6
CONTINUOUS
 90
4
 70
0
 10
7.3202441694
 20
4.2774108043
 10
7.3087471322
 20
4.2669837141
 10
7.296759923
 20
4.2560924035
 10
7.2843743449
 20
4.2448774693
  0
LINE
  5
277
100
AcDbEntity
  8
ALL_ASSEMBLY_MEMBERS
100
AcDbLine
 62
7
  6
CONTINUOUS
 10
7.4252295522
 20
4.3726288438
 11
7.0181323522
 21
4.0034023962
  0
LWPOLYLINE
  5
278
100
AcDbEntity
  8
ALL_ASSEMBLY_MEMBERS
100
AcDbPolyline
 62
7
  6
CONTINUOUS
 90
6
 70
0
 10
7.1653849207
 20
4.1369560176
 10
7.1527561127
 20
4.1255211688
 10
7.1404857708
 20
4.1143711605
 10
7.1286737946
 20
4.1036599979
 10
7.1173592342
 20
4.0934124564
 10
7.1065571066
 20
4.0836037607
  0
LWPOLYLINE
  5
279
100
AcDbEntity
  8
ALL_ASSEMBLY_MEMBERS
100
AcDbPolyline
 62
7
  6
CONTINUOUS
 90
3
 70
0
 10
7.2183829758
 20
4.1850082162
 10
7.1915556725
 20
4.1607114354
 10
7.1783342311
 20
4.1486913063
  0
LINE
  5
27A
100
AcDbEntity
  8
ALL_ASSEMBLY_MEMBERS
100
AcDbLine
 62
7
  6
CONTINUOUS
 10
7.0216771911
 20
4.0065976699
 11
7.0181323522
 21
4.0034023962
  0
LWPOLYLINE
  5
27B
100
AcDbEntity
  8
ALL_ASSEMBLY_MEMBERS
100
AcDbPolyline
 62
7
  6
CONTINUOUS
 90
3
 70
0
 10
7.4252295522
 20
4.3726288438
 10
7.4220104025
 20
4.3697297576
 10
7.4183036613
 20
4.3663635592
  0
LINE
  5
27C
100
AcDbEntity
  8
ALL_ASSEMBLY_MEMBERS
100
AcDbLine
 62
7
  6
CONTINUOUS
 10
7.4130421394
 20
4.3511911527
 11
7.0564812308
 21
3.9946302441
  0
LINE
  5
27D
100
AcDbEntity
  8
ALL_ASSEMBLY_MEMBERS
100
AcDbLine
 62
7
  6
CONTINUOUS
 10
7.4271842807
 20
4.3370490227
 11
7.0706233715
 21
3.9804881136
  0
LINE
  5
27E
100
AcDbEntity
  8
ALL_ASSEMBLY_MEMBERS
100
AcDbLine
 62
7
  6
CONTINUOUS
 10
7.2318846378
 20
4.1972848678
 11
7.2183829758
 21
4.1850082162
  0
LWPOLYLINE
  5
27F
100
AcDbEntity
  8
ALL_ASSEMBLY_MEMBERS
100
AcDbPolyline
 62
7
  6
CONTINUOUS
 90
3
 70
0
 10
7.2716243614
 20
4.2333212351
 10
7.2585563202
 20
4.2214413773
 10
7.2318846378
 20
4.1972848678
  0
LINE
  5
280
100
AcDbEntity
  8
ALL_ASSEMBLY_MEMBERS
100
AcDbLine
 62
7
  6
CONTINUOUS
 10
7.4183036613
 20
4.3663635592
 11
7.4093725582
 21
4.3582430754
  0
LINE
  5
281
100
AcDbEntity
  8
ALL_ASSEMBLY_MEMBERS
100
AcDbLine
 62
7
  6
CONTINUOUS
 10
7.0538918355
 20
4.0358391429
 11
7.0471495413
 21
4.0297190334
  0
LINE
  5
282
100
AcDbEntity
  8
ALL_ASSEMBLY_MEMBERS
100
AcDbLine
 62
7
  6
CONTINUOUS
 10
7.0353584009
 20
4.0190294126
 11
7.0216771911
 21
4.0065976699
  0
LINE
  5
283
100
AcDbEntity
  8
ALL_ASSEMBLY_MEMBERS
100
AcDbLine
 62
7
  6
CONTINUOUS
 10
7.3983251542
 20
4.3482276433
 11
7.3919638418
 21
4.3424527192
  0
LINE
  5
284
100
AcDbEntity
  8
ALL_ASSEMBLY_MEMBERS
100
AcDbLine
 62
7
  6
CONTINUOUS
 10
7.3416499665
 20
4.2968215727
 11
7.3312153073
 21
4.2873482987
  0
LINE
  5
285
100
AcDbEntity
  8
0
100
AcDbLine
 62
7
  6
CONTINUOUS
 10
6.7581196202
 20
5.6032686335
 11
6.7581196202
 21
5.4882686335
  0
LINE
  5
286
100
AcDbEntity
  8
ALL_ASSEMBLY_MEMBERS
100
AcDbLine
 62
7
  6
CONTINUOUS
 10
7.4356196202
 20
5.2652686335
 11
7.0056196202
 21
5.2652686335
  0
LINE
  5
287
100
AcDbEntity
  8
ALL_ASSEMBLY_MEMBERS
100
AcDbLine
 62
7
  6
CONTINUOUS
 10
3.4986117462
 20
5.2652686335
 11
3.0686117462
 21
5.2652686335
  0
LINE
  5
288
100
AcDbEntity
  8
ALL_ASSEMBLY_MEMBERS
100
AcDbLine
 62
7
  6
CONTINUOUS
 10
7.435617101
 20
5.2902686335
 11
7.0056221394
 21
5.2902686335
  0
LINE
  5
289
100
AcDbEntity
  8
ALL_ASSEMBLY_MEMBERS
100
AcDbLine
 62
7
  6
CONTINUOUS
 10
3.498609227
 20
5.2902686335
 11
3.0686142654
 21
5.2902686335
  0
LINE
  5
28A
100
AcDbEntity
  8
ALL_ASSEMBLY_MEMBERS
100
AcDbLine
 62
7
  6
CONTINUOUS
 10
7.4193199049
 20
4.3592376621
 11
7.4368665444
 21
4.3502686335
  0
LINE
  5
28B
100
AcDbEntity
  8
ALL_ASSEMBLY_MEMBERS
100
AcDbLine
 62
7
  6
CONTINUOUS
 10
7.0564812359
 20
3.9946302492
 11
7.0706233715
 21
3.9804881136
  0
LINE
  5
28C
100
AcDbEntity
  8
ALL_ASSEMBLY_MEMBERS
100
AcDbLine
 62
7
  6
CONTINUOUS
 10
6.9071196202
 20
4.3502686335
 11
6.9071196202
 21
3.8982686335
  0
LINE
  5
28D
100
AcDbEntity
  8
ALL_ASSEMBLY_MEMBERS
100
AcDbLine
 62
7
  6
CONTINUOUS
 10
6.9271196202
 20
4.3702686335
 11
6.9271196202
 21
3.8782686335
  0
LINE
  5
28E
100
AcDbEntity
  8
ALL_ASSEMBLY_MEMBERS
100
AcDbLine
 62
7
  6
CONTINUOUS
 10
6.9992963273
 20
4.3502686335
 11
6.9992963273
 21
4.0033845386
  0
LINE
  5
28F
100
AcDbEntity
  8
ALL_ASSEMBLY_MEMBERS
100
AcDbLine
 62
7
  6
CONTINUOUS
 10
7.0056196202
 20
5.4782686335
 11
7.0056196202
 21
5.2902686335
  0
LINE
  5
290
100
AcDbEntity
  8
ALL_ASSEMBLY_MEMBERS
100
AcDbLine
 62
7
  6
CONTINUOUS
 10
7.0056196202
 20
5.2652686335
 11
7.0056196202
 21
4.3902686335
  0
LINE
  5
291
100
AcDbEntity
  8
ALL_ASSEMBLY_MEMBERS
100
AcDbLine
 62
7
  6
CONTINUOUS
 10
7.0181323522
 20
4.350268634
 11
7.0181323522
 21
4.0034023345
  0
LINE
  5
292
100
AcDbEntity
  8
ALL_ASSEMBLY_MEMBERS
100
AcDbLine
 62
7
  6
CONTINUOUS
 10
7.0506196202
 20
5.2902686335
 11
7.0506196202
 21
5.2872686335
  0
LINE
  5
293
100
AcDbEntity
  8
0
100
AcDbLine
 62
7
  6
CONTINUOUS
 10
7.6731193869
 20
5.4782686335
 11
6.7681197883
 21
5.4782686335
  0
LINE
  5
294
100
AcDbEntity
  8
0
100
AcDbLine
 62
7
  6
CONTINUOUS
 10
5.6996156832
 20
5.4782686335
 11
4.8046156832
 21
5.4782686335
  0
LINE
  5
295
100
AcDbEntity
  8
0
100
AcDbLine
 62
7
  6
CONTINUOUS
 10
3.7361115129
 20
5.4782686335
 11
2.8311119143
 21
5.4782686335
  0
LINE
  5
296
100
AcDbEntity
  8
0
100
AcDbLine
 62
7
  6
CONTINUOUS
 10
7.6831196202
 20
5.4882686335
 11
6.7581197921
 21
5.4882686335
  0
LINE
  5
297
100
AcDbEntity
  8
0
100
AcDbLine
 62
7
  6
CONTINUOUS
 10
3.7461117462
 20
5.4882686335
 11
2.821111918
 21
5.4882686335
  0
LINE
  5
298
100
AcDbEntity
  8
0
100
AcDbLine
 62
7
  6
CONTINUOUS
 10
5.7146156832
 20
5.4932686335
 11
4.7896156832
 21
5.4932686335
  0
LINE
  5
299
100
AcDbEntity
  8
0
100
AcDbLine
 62
7
  6
CONTINUOUS
 10
2.821111918
 20
5.6032686335
 11
3.7461114632
 21
5.6032686335
  0
LINE
  5
29A
100
AcDbEntity
  8
0
100
AcDbLine
 62
7
  6
CONTINUOUS
 10
4.7896156832
 20
5.6032686335
 11
5.7146156832
 21
5.6032686335
  0
LINE
  5
29B
100
AcDbEntity
  8
0
100
AcDbLine
 62
7
  6
CONTINUOUS
 10
6.7581197921
 20
5.6032686335
 11
7.6831193372
 21
5.6032686335
  0
LINE
  5
29C
100
AcDbEntity
  8
ALL_FEATURES
100
AcDbLine
 62
7
  6
CONTINUOUS
 10
5.6731156832
 20
5.6107686335
 11
4.8311156832
 21
5.6107686335
  0
LINE
  5
29D
100
AcDbEntity
  8
ALL_FEATURES
100
AcDbLine
 62
7
  6
CONTINUOUS
 10
2.8626117462
 20
5.6107686335
 11
3.7046117462
 21
5.6107686335
  0
LINE
  5
29E
100
AcDbEntity
  8
ALL_FEATURES
100
AcDbLine
 62
7
  6
CONTINUOUS
 10
6.7996196202
 20
5.6107686335
 11
7.6416196202
 21
5.6107686335
  0
LINE
  5
29F
100
AcDbEntity
  8
ALL_ASSEMBLY_MEMBERS
100
AcDbLine
 62
7
  6
CONTINUOUS
 10
7.0506196202
 20
5.2872686335
 11
7.0506555208
 21
5.2867704248
  0
LINE
  5
2A0
100
AcDbEntity
  8
ALL_ASSEMBLY_MEMBERS
100
AcDbLine
 62
7
  6
CONTINUOUS
 10
7.3905837543
 20
5.2867710013
 11
7.3906196202
 21
5.2872686335
  0
LINE
  5
2A1
100
AcDbEntity
  8
02___PRT_ALL_AXES
100
AcDbLine
 62
7
  6
CONTINUOUS
 10
4.9771179233
 20
5.8032686335
 11
5.5271134432
 21
5.8032686335
  0
LINE
  5
2A2
100
AcDbEntity
  8
ALL_ASSEMBLY_MEMBERS
100
AcDbLine
 62
7
  6
CONTINUOUS
 10
7.4130421451
 20
4.3511911584
 11
7.4271842807
 21
4.3370490227
  0
LINE
  5
2A3
100
AcDbEntity
  8
ALL_ASSEMBLY_MEMBERS
100
AcDbLine
 62
7
  6
CONTINUOUS
 10
7.3906196202
 20
5.2902686335
 11
7.3906196202
 21
5.2872686335
  0
LINE
  5
2A4
100
AcDbEntity
  8
ALL_ASSEMBLY_MEMBERS
100
AcDbLine
 62
7
  6
CONTINUOUS
 10
7.4356196202
 20
5.4782686335
 11
7.4356196202
 21
5.2902686335
  0
LINE
  5
2A5
100
AcDbEntity
  8
ALL_ASSEMBLY_MEMBERS
100
AcDbLine
 62
7
  6
CONTINUOUS
 10
7.4356196202
 20
5.2652686335
 11
7.4356196202
 21
4.3902686335
  0
LINE
  5
2A6
100
AcDbEntity
  8
0
100
AcDbLine
 62
7
  6
CONTINUOUS
 10
7.6831196202
 20
5.6032686335
 11
7.6831196202
 21
5.4882686335
  0
LINE
  5
2A7
100
AcDbEntity
  8
ALL_ASSEMBLY_MEMBERS
100
AcDbLine
 62
7
  6
CONTINUOUS
 10
8.4806196202
 20
3.8782686335
 11
8.4806196202
 21
4.3702686335
  0
LINE
  5
2A8
100
AcDbEntity
  8
ALL_ASSEMBLY_MEMBERS
100
AcDbLine
 62
7
  6
CONTINUOUS
 10
8.5006196202
 20
4.3502686335
 11
8.5006196202
 21
3.8982686335
  0
ARC
  5
2A9
100
AcDbEntity
  8
ALL_ASSEMBLY_MEMBERS
100
AcDbCircle
 62
7
  6
CONTINUOUS
 10
3.6244812307
 20
5.2747003075
 40
0.1713311087
100
AcDbArc
 50
176.1056476196
 51
177.2391663388
  0
ARC
  5
2AA
100
AcDbEntity
  8
ALL_ASSEMBLY_MEMBERS
100
AcDbCircle
 62
7
  6
CONTINUOUS
 10
2.9442085335
 20
5.2747694132
 40
0.1698633486
100
AcDbArc
 50
356.7893445467
 51
3.543699786
  0
ARC
  5
2AB
100
AcDbEntity
  8
ALL_ASSEMBLY_MEMBERS
100
AcDbCircle
 62
7
  6
CONTINUOUS
 10
3.6229581249
 20
5.2747678653
 40
0.1698065168
100
AcDbArc
 50
177.2371809561
 51
183.2110988618
  0
ARC
  5
2AC
100
AcDbEntity
  8
ALL_ASSEMBLY_MEMBERS
100
AcDbCircle
 62
7
  6
CONTINUOUS
 10
2.9446506254
 20
5.2748248614
 40
0.1694186771
100
AcDbArc
 50
3.5342248692
 51
3.8956711647
  0
ARC
  5
2AD
100
AcDbEntity
  8
ALL_ASSEMBLY_MEMBERS
100
AcDbCircle
 62
7
  6
CONTINUOUS
 10
2.0236117462
 20
4.3502686335
 40
0.02
100
AcDbArc
 50
90.0
 51
180.0
  0
ARC
  5
2AE
100
AcDbEntity
  8
ALL_ASSEMBLY_MEMBERS
100
AcDbCircle
 62
7
  6
CONTINUOUS
 10
2.0236117462
 20
3.8982686335
 40
0.02
100
AcDbArc
 50
180.0
 51
270.0
  0
ARC
  5
2AF
100
AcDbEntity
  8
ALL_ASSEMBLY_MEMBERS
100
AcDbCircle
 62
7
  6
CONTINUOUS
 10
3.5771117462
 20
4.3502686335
 40
0.02
100
AcDbArc
 50
0.0
 51
90.0
  0
ARC
  5
2B0
100
AcDbEntity
  8
ALL_ASSEMBLY_MEMBERS
100
AcDbCircle
 62
7
  6
CONTINUOUS
 10
3.5771117462
 20
3.8982686335
 40
0.02
100
AcDbArc
 50
270.0
 51
360.0
  0
ARC
  5
2B1
100
AcDbEntity
  8
ALL_ASSEMBLY_MEMBERS
100
AcDbCircle
 62
7
  6
CONTINUOUS
 10
3.0486117462
 20
4.3902686335
 40
0.02
100
AcDbArc
 50
282.0
 51
360.0
  0
ARC
  5
2B2
100
AcDbEntity
  8
ALL_ASSEMBLY_MEMBERS
100
AcDbCircle
 62
7
  6
CONTINUOUS
 10
3.5186117462
 20
4.3902686335
 40
0.02
100
AcDbArc
 50
180.0
 51
258.0
  0
ARC
  5
2B3
100
AcDbEntity
  8
ALL_FEATURES
100
AcDbCircle
 62
7
  6
CONTINUOUS
 10
4.8311156832
 20
5.5932686335
 40
0.0175
100
AcDbArc
 50
90.0
 51
145.1063551026
  0
ARC
  5
2B4
100
AcDbEntity
  8
ALL_FEATURES
100
AcDbCircle
 62
7
  6
CONTINUOUS
 10
3.7046117462
 20
5.5932686335
 40
0.0175
100
AcDbArc
 50
34.8936448974
 51
90.0
  0
ARC
  5
2B5
100
AcDbEntity
  8
ALL_FEATURES
100
AcDbCircle
 62
7
  6
CONTINUOUS
 10
2.8626117462
 20
5.5932686335
 40
0.0175
100
AcDbArc
 50
90.0
 51
145.1063551026
  0
ARC
  5
2B6
100
AcDbEntity
  8
0
100
AcDbCircle
 62
7
  6
CONTINUOUS
 10
4.8046156832
 20
5.4932686335
 40
0.015
100
AcDbArc
 50
180.0
 51
270.0
  0
ARC
  5
2B7
100
AcDbEntity
  8
ALL_ASSEMBLY_MEMBERS
100
AcDbCircle
 62
7
  6
CONTINUOUS
 10
3.2836117462
 20
5.2747686335
 40
0.0125
100
AcDbArc
 50
310.4448485947
 51
229.5539328701
  0
ARC
  5
2B8
100
AcDbEntity
  8
0
100
AcDbCircle
 62
7
  6
CONTINUOUS
 10
2.8311117462
 20
5.4882686335
 40
0.01
100
AcDbArc
 50
180.0
 51
270.0
  0
ARC
  5
2B9
100
AcDbEntity
  8
0
100
AcDbCircle
 62
7
  6
CONTINUOUS
 10
3.7361117462
 20
5.4882686335
 40
0.01
100
AcDbArc
 50
270.0
 51
360.0
  0
ARC
  5
2BA
100
AcDbEntity
  8
0
100
AcDbCircle
 62
7
  6
CONTINUOUS
 10
5.2521156832
 20
2.0507686335
 40
0.21875
100
AcDbArc
 50
180.0
 51
360.0
  0
ARC
  5
2BB
100
AcDbEntity
  8
ALL_ASSEMBLY_MEMBERS
100
AcDbCircle
 62
7
  6
CONTINUOUS
 10
7.5614891047
 20
5.2747003075
 40
0.1713311087
100
AcDbArc
 50
176.1056476204
 51
177.2391663388
  0
ARC
  5
2BC
100
AcDbEntity
  8
ALL_ASSEMBLY_MEMBERS
100
AcDbCircle
 62
7
  6
CONTINUOUS
 10
6.8812164075
 20
5.2747694132
 40
0.1698633486
100
AcDbArc
 50
356.7893445467
 51
3.543699786
  0
ARC
  5
2BD
100
AcDbEntity
  8
ALL_ASSEMBLY_MEMBERS
100
AcDbCircle
 62
7
  6
CONTINUOUS
 10
7.5599659989
 20
5.2747678653
 40
0.1698065168
100
AcDbArc
 50
177.2371809561
 51
183.2110988618
  0
ARC
  5
2BE
100
AcDbEntity
  8
ALL_ASSEMBLY_MEMBERS
100
AcDbCircle
 62
7
  6
CONTINUOUS
 10
6.8816584995
 20
5.2748248614
 40
0.169418677
100
AcDbArc
 50
3.534224869
 51
3.895671164
  0
ARC
  5
2BF
100
AcDbEntity
  8
ALL_ASSEMBLY_MEMBERS
100
AcDbCircle
 62
7
  6
CONTINUOUS
 10
8.4806196202
 20
4.3502686335
 40
0.02
100
AcDbArc
 50
0.0
 51
90.0
  0
ARC
  5
2C0
100
AcDbEntity
  8
ALL_ASSEMBLY_MEMBERS
100
AcDbCircle
 62
7
  6
CONTINUOUS
 10
8.4806196202
 20
3.8982686335
 40
0.02
100
AcDbArc
 50
270.0
 51
360.0
  0
ARC
  5
2C1
100
AcDbEntity
  8
ALL_ASSEMBLY_MEMBERS
100
AcDbCircle
 62
7
  6
CONTINUOUS
 10
6.9271196202
 20
4.3502686335
 40
0.02
100
AcDbArc
 50
90.0
 51
180.0
  0
ARC
  5
2C2
100
AcDbEntity
  8
ALL_ASSEMBLY_MEMBERS
100
AcDbCircle
 62
7
  6
CONTINUOUS
 10
6.9271196202
 20
3.8982686335
 40
0.02
100
AcDbArc
 50
180.0
 51
270.0
  0
ARC
  5
2C3
100
AcDbEntity
  8
ALL_ASSEMBLY_MEMBERS
100
AcDbCircle
 62
7
  6
CONTINUOUS
 10
7.4556196202
 20
4.3902686335
 40
0.02
100
AcDbArc
 50
180.0
 51
258.0
  0
ARC
  5
2C4
100
AcDbEntity
  8
ALL_ASSEMBLY_MEMBERS
100
AcDbCircle
 62
7
  6
CONTINUOUS
 10
6.9856196202
 20
4.3902686335
 40
0.02
100
AcDbArc
 50
282.0
 51
360.0
  0
ARC
  5
2C5
100
AcDbEntity
  8
ALL_FEATURES
100
AcDbCircle
 62
7
  6
CONTINUOUS
 10
5.6731156832
 20
5.5932686335
 40
0.0175
100
AcDbArc
 50
34.8936448974
 51
90.0
  0
ARC
  5
2C6
100
AcDbEntity
  8
ALL_FEATURES
100
AcDbCircle
 62
7
  6
CONTINUOUS
 10
6.7996196202
 20
5.5932686335
 40
0.0175
100
AcDbArc
 50
90.0
 51
145.1063551026
  0
ARC
  5
2C7
100
AcDbEntity
  8
ALL_FEATURES
100
AcDbCircle
 62
7
  6
CONTINUOUS
 10
7.6416196202
 20
5.5932686335
 40
0.0175
100
AcDbArc
 50
34.8936448974
 51
90.0
  0
ARC
  5
2C8
100
AcDbEntity
  8
0
100
AcDbCircle
 62
7
  6
CONTINUOUS
 10
5.6996156832
 20
5.4932686335
 40
0.015
100
AcDbArc
 50
270.0
 51
360.0
  0
ARC
  5
2C9
100
AcDbEntity
  8
ALL_ASSEMBLY_MEMBERS
100
AcDbCircle
 62
7
  6
CONTINUOUS
 10
7.2206196202
 20
5.2747686335
 40
0.0125
100
AcDbArc
 50
310.4448485947
 51
229.5539328701
  0
ARC
  5
2CA
100
AcDbEntity
  8
0
100
AcDbCircle
 62
7
  6
CONTINUOUS
 10
7.6731196202
 20
5.4882686335
 40
0.01
100
AcDbArc
 50
270.0
 51
360.0
  0
ARC
  5
2CB
100
AcDbEntity
  8
0
100
AcDbCircle
 62
7
  6
CONTINUOUS
 10
6.7681196202
 20
5.4882686335
 40
0.01
100
AcDbArc
 50
180.0
 51
270.0
  0
LINE
  5
2CC
100
AcDbEntity
  8
ALL_ASSEMBLY_MEMBERS
100
AcDbLine
 62
7
  6
CONTINUOUS
 10
7.0506554204
 20
5.2867719442
 11
7.0506739905
 21
5.2865061068
  0
LINE
  5
2CD
100
AcDbEntity
  8
ALL_ASSEMBLY_MEMBERS
100
AcDbLine
 62
7
  6
CONTINUOUS
 10
7.0506739905
 20
5.2865061068
 11
7.0506820383
 21
5.2863890859
  0
SPLINE
  5
2CE
100
AcDbEntity
  8
ALL_ASSEMBLY_MEMBERS
100
AcDbSpline
 62
7
  6
CONTINUOUS
 70
0
 71
3
 72
8
 73
4
 74
0
 42
0.0000001
 43
0.0000001
 44
0.0000000001
 40
0.0
 40
0.0
 40
0.0
 40
0.0
 40
1.0
 40
1.0
 40
1.0
 40
1.0
 10
7.0506820383
 20
5.2863890859
 30
0.0
 10
7.0506832685
 20
5.286371108
 30
0.0
 10
7.0506844958
 20
5.2863531299
 30
0.0
 10
7.0506857202
 20
5.2863351515
 30
0.0
  0
SPLINE
  5
2CF
100
AcDbEntity
  8
ALL_ASSEMBLY_MEMBERS
100
AcDbSpline
 62
7
  6
CONTINUOUS
 70
0
 71
3
 72
8
 73
4
 74
0
 42
0.0000001
 43
0.0000001
 44
0.0000000001
 40
0.0
 40
0.0
 40
0.0
 40
0.0
 40
1.0
 40
1.0
 40
1.0
 40
1.0
 10
7.3905536033
 20
5.2863365936
 30
0.0
 10
7.390554778
 20
5.2863538354
 30
0.0
 10
7.3905559554
 20
5.2863710771
 30
0.0
 10
7.3905571355
 20
5.2863883185
 30
0.0
  0
LINE
  5
2D0
100
AcDbEntity
  8
ALL_ASSEMBLY_MEMBERS
100
AcDbLine
 62
7
  6
CONTINUOUS
 10
7.3905571355
 20
5.2863883185
 11
7.3905652053
 21
5.2865056159
  0
LINE
  5
2D1
100
AcDbEntity
  8
ALL_ASSEMBLY_MEMBERS
100
AcDbLine
 62
7
  6
CONTINUOUS
 10
7.3905652053
 20
5.2865056159
 11
7.3905837543
 21
5.2867710013
  0
SPLINE
  5
2D2
100
AcDbEntity
  8
ALL_ASSEMBLY_MEMBERS
100
AcDbSpline
 62
7
  6
CONTINUOUS
 70
0
 71
3
 72
8
 73
4
 74
0
 42
0.0000001
 43
0.0000001
 44
0.0000000001
 40
0.0
 40
0.0
 40
0.0
 40
0.0
 40
1.0
 40
1.0
 40
1.0
 40
1.0
 10
3.4535457293
 20
5.2863365936
 30
0.0
 10
3.453546904
 20
5.2863538354
 30
0.0
 10
3.4535480814
 20
5.2863710771
 30
0.0
 10
3.4535492615
 20
5.2863883185
 30
0.0
  0
LINE
  5
2D3
100
AcDbEntity
  8
ALL_ASSEMBLY_MEMBERS
100
AcDbLine
 62
7
  6
CONTINUOUS
 10
3.4535492615
 20
5.2863883185
 11
3.4535573313
 21
5.2865056159
  0
LINE
  5
2D4
100
AcDbEntity
  8
ALL_ASSEMBLY_MEMBERS
100
AcDbLine
 62
7
  6
CONTINUOUS
 10
3.4535573313
 20
5.2865056159
 11
3.4535758803
 21
5.2867710013
  0
LINE
  5
2D5
100
AcDbEntity
  8
ALL_ASSEMBLY_MEMBERS
100
AcDbLine
 62
7
  6
CONTINUOUS
 10
3.1136475464
 20
5.2867719442
 11
3.1136661164
 21
5.2865061068
  0
LINE
  5
2D6
100
AcDbEntity
  8
ALL_ASSEMBLY_MEMBERS
100
AcDbLine
 62
7
  6
CONTINUOUS
 10
3.1136661164
 20
5.2865061068
 11
3.1136741643
 21
5.2863890859
  0
SPLINE
  5
2D7
100
AcDbEntity
  8
ALL_ASSEMBLY_MEMBERS
100
AcDbSpline
 62
7
  6
CONTINUOUS
 70
0
 71
3
 72
8
 73
4
 74
0
 42
0.0000001
 43
0.0000001
 44
0.0000000001
 40
0.0
 40
0.0
 40
0.0
 40
0.0
 40
1.0
 40
1.0
 40
1.0
 40
1.0
 10
3.1136741643
 20
5.2863890859
 30
0.0
 10
3.1136753945
 20
5.286371108
 30
0.0
 10
3.1136766218
 20
5.2863531299
 30
0.0
 10
3.1136778462
 20
5.2863351515
 30
0.0
  0
SPLINE
  5
2D8
100
AcDbEntity
  8
ALL_ASSEMBLY_MEMBERS
100
AcDbSpline
 62
7
  6
CONTINUOUS
 70
0
 71
3
 72
9
 73
5
 74
0
 42
0.0000001
 43
0.0000001
 44
0.0000000001
 40
0.0
 40
0.0
 40
0.0
 40
0.0
 40
0.5000050999
 40
1.0
 40
1.0
 40
1.0
 40
1.0
 10
3.077046955
 20
4.3370491535
 30
0.0
 10
3.0751098373
 20
4.3389860996
 30
0.0
 10
3.0715160186
 20
4.3431519538
 30
0.0
 10
3.0686112437
 20
4.3478293186
 30
0.0
 10
3.0673648002
 20
4.3502686335
 30
0.0
  0
SPLINE
  5
2D9
100
AcDbEntity
  8
ALL_ASSEMBLY_MEMBERS
100
AcDbSpline
 62
7
  6
CONTINUOUS
 70
0
 71
3
 72
23
 73
19
 74
0
 42
0.0000001
 43
0.0000001
 44
0.0000000001
 40
0.0
 40
0.0
 40
0.0
 40
0.0
 40
0.06250338
 40
0.1250341103
 40
0.1875147023
 40
0.2499914663
 40
0.312455893
 40
0.3749167871
 40
0.4373813329
 40
0.4998548504
 40
0.5623395585
 40
0.6248358162
 40
0.687346534
 40
0.7498654194
 40
0.8123831019
 40
0.8749212507
 40
0.9374906551
 40
1.0
 40
1.0
 40
1.0
 40
1.0
 10
3.5049350392
 20
4.003410572
 30
0.0
 10
3.5049359811
 20
4.0013889996
 30
0.0
 10
3.5046360871
 20
3.9973379687
 30
0.0
 10
3.5032626688
 20
3.9914061928
 30
0.0
 10
3.5009615322
 20
3.9857665728
 30
0.0
 10
3.4977688986
 20
3.9805808239
 30
0.0
 10
3.4937575979
 20
3.9759987726
 30
0.0
 10
3.4890369693
 20
3.9721523128
 30
0.0
 10
3.4837437815
 20
3.9691429747
 30
0.0
 10
3.4780317546
 20
3.9670359151
 30
0.0
 10
3.4720591927
 20
3.9658584861
 30
0.0
 10
3.4659778866
 20
3.9656029297
 30
0.0
 10
3.459924895
 20
3.9662334904
 30
0.0
 10
3.4540187364
 20
3.9676954176
 30
0.0
 10
3.4483560237
 20
3.9699182055
 30
0.0
 10
3.4430141543
 20
3.9728293849
 30
0.0
 10
3.4380570373
 20
3.9763517866
 30
0.0
 10
3.4350374133
 20
3.9790585852
 30
0.0
 10
3.4336078642
 20
3.9804882443
 30
0.0
  0
SPLINE
  5
2DA
100
AcDbEntity
  8
ALL_ASSEMBLY_MEMBERS
100
AcDbSpline
 62
7
  6
CONTINUOUS
 70
0
 71
3
 72
16
 73
12
 74
0
 42
0.0000001
 43
0.0000001
 44
0.0000000001
 40
0.0
 40
0.0
 40
0.0
 40
0.0
 40
0.0729106883
 40
0.1143666958
 40
0.1595884767
 40
0.2618685654
 40
0.3802080496
 40
0.5141230361
 40
0.6626895466
 40
0.8248877987
 40
1.0
 40
1.0
 40
1.0
 40
1.0
 10
3.0518705112
 20
4.3702686335
 30
0.0
 10
3.0521703637
 20
4.3702686383
 30
0.0
 10
3.0526415559
 20
4.3701745598
 30
0.0
 10
3.0532501191
 20
4.3699284655
 30
0.0
 10
3.0539364777
 20
4.3695605855
 30
0.0
 10
3.054823194
 20
4.3689129794
 30
0.0
 10
3.0558824154
 20
4.3679068965
 30
0.0
 10
3.0569557
 20
4.3666523521
 30
0.0
 10
3.0580159328
 20
4.3651594873
 30
0.0
 10
3.0590331467
 20
4.3634369872
 30
0.0
 10
3.0596365612
 20
4.3621856706
 30
0.0
 10
3.0599222144
 20
4.3615245793
 30
0.0
  0
SPLINE
  5
2DB
100
AcDbEntity
  8
ALL_ASSEMBLY_MEMBERS
100
AcDbSpline
 62
7
  6
CONTINUOUS
 70
0
 71
3
 72
16
 73
12
 74
0
 42
0.0000001
 43
0.0000001
 44
0.0000000001
 40
0.0
 40
0.0
 40
0.0
 40
0.0
 40
0.124023276
 40
0.1862879434
 40
0.2485586886
 40
0.3730369544
 40
0.4978412945
 40
0.6229851695
 40
0.748432731
 40
0.8742665863
 40
1.0
 40
1.0
 40
1.0
 40
1.0
 10
3.0518705112
 20
4.3702686335
 30
0.0
 10
3.0531583976
 20
4.3702686335
 30
0.0
 10
3.0550996831
 20
4.3704645437
 30
0.0
 10
3.0576046985
 20
4.3710989398
 30
0.0
 10
3.0600391859
 20
4.371982004
 30
0.0
 10
3.0629036548
 20
4.373534773
 30
0.0
 10
3.0659089651
 20
4.3760403168
 30
0.0
 10
3.0683777882
 20
4.3790891406
 30
0.0
 10
3.0702116566
 20
4.3825698181
 30
0.0
 10
3.0713373761
 20
4.3863438939
 30
0.0
 10
3.0715931696
 20
4.3889629887
 30
0.0
 10
3.0715931695
 20
4.3902686335
 30
0.0
  0
SPLINE
  5
2DC
100
AcDbEntity
  8
ALL_ASSEMBLY_MEMBERS
100
AcDbSpline
 62
7
  6
CONTINUOUS
 70
0
 71
3
 72
19
 73
15
 74
0
 42
0.0000001
 43
0.0000001
 44
0.0000000001
 40
0.0
 40
0.0
 40
0.0
 40
0.0
 40
0.0207515488
 40
0.045415724
 40
0.075511991
 40
0.1117551219
 40
0.1544026029
 40
0.203498226
 40
0.2589231471
 40
0.3204544889
 40
0.4607781309
 40
0.6224814895
 40
0.8033491403
 40
1.0
 40
1.0
 40
1.0
 40
1.0
 10
3.0715931695
 20
4.3902686335
 30
0.0
 10
3.0717289526
 20
4.3902686377
 30
0.0
 10
3.0720267673
 20
4.3902018173
 30
0.0
 10
3.0724554594
 20
4.3899469364
 30
0.0
 10
3.0728979
 20
4.3895443918
 30
0.0
 10
3.0733554447
 20
4.3889954388
 30
0.0
 10
3.0738275703
 20
4.3883026191
 30
0.0
 10
3.0743112031
 20
4.3874691831
 30
0.0
 10
3.0748033029
 20
4.3864999793
 30
0.0
 10
3.0754967815
 20
4.3849655056
 30
0.0
 10
3.0763497019
 20
4.3827426842
 30
0.0
 10
3.0773095989
 20
4.3797308482
 30
0.0
 10
3.0782100755
 20
4.3763180916
 30
0.0
 10
3.0787382054
 20
4.3739042149
 30
0.0
 10
3.0789894652
 20
4.3726422438
 30
0.0
  0
SPLINE
  5
2DD
100
AcDbEntity
  8
ALL_ASSEMBLY_MEMBERS
100
AcDbSpline
 62
7
  6
CONTINUOUS
 70
0
 71
3
 72
20
 73
16
 74
0
 42
0.0000001
 43
0.0000001
 44
0.0000000001
 40
0.0
 40
0.0
 40
0.0
 40
0.0
 40
0.0628244955
 40
0.1261202705
 40
0.1897656911
 40
0.2536916884
 40
0.3177154585
 40
0.3816459265
 40
0.4453120018
 40
0.5085986594
 40
0.5714542031
 40
0.633867783
 40
0.6958600754
 40
0.7574851594
 40
1.0
 40
1.0
 40
1.0
 40
1.0
 10
3.486098555
 20
4.0034020712
 30
0.0
 10
3.4861859115
 20
4.0022968397
 30
0.0
 10
3.486193297
 20
4.0000601727
 30
0.0
 10
3.4856367446
 20
3.9967403047
 30
0.0
 10
3.4844587692
 20
3.9935611312
 30
0.0
 10
3.4826504986
 20
3.9906744457
 30
0.0
 10
3.4802642963
 20
3.988234603
 30
0.0
 10
3.4774171996
 20
3.9863633291
 30
0.0
 10
3.4742622904
 20
3.985120466
 30
0.0
 10
3.4709517226
 20
3.9845015083
 30
0.0
 10
3.4676099742
 20
3.9844569198
 30
0.0
 10
3.464326198
 20
3.9849162081
 30
0.0
 10
3.4611561403
 20
3.9858045908
 30
0.0
 10
3.455176014
 20
3.9882748415
 30
0.0
 10
3.4507761514
 20
3.9916040999
 30
0.0
 10
3.4477499753
 20
3.9946303555
 30
0.0
  0
SPLINE
  5
2DE
100
AcDbEntity
  8
ALL_ASSEMBLY_MEMBERS
100
AcDbSpline
 62
7
  6
CONTINUOUS
 70
0
 71
3
 72
15
 73
11
 74
0
 42
0.0000001
 43
0.0000001
 44
0.0000000001
 40
0.0
 40
0.0
 40
0.0
 40
0.0
 40
0.1429411537
 40
0.2856162313
 40
0.425105685
 40
0.5588289268
 40
0.6841865161
 40
0.7998170766
 40
0.9053037719
 40
1.0
 40
1.0
 40
1.0
 40
1.0
 10
3.0600327642
 20
4.3612998309
 30
0.0
 10
3.0611096583
 20
4.3614658346
 30
0.0
 10
3.0632476946
 20
4.3618950555
 30
0.0
 10
3.0663558432
 20
4.3628307284
 30
0.0
 10
3.0692830623
 20
4.3640628544
 30
0.0
 10
3.0719611845
 20
4.3655063302
 30
0.0
 10
3.0743441547
 20
4.3670897014
 30
0.0
 10
3.0763611212
 20
4.3688087247
 30
0.0
 10
3.0779316333
 20
4.3706468616
 30
0.0
 10
3.0787077616
 20
4.3719745294
 30
0.0
 10
3.0789981578
 20
4.3726353924
 30
0.0
  0
SPLINE
  5
2DF
100
AcDbEntity
  8
ALL_ASSEMBLY_MEMBERS
100
AcDbSpline
 62
7
  6
CONTINUOUS
 70
0
 71
3
 72
16
 73
12
 74
0
 42
0.0000001
 43
0.0000001
 44
0.0000000001
 40
0.0
 40
0.0
 40
0.0
 40
0.0
 40
0.1240232733
 40
0.1862879398
 40
0.2485586842
 40
0.3730369492
 40
0.4978412896
 40
0.6229851656
 40
0.7484327284
 40
0.8742665852
 40
1.0
 40
1.0
 40
1.0
 40
1.0
 10
3.5153529812
 20
4.3702686335
 30
0.0
 10
3.5140650948
 20
4.3702686335
 30
0.0
 10
3.5121238095
 20
4.3704645437
 30
0.0
 10
3.5096187941
 20
4.3710989398
 30
0.0
 10
3.5071843068
 20
4.3719820041
 30
0.0
 10
3.5043198379
 20
4.373534773
 30
0.0
 10
3.5013145276
 20
4.3760403168
 30
0.0
 10
3.4988457044
 20
4.3790891406
 30
0.0
 10
3.497011836
 20
4.3825698181
 30
0.0
 10
3.4958861165
 20
4.3863438939
 30
0.0
 10
3.4956303229
 20
4.3889629886
 30
0.0
 10
3.4956303229
 20
4.3902686335
 30
0.0
  0
SPLINE
  5
2E0
100
AcDbEntity
  8
ALL_ASSEMBLY_MEMBERS
100
AcDbSpline
 62
7
  6
CONTINUOUS
 70
0
 71
3
 72
11
 73
7
 74
0
 42
0.0000001
 43
0.0000001
 44
0.0000000001
 40
0.0
 40
0.0
 40
0.0
 40
0.0
 40
0.2173477129
 40
0.4575371496
 40
0.7194577629
 40
1.0
 40
1.0
 40
1.0
 40
1.0
 10
3.0789981578
 20
4.3726353924
 30
0.0
 10
3.0793663899
 20
4.3716389668
 30
0.0
 10
3.0801431806
 20
4.3695419786
 30
0.0
 10
3.0814371085
 20
4.3662716599
 30
0.0
 10
3.0829919202
 20
4.3627752291
 30
0.0
 10
3.0842211373
 20
4.3604223033
 30
0.0
 10
3.0849115236
 20
4.3592376395
 30
0.0
  0
SPLINE
  5
2E1
100
AcDbEntity
  8
ALL_ASSEMBLY_MEMBERS
100
AcDbSpline
 62
7
  6
CONTINUOUS
 70
0
 71
3
 72
19
 73
15
 74
0
 42
0.0000001
 43
0.0000001
 44
0.0000000001
 40
0.0
 40
0.0
 40
0.0
 40
0.0
 40
0.0868906256
 40
0.1730886579
 40
0.3391494788
 40
0.4930867668
 40
0.6318742161
 40
0.7532851217
 40
0.8069319146
 40
0.8555612661
 40
0.8990277836
 40
0.9373351708
 40
0.9707538558
 40
1.0
 40
1.0
 40
1.0
 40
1.0
 10
3.5049350392
 20
4.3502686335
 30
0.0
 10
3.5049348885
 20
4.3509613347
 30
0.0
 10
3.5049876523
 20
4.352341781
 30
0.0
 10
3.505286027
 20
4.3550308541
 30
0.0
 10
3.5059895155
 20
4.3582038897
 30
0.0
 10
3.5072602819
 20
4.3616446156
 30
0.0
 10
3.5087953897
 20
4.3645770936
 30
0.0
 10
3.5102345851
 20
4.3666343461
 30
0.0
 10
3.5114164175
 20
4.367971948
 30
0.0
 10
3.5122570882
 20
4.3687762824
 30
0.0
 10
3.513076957
 20
4.3694187431
 30
0.0
 10
3.5138673149
 20
4.3698925816
 30
0.0
 10
3.5146195798
 20
4.370190569
 30
0.0
 10
3.5151198279
 20
4.3702686502
 30
0.0
 10
3.5153529812
 20
4.3702686335
 30
0.0
  0
SPLINE
  5
2E2
100
AcDbEntity
  8
ALL_ASSEMBLY_MEMBERS
100
AcDbSpline
 62
7
  6
CONTINUOUS
 70
0
 71
3
 72
24
 73
20
 74
0
 42
0.0000001
 43
0.0000001
 44
0.0000000001
 40
0.0
 40
0.0
 40
0.0
 40
0.0
 40
0.1801584393
 40
0.3549237554
 40
0.5186970554
 40
0.5948524457
 40
0.6662847479
 40
0.7323291117
 40
0.7923386191
 40
0.8456845984
 40
0.8917883077
 40
0.9119675891
 40
0.9301681441
 40
0.946371461
 40
0.9605829611
 40
0.9728492524
 40
0.9833012257
 40
0.9922001623
 40
1.0
 40
1.0
 40
1.0
 40
1.0
 10
3.4860990142
 20
4.3502686335
 30
0.0
 10
3.4860985955
 20
4.3527992624
 30
0.0
 10
3.4862537311
 20
4.3577862261
 30
0.0
 10
3.4869297889
 20
4.3650450585
 30
0.0
 10
3.4878324993
 20
4.3708043432
 30
0.0
 10
3.4887276499
 20
4.3750860787
 30
0.0
 10
3.4894433942
 20
4.3780009843
 30
0.0
 10
3.4902055592
 20
4.3806689699
 30
0.0
 10
3.4909977236
 20
4.3830621133
 30
0.0
 10
3.4918040378
 20
4.3851527985
 30
0.0
 10
3.4925011309
 20
4.3866835261
 30
0.0
 10
3.4930603066
 20
4.3877306716
 30
0.0
 10
3.4934546958
 20
4.3883886154
 30
0.0
 10
3.4938410979
 20
4.3889523007
 30
0.0
 10
3.4942179613
 20
4.3894195738
 30
0.0
 10
3.4945841988
 20
4.3897886371
 30
0.0
 10
3.4949397954
 20
4.3900580754
 30
0.0
 10
3.4952854649
 20
4.3902264585
 30
0.0
 10
3.4955207611
 20
4.3902686588
 30
0.0
 10
3.4956303229
 20
4.3902686335
 30
0.0
  0
SPLINE
  5
2E3
100
AcDbEntity
  8
ALL_ASSEMBLY_MEMBERS
100
AcDbSpline
 62
7
  6
CONTINUOUS
 70
0
 71
3
 72
13
 73
9
 74
0
 42
0.0000001
 43
0.0000001
 44
0.0000000001
 40
0.0
 40
0.0
 40
0.0
 40
0.0
 40
0.1306279998
 40
0.261070924
 40
0.3906894591
 40
0.518853921
 40
0.7674401846
 40
1.0
 40
1.0
 40
1.0
 40
1.0
 10
3.0673648002
 20
4.3502686335
 30
0.0
 10
3.0669432046
 20
4.3506833236
 30
0.0
 10
3.0661231172
 20
4.3515353744
 30
0.0
 10
3.0649690041
 20
4.3528768166
 30
0.0
 10
3.0639021495
 20
4.3542749033
 30
0.0
 10
3.0626231474
 20
4.3561786714
 30
0.0
 10
3.0612647057
 20
4.3585844026
 30
0.0
 10
3.0603444119
 20
4.3605601247
 30
0.0
 10
3.0599222144
 20
4.3615245793
 30
0.0
  0
SPLINE
  5
2E4
100
AcDbEntity
  8
ALL_ASSEMBLY_MEMBERS
100
AcDbSpline
 62
7
  6
CONTINUOUS
 70
0
 71
3
 72
9
 73
5
 74
0
 42
0.0000001
 43
0.0000001
 44
0.0000000001
 40
0.0
 40
0.0
 40
0.0
 40
0.0
 40
0.2491881181
 40
1.0
 40
1.0
 40
1.0
 40
1.0
 10
3.091189126
 20
4.3511913245
 30
0.0
 10
3.090588822
 20
4.3517916173
 30
0.0
 10
3.0882475236
 20
4.3542660921
 30
0.0
 10
3.0861971285
 20
4.3570262746
 30
0.0
 10
3.0849114886
 20
4.3592376216
 30
0.0
  0
SPLINE
  5
2E5
100
AcDbEntity
  8
ALL_ASSEMBLY_MEMBERS
100
AcDbSpline
 62
7
  6
CONTINUOUS
 70
0
 71
3
 72
20
 73
16
 74
0
 42
0.0000001
 43
0.0000001
 44
0.0000000001
 40
0.0
 40
0.0
 40
0.0
 40
0.0
 40
0.2425083536
 40
0.304134522
 40
0.3661282437
 40
0.428543236
 40
0.4914001627
 40
0.5546872697
 40
0.6183531187
 40
0.6822832249
 40
0.7463070566
 40
0.810233387
 40
0.8738791839
 40
0.9371748891
 40
1.0
 40
1.0
 40
1.0
 40
1.0
 10
7.0564812908
 20
3.9946301943
 30
0.0
 10
7.0534551484
 20
3.9916041038
 30
0.0
 10
7.0490554679
 20
3.988274856
 30
0.0
 10
7.0430754363
 20
3.9858046416
 30
0.0
 10
7.0399053106
 20
3.984916317
 30
0.0
 10
7.0366214749
 20
3.9844570643
 30
0.0
 10
7.0332796896
 20
3.9845017213
 30
0.0
 10
7.0299691245
 20
3.9851207225
 30
0.0
 10
7.0268142417
 20
3.9863635857
 30
0.0
 10
7.0239671688
 20
3.9882348363
 30
0.0
 10
7.0215809489
 20
3.9906746325
 30
0.0
 10
7.0197726655
 20
3.9935613048
 30
0.0
 10
7.0185947058
 20
3.9967404766
 30
0.0
 10
7.0180382195
 20
4.0000603566
 30
0.0
 10
7.0180456345
 20
4.0022970077
 30
0.0
 10
7.0181329116
 20
4.0034022495
 30
0.0
  0
SPLINE
  5
2E6
100
AcDbEntity
  8
ALL_ASSEMBLY_MEMBERS
100
AcDbSpline
 62
7
  6
CONTINUOUS
 70
0
 71
3
 72
23
 73
19
 74
0
 42
0.0000001
 43
0.0000001
 44
0.0000000001
 40
0.0
 40
0.0
 40
0.0
 40
0.0
 40
0.0625074167
 40
0.1250730658
 40
0.1876091578
 40
0.2501281369
 40
0.3126481449
 40
0.3751606033
 40
0.4376581548
 40
0.5001434719
 40
0.5626171074
 40
0.6250815268
 40
0.6875424004
 40
0.7500070438
 40
0.8124841756
 40
0.8749651777
 40
0.937496383
 40
1.0
 40
1.0
 40
1.0
 40
1.0
 10
7.0706233715
 20
3.9804881136
 30
0.0
 10
7.0691942124
 20
3.9790589321
 30
0.0
 10
7.0661756756
 20
3.9763528756
 30
0.0
 10
7.0612203769
 20
3.9728312136
 30
0.0
 10
7.0558803529
 20
3.9699204269
 30
0.0
 10
7.0502194214
 20
3.9676976361
 30
0.0
 10
7.0443149903
 20
3.9662351223
 30
0.0
 10
7.0382636478
 20
3.965603557
 30
0.0
 10
7.0321838366
 20
3.9658575136
 30
0.0
 10
7.0262124907
 20
3.9670327702
 30
0.0
 10
7.0205012361
 20
3.969137125
 30
0.0
 10
7.0152082153
 20
3.9721433589
 30
0.0
 10
7.0104870348
 20
3.9759864879
 30
0.0
 10
7.0064743896
 20
3.9805651567
 30
0.0
 10
7.0032796374
 20
3.9857476754
 30
0.0
 10
7.000975741
 20
3.9913844115
 30
0.0
 10
6.9995990281
 20
3.9973137515
 30
0.0
 10
6.9992966625
 20
4.0013635095
 30
0.0
 10
6.9992963273
 20
4.0033845386
 30
0.0
  0
SPLINE
  5
2E7
100
AcDbEntity
  8
ALL_ASSEMBLY_MEMBERS
100
AcDbSpline
 62
7
  6
CONTINUOUS
 70
0
 71
3
 72
19
 73
15
 74
0
 42
0.0000001
 43
0.0000001
 44
0.0000000001
 40
0.0
 40
0.0
 40
0.0
 40
0.0
 40
0.0622666244
 40
0.1005683499
 40
0.1440339296
 40
0.1926627348
 40
0.2463084404
 40
0.3677248186
 40
0.5065335915
 40
0.6605344541
 40
0.7423762507
 40
0.8268225957
 40
0.9130813622
 40
1.0
 40
1.0
 40
1.0
 40
1.0
 10
6.9888783852
 20
4.3702686335
 30
0.0
 10
6.9893746367
 20
4.370268642
 30
0.0
 10
6.9901706588
 20
4.3700093515
 30
0.0
 10
6.9911523379
 20
4.3694196348
 30
0.0
 10
6.9919737053
 20
4.3687769412
 30
0.0
 10
6.9928136569
 20
4.3679731122
 30
0.0
 10
6.9939956183
 20
4.3666360247
 30
0.0
 10
6.9954343908
 20
4.3645791767
 30
0.0
 10
6.9969701696
 20
4.3616476363
 30
0.0
 10
6.9980077121
 20
4.3588375379
 30
0.0
 10
6.9986501768
 20
4.356365367
 30
0.0
 10
6.9990163664
 20
4.3543843125
 30
0.0
 10
6.999243456
 20
4.3523420505
 30
0.0
 10
6.9992964342
 20
4.3509613562
 30
0.0
 10
6.9992963273
 20
4.3502686335
 30
0.0
  0
SPLINE
  5
2E8
100
AcDbEntity
  8
ALL_ASSEMBLY_MEMBERS
100
AcDbSpline
 62
7
  6
CONTINUOUS
 70
0
 71
3
 72
16
 73
12
 74
0
 42
0.0000001
 43
0.0000001
 44
0.0000000001
 40
0.0
 40
0.0
 40
0.0
 40
0.0
 40
0.1240232724
 40
0.1862879378
 40
0.2485586813
 40
0.3730369456
 40
0.4978412861
 40
0.6229851623
 40
0.7484327261
 40
0.8742665845
 40
1.0
 40
1.0
 40
1.0
 40
1.0
 10
7.4523608552
 20
4.3702686335
 30
0.0
 10
7.4510729689
 20
4.3702686335
 30
0.0
 10
7.4491316835
 20
4.3704645437
 30
0.0
 10
7.4466266682
 20
4.3710989398
 30
0.0
 10
7.4441921809
 20
4.371982004
 30
0.0
 10
7.441327712
 20
4.3735347729
 30
0.0
 10
7.4383224017
 20
4.3760403167
 30
0.0
 10
7.4358535785
 20
4.3790891405
 30
0.0
 10
7.4340197101
 20
4.382569818
 30
0.0
 10
7.4328939905
 20
4.3863438939
 30
0.0
 10
7.4326381969
 20
4.3889629886
 30
0.0
 10
7.4326381969
 20
4.3902686335
 30
0.0
  0
SPLINE
  5
2E9
100
AcDbEntity
  8
ALL_ASSEMBLY_MEMBERS
100
AcDbSpline
 62
7
  6
CONTINUOUS
 70
0
 71
3
 72
16
 73
12
 74
0
 42
0.0000001
 43
0.0000001
 44
0.0000000001
 40
0.0
 40
0.0
 40
0.0
 40
0.0
 40
0.1751772686
 40
0.3378426392
 40
0.4865229008
 40
0.6204280325
 40
0.7387919816
 40
0.8409870773
 40
0.8861140072
 40
0.9274482316
 40
1.0
 40
1.0
 40
1.0
 40
1.0
 10
7.4441999139
 20
4.3613144613
 30
0.0
 10
7.4444892292
 20
4.3619893303
 30
0.0
 10
7.4451023572
 20
4.3632680427
 30
0.0
 10
7.446133218
 20
4.3650300391
 30
0.0
 10
7.4472049031
 20
4.3665606957
 30
0.0
 10
7.4482909926
 20
4.3678467766
 30
0.0
 10
7.4493651143
 20
4.3688774891
 30
0.0
 10
7.4502648535
 20
4.3695418923
 30
0.0
 10
7.450961561
 20
4.3699194845
 30
0.0
 10
7.451578574
 20
4.3701718003
 30
0.0
 10
7.4520567488
 20
4.3702686545
 30
0.0
 10
7.4523608552
 20
4.3702686335
 30
0.0
  0
SPLINE
  5
2EA
100
AcDbEntity
  8
ALL_ASSEMBLY_MEMBERS
100
AcDbSpline
 62
7
  6
CONTINUOUS
 70
0
 71
3
 72
19
 73
15
 74
0
 42
0.0000001
 43
0.0000001
 44
0.0000000001
 40
0.0
 40
0.0
 40
0.0
 40
0.0
 40
0.1964086722
 40
0.3769716525
 40
0.538744722
 40
0.6792662514
 40
0.740861487
 40
0.7963324754
 40
0.8454673308
 40
0.8881581429
 40
0.9244396926
 40
0.954561601
 40
0.979241421
 40
1.0
 40
1.0
 40
1.0
 40
1.0
 10
7.4252295522
 20
4.3726288438
 30
0.0
 10
7.4254807819
 20
4.373890267
 30
0.0
 10
7.4260112868
 20
4.3763020826
 30
0.0
 10
7.4269178069
 20
4.3797129029
 30
0.0
 10
7.4278776539
 20
4.3827270721
 30
0.0
 10
7.4287297253
 20
4.3849546336
 30
0.0
 10
7.4294240897
 20
4.3864924292
 30
0.0
 10
7.4299168854
 20
4.3874633654
 30
0.0
 10
7.4304012109
 20
4.3882982737
 30
0.0
 10
7.4308738801
 20
4.3889924961
 30
0.0
 10
7.4313319123
 20
4.3895427125
 30
0.0
 10
7.4317748725
 20
4.3899461863
 30
0.0
 10
7.4322040456
 20
4.3902016775
 30
0.0
 10
7.4325022577
 20
4.3902686636
 30
0.0
 10
7.4326381969
 20
4.3902686335
 30
0.0
  0
SPLINE
  5
2EB
100
AcDbEntity
  8
ALL_ASSEMBLY_MEMBERS
100
AcDbSpline
 62
7
  6
CONTINUOUS
 70
0
 71
3
 72
16
 73
12
 74
0
 42
0.0000001
 43
0.0000001
 44
0.0000000001
 40
0.0
 40
0.0
 40
0.0
 40
0.0
 40
0.1240232759
 40
0.1862879433
 40
0.2485586884
 40
0.3730369542
 40
0.4978412943
 40
0.6229851694
 40
0.7484327309
 40
0.8742665863
 40
1.0
 40
1.0
 40
1.0
 40
1.0
 10
6.9888783852
 20
4.3702686335
 30
0.0
 10
6.9901662717
 20
4.3702686335
 30
0.0
 10
6.9921075571
 20
4.3704645437
 30
0.0
 10
6.9946125725
 20
4.3710989398
 30
0.0
 10
6.9970470599
 20
4.371982004
 30
0.0
 10
6.9999115288
 20
4.373534773
 30
0.0
 10
7.0029168391
 20
4.3760403168
 30
0.0
 10
7.0053856623
 20
4.3790891406
 30
0.0
 10
7.0072195306
 20
4.3825698181
 30
0.0
 10
7.0083452501
 20
4.3863438939
 30
0.0
 10
7.0086010436
 20
4.3889629887
 30
0.0
 10
7.0086010435
 20
4.3902686335
 30
0.0
  0
SPLINE
  5
2EC
100
AcDbEntity
  8
ALL_ASSEMBLY_MEMBERS
100
AcDbSpline
 62
7
  6
CONTINUOUS
 70
0
 71
3
 72
24
 73
20
 74
0
 42
0.0000001
 43
0.0000001
 44
0.0000000001
 40
0.0
 40
0.0
 40
0.0
 40
0.0
 40
0.0077982507
 40
0.0166939609
 40
0.027141784
 40
0.0394035913
 40
0.053607406
 40
0.0698016631
 40
0.0879945455
 40
0.1081678686
 40
0.1542530295
 40
0.2075815826
 40
0.2675778613
 40
0.3336137824
 40
0.4050424963
 40
0.4811956662
 40
0.644985981
 40
0.8198175735
 40
1.0
 40
1.0
 40
1.0
 40
1.0
 10
7.0086010435
 20
4.3902686335
 30
0.0
 10
7.0087105831
 20
4.3902686374
 30
0.0
 10
7.0089458057
 20
4.3902264726
 30
0.0
 10
7.0092914014
 20
4.3900582241
 30
0.0
 10
7.0096469021
 20
4.3897889303
 30
0.0
 10
7.0100129819
 20
4.3894200348
 30
0.0
 10
7.0103897296
 20
4.3889530545
 30
0.0
 10
7.0107760088
 20
4.3883896992
 30
0.0
 10
7.0111702931
 20
4.3877320639
 30
0.0
 10
7.0117293335
 20
4.3866853589
 30
0.0
 10
7.0124263578
 20
4.3851552471
 30
0.0
 10
7.0132325142
 20
4.3830652403
 30
0.0
 10
7.0140247126
 20
4.3806726872
 30
0.0
 10
7.0147868541
 20
4.3780050608
 30
0.0
 10
7.0155026484
 20
4.3750903762
 30
0.0
 10
7.016398326
 20
4.3708085889
 30
0.0
 10
7.0173012115
 20
4.3650481622
 30
0.0
 10
7.017977284
 20
4.3577878205
 30
0.0
 10
7.0181326218
 20
4.3527995998
 30
0.0
 10
7.0181323522
 20
4.3502686335
 30
0.0
  0
SPLINE
  5
2ED
100
AcDbEntity
  8
ALL_ASSEMBLY_MEMBERS
100
AcDbSpline
 62
7
  6
CONTINUOUS
 70
0
 71
3
 72
11
 73
7
 74
0
 42
0.0000001
 43
0.0000001
 44
0.0000000001
 40
0.0
 40
0.0
 40
0.0
 40
0.0
 40
0.280578339
 40
0.5425225156
 40
0.7826939237
 40
1.0
 40
1.0
 40
1.0
 40
1.0
 10
7.4193199308
 20
4.3592376488
 30
0.0
 10
7.4200109821
 20
4.3604233641
 30
0.0
 10
7.421240896
 20
4.3627785994
 30
0.0
 10
7.4227967533
 20
4.3662780311
 30
0.0
 10
7.4240916623
 20
4.369550715
 30
0.0
 10
7.4248689398
 20
4.3716490669
 30
0.0
 10
7.425237384
 20
4.3726460781
 30
0.0
  0
SPLINE
  5
2EE
100
AcDbEntity
  8
ALL_ASSEMBLY_MEMBERS
100
AcDbSpline
 62
7
  6
CONTINUOUS
 70
0
 71
3
 72
15
 73
11
 74
0
 42
0.0000001
 43
0.0000001
 44
0.0000000001
 40
0.0
 40
0.0
 40
0.0
 40
0.0
 40
0.0946917153
 40
0.2004654657
 40
0.3164755975
 40
0.4417240699
 40
0.5748633309
 40
0.7141536434
 40
0.8570320459
 40
1.0
 40
1.0
 40
1.0
 40
1.0
 10
7.425237384
 20
4.3726460781
 30
0.0
 10
7.4255289784
 20
4.3719864356
 30
0.0
 10
7.4263068106
 20
4.3706591088
 30
0.0
 10
7.4278738093
 20
4.3688149186
 30
0.0
 10
7.4298791335
 20
4.3670791796
 30
0.0
 10
7.4322621795
 20
4.3655006565
 30
0.0
 10
7.434965964
 20
4.3641235668
 30
0.0
 10
7.4379037098
 20
4.3629426209
 30
0.0
 10
7.4409892403
 20
4.3619511503
 30
0.0
 10
7.4431206764
 20
4.3614816888
 30
0.0
 10
7.4441967136
 20
4.3613147271
 30
0.0
  0
SPLINE
  5
2EF
100
AcDbEntity
  8
ALL_ASSEMBLY_MEMBERS
100
AcDbSpline
 62
7
  6
CONTINUOUS
 70
0
 71
3
 72
12
 73
8
 74
0
 42
0.0000001
 43
0.0000001
 44
0.0000000001
 40
0.0
 40
0.0
 40
0.0
 40
0.0
 40
0.2332525184
 40
0.4820607175
 40
0.6100857883
 40
0.7395042505
 40
1.0
 40
1.0
 40
1.0
 40
1.0
 10
7.4441999139
 20
4.3613144613
 30
0.0
 10
7.443783834
 20
4.3603641125
 30
0.0
 10
7.4428802915
 20
4.3584181157
 30
0.0
 10
7.4415348928
 20
4.3560562969
 30
0.0
 10
7.4402693189
 20
4.3541925548
 30
0.0
 10
7.4388652131
 20
4.352365035
 30
0.0
 10
7.4376923624
 20
4.3510812875
 30
0.0
 10
7.4368665444
 20
4.3502686335
 30
0.0
  0
SPLINE
  5
2F0
100
AcDbEntity
  8
ALL_ASSEMBLY_MEMBERS
100
AcDbSpline
 62
7
  6
CONTINUOUS
 70
0
 71
3
 72
9
 73
5
 74
0
 42
0.0000001
 43
0.0000001
 44
0.0000000001
 40
0.0
 40
0.0
 40
0.0
 40
0.0
 40
0.2513199691
 40
1.0
 40
1.0
 40
1.0
 40
1.0
 10
7.4193199049
 20
4.3592376621
 30
0.0
 10
7.4188894757
 20
4.3584973188
 30
0.0
 10
7.4170654601
 20
4.3556165438
 30
0.0
 10
7.4148460487
 20
4.3529951011
 30
0.0
 10
7.4130421082
 20
4.3511911952
 30
0.0
  0
SPLINE
  5
2F1
100
AcDbEntity
  8
ALL_ASSEMBLY_MEMBERS
100
AcDbSpline
 62
7
  6
CONTINUOUS
 70
0
 71
3
 72
9
 73
5
 74
0
 42
0.0000001
 43
0.0000001
 44
0.0000000001
 40
0.0
 40
0.0
 40
0.0
 40
0.0
 40
0.4999948241
 40
1.0
 40
1.0
 40
1.0
 40
1.0
 10
7.4368665444
 20
4.3502686335
 30
0.0
 10
7.4356200835
 20
4.3478292961
 30
0.0
 10
7.4327152757
 20
4.3431518855
 30
0.0
 10
7.4291214199
 20
4.338985988
 30
0.0
 10
7.4271842807
 20
4.3370490227
 30
0.0
  0
ENDSEC
  0
SECTION
  2
OBJECTS
  0
DICTIONARY
  5
C
100
AcDbDictionary
280
0
281
1
  3
ACAD_GROUP
350
D
  3
ACAD_MLINESTYLE
350
17
  3
ACAD_LAYOUT
350
1A
  3
ACAD_PLOTSETTINGS
350
19
  3
ACAD_PLOTSTYLENAME
350
E
  0
DICTIONARY
  5
D
102
{ACAD_REACTORS
330
C
102
}
100
AcDbDictionary
280
0
281
1
  0
ACDBDICTIONARYWDFLT
  5
E
102
{ACAD_REACTORS
330
C
102
}
100
AcDbDictionary
281
1
  3
Normal
350
F
100
AcDbDictionaryWithDefault
340
F
  0
DICTIONARY
  5
17
102
{ACAD_REACTORS
330
C
102
}
100
AcDbDictionary
280
0
281
1
  3
Standard
350
18
  0
DICTIONARY
  5
19
102
{ACAD_REACTORS
330
C
102
}
100
AcDbDictionary
281
1
  0
DICTIONARY
  5
1A
102
{ACAD_REACTORS
330
C
102
}
100
AcDbDictionary
281
1
  3
Model
350
2F2
  3
Layout1
350
2F3
  0
ACDBPLACEHOLDER
  5
F
102
{ACAD_REACTORS
330
E
102
}
  0
MLINESTYLE
  5
18
102
{ACAD_REACTORS
330
17
102
}
100
AcDbMlineStyle
  2
STANDARD
 70
0
  3

 62
256
 51
90.0
 52
90.0
 71
2
 49
0.5
 62
256
  6
BYLAYER
 49
-0.5
 62
256
  6
BYLAYER
  0
LAYOUT
  5
2F2
102
{ACAD_REACTORS
330
1A
102
}
100
AcDbPlotSettings
  1

  2
none_device
  4
ANSI_A_(11.00_x_8.50_Inches)
  6

 40
0.0
 41
0.0
 42
0.0
 43
0.0
 44
279.4
 45
215.9
 46
0.0
 47
0.0
 48
0.0
 49
0.0
140
0.0
141
0.0
142
1.0
143
1.0
 70
1024
 72
0
 73
0
 74
0
  7

 75
0
147
1.0
148
0.0
149
0.0
100
AcDbLayout
  1
Model
 70
0
 71
0
 10
0.0
 20
0.0
 11
11.0
 21
8.5
 12
0.0
 22
0.0
 32
0.0
 14
0.0
 24
0.0
 34
0.0
 15
0.0
 25
0.0
 35
0.0
146
0.0
 13
0.0
 23
0.0
 33
0.0
 16
1.0
 26
0.0
 36
0.0
 17
0.0
 27
1.0
 37
0.0
 76
0
330
22F
345
0
346
0
  0
LAYOUT
  5
2F3
102
{ACAD_REACTORS
330
1A
102
}
100
AcDbPlotSettings
  1

  2
none_device
  4
ANSI_A_(11.00_x_8.50_Inches)
  6

 40
0.0
 41
0.0
 42
0.0
 43
0.0
 44
279.4
 45
215.9
 46
0.0
 47
0.0
 48
0.0
 49
0.0
140
0.0
141
0.0
142
1.0
143
1.0
 70
0
 72
0
 73
0
 74
0
  7

 75
0
147
1.0
148
0.0
149
0.0
100
AcDbLayout
  1
Layout1
 70
0
 71
1
 10
0.0
 20
0.0
 11
11.0
 21
8.5
 12
0.0
 22
0.0
 32
0.0
 14
0.0
 24
0.0
 34
0.0
 15
0.0
 25
0.0
 35
0.0
146
0.0
 13
0.0
 23
0.0
 33
0.0
 16
1.0
 26
0.0
 36
0.0
 17
0.0
 27
1.0
 37
0.0
 76
0
330
230
345
0
346
0
  0
ENDSEC
  0
EOF
