999
DXF file: E:\BT Custom\CADOUTPUT\_RIGHT.dxf
999
Pro/ENGINEER 2018400 by Parametric Technology Corporation
  0
SECTION
  2
HEADER
  9
$ACADVER
  1
AC1018
  9
$DWGCODEPAGE
  3
ANSI_1252
  9
$EXTMAX
 10
22.0
 20
17.0
 30
0.0
  9
$EXTMIN
 10
0.0
 20
0.0
 30
0.0
  9
$LIMMIN
 10
0.0
 20
0.0
  9
$LIMMAX
 10
22.0
 20
17.0
  9
$VIEWCTR
 10
11.0
 20
8.5
  9
$VIEWSIZE
 40
17.0
  9
$CLAYER
  8
0
  9
$LTSCALE
 40
1.21
  9
$CELTYPE
  6
BYLAYER
  9
$DIMSCALE
 40
1.0
  9
$DIMASZ
 40
0.1
  9
$DIMEXO
 40
0.0625
  9
$DIMDLI
 40
0.836
  9
$DIMEXE
 40
0.125
  9
$DIMCEN
 40
0.198
  9
$DIMLFAC
 40
1.0
  9
$DIMBLK
  1
_FILLED
  9
$DIMALT
 70
1
  9
$DIMALTD
 70
2
  9
$DIMALTTD
 70
2
  9
$DIMALTF
 40
25.4
  9
$DIMTXT
 40
0.08
  9
$DIMTOL
 70
1
  9
$DIMLIM
 70
0
  9
$DIMTFAC
 40
1.0
  9
$DIMTP
 40
0.001
  9
$DIMTM
 40
0.001
  9
$DIMGAP
 40
0.09
  9
$DIMDSEP
 70
46
  9
$AUNITS
 70
0
  9
$PDMODE
 70
3
  9
$PDSIZE
 40
0.06
  9
$HANDSEED
  5
49E
  9
$TILEMODE
 70
1
  9
$MEASUREMENT
 70
0
  9
$INSUNITS
 70
1
  0
ENDSEC
  0
SECTION
  2
CLASSES
  0
CLASS
  1
ACDBDICTIONARYWDFLT
  2
AcDbDictionaryWithDefault
  3
AutoCAD 2000
 90
0
 91
1
280
0
281
0
  0
CLASS
  1
ACDBPLACEHOLDER
  2
AcDbPlaceHolder
  3
AutoCAD 2000
 90
0
 91
1
280
0
281
0
  0
CLASS
  1
LAYOUT
  2
AcDbLayout
  3
AutoCAD 2000
 90
0
 91
0
280
0
281
0
  0
ENDSEC
  0
SECTION
  2
TABLES
  0
TABLE
  2
VPORT
  5
8
100
AcDbSymbolTable
 70
2
  0
VPORT
  5
1F4
100
AcDbSymbolTableRecord
100
AcDbViewportTableRecord
  2
*ACTIVE
 70
0
 10
0.0
 20
0.0
 11
1.0
 21
1.0
 12
11.0
 22
8.5
 13
0.0
 23
0.0
 14
1.0
 24
1.0
 15
0.0
 25
0.0
 16
0.0
 26
0.0
 36
1.0
 17
0.0
 27
0.0
 37
0.0
 40
17.0
 41
1.2941176471
 42
50.0
 43
0.0
 44
0.0
 50
0.0
 51
0.0
 71
0
 72
100
 73
1
 74
1
 75
0
 76
0
 77
0
 78
0
  0
ENDTAB
  0
TABLE
  2
LTYPE
  5
5
100
AcDbSymbolTable
 70
6
  0
LTYPE
  5
14
100
AcDbSymbolTableRecord
100
AcDbLinetypeTableRecord
  2
BYBLOCK
 70
0
  3

 72
65
 73
0
 40
0.0
  0
LTYPE
  5
15
100
AcDbSymbolTableRecord
100
AcDbLinetypeTableRecord
  2
BYLAYER
 70
0
  3

 72
65
 73
0
 40
0.0
  0
LTYPE
  5
16
100
AcDbSymbolTableRecord
100
AcDbLinetypeTableRecord
  2
CONTINUOUS
 70
64
  3
Solid line
 72
65
 73
0
 40
0.0
  0
LTYPE
  5
1F5
100
AcDbSymbolTableRecord
100
AcDbLinetypeTableRecord
  2
CENTER
 70
64
  3
____ _ ____ _ ____ _ ____ _ ____ _ ____ _ ____
 72
65
 73
4
 40
0.6
 49
0.375
 74
0
 49
-0.075
 74
0
 49
0.075
 74
0
 49
-0.075
 74
0
  0
LTYPE
  5
1F6
100
AcDbSymbolTableRecord
100
AcDbLinetypeTableRecord
  2
HIDDEN
 70
64
  3
- - - - - - - - - - - - - - - - - - - -
 72
65
 73
2
 40
0.2
 49
0.1
 74
0
 49
-0.1
 74
0
  0
LTYPE
  5
1F7
100
AcDbSymbolTableRecord
100
AcDbLinetypeTableRecord
  2
PHANTOM
 70
64
  3
_____ _ _ _____ _ _ _____ _ _ _____
 72
65
 73
6
 40
0.8
 49
0.45
 74
0
 49
-0.05
 74
0
 49
0.1
 74
0
 49
-0.05
 74
0
 49
0.1
 74
0
 49
-0.05
 74
0
  0
LTYPE
  5
1F8
100
AcDbSymbolTableRecord
100
AcDbLinetypeTableRecord
  2
DOT
 70
64
  3
. . . . . . . . . . . . . . . . . . . .
 72
65
 73
2
 40
0.2
 49
0.1
 74
0
 49
-0.1
 74
0
  0
LTYPE
  5
1F9
100
AcDbSymbolTableRecord
100
AcDbLinetypeTableRecord
  2
DASHED
 70
64
  3
- - - - - - - - - - - - - - - - - - - -
 72
65
 73
2
 40
0.2
 49
0.1
 74
0
 49
-0.1
 74
0
  0
ENDTAB
  0
TABLE
  2
LAYER
  5
2
100
AcDbSymbolTable
 70
36
  0
LAYER
  5
10
100
AcDbSymbolTableRecord
100
AcDbLayerTableRecord
  2
0
 70
0
 62
7
  6
CONTINUOUS
370
-3
390
F
  0
LAYER
  5
1FA
100
AcDbSymbolTableRecord
100
AcDbLayerTableRecord
  2
DEFAULT_1
 70
0
 62
7
  6
CENTER
370
-3
390
F
  0
LAYER
  5
1FB
100
AcDbSymbolTableRecord
100
AcDbLayerTableRecord
  2
DEFAULT_2
 70
0
 62
8
  6
HIDDEN
370
-3
390
F
  0
LAYER
  5
1FC
100
AcDbSymbolTableRecord
100
AcDbLayerTableRecord
  2
DEFAULT_3
 70
0
 62
7
  6
PHANTOM
370
-3
390
F
  0
LAYER
  5
1FD
100
AcDbSymbolTableRecord
100
AcDbLayerTableRecord
  2
ALL_FEATURES
 70
0
 62
7
  6
CONTINUOUS
370
-3
390
F
  0
LAYER
  5
1FE
100
AcDbSymbolTableRecord
100
AcDbLayerTableRecord
  2
AXES_FEATURES
 70
0
 62
7
  6
CONTINUOUS
370
-3
390
F
  0
LAYER
  5
1FF
100
AcDbSymbolTableRecord
100
AcDbLayerTableRecord
  2
DEFAULT_COORDINATE_SYSTEM
 70
0
 62
7
  6
CONTINUOUS
370
-3
390
F
  0
LAYER
  5
200
100
AcDbSymbolTableRecord
100
AcDbLayerTableRecord
  2
DEFAULT_DATUM_AXES
 70
0
 62
7
  6
CONTINUOUS
370
-3
390
F
  0
LAYER
  5
201
100
AcDbSymbolTableRecord
100
AcDbLayerTableRecord
  2
DEFAULT_DATUM_PLANES
 70
0
 62
7
  6
CONTINUOUS
370
-3
390
F
  0
LAYER
  5
202
100
AcDbSymbolTableRecord
100
AcDbLayerTableRecord
  2
DIMENSIONS
 70
0
 62
7
  6
CONTINUOUS
370
-3
390
F
  0
ENDTAB
  0
TABLE
  2
STYLE
  5
3
100
AcDbSymbolTable
 70
1
  0
STYLE
  5
11
100
AcDbSymbolTableRecord
100
AcDbTextStyleTableRecord
  2
STANDARD
 70
0
 40
0.0
 41
0.8
 50
0.0
 71
0
 42
0.2
  3
txt
  4

  0
STYLE
  5
203
100
AcDbSymbolTableRecord
100
AcDbTextStyleTableRecord
  2
TEXTSTYLE_1
 70
0
 40
0.0
 41
0.8
 50
0.0
 71
0
 42
0.2
  3
gdt
  4

  0
ENDTAB
  0
TABLE
  2
VIEW
  5
6
100
AcDbSymbolTable
 70
0
  0
ENDTAB
  0
TABLE
  2
UCS
  5
7
100
AcDbSymbolTable
 70
0
  0
ENDTAB
  0
TABLE
  2
APPID
  5
9
100
AcDbSymbolTable
 70
1
  0
APPID
  5
204
100
AcDbSymbolTableRecord
100
AcDbRegAppTableRecord
  2
ACAD
 70
0
  0
ENDTAB
  0
TABLE
  2
BLOCK_RECORD
  5
1
100
AcDbSymbolTable
 70
0
  0
BLOCK_RECORD
  5
205
100
AcDbSymbolTableRecord
100
AcDbBlockTableRecord
  2
*Model_Space
  0
BLOCK_RECORD
  5
206
100
AcDbSymbolTableRecord
100
AcDbBlockTableRecord
  2
*Paper_Space
  0
BLOCK_RECORD
  5
207
100
AcDbSymbolTableRecord
100
AcDbBlockTableRecord
  2
_FILLED
  0
ENDTAB
  0
TABLE
  2
DIMSTYLE
  5
A
100
AcDbSymbolTable
 70
1
100
AcDbDimStyleTable
 71
0
  0
DIMSTYLE
105
208
100
AcDbSymbolTableRecord
100
AcDbDimStyleTableRecord
  2
STANDARD
 70
0
  3

  4

 40
1.0
 41
0.1
 42
0.0625
 43
0.38
 44
0.125
 45
0.0
 46
0.0
 47
0.001
 48
0.001
140
0.08
141
0.09
142
0.0
143
25.4
144
1.0
145
0.0
146
1.0
147
0.09
 71
1.0
 72
0.0
 73
1
 74
1
 75
0
 76
0
 77
0
 78
4
 79
1
170
1
171
2
172
0
173
0
174
0
175
0
176
0
177
0
178
0
270
2
179
3
271
3
272
3
273
2
274
2
275
0
280
0
281
0
282
0
283
1
284
4
285
0
286
0
287
3
288
0
340
11
278
46
341
207
342
207
343
207
344
207
  0
ENDTAB
  0
ENDSEC
  0
SECTION
  2
BLOCKS
  0
BLOCK
  5
20
100
AcDbEntity
  8
0
100
AcDbBlockBegin
  2
*Model_Space
 70
0
 10
0.0
 20
0.0
 30
0.0
  3
*Model_Space
  1

  0
ENDBLK
  5
21
100
AcDbEntity
  8
0
100
AcDbBlockEnd
  0
BLOCK
  5
1C
100
AcDbEntity
  8
0
100
AcDbBlockBegin
  2
*Paper_Space
 70
0
 10
0.0
 20
0.0
 30
0.0
  3
*Paper_Space
  1

  0
ENDBLK
  5
1D
100
AcDbEntity
  8
0
100
AcDbBlockEnd
  0
BLOCK
  5
209
100
AcDbEntity
  8
0
100
AcDbBlockBegin
  2
_FILLED
 70
64
 10
0.0
 20
0.0
  3
_FILLED
  1

  0
SOLID
  5
20A
100
AcDbEntity
  8
0
  6
BYBLOCK
 62
0
100
AcDbTrace
 10
0.0
 20
0.0
 11
-1.0
 21
0.2
 12
-1.0
 22
-0.2
 13
-1.0
 23
-0.2
  0
ENDBLK
  5
20B
100
AcDbEntity
  8
0
  6
BYBLOCK
 62
0
100
AcDbBlockEnd
  0
ENDSEC
  0
SECTION
  2
ENTITIES
  0
LINE
  5
20C
100
AcDbEntity
  8
0
100
AcDbLine
 62
7
  6
CONTINUOUS
 10
15.0034834891
 20
-0.1127876612
 11
14.0994834891
 21
-0.1127876612
  0
LINE
  5
20D
100
AcDbEntity
  8
0
100
AcDbLine
 62
9
  6
CONTINUOUS
 10
14.0594834891
 20
-0.0727876612
 11
15.0434834891
 21
-0.0727876612
  0
LINE
  5
20E
100
AcDbEntity
  8
0
100
AcDbLine
 62
7
  6
CONTINUOUS
 10
17.6094834891
 20
-0.5527876612
 11
17.2777403743
 21
-0.5237638994
  0
LINE
  5
20F
100
AcDbEntity
  8
0
100
AcDbLine
 62
7
  6
CONTINUOUS
 10
17.2594834891
 20
2.0172123388
 11
16.8834834891
 21
2.0172123388
  0
LINE
  5
210
100
AcDbEntity
  8
0
100
AcDbLine
 62
7
  6
CONTINUOUS
 10
16.8334834891
 20
2.0172123388
 11
15.0834834891
 21
2.0172123388
  0
LINE
  5
211
100
AcDbEntity
  8
0
100
AcDbLine
 62
7
  6
CONTINUOUS
 10
3.8104834891
 20
11.2706252586
 11
3.8104834891
 21
10.3919457666
  0
LINE
  5
212
100
AcDbEntity
  8
0
100
AcDbLine
 62
7
  6
CONTINUOUS
 10
16.8834834891
 20
2.1072123388
 11
16.8334834891
 21
2.1072123388
  0
LINE
  5
213
100
AcDbEntity
  8
0
100
AcDbLine
 62
7
  6
CONTINUOUS
 10
16.8834834891
 20
2.7872123388
 11
16.8334834891
 21
2.7872123388
  0
LINE
  5
214
100
AcDbEntity
  8
0
100
AcDbLine
 62
7
  6
CONTINUOUS
 10
4.4370063697
 20
10.1859868514
 11
4.4394426278
 21
10.1535034093
  0
LINE
  5
215
100
AcDbEntity
  8
0
100
AcDbLine
 62
7
  6
CONTINUOUS
 10
4.486620337
 20
10.1858665716
 11
4.4890475742
 21
10.1535034093
  0
LINE
  5
216
100
AcDbEntity
  8
0
100
AcDbLine
 62
7
  6
CONTINUOUS
 10
4.633293854
 20
10.1855112093
 11
4.635694439
 21
10.1535034093
  0
LINE
  5
217
100
AcDbEntity
  8
0
100
AcDbLine
 62
7
  6
CONTINUOUS
 10
4.8671866255
 20
10.1485834405
 11
4.8694426278
 21
10.1185034093
  0
LINE
  5
218
100
AcDbEntity
  8
0
100
AcDbLine
 62
7
  6
CONTINUOUS
 10
4.8706165375
 20
10.1849369179
 11
4.8729740506
 21
10.1535034093
  0
LINE
  5
219
100
AcDbEntity
  8
0
100
AcDbLine
 62
7
  6
CONTINUOUS
 10
4.9305549688
 20
10.1396252586
 11
4.9321391075
 21
10.1185034093
  0
LINE
  5
21A
100
AcDbEntity
  8
0
100
AcDbLine
 62
7
  6
CONTINUOUS
 10
5.113744418
 20
10.1479896336
 11
5.1159558849
 21
10.1185034093
  0
LINE
  5
21B
100
AcDbEntity
  8
0
100
AcDbLine
 62
7
  6
CONTINUOUS
 10
5.1882161788
 20
10.1841697105
 11
5.1905161514
 21
10.1535034093
  0
LINE
  5
21C
100
AcDbEntity
  8
0
100
AcDbLine
 62
7
  6
CONTINUOUS
 10
5.3054834891
 20
11.5616252586
 11
5.3054834891
 21
11.3306252586
  0
LINE
  5
21D
100
AcDbEntity
  8
0
100
AcDbLine
 62
7
  6
CONTINUOUS
 10
4.6027602466
 20
10.1752494076
 11
4.6011292968
 21
10.1535034093
  0
LINE
  5
21E
100
AcDbEntity
  8
0
100
AcDbLine
 62
7
  6
CONTINUOUS
 10
4.7494330551
 20
10.1755953225
 11
4.7477761616
 21
10.1535034093
  0
LINE
  5
21F
100
AcDbEntity
  8
0
100
AcDbLine
 62
7
  6
CONTINUOUS
 10
4.9867546946
 20
10.1761556947
 11
4.9850557732
 21
10.1535034093
  0
LINE
  5
220
100
AcDbEntity
  8
0
100
AcDbLine
 62
7
  6
CONTINUOUS
 10
5.0458301868
 20
10.1399614985
 11
5.0442208301
 21
10.1185034093
  0
LINE
  5
221
100
AcDbEntity
  8
0
100
AcDbLine
 62
7
  6
CONTINUOUS
 10
5.2296217462
 20
10.1396252586
 11
5.2280376075
 21
10.1185034093
  0
LINE
  5
222
100
AcDbEntity
  8
0
100
AcDbLine
 62
7
  6
CONTINUOUS
 10
5.3043531372
 20
10.1769069179
 11
5.302597874
 21
10.1535034093
  0
LINE
  5
223
100
AcDbEntity
  8
0
100
AcDbLine
 62
7
  6
CONTINUOUS
 10
6.3800534936
 20
13.1444786371
 11
6.3611289373
 21
13.1334988386
  0
LINE
  5
224
100
AcDbEntity
  8
0
100
AcDbLine
 62
9
  6
CONTINUOUS
 10
15.00348349
 20
2.8521868749
 11
14.3097508911
 21
2.8521868749
  0
LINE
  5
225
100
AcDbEntity
  8
0
100
AcDbLine
 62
7
  6
CONTINUOUS
 10
17.2594834891
 20
2.8772123388
 11
16.8834834891
 21
2.8772123388
  0
LINE
  5
226
100
AcDbEntity
  8
0
100
AcDbLine
 62
7
  6
CONTINUOUS
 10
16.8334834891
 20
2.8772123388
 11
15.0834834891
 21
2.8772123388
  0
LINE
  5
227
100
AcDbEntity
  8
0
100
AcDbLine
 62
9
  6
CONTINUOUS
 10
15.0034834891
 20
2.8898589247
 11
14.3097152993
 21
2.8898589247
  0
LINE
  5
228
100
AcDbEntity
  8
0
100
AcDbLine
 62
9
  6
CONTINUOUS
 10
15.0434834891
 20
3.0342123388
 11
14.0594834891
 21
3.0342123388
  0
LINE
  5
229
100
AcDbEntity
  8
0
100
AcDbLine
 62
7
  6
CONTINUOUS
 10
15.0034834891
 20
3.0742123388
 11
14.0994834891
 21
3.0742123388
  0
LINE
  5
22A
100
AcDbEntity
  8
0
100
AcDbLine
 62
7
  6
CONTINUOUS
 10
5.2971668847
 20
10.1188466508
 11
5.2994426278
 21
10.0885034093
  0
LINE
  5
22B
100
AcDbEntity
  8
0
100
AcDbLine
 62
7
  6
CONTINUOUS
 10
5.3822156254
 20
10.1186421707
 11
5.3844760325
 21
10.0885034093
  0
LINE
  5
22C
100
AcDbEntity
  8
0
100
AcDbLine
 62
7
  6
CONTINUOUS
 10
5.4062074214
 20
10.1472864631
 11
5.4083661504
 21
10.1185034093
  0
LINE
  5
22D
100
AcDbEntity
  8
0
100
AcDbLine
 62
7
  6
CONTINUOUS
 10
5.5722120714
 20
10.1832441622
 11
5.5744426278
 21
10.1535034093
  0
LINE
  5
22E
100
AcDbEntity
  8
0
100
AcDbLine
 62
7
  6
CONTINUOUS
 10
5.6271036685
 20
10.1180540037
 11
5.629319963
 21
10.0885034093
  0
LINE
  5
22F
100
AcDbEntity
  8
0
100
AcDbLine
 62
7
  6
CONTINUOUS
 10
5.7285954334
 20
10.0747993348
 11
5.7294426278
 21
10.0635034093
  0
LINE
  5
230
100
AcDbEntity
  8
0
100
AcDbLine
 62
7
  6
CONTINUOUS
 10
5.7873524826
 20
10.1463720128
 11
5.7894426278
 21
10.1185034093
  0
LINE
  5
231
100
AcDbEntity
  8
0
100
AcDbLine
 62
7
  6
CONTINUOUS
 10
5.8582688698
 20
10.0964215731
 11
5.8607377321
 21
10.0635034093
  0
LINE
  5
232
100
AcDbEntity
  8
0
100
AcDbLine
 62
7
  6
CONTINUOUS
 10
6.0022937862
 20
10.1171546316
 11
6.0044426278
 21
10.0885034093
  0
LINE
  5
233
100
AcDbEntity
  8
0
100
AcDbLine
 62
7
  6
CONTINUOUS
 10
6.0654834891
 20
11.8056252586
 11
6.0654834891
 21
11.6216252586
  0
LINE
  5
234
100
AcDbEntity
  8
0
100
AcDbLine
 62
7
  6
CONTINUOUS
 10
6.0654834891
 20
11.8456252586
 11
6.0654834891
 21
12.0346252586
  0
LINE
  5
235
100
AcDbEntity
  8
0
100
AcDbLine
 62
7
  6
CONTINUOUS
 10
5.4977668938
 20
10.1046252586
 11
5.4965577551
 21
10.0885034093
  0
LINE
  5
236
100
AcDbEntity
  8
0
100
AcDbLine
 62
7
  6
CONTINUOUS
 10
5.5221415281
 20
10.1410854759
 11
5.5204478731
 21
10.1185034093
  0
LINE
  5
237
100
AcDbEntity
  8
0
100
AcDbLine
 62
7
  6
CONTINUOUS
 10
5.6883478833
 20
10.1778171809
 11
5.6865243504
 21
10.1535034093
  0
LINE
  5
238
100
AcDbEntity
  8
0
100
AcDbLine
 62
7
  6
CONTINUOUS
 10
5.7432316968
 20
10.1129035579
 11
5.7414016856
 21
10.0885034093
  0
LINE
  5
239
100
AcDbEntity
  8
0
100
AcDbLine
 62
7
  6
CONTINUOUS
 10
5.8436661036
 20
10.0920601179
 11
5.8415243504
 21
10.0635034093
  0
LINE
  5
23A
100
AcDbEntity
  8
0
100
AcDbLine
 62
7
  6
CONTINUOUS
 10
5.9032856415
 20
10.1419872897
 11
5.9015243504
 21
10.1185034093
  0
LINE
  5
23B
100
AcDbEntity
  8
0
100
AcDbLine
 62
7
  6
CONTINUOUS
 10
5.9749835257
 20
10.0923576895
 11
5.9728194547
 21
10.0635034093
  0
LINE
  5
23C
100
AcDbEntity
  8
0
100
AcDbLine
 62
7
  6
CONTINUOUS
 10
6.1219565938
 20
10.1788476837
 11
6.1200557732
 21
10.1535034093
  0
LINE
  5
23D
100
AcDbEntity
  8
0
100
AcDbLine
 62
7
  6
CONTINUOUS
 10
6.1184210652
 20
10.1137929393
 11
6.1165243504
 21
10.0885034093
  0
LINE
  5
23E
100
AcDbEntity
  8
0
100
AcDbLine
 62
7
  6
CONTINUOUS
 10
7.1717334891
 20
13.1477923629
 11
7.1712571278
 21
13.1472417714
  0
LINE
  5
23F
100
AcDbEntity
  8
0
100
AcDbLine
 62
7
  6
CONTINUOUS
 10
7.162919564
 20
12.6481484137
 11
7.1110772067
 21
12.5963060564
  0
LINE
  5
240
100
AcDbEntity
  8
0
100
AcDbLine
 62
7
  6
CONTINUOUS
 10
7.1325472374
 20
13.1248636111
 11
7.1712571278
 21
13.1472417714
  0
LINE
  5
241
100
AcDbEntity
  8
0
100
AcDbLine
 62
7
  6
CONTINUOUS
 10
6.0058216776
 20
10.1822017159
 11
6.0079740506
 21
10.1535034093
  0
LINE
  5
242
100
AcDbEntity
  8
0
100
AcDbLine
 62
7
  6
CONTINUOUS
 10
6.1572898828
 20
10.0822066763
 11
6.1594426278
 21
10.0535034093
  0
LINE
  5
243
100
AcDbEntity
  8
0
100
AcDbLine
 62
7
  6
CONTINUOUS
 10
6.2170384455
 20
10.0955591736
 11
6.2194426278
 21
10.0635034093
  0
LINE
  5
244
100
AcDbEntity
  8
0
100
AcDbLine
 62
7
  6
CONTINUOUS
 10
6.2312051004
 20
10.1453098688
 11
6.2332155848
 21
10.1185034093
  0
LINE
  5
245
100
AcDbEntity
  8
0
100
AcDbLine
 62
7
  6
CONTINUOUS
 10
6.4323391403
 20
10.0815499091
 11
6.4344426278
 21
10.0535034093
  0
LINE
  5
246
100
AcDbEntity
  8
0
100
AcDbLine
 62
7
  6
CONTINUOUS
 10
6.4625323825
 20
10.1160542742
 11
6.4645986973
 21
10.0885034093
  0
LINE
  5
247
100
AcDbEntity
  8
0
100
AcDbLine
 62
7
  6
CONTINUOUS
 10
6.4700941195
 20
10.1810886984
 11
6.4721630162
 21
10.1535034093
  0
LINE
  5
248
100
AcDbEntity
  8
0
100
AcDbLine
 62
7
  6
CONTINUOUS
 10
6.7071265655
 20
10.0943842399
 11
6.7094426278
 21
10.0635034093
  0
LINE
  5
249
100
AcDbEntity
  8
0
100
AcDbLine
 62
7
  6
CONTINUOUS
 10
6.7075173835
 20
10.1441733331
 11
6.7094426278
 21
10.1185034093
  0
LINE
  5
24A
100
AcDbEntity
  8
0
100
AcDbLine
 62
7
  6
CONTINUOUS
 10
6.1154834891
 20
12.0346252586
 11
6.1154834891
 21
12.3846252586
  0
LINE
  5
24B
100
AcDbEntity
  8
0
100
AcDbLine
 62
7
  6
CONTINUOUS
 10
6.3129834891
 20
13.1032123388
 11
6.3129834891
 21
12.7810844886
  0
LINE
  5
24C
100
AcDbEntity
  8
0
100
AcDbLine
 62
7
  6
CONTINUOUS
 10
6.3592334891
 20
14.5472123388
 11
6.3592334891
 21
13.1732123388
  0
LINE
  5
24D
100
AcDbEntity
  8
0
100
AcDbLine
 62
7
  6
CONTINUOUS
 10
6.3592334891
 20
13.131301616
 11
6.3592334891
 21
13.1120773676
  0
LINE
  5
24E
100
AcDbEntity
  8
0
100
AcDbLine
 62
7
  6
CONTINUOUS
 10
6.3795602359
 20
13.1617657697
 11
6.3795602359
 21
13.1441924308
  0
LINE
  5
24F
100
AcDbEntity
  8
0
100
AcDbLine
 62
7
  6
CONTINUOUS
 10
6.5660946719
 20
13.1732123388
 11
6.5660946719
 21
13.155352339
  0
LINE
  5
250
100
AcDbEntity
  8
0
100
AcDbLine
 62
7
  6
CONTINUOUS
 10
6.6408590533
 20
12.9782123388
 11
6.6408590533
 21
12.7810844886
  0
LINE
  5
251
100
AcDbEntity
  8
0
100
AcDbLine
 62
7
  6
CONTINUOUS
 10
6.3337525623
 20
10.0932129004
 11
6.3315243504
 21
10.0635034093
  0
LINE
  5
252
100
AcDbEntity
  8
0
100
AcDbLine
 62
7
  6
CONTINUOUS
 10
6.3471375655
 20
10.1430401832
 11
6.3452973075
 21
10.1185034093
  0
LINE
  5
253
100
AcDbEntity
  8
0
100
AcDbLine
 62
7
  6
CONTINUOUS
 10
6.5481084891
 20
10.0746252586
 11
6.5465243504
 21
10.0535034093
  0
LINE
  5
254
100
AcDbEntity
  8
0
100
AcDbLine
 62
7
  6
CONTINUOUS
 10
6.5786591724
 20
10.1148867758
 11
6.5766804199
 21
10.0885034093
  0
LINE
  5
255
100
AcDbEntity
  8
0
100
AcDbLine
 62
7
  6
CONTINUOUS
 10
6.5862285455
 20
10.1799541644
 11
6.5842447388
 21
10.1535034093
  0
LINE
  5
256
100
AcDbEntity
  8
0
100
AcDbLine
 62
7
  6
CONTINUOUS
 10
6.8234495947
 20
10.1441733331
 11
6.8215243504
 21
10.1185034093
  0
LINE
  5
257
100
AcDbEntity
  8
0
100
AcDbLine
 62
7
  6
CONTINUOUS
 10
6.8238404127
 20
10.0943842399
 11
6.8215243504
 21
10.0635034093
  0
LINE
  5
258
100
AcDbEntity
  8
0
100
AcDbLine
 62
7
  6
CONTINUOUS
 10
17.6094834891
 20
5.4472123388
 11
17.2777403743
 21
5.4181885771
  0
LINE
  5
259
100
AcDbEntity
  8
0
100
AcDbLine
 62
7
  6
CONTINUOUS
 10
6.9447384328
 20
10.1799541644
 11
6.9467222394
 21
10.1535034093
  0
LINE
  5
25A
100
AcDbEntity
  8
0
100
AcDbLine
 62
7
  6
CONTINUOUS
 10
6.9523078059
 20
10.1148867758
 11
6.9542865583
 21
10.0885034093
  0
LINE
  5
25B
100
AcDbEntity
  8
0
100
AcDbLine
 62
7
  6
CONTINUOUS
 10
6.9828584891
 20
10.0746252586
 11
6.9844426278
 21
10.0535034093
  0
LINE
  5
25C
100
AcDbEntity
  8
0
100
AcDbLine
 62
7
  6
CONTINUOUS
 10
7.1838294128
 20
10.1430401832
 11
7.1856696708
 21
10.1185034093
  0
LINE
  5
25D
100
AcDbEntity
  8
0
100
AcDbLine
 62
7
  6
CONTINUOUS
 10
7.197214416
 20
10.0932129004
 11
7.1994426278
 21
10.0635034093
  0
LINE
  5
25E
100
AcDbEntity
  8
0
100
AcDbLine
 62
7
  6
CONTINUOUS
 10
7.4125459131
 20
10.1137929393
 11
7.4144426278
 21
10.0885034093
  0
LINE
  5
25F
100
AcDbEntity
  8
0
100
AcDbLine
 62
7
  6
CONTINUOUS
 10
7.4090103845
 20
10.1788476837
 11
7.4109112051
 21
10.1535034093
  0
LINE
  5
260
100
AcDbEntity
  8
0
100
AcDbLine
 62
7
  6
CONTINUOUS
 10
7.5559834525
 20
10.0923576895
 11
7.5581475235
 21
10.0635034093
  0
LINE
  5
261
100
AcDbEntity
  8
0
100
AcDbLine
 62
7
  6
CONTINUOUS
 10
6.8901079249
 20
12.9782123388
 11
6.8901079249
 21
12.7810844886
  0
LINE
  5
262
100
AcDbEntity
  8
0
100
AcDbLine
 62
7
  6
CONTINUOUS
 10
7.1330734878
 20
13.1076120007
 11
7.1330734878
 21
13.125167864
  0
LINE
  5
263
100
AcDbEntity
  8
0
100
AcDbLine
 62
7
  6
CONTINUOUS
 10
7.1717334891
 20
14.5472123388
 11
7.1717334891
 21
13.1477923629
  0
LINE
  5
264
100
AcDbEntity
  8
0
100
AcDbLine
 62
7
  6
CONTINUOUS
 10
7.2179834891
 20
13.1032123388
 11
7.2179834891
 21
12.7810844886
  0
LINE
  5
265
100
AcDbEntity
  8
0
100
AcDbLine
 62
7
  6
CONTINUOUS
 10
7.4154834891
 20
12.0346252586
 11
7.4154834891
 21
12.3846252586
  0
LINE
  5
266
100
AcDbEntity
  8
0
100
AcDbLine
 62
7
  6
CONTINUOUS
 10
7.4654834891
 20
11.8056252586
 11
7.4654834891
 21
11.6216252586
  0
LINE
  5
267
100
AcDbEntity
  8
0
100
AcDbLine
 62
7
  6
CONTINUOUS
 10
7.4654834891
 20
11.8456252586
 11
7.4654834891
 21
12.0346252586
  0
LINE
  5
268
100
AcDbEntity
  8
0
100
AcDbLine
 62
7
  6
CONTINUOUS
 10
7.0608728587
 20
10.1810886984
 11
7.0588039621
 21
10.1535034093
  0
LINE
  5
269
100
AcDbEntity
  8
0
100
AcDbLine
 62
7
  6
CONTINUOUS
 10
7.0684345958
 20
10.1160542742
 11
7.066368281
 21
10.0885034093
  0
LINE
  5
26A
100
AcDbEntity
  8
0
100
AcDbLine
 62
7
  6
CONTINUOUS
 10
7.0986278379
 20
10.0815499091
 11
7.0965243504
 21
10.0535034093
  0
LINE
  5
26B
100
AcDbEntity
  8
0
100
AcDbLine
 62
7
  6
CONTINUOUS
 10
7.2997618779
 20
10.1453098688
 11
7.2977513934
 21
10.1185034093
  0
LINE
  5
26C
100
AcDbEntity
  8
0
100
AcDbLine
 62
7
  6
CONTINUOUS
 10
7.3139285328
 20
10.0955591736
 11
7.3115243504
 21
10.0635034093
  0
LINE
  5
26D
100
AcDbEntity
  8
0
100
AcDbLine
 62
7
  6
CONTINUOUS
 10
7.3736770955
 20
10.0822066763
 11
7.3715243504
 21
10.0535034093
  0
LINE
  5
26E
100
AcDbEntity
  8
0
100
AcDbLine
 62
7
  6
CONTINUOUS
 10
7.5251453007
 20
10.1822017159
 11
7.5229929277
 21
10.1535034093
  0
LINE
  5
26F
100
AcDbEntity
  8
0
100
AcDbLine
 62
7
  6
CONTINUOUS
 10
7.5286731921
 20
10.1171546316
 11
7.5265243504
 21
10.0885034093
  0
LINE
  5
270
100
AcDbEntity
  8
0
100
AcDbLine
 62
7
  6
CONTINUOUS
 10
7.6726981084
 20
10.0964215731
 11
7.6702292462
 21
10.0635034093
  0
LINE
  5
271
100
AcDbEntity
  8
0
100
AcDbLine
 62
7
  6
CONTINUOUS
 10
7.7436144957
 20
10.1463720128
 11
7.7415243504
 21
10.1185034093
  0
LINE
  5
272
100
AcDbEntity
  8
0
100
AcDbLine
 62
7
  6
CONTINUOUS
 10
7.6276813368
 20
10.1419872897
 11
7.6294426278
 21
10.1185034093
  0
LINE
  5
273
100
AcDbEntity
  8
0
100
AcDbLine
 62
7
  6
CONTINUOUS
 10
7.6873008747
 20
10.0920601179
 11
7.6894426278
 21
10.0635034093
  0
LINE
  5
274
100
AcDbEntity
  8
0
100
AcDbLine
 62
7
  6
CONTINUOUS
 10
7.7877352815
 20
10.1129035579
 11
7.7895652926
 21
10.0885034093
  0
LINE
  5
275
100
AcDbEntity
  8
0
100
AcDbLine
 62
7
  6
CONTINUOUS
 10
7.842619095
 20
10.1778171809
 11
7.8444426278
 21
10.1535034093
  0
LINE
  5
276
100
AcDbEntity
  8
0
100
AcDbLine
 62
7
  6
CONTINUOUS
 10
8.0088254502
 20
10.1410854759
 11
8.0105191052
 21
10.1185034093
  0
LINE
  5
277
100
AcDbEntity
  8
0
100
AcDbLine
 62
7
  6
CONTINUOUS
 10
8.0332000844
 20
10.1046252586
 11
8.0344092231
 21
10.0885034093
  0
LINE
  5
278
100
AcDbEntity
  8
0
100
AcDbLine
 62
7
  6
CONTINUOUS
 10
8.2266138411
 20
10.1769069179
 11
8.2283691043
 21
10.1535034093
  0
LINE
  5
279
100
AcDbEntity
  8
0
100
AcDbLine
 62
7
  6
CONTINUOUS
 10
8.3013452321
 20
10.1396252586
 11
8.3029293708
 21
10.1185034093
  0
LINE
  5
27A
100
AcDbEntity
  8
0
100
AcDbLine
 62
7
  6
CONTINUOUS
 10
8.2254834891
 20
11.5616252586
 11
8.2254834891
 21
11.3306252586
  0
LINE
  5
27B
100
AcDbEntity
  8
0
100
AcDbLine
 62
7
  6
CONTINUOUS
 10
7.8023715449
 20
10.0747993348
 11
7.8015243504
 21
10.0635034093
  0
LINE
  5
27C
100
AcDbEntity
  8
0
100
AcDbLine
 62
7
  6
CONTINUOUS
 10
7.9038633098
 20
10.1180540037
 11
7.9016470152
 21
10.0885034093
  0
LINE
  5
27D
100
AcDbEntity
  8
0
100
AcDbLine
 62
7
  6
CONTINUOUS
 10
7.9587549069
 20
10.1832441622
 11
7.9565243504
 21
10.1535034093
  0
LINE
  5
27E
100
AcDbEntity
  8
0
100
AcDbLine
 62
7
  6
CONTINUOUS
 10
8.1247595569
 20
10.1472864631
 11
8.1226008278
 21
10.1185034093
  0
LINE
  5
27F
100
AcDbEntity
  8
0
100
AcDbLine
 62
7
  6
CONTINUOUS
 10
8.1487513529
 20
10.1186421707
 11
8.1464909457
 21
10.0885034093
  0
LINE
  5
280
100
AcDbEntity
  8
0
100
AcDbLine
 62
7
  6
CONTINUOUS
 10
8.2338000936
 20
10.1188466508
 11
8.2315243504
 21
10.0885034093
  0
LINE
  5
281
100
AcDbEntity
  8
0
100
AcDbLine
 62
7
  6
CONTINUOUS
 10
8.3427507995
 20
10.1841697105
 11
8.3404508269
 21
10.1535034093
  0
LINE
  5
282
100
AcDbEntity
  8
0
100
AcDbLine
 62
7
  6
CONTINUOUS
 10
8.4172225602
 20
10.1479896336
 11
8.4150110934
 21
10.1185034093
  0
LINE
  5
283
100
AcDbEntity
  8
0
100
AcDbLine
 62
7
  6
CONTINUOUS
 10
3.8254834891
 20
10.3659650045
 11
4.1113527245
 21
10.2009183245
  0
LINE
  5
284
100
AcDbEntity
  8
0
100
AcDbLine
 62
7
  6
CONTINUOUS
 10
8.4851367915
 20
10.1399614985
 11
8.4867461482
 21
10.1185034093
  0
LINE
  5
285
100
AcDbEntity
  8
0
100
AcDbLine
 62
7
  6
CONTINUOUS
 10
8.5442122837
 20
10.1761556947
 11
8.5459112051
 21
10.1535034093
  0
LINE
  5
286
100
AcDbEntity
  8
0
100
AcDbLine
 62
7
  6
CONTINUOUS
 10
8.7815339232
 20
10.1755953225
 11
8.7831908167
 21
10.1535034093
  0
LINE
  5
287
100
AcDbEntity
  8
0
100
AcDbLine
 62
7
  6
CONTINUOUS
 10
8.9282067316
 20
10.1752494076
 11
8.9298376815
 21
10.1535034093
  0
LINE
  5
288
100
AcDbEntity
  8
0
100
AcDbLine
 62
7
  6
CONTINUOUS
 10
8.6004120095
 20
10.1396252586
 11
8.5988278708
 21
10.1185034093
  0
LINE
  5
289
100
AcDbEntity
  8
0
100
AcDbLine
 62
7
  6
CONTINUOUS
 10
8.6603504408
 20
10.1849369179
 11
8.6579929277
 21
10.1535034093
  0
LINE
  5
28A
100
AcDbEntity
  8
0
100
AcDbLine
 62
7
  6
CONTINUOUS
 10
8.6637803528
 20
10.1485834405
 11
8.6615243504
 21
10.1185034093
  0
LINE
  5
28B
100
AcDbEntity
  8
0
100
AcDbLine
 62
7
  6
CONTINUOUS
 10
8.8976731243
 20
10.1855112093
 11
8.8952725393
 21
10.1535034093
  0
LINE
  5
28C
100
AcDbEntity
  8
0
100
AcDbLine
 62
7
  6
CONTINUOUS
 10
9.0443466413
 20
10.1858665716
 11
9.0419194041
 21
10.1535034093
  0
LINE
  5
28D
100
AcDbEntity
  8
0
100
AcDbLine
 62
7
  6
CONTINUOUS
 10
9.0939606086
 20
10.1859868514
 11
9.0915243504
 21
10.1535034093
  0
LINE
  5
28E
100
AcDbEntity
  8
0
100
AcDbLine
 62
7
  6
CONTINUOUS
 10
9.7054834891
 20
10.3659650045
 11
9.4196142538
 21
10.2009183245
  0
LINE
  5
28F
100
AcDbEntity
  8
0
100
AcDbLine
 62
9
  6
CONTINUOUS
 10
14.9770442675
 20
2.0340830179
 11
14.2639224492
 21
2.7472048363
  0
LINE
  5
290
100
AcDbEntity
  8
0
100
AcDbLine
 62
7
  6
CONTINUOUS
 10
15.0053285274
 20
2.0623673006
 11
14.2922067103
 21
2.7754891177
  0
LINE
  5
291
100
AcDbEntity
  8
0
100
AcDbLine
 62
9
  6
CONTINUOUS
 10
9.6654834891
 20
17.0409623388
 11
9.6654834891
 21
17.8534623388
  0
LINE
  5
292
100
AcDbEntity
  8
0
100
AcDbLine
 62
7
  6
CONTINUOUS
 10
9.7204834891
 20
11.2706252586
 11
9.7204834891
 21
10.3919457666
  0
LINE
  5
293
100
AcDbEntity
  8
0
100
AcDbLine
 62
7
  6
CONTINUOUS
 10
6.3680474143
 20
12.6481484137
 11
6.4198897716
 21
12.5963060564
  0
LINE
  5
294
100
AcDbEntity
  8
0
100
AcDbLine
 62
7
  6
CONTINUOUS
 10
5.2939301878
 20
10.1190420033
 11
5.2971668847
 21
10.1188466508
  0
LINE
  5
295
100
AcDbEntity
  8
0
100
AcDbLine
 62
7
  6
CONTINUOUS
 10
4.8657403911
 20
10.1486963464
 11
4.8671866255
 21
10.1485834405
  0
LINE
  5
296
100
AcDbEntity
  8
0
100
AcDbLine
 62
7
  6
CONTINUOUS
 10
6.5804834891
 20
10.0753266314
 11
6.5685676113
 21
10.076290121
  0
LINE
  5
297
100
AcDbEntity
  8
0
100
AcDbLine
 62
7
  6
CONTINUOUS
 10
6.9504834891
 20
10.0753266314
 11
6.9623993669
 21
10.076290121
  0
LINE
  5
298
100
AcDbEntity
  8
0
100
AcDbLine
 62
7
  6
CONTINUOUS
 10
8.6652265872
 20
10.1486963464
 11
8.6637803528
 21
10.1485834405
  0
LINE
  5
299
100
AcDbEntity
  8
0
100
AcDbLine
 62
7
  6
CONTINUOUS
 10
8.2370367904
 20
10.1190420033
 11
8.2338000936
 21
10.1188466508
  0
LINE
  5
29A
100
AcDbEntity
  8
0
100
AcDbLine
 62
7
  6
CONTINUOUS
 10
7.3565663608
 20
10.0396252586
 11
7.2744006175
 21
10.0396252586
  0
LINE
  5
29B
100
AcDbEntity
  8
0
100
AcDbLine
 62
7
  6
CONTINUOUS
 10
7.0815663608
 20
10.0396252586
 11
6.9994006175
 21
10.0396252586
  0
LINE
  5
29C
100
AcDbEntity
  8
0
100
AcDbLine
 62
7
  6
CONTINUOUS
 10
6.5315663608
 20
10.0396252586
 11
6.4494006175
 21
10.0396252586
  0
LINE
  5
29D
100
AcDbEntity
  8
0
100
AcDbLine
 62
7
  6
CONTINUOUS
 10
6.2565663608
 20
10.0396252586
 11
6.1744006175
 21
10.0396252586
  0
LINE
  5
29E
100
AcDbEntity
  8
0
100
AcDbLine
 62
7
  6
CONTINUOUS
 10
7.7865663608
 20
10.0496252586
 11
7.7044006175
 21
10.0496252586
  0
LINE
  5
29F
100
AcDbEntity
  8
0
100
AcDbLine
 62
7
  6
CONTINUOUS
 10
7.6552712565
 20
10.0496252586
 11
7.5731055132
 21
10.0496252586
  0
LINE
  5
2A0
100
AcDbEntity
  8
0
100
AcDbLine
 62
7
  6
CONTINUOUS
 10
7.2965663608
 20
10.0496252586
 11
7.2144006175
 21
10.0496252586
  0
LINE
  5
2A1
100
AcDbEntity
  8
0
100
AcDbLine
 62
7
  6
CONTINUOUS
 10
6.8065663608
 20
10.0496252586
 11
6.7244006175
 21
10.0496252586
  0
LINE
  5
2A2
100
AcDbEntity
  8
0
100
AcDbLine
 62
7
  6
CONTINUOUS
 10
6.3165663608
 20
10.0496252586
 11
6.2344006175
 21
10.0496252586
  0
LINE
  5
2A3
100
AcDbEntity
  8
0
100
AcDbLine
 62
7
  6
CONTINUOUS
 10
5.9578614651
 20
10.0496252586
 11
5.8756957218
 21
10.0496252586
  0
LINE
  5
2A4
100
AcDbEntity
  8
0
100
AcDbLine
 62
7
  6
CONTINUOUS
 10
5.8265663608
 20
10.0496252586
 11
5.7444006175
 21
10.0496252586
  0
LINE
  5
2A5
100
AcDbEntity
  8
0
100
AcDbLine
 62
9
  6
CONTINUOUS
 10
7.3715243504
 20
10.0535034093
 11
7.3065965778
 21
10.0535034093
  0
LINE
  5
2A6
100
AcDbEntity
  8
0
100
AcDbLine
 62
9
  6
CONTINUOUS
 10
7.0965243504
 20
10.0535034093
 11
6.9844426278
 21
10.0535034093
  0
LINE
  5
2A7
100
AcDbEntity
  8
0
100
AcDbLine
 62
9
  6
CONTINUOUS
 10
6.5465243504
 20
10.0535034093
 11
6.4344426278
 21
10.0535034093
  0
LINE
  5
2A8
100
AcDbEntity
  8
0
100
AcDbLine
 62
9
  6
CONTINUOUS
 10
6.2243704005
 20
10.0535034093
 11
6.1594426278
 21
10.0535034093
  0
LINE
  5
2A9
100
AcDbEntity
  8
0
100
AcDbLine
 62
9
  6
CONTINUOUS
 10
7.8015243504
 20
10.0635034093
 11
7.6894426278
 21
10.0635034093
  0
LINE
  5
2AA
100
AcDbEntity
  8
0
100
AcDbLine
 62
9
  6
CONTINUOUS
 10
7.6702292462
 20
10.0635034093
 11
7.5581475235
 21
10.0635034093
  0
LINE
  5
2AB
100
AcDbEntity
  8
0
100
AcDbLine
 62
9
  6
CONTINUOUS
 10
7.3115243504
 20
10.0635034093
 11
7.1994426278
 21
10.0635034093
  0
LINE
  5
2AC
100
AcDbEntity
  8
0
100
AcDbLine
 62
9
  6
CONTINUOUS
 10
6.8215243504
 20
10.0635034093
 11
6.7094426278
 21
10.0635034093
  0
LINE
  5
2AD
100
AcDbEntity
  8
0
100
AcDbLine
 62
9
  6
CONTINUOUS
 10
6.3315243504
 20
10.0635034093
 11
6.2194426278
 21
10.0635034093
  0
LINE
  5
2AE
100
AcDbEntity
  8
0
100
AcDbLine
 62
9
  6
CONTINUOUS
 10
5.9728194547
 20
10.0635034093
 11
5.8607377321
 21
10.0635034093
  0
LINE
  5
2AF
100
AcDbEntity
  8
0
100
AcDbLine
 62
9
  6
CONTINUOUS
 10
5.8415243504
 20
10.0635034093
 11
5.7294426278
 21
10.0635034093
  0
LINE
  5
2B0
100
AcDbEntity
  8
0
100
AcDbLine
 62
7
  6
CONTINUOUS
 10
8.2165663608
 20
10.0746252586
 11
8.1344006175
 21
10.0746252586
  0
LINE
  5
2B1
100
AcDbEntity
  8
0
100
AcDbLine
 62
7
  6
CONTINUOUS
 10
8.1315329561
 20
10.0746252586
 11
8.0493672128
 21
10.0746252586
  0
LINE
  5
2B2
100
AcDbEntity
  8
0
100
AcDbLine
 62
7
  6
CONTINUOUS
 10
7.8866890256
 20
10.0746252586
 11
7.8045232823
 21
10.0746252586
  0
LINE
  5
2B3
100
AcDbEntity
  8
0
100
AcDbLine
 62
7
  6
CONTINUOUS
 10
7.5115663608
 20
10.0746252586
 11
7.4294006175
 21
10.0746252586
  0
LINE
  5
2B4
100
AcDbEntity
  8
0
100
AcDbLine
 62
7
  6
CONTINUOUS
 10
7.0514102913
 20
10.0746252586
 11
6.969244548
 21
10.0746252586
  0
LINE
  5
2B5
100
AcDbEntity
  8
0
100
AcDbLine
 62
7
  6
CONTINUOUS
 10
6.5617224303
 20
10.0746252586
 11
6.479556687
 21
10.0746252586
  0
LINE
  5
2B6
100
AcDbEntity
  8
0
100
AcDbLine
 62
7
  6
CONTINUOUS
 10
6.1015663608
 20
10.0746252586
 11
6.0194006175
 21
10.0746252586
  0
LINE
  5
2B7
100
AcDbEntity
  8
0
100
AcDbLine
 62
7
  6
CONTINUOUS
 10
5.726443696
 20
10.0746252586
 11
5.6442779527
 21
10.0746252586
  0
LINE
  5
2B8
100
AcDbEntity
  8
0
100
AcDbLine
 62
7
  6
CONTINUOUS
 10
5.4815997655
 20
10.0746252586
 11
5.3994340222
 21
10.0746252586
  0
LINE
  5
2B9
100
AcDbEntity
  8
0
100
AcDbLine
 62
7
  6
CONTINUOUS
 10
5.3965663608
 20
10.0746252586
 11
5.3144006175
 21
10.0746252586
  0
LINE
  5
2BA
100
AcDbEntity
  8
0
100
AcDbLine
 62
7
  6
CONTINUOUS
 10
6.5804834891
 20
10.0753266314
 11
6.7085558862
 21
10.0753266314
  0
LINE
  5
2BB
100
AcDbEntity
  8
0
100
AcDbLine
 62
7
  6
CONTINUOUS
 10
6.8224110921
 20
10.0753266314
 11
6.9504834891
 21
10.0753266314
  0
LINE
  5
2BC
100
AcDbEntity
  8
0
100
AcDbLine
 62
7
  6
CONTINUOUS
 10
6.3378577663
 20
10.0785331091
 11
6.4325654003
 21
10.0785331091
  0
LINE
  5
2BD
100
AcDbEntity
  8
0
100
AcDbLine
 62
7
  6
CONTINUOUS
 10
6.5717846579
 20
10.0785331091
 11
6.7083154003
 21
10.0785331091
  0
LINE
  5
2BE
100
AcDbEntity
  8
0
100
AcDbLine
 62
7
  6
CONTINUOUS
 10
6.8226515779
 20
10.0785331091
 11
6.9591823204
 21
10.0785331091
  0
LINE
  5
2BF
100
AcDbEntity
  8
0
100
AcDbLine
 62
7
  6
CONTINUOUS
 10
7.0984015779
 20
10.0785331091
 11
7.193109212
 21
10.0785331091
  0
LINE
  5
2C0
100
AcDbEntity
  8
0
100
AcDbLine
 62
9
  6
CONTINUOUS
 10
6.3326641037
 20
10.0787001189
 11
6.4325528746
 21
10.0787001189
  0
LINE
  5
2C1
100
AcDbEntity
  8
0
100
AcDbLine
 62
9
  6
CONTINUOUS
 10
6.5719646625
 20
10.0787001189
 11
6.7083028746
 21
10.0787001189
  0
LINE
  5
2C2
100
AcDbEntity
  8
0
100
AcDbLine
 62
9
  6
CONTINUOUS
 10
6.8226641037
 20
10.0787001189
 11
6.9590023158
 21
10.0787001189
  0
LINE
  5
2C3
100
AcDbEntity
  8
0
100
AcDbLine
 62
9
  6
CONTINUOUS
 10
7.0984141037
 20
10.0787001189
 11
7.1983028746
 21
10.0787001189
  0
LINE
  5
2C4
100
AcDbEntity
  8
0
100
AcDbLine
 62
9
  6
CONTINUOUS
 10
7.3808021453
 20
10.0823853794
 11
7.3129404982
 21
10.0823853794
  0
LINE
  5
2C5
100
AcDbEntity
  8
0
100
AcDbLine
 62
9
  6
CONTINUOUS
 10
7.1980264801
 20
10.0823853794
 11
7.0645252131
 21
10.0823853794
  0
LINE
  5
2C6
100
AcDbEntity
  8
0
100
AcDbLine
 62
9
  6
CONTINUOUS
 10
6.9561296261
 20
10.0823853794
 11
6.8229404982
 21
10.0823853794
  0
LINE
  5
2C7
100
AcDbEntity
  8
0
100
AcDbLine
 62
9
  6
CONTINUOUS
 10
6.7080264801
 20
10.0823853794
 11
6.5748373521
 21
10.0823853794
  0
LINE
  5
2C8
100
AcDbEntity
  8
0
100
AcDbLine
 62
9
  6
CONTINUOUS
 10
6.4664417651
 20
10.0823853794
 11
6.3329404982
 21
10.0823853794
  0
LINE
  5
2C9
100
AcDbEntity
  8
0
100
AcDbLine
 62
9
  6
CONTINUOUS
 10
6.2180264801
 20
10.0823853794
 11
6.1501648329
 21
10.0823853794
  0
LINE
  5
2CA
100
AcDbEntity
  8
0
100
AcDbLine
 62
9
  6
CONTINUOUS
 10
8.2315243504
 20
10.0885034093
 11
8.0344092231
 21
10.0885034093
  0
LINE
  5
2CB
100
AcDbEntity
  8
0
100
AcDbLine
 62
9
  6
CONTINUOUS
 10
7.9016470152
 20
10.0885034093
 11
7.7895652926
 21
10.0885034093
  0
LINE
  5
2CC
100
AcDbEntity
  8
0
100
AcDbLine
 62
9
  6
CONTINUOUS
 10
7.5265243504
 20
10.0885034093
 11
7.4144426278
 21
10.0885034093
  0
LINE
  5
2CD
100
AcDbEntity
  8
0
100
AcDbLine
 62
9
  6
CONTINUOUS
 10
7.066368281
 20
10.0885034093
 11
6.9542865583
 21
10.0885034093
  0
LINE
  5
2CE
100
AcDbEntity
  8
0
100
AcDbLine
 62
9
  6
CONTINUOUS
 10
6.5766804199
 20
10.0885034093
 11
6.4645986973
 21
10.0885034093
  0
LINE
  5
2CF
100
AcDbEntity
  8
0
100
AcDbLine
 62
9
  6
CONTINUOUS
 10
6.1165243504
 20
10.0885034093
 11
6.0044426278
 21
10.0885034093
  0
LINE
  5
2D0
100
AcDbEntity
  8
0
100
AcDbLine
 62
9
  6
CONTINUOUS
 10
5.7414016856
 20
10.0885034093
 11
5.629319963
 21
10.0885034093
  0
LINE
  5
2D1
100
AcDbEntity
  8
0
100
AcDbLine
 62
9
  6
CONTINUOUS
 10
5.4965577551
 20
10.0885034093
 11
5.2994426278
 21
10.0885034093
  0
LINE
  5
2D2
100
AcDbEntity
  8
0
100
AcDbLine
 62
7
  6
CONTINUOUS
 10
5.9749217863
 20
10.091534497
 11
6.0042152963
 21
10.091534497
  0
LINE
  5
2D3
100
AcDbEntity
  8
0
100
AcDbLine
 62
7
  6
CONTINUOUS
 10
6.116751682
 20
10.091534497
 11
6.2173402963
 21
10.091534497
  0
LINE
  5
2D4
100
AcDbEntity
  8
0
100
AcDbLine
 62
7
  6
CONTINUOUS
 10
6.333626682
 20
10.091534497
 11
6.4643713657
 21
10.091534497
  0
LINE
  5
2D5
100
AcDbEntity
  8
0
100
AcDbLine
 62
7
  6
CONTINUOUS
 10
6.5769077515
 20
10.091534497
 11
6.7073402963
 21
10.091534497
  0
LINE
  5
2D6
100
AcDbEntity
  8
0
100
AcDbLine
 62
7
  6
CONTINUOUS
 10
6.823626682
 20
10.091534497
 11
6.9540592268
 21
10.091534497
  0
LINE
  5
2D7
100
AcDbEntity
  8
0
100
AcDbLine
 62
7
  6
CONTINUOUS
 10
7.0665956125
 20
10.091534497
 11
7.1973402963
 21
10.091534497
  0
LINE
  5
2D8
100
AcDbEntity
  8
0
100
AcDbLine
 62
7
  6
CONTINUOUS
 10
7.313626682
 20
10.091534497
 11
7.4142152963
 21
10.091534497
  0
LINE
  5
2D9
100
AcDbEntity
  8
0
100
AcDbLine
 62
7
  6
CONTINUOUS
 10
7.526751682
 20
10.091534497
 11
7.556045192
 21
10.091534497
  0
LINE
  5
2DA
100
AcDbEntity
  8
0
100
AcDbLine
 62
9
  6
CONTINUOUS
 10
5.8383913676
 20
10.0922571471
 11
5.8585812018
 21
10.0922571471
  0
LINE
  5
2DB
100
AcDbEntity
  8
0
100
AcDbLine
 62
9
  6
CONTINUOUS
 10
5.9749835257
 20
10.0922571471
 11
6.0041610975
 21
10.0922571471
  0
LINE
  5
2DC
100
AcDbEntity
  8
0
100
AcDbLine
 62
9
  6
CONTINUOUS
 10
6.1168058808
 20
10.0922571471
 11
6.2172860975
 21
10.0922571471
  0
LINE
  5
2DD
100
AcDbEntity
  8
0
100
AcDbLine
 62
9
  6
CONTINUOUS
 10
6.3336808808
 20
10.0922571471
 11
6.464317167
 21
10.0922571471
  0
LINE
  5
2DE
100
AcDbEntity
  8
0
100
AcDbLine
 62
9
  6
CONTINUOUS
 10
6.5769619503
 20
10.0922571471
 11
6.7072860975
 21
10.0922571471
  0
LINE
  5
2DF
100
AcDbEntity
  8
0
100
AcDbLine
 62
9
  6
CONTINUOUS
 10
6.8236808808
 20
10.0922571471
 11
6.954005028
 21
10.0922571471
  0
LINE
  5
2E0
100
AcDbEntity
  8
0
100
AcDbLine
 62
9
  6
CONTINUOUS
 10
7.0666498113
 20
10.0922571471
 11
7.1972860975
 21
10.0922571471
  0
LINE
  5
2E1
100
AcDbEntity
  8
0
100
AcDbLine
 62
9
  6
CONTINUOUS
 10
7.3136808808
 20
10.0922571471
 11
7.4141610975
 21
10.0922571471
  0
LINE
  5
2E2
100
AcDbEntity
  8
0
100
AcDbLine
 62
9
  6
CONTINUOUS
 10
7.5268058808
 20
10.0922571471
 11
7.5559834525
 21
10.0922571471
  0
LINE
  5
2E3
100
AcDbEntity
  8
0
100
AcDbLine
 62
9
  6
CONTINUOUS
 10
7.6723857765
 20
10.0922571471
 11
7.6925756107
 21
10.0922571471
  0
LINE
  5
2E4
100
AcDbEntity
  8
0
100
AcDbLine
 62
9
  6
CONTINUOUS
 10
7.7889320949
 20
10.096946045
 11
7.5271575481
 21
10.096946045
  0
LINE
  5
2E5
100
AcDbEntity
  8
0
100
AcDbLine
 62
9
  6
CONTINUOUS
 10
7.4138094302
 20
10.096946045
 11
7.0670014786
 21
10.096946045
  0
LINE
  5
2E6
100
AcDbEntity
  8
0
100
AcDbLine
 62
9
  6
CONTINUOUS
 10
6.9536533607
 20
10.096946045
 11
6.5773136176
 21
10.096946045
  0
LINE
  5
2E7
100
AcDbEntity
  8
0
100
AcDbLine
 62
9
  6
CONTINUOUS
 10
6.4639654996
 20
10.096946045
 11
6.1171575481
 21
10.096946045
  0
LINE
  5
2E8
100
AcDbEntity
  8
0
100
AcDbLine
 62
9
  6
CONTINUOUS
 10
6.0038094302
 20
10.096946045
 11
5.7420348833
 21
10.096946045
  0
LINE
  5
2E9
100
AcDbEntity
  8
0
100
AcDbLine
 62
7
  6
CONTINUOUS
 10
8.6465663608
 20
10.1046252586
 11
8.5017041378
 21
10.1046252586
  0
LINE
  5
2EA
100
AcDbEntity
  8
0
100
AcDbLine
 62
7
  6
CONTINUOUS
 10
8.4000531038
 20
10.1046252586
 11
8.3178873604
 21
10.1046252586
  0
LINE
  5
2EB
100
AcDbEntity
  8
0
100
AcDbLine
 62
7
  6
CONTINUOUS
 10
8.1076428382
 20
10.1046252586
 11
8.0254770949
 21
10.1046252586
  0
LINE
  5
2EC
100
AcDbEntity
  8
0
100
AcDbLine
 62
7
  6
CONTINUOUS
 10
7.7265663608
 20
10.1046252586
 11
7.6444006175
 21
10.1046252586
  0
LINE
  5
2ED
100
AcDbEntity
  8
0
100
AcDbLine
 62
7
  6
CONTINUOUS
 10
7.2827934038
 20
10.1046252586
 11
7.2006276605
 21
10.1046252586
  0
LINE
  5
2EE
100
AcDbEntity
  8
0
100
AcDbLine
 62
7
  6
CONTINUOUS
 10
6.8065663608
 20
10.1046252586
 11
6.7244006175
 21
10.1046252586
  0
LINE
  5
2EF
100
AcDbEntity
  8
0
100
AcDbLine
 62
7
  6
CONTINUOUS
 10
6.3303393178
 20
10.1046252586
 11
6.2481735745
 21
10.1046252586
  0
LINE
  5
2F0
100
AcDbEntity
  8
0
100
AcDbLine
 62
7
  6
CONTINUOUS
 10
5.8865663608
 20
10.1046252586
 11
5.8044006175
 21
10.1046252586
  0
LINE
  5
2F1
100
AcDbEntity
  8
0
100
AcDbLine
 62
7
  6
CONTINUOUS
 10
5.5054898834
 20
10.1046252586
 11
5.4233241401
 21
10.1046252586
  0
LINE
  5
2F2
100
AcDbEntity
  8
0
100
AcDbLine
 62
7
  6
CONTINUOUS
 10
5.2130796178
 20
10.1046252586
 11
5.1309138745
 21
10.1046252586
  0
LINE
  5
2F3
100
AcDbEntity
  8
0
100
AcDbLine
 62
7
  6
CONTINUOUS
 10
5.0292628404
 20
10.1046252586
 11
4.8844006175
 21
10.1046252586
  0
LINE
  5
2F4
100
AcDbEntity
  8
0
100
AcDbLine
 62
7
  6
CONTINUOUS
 10
5.5175680785
 20
10.1107511398
 11
5.6276513832
 21
10.1107511398
  0
LINE
  5
2F5
100
AcDbEntity
  8
0
100
AcDbLine
 62
7
  6
CONTINUOUS
 10
5.7430702654
 20
10.1107511398
 11
5.7923224224
 21
10.1107511398
  0
LINE
  5
2F6
100
AcDbEntity
  8
0
100
AcDbLine
 62
7
  6
CONTINUOUS
 10
5.8986445559
 20
10.1107511398
 11
6.002774048
 21
10.1107511398
  0
LINE
  5
2F7
100
AcDbEntity
  8
0
100
AcDbLine
 62
7
  6
CONTINUOUS
 10
6.1181929302
 20
10.1107511398
 11
6.2360953794
 21
10.1107511398
  0
LINE
  5
2F8
100
AcDbEntity
  8
0
100
AcDbLine
 62
7
  6
CONTINUOUS
 10
6.3424175129
 20
10.1107511398
 11
6.4629301175
 21
10.1107511398
  0
LINE
  5
2F9
100
AcDbEntity
  8
0
100
AcDbLine
 62
7
  6
CONTINUOUS
 10
6.5783489997
 20
10.1107511398
 11
6.7123224224
 21
10.1107511398
  0
LINE
  5
2FA
100
AcDbEntity
  8
0
100
AcDbLine
 62
7
  6
CONTINUOUS
 10
6.8186445559
 20
10.1107511398
 11
6.9526179786
 21
10.1107511398
  0
LINE
  5
2FB
100
AcDbEntity
  8
0
100
AcDbLine
 62
7
  6
CONTINUOUS
 10
7.0680368607
 20
10.1107511398
 11
7.1885494654
 21
10.1107511398
  0
LINE
  5
2FC
100
AcDbEntity
  8
0
100
AcDbLine
 62
7
  6
CONTINUOUS
 10
7.2948715988
 20
10.1107511398
 11
7.412774048
 21
10.1107511398
  0
LINE
  5
2FD
100
AcDbEntity
  8
0
100
AcDbLine
 62
7
  6
CONTINUOUS
 10
7.5281929302
 20
10.1107511398
 11
7.6323224224
 21
10.1107511398
  0
LINE
  5
2FE
100
AcDbEntity
  8
0
100
AcDbLine
 62
7
  6
CONTINUOUS
 10
7.7386445559
 20
10.1107511398
 11
7.7878967128
 21
10.1107511398
  0
LINE
  5
2FF
100
AcDbEntity
  8
0
100
AcDbLine
 62
7
  6
CONTINUOUS
 10
7.903315595
 20
10.1107511398
 11
8.0133988998
 21
10.1107511398
  0
LINE
  5
300
100
AcDbEntity
  8
0
100
AcDbLine
 62
9
  6
CONTINUOUS
 10
5.7432316968
 20
10.1122950515
 11
5.7913324475
 21
10.1122950515
  0
LINE
  5
301
100
AcDbEntity
  8
0
100
AcDbLine
 62
9
  6
CONTINUOUS
 10
5.8996345308
 20
10.1122950515
 11
6.0026582547
 21
10.1122950515
  0
LINE
  5
302
100
AcDbEntity
  8
0
100
AcDbLine
 62
9
  6
CONTINUOUS
 10
6.1183087236
 20
10.1122950515
 11
6.2351054045
 21
10.1122950515
  0
LINE
  5
303
100
AcDbEntity
  8
0
100
AcDbLine
 62
9
  6
CONTINUOUS
 10
6.3434074878
 20
10.1122950515
 11
6.4628143241
 21
10.1122950515
  0
LINE
  5
304
100
AcDbEntity
  8
0
100
AcDbLine
 62
9
  6
CONTINUOUS
 10
6.5784647931
 20
10.1122950515
 11
6.7113324475
 21
10.1122950515
  0
LINE
  5
305
100
AcDbEntity
  8
0
100
AcDbLine
 62
9
  6
CONTINUOUS
 10
6.8196345308
 20
10.1122950515
 11
6.9525021852
 21
10.1122950515
  0
LINE
  5
306
100
AcDbEntity
  8
0
100
AcDbLine
 62
9
  6
CONTINUOUS
 10
7.0681526541
 20
10.1122950515
 11
7.1875594905
 21
10.1122950515
  0
LINE
  5
307
100
AcDbEntity
  8
0
100
AcDbLine
 62
9
  6
CONTINUOUS
 10
7.2958615738
 20
10.1122950515
 11
7.4126582547
 21
10.1122950515
  0
LINE
  5
308
100
AcDbEntity
  8
0
100
AcDbLine
 62
9
  6
CONTINUOUS
 10
7.5283087236
 20
10.1122950515
 11
7.6313324475
 21
10.1122950515
  0
LINE
  5
309
100
AcDbEntity
  8
0
100
AcDbLine
 62
9
  6
CONTINUOUS
 10
7.7396345308
 20
10.1122950515
 11
7.7877352815
 21
10.1122950515
  0
LINE
  5
30A
100
AcDbEntity
  8
0
100
AcDbLine
 62
9
  6
CONTINUOUS
 10
8.6615243504
 20
10.1185034093
 11
8.4867461482
 21
10.1185034093
  0
LINE
  5
30B
100
AcDbEntity
  8
0
100
AcDbLine
 62
9
  6
CONTINUOUS
 10
8.4150110934
 20
10.1185034093
 11
8.3029293708
 21
10.1185034093
  0
LINE
  5
30C
100
AcDbEntity
  8
0
100
AcDbLine
 62
9
  6
CONTINUOUS
 10
8.1226008278
 20
10.1185034093
 11
8.0105191052
 21
10.1185034093
  0
LINE
  5
30D
100
AcDbEntity
  8
0
100
AcDbLine
 62
9
  6
CONTINUOUS
 10
7.7415243504
 20
10.1185034093
 11
7.6294426278
 21
10.1185034093
  0
LINE
  5
30E
100
AcDbEntity
  8
0
100
AcDbLine
 62
9
  6
CONTINUOUS
 10
7.2977513934
 20
10.1185034093
 11
7.1856696708
 21
10.1185034093
  0
LINE
  5
30F
100
AcDbEntity
  8
0
100
AcDbLine
 62
9
  6
CONTINUOUS
 10
6.8215243504
 20
10.1185034093
 11
6.7094426278
 21
10.1185034093
  0
LINE
  5
310
100
AcDbEntity
  8
0
100
AcDbLine
 62
9
  6
CONTINUOUS
 10
6.3452973075
 20
10.1185034093
 11
6.2332155848
 21
10.1185034093
  0
LINE
  5
311
100
AcDbEntity
  8
0
100
AcDbLine
 62
9
  6
CONTINUOUS
 10
5.9015243504
 20
10.1185034093
 11
5.7894426278
 21
10.1185034093
  0
LINE
  5
312
100
AcDbEntity
  8
0
100
AcDbLine
 62
9
  6
CONTINUOUS
 10
5.5204478731
 20
10.1185034093
 11
5.4083661504
 21
10.1185034093
  0
LINE
  5
313
100
AcDbEntity
  8
0
100
AcDbLine
 62
9
  6
CONTINUOUS
 10
5.2280376075
 20
10.1185034093
 11
5.1159558849
 21
10.1185034093
  0
LINE
  5
314
100
AcDbEntity
  8
0
100
AcDbLine
 62
9
  6
CONTINUOUS
 10
5.0442208301
 20
10.1185034093
 11
4.8694426278
 21
10.1185034093
  0
LINE
  5
315
100
AcDbEntity
  8
0
100
AcDbLine
 62
9
  6
CONTINUOUS
 10
8.2370367904
 20
10.1190420033
 11
8.1226008278
 21
10.1190420033
  0
LINE
  5
316
100
AcDbEntity
  8
0
100
AcDbLine
 62
9
  6
CONTINUOUS
 10
8.0104787107
 20
10.1190420033
 11
7.7415243504
 21
10.1190420033
  0
LINE
  5
317
100
AcDbEntity
  8
0
100
AcDbLine
 62
9
  6
CONTINUOUS
 10
7.6294426278
 20
10.1190420033
 11
7.2977513934
 21
10.1190420033
  0
LINE
  5
318
100
AcDbEntity
  8
0
100
AcDbLine
 62
9
  6
CONTINUOUS
 10
7.1856696708
 20
10.1190420033
 11
6.8215243504
 21
10.1190420033
  0
LINE
  5
319
100
AcDbEntity
  8
0
100
AcDbLine
 62
9
  6
CONTINUOUS
 10
6.7094426278
 20
10.1190420033
 11
6.3452973075
 21
10.1190420033
  0
LINE
  5
31A
100
AcDbEntity
  8
0
100
AcDbLine
 62
9
  6
CONTINUOUS
 10
6.2332155848
 20
10.1190420033
 11
5.9015243504
 21
10.1190420033
  0
LINE
  5
31B
100
AcDbEntity
  8
0
100
AcDbLine
 62
9
  6
CONTINUOUS
 10
5.7894426278
 20
10.1190420033
 11
5.5204882676
 21
10.1190420033
  0
LINE
  5
31C
100
AcDbEntity
  8
0
100
AcDbLine
 62
9
  6
CONTINUOUS
 10
5.4083661504
 20
10.1190420033
 11
5.2939301878
 21
10.1190420033
  0
LINE
  5
31D
100
AcDbEntity
  8
0
100
AcDbLine
 62
7
  6
CONTINUOUS
 10
5.0554603031
 20
10.1371942383
 11
5.1145540727
 21
10.1371942383
  0
LINE
  5
31E
100
AcDbEntity
  8
0
100
AcDbLine
 62
7
  6
CONTINUOUS
 10
5.2294394196
 20
10.1371942383
 11
5.4069643383
 21
10.1371942383
  0
LINE
  5
31F
100
AcDbEntity
  8
0
100
AcDbLine
 62
7
  6
CONTINUOUS
 10
5.5218496852
 20
10.1371942383
 11
5.7880408157
 21
10.1371942383
  0
LINE
  5
320
100
AcDbEntity
  8
0
100
AcDbLine
 62
7
  6
CONTINUOUS
 10
5.9029261626
 20
10.1371942383
 11
6.2318137727
 21
10.1371942383
  0
LINE
  5
321
100
AcDbEntity
  8
0
100
AcDbLine
 62
7
  6
CONTINUOUS
 10
6.3466991196
 20
10.1371942383
 11
6.7080408157
 21
10.1371942383
  0
LINE
  5
322
100
AcDbEntity
  8
0
100
AcDbLine
 62
7
  6
CONTINUOUS
 10
6.8229261626
 20
10.1371942383
 11
7.1842678586
 21
10.1371942383
  0
LINE
  5
323
100
AcDbEntity
  8
0
100
AcDbLine
 62
7
  6
CONTINUOUS
 10
7.2991532056
 20
10.1371942383
 11
7.6280408157
 21
10.1371942383
  0
LINE
  5
324
100
AcDbEntity
  8
0
100
AcDbLine
 62
7
  6
CONTINUOUS
 10
7.7429261626
 20
10.1371942383
 11
8.009117293
 21
10.1371942383
  0
LINE
  5
325
100
AcDbEntity
  8
0
100
AcDbLine
 62
7
  6
CONTINUOUS
 10
8.12400264
 20
10.1371942383
 11
8.3015275586
 21
10.1371942383
  0
LINE
  5
326
100
AcDbEntity
  8
0
100
AcDbLine
 62
7
  6
CONTINUOUS
 10
8.4164129056
 20
10.1371942383
 11
8.4755066752
 21
10.1371942383
  0
LINE
  5
327
100
AcDbEntity
  8
0
100
AcDbLine
 62
7
  6
CONTINUOUS
 10
9.0765663608
 20
10.1396252586
 11
8.9447956711
 21
10.1396252586
  0
LINE
  5
328
100
AcDbEntity
  8
0
100
AcDbLine
 62
7
  6
CONTINUOUS
 10
8.8803145496
 20
10.1396252586
 11
8.7981488063
 21
10.1396252586
  0
LINE
  5
329
100
AcDbEntity
  8
0
100
AcDbLine
 62
7
  6
CONTINUOUS
 10
8.643034938
 20
10.1396252586
 11
8.5608691947
 21
10.1396252586
  0
LINE
  5
32A
100
AcDbEntity
  8
0
100
AcDbLine
 62
7
  6
CONTINUOUS
 10
8.3254928372
 20
10.1396252586
 11
8.2433270939
 21
10.1396252586
  0
LINE
  5
32B
100
AcDbEntity
  8
0
100
AcDbLine
 62
7
  6
CONTINUOUS
 10
7.9415663608
 20
10.1396252586
 11
7.8594006175
 21
10.1396252586
  0
LINE
  5
32C
100
AcDbEntity
  8
0
100
AcDbLine
 62
7
  6
CONTINUOUS
 10
7.508034938
 20
10.1396252586
 11
7.4258691947
 21
10.1396252586
  0
LINE
  5
32D
100
AcDbEntity
  8
0
100
AcDbLine
 62
7
  6
CONTINUOUS
 10
7.0438459724
 20
10.1396252586
 11
6.9616802291
 21
10.1396252586
  0
LINE
  5
32E
100
AcDbEntity
  8
0
100
AcDbLine
 62
7
  6
CONTINUOUS
 10
6.5692867492
 20
10.1396252586
 11
6.4871210059
 21
10.1396252586
  0
LINE
  5
32F
100
AcDbEntity
  8
0
100
AcDbLine
 62
7
  6
CONTINUOUS
 10
6.1050977836
 20
10.1396252586
 11
6.0229320402
 21
10.1396252586
  0
LINE
  5
330
100
AcDbEntity
  8
0
100
AcDbLine
 62
7
  6
CONTINUOUS
 10
5.6715663608
 20
10.1396252586
 11
5.5894006175
 21
10.1396252586
  0
LINE
  5
331
100
AcDbEntity
  8
0
100
AcDbLine
 62
7
  6
CONTINUOUS
 10
5.2876398844
 20
10.1396252586
 11
5.205474141
 21
10.1396252586
  0
LINE
  5
332
100
AcDbEntity
  8
0
100
AcDbLine
 62
7
  6
CONTINUOUS
 10
4.9700977836
 20
10.1396252586
 11
4.8879320402
 21
10.1396252586
  0
LINE
  5
333
100
AcDbEntity
  8
0
100
AcDbLine
 62
7
  6
CONTINUOUS
 10
4.7328181719
 20
10.1396252586
 11
4.6506524286
 21
10.1396252586
  0
LINE
  5
334
100
AcDbEntity
  8
0
100
AcDbLine
 62
7
  6
CONTINUOUS
 10
4.5861713071
 20
10.1396252586
 11
4.4544006175
 21
10.1396252586
  0
LINE
  5
335
100
AcDbEntity
  8
0
100
AcDbLine
 62
9
  6
CONTINUOUS
 10
5.0458301868
 20
10.1398682487
 11
5.1143535219
 21
10.1398682487
  0
LINE
  5
336
100
AcDbEntity
  8
0
100
AcDbLine
 62
9
  6
CONTINUOUS
 10
5.2901868999
 20
10.1398682487
 11
5.4067637875
 21
10.1398682487
  0
LINE
  5
337
100
AcDbEntity
  8
0
100
AcDbLine
 62
9
  6
CONTINUOUS
 10
5.522050236
 20
10.1398682487
 11
5.5868536019
 21
10.1398682487
  0
LINE
  5
338
100
AcDbEntity
  8
0
100
AcDbLine
 62
9
  6
CONTINUOUS
 10
5.6741133763
 20
10.1398682487
 11
5.7878402649
 21
10.1398682487
  0
LINE
  5
339
100
AcDbEntity
  8
0
100
AcDbLine
 62
9
  6
CONTINUOUS
 10
5.9031267134
 20
10.1398682487
 11
6.0203850247
 21
10.1398682487
  0
LINE
  5
33A
100
AcDbEntity
  8
0
100
AcDbLine
 62
9
  6
CONTINUOUS
 10
6.1076447991
 20
10.1398682487
 11
6.2316132219
 21
10.1398682487
  0
LINE
  5
33B
100
AcDbEntity
  8
0
100
AcDbLine
 62
9
  6
CONTINUOUS
 10
6.3468996704
 20
10.1398682487
 11
6.4845739903
 21
10.1398682487
  0
LINE
  5
33C
100
AcDbEntity
  8
0
100
AcDbLine
 62
9
  6
CONTINUOUS
 10
6.5718337647
 20
10.1398682487
 11
6.7078402649
 21
10.1398682487
  0
LINE
  5
33D
100
AcDbEntity
  8
0
100
AcDbLine
 62
9
  6
CONTINUOUS
 10
6.8231267134
 20
10.1398682487
 11
6.9591332136
 21
10.1398682487
  0
LINE
  5
33E
100
AcDbEntity
  8
0
100
AcDbLine
 62
9
  6
CONTINUOUS
 10
7.0463929879
 20
10.1398682487
 11
7.1840673079
 21
10.1398682487
  0
LINE
  5
33F
100
AcDbEntity
  8
0
100
AcDbLine
 62
9
  6
CONTINUOUS
 10
7.2993537564
 20
10.1398682487
 11
7.4233221792
 21
10.1398682487
  0
LINE
  5
340
100
AcDbEntity
  8
0
100
AcDbLine
 62
9
  6
CONTINUOUS
 10
7.5105819536
 20
10.1398682487
 11
7.6278402649
 21
10.1398682487
  0
LINE
  5
341
100
AcDbEntity
  8
0
100
AcDbLine
 62
9
  6
CONTINUOUS
 10
7.7431267134
 20
10.1398682487
 11
7.8568536019
 21
10.1398682487
  0
LINE
  5
342
100
AcDbEntity
  8
0
100
AcDbLine
 62
9
  6
CONTINUOUS
 10
7.9441133763
 20
10.1398682487
 11
8.0089167423
 21
10.1398682487
  0
LINE
  5
343
100
AcDbEntity
  8
0
100
AcDbLine
 62
9
  6
CONTINUOUS
 10
8.1242031908
 20
10.1398682487
 11
8.2407800784
 21
10.1398682487
  0
LINE
  5
344
100
AcDbEntity
  8
0
100
AcDbLine
 62
9
  6
CONTINUOUS
 10
8.4166134564
 20
10.1398682487
 11
8.4851367915
 21
10.1398682487
  0
LINE
  5
345
100
AcDbEntity
  8
0
100
AcDbLine
 62
9
  6
CONTINUOUS
 10
8.6652265872
 20
10.1486963464
 11
8.6568023198
 21
10.1486963464
  0
LINE
  5
346
100
AcDbEntity
  8
0
100
AcDbLine
 62
9
  6
CONTINUOUS
 10
8.5471018129
 20
10.1486963464
 11
8.3392602191
 21
10.1486963464
  0
LINE
  5
347
100
AcDbEntity
  8
0
100
AcDbLine
 62
9
  6
CONTINUOUS
 10
8.2295597121
 20
10.1486963464
 11
7.9553337426
 21
10.1486963464
  0
LINE
  5
348
100
AcDbEntity
  8
0
100
AcDbLine
 62
9
  6
CONTINUOUS
 10
7.8456332356
 20
10.1486963464
 11
7.5218023198
 21
10.1486963464
  0
LINE
  5
349
100
AcDbEntity
  8
0
100
AcDbLine
 62
9
  6
CONTINUOUS
 10
7.4121018129
 20
10.1486963464
 11
7.0576133542
 21
10.1486963464
  0
LINE
  5
34A
100
AcDbEntity
  8
0
100
AcDbLine
 62
9
  6
CONTINUOUS
 10
6.9479128473
 20
10.1486963464
 11
6.583054131
 21
10.1486963464
  0
LINE
  5
34B
100
AcDbEntity
  8
0
100
AcDbLine
 62
9
  6
CONTINUOUS
 10
6.473353624
 20
10.1486963464
 11
6.1188651654
 21
10.1486963464
  0
LINE
  5
34C
100
AcDbEntity
  8
0
100
AcDbLine
 62
9
  6
CONTINUOUS
 10
6.0091646584
 20
10.1486963464
 11
5.6853337426
 21
10.1486963464
  0
LINE
  5
34D
100
AcDbEntity
  8
0
100
AcDbLine
 62
9
  6
CONTINUOUS
 10
5.5756332356
 20
10.1486963464
 11
5.3014072662
 21
10.1486963464
  0
LINE
  5
34E
100
AcDbEntity
  8
0
100
AcDbLine
 62
9
  6
CONTINUOUS
 10
5.1917067592
 20
10.1486963464
 11
4.9838651654
 21
10.1486963464
  0
LINE
  5
34F
100
AcDbEntity
  8
0
100
AcDbLine
 62
9
  6
CONTINUOUS
 10
4.8741646584
 20
10.1486963464
 11
4.8657403911
 21
10.1486963464
  0
LINE
  5
350
100
AcDbEntity
  8
0
100
AcDbLine
 62
9
  6
CONTINUOUS
 10
9.0915243504
 20
10.1535034093
 11
8.9298376815
 21
10.1535034093
  0
LINE
  5
351
100
AcDbEntity
  8
0
100
AcDbLine
 62
9
  6
CONTINUOUS
 10
8.8952725393
 20
10.1535034093
 11
8.7831908167
 21
10.1535034093
  0
LINE
  5
352
100
AcDbEntity
  8
0
100
AcDbLine
 62
9
  6
CONTINUOUS
 10
8.6579929277
 20
10.1535034093
 11
8.5459112051
 21
10.1535034093
  0
LINE
  5
353
100
AcDbEntity
  8
0
100
AcDbLine
 62
9
  6
CONTINUOUS
 10
8.3404508269
 20
10.1535034093
 11
8.2283691043
 21
10.1535034093
  0
LINE
  5
354
100
AcDbEntity
  8
0
100
AcDbLine
 62
9
  6
CONTINUOUS
 10
7.9565243504
 20
10.1535034093
 11
7.8444426278
 21
10.1535034093
  0
LINE
  5
355
100
AcDbEntity
  8
0
100
AcDbLine
 62
9
  6
CONTINUOUS
 10
7.5229929277
 20
10.1535034093
 11
7.4109112051
 21
10.1535034093
  0
LINE
  5
356
100
AcDbEntity
  8
0
100
AcDbLine
 62
9
  6
CONTINUOUS
 10
7.0588039621
 20
10.1535034093
 11
6.9467222394
 21
10.1535034093
  0
LINE
  5
357
100
AcDbEntity
  8
0
100
AcDbLine
 62
9
  6
CONTINUOUS
 10
6.5842447388
 20
10.1535034093
 11
6.4721630162
 21
10.1535034093
  0
LINE
  5
358
100
AcDbEntity
  8
0
100
AcDbLine
 62
9
  6
CONTINUOUS
 10
6.1200557732
 20
10.1535034093
 11
6.0079740506
 21
10.1535034093
  0
LINE
  5
359
100
AcDbEntity
  8
0
100
AcDbLine
 62
9
  6
CONTINUOUS
 10
5.6865243504
 20
10.1535034093
 11
5.5744426278
 21
10.1535034093
  0
LINE
  5
35A
100
AcDbEntity
  8
0
100
AcDbLine
 62
9
  6
CONTINUOUS
 10
5.302597874
 20
10.1535034093
 11
5.1905161514
 21
10.1535034093
  0
LINE
  5
35B
100
AcDbEntity
  8
0
100
AcDbLine
 62
9
  6
CONTINUOUS
 10
4.9850557732
 20
10.1535034093
 11
4.8729740506
 21
10.1535034093
  0
LINE
  5
35C
100
AcDbEntity
  8
0
100
AcDbLine
 62
9
  6
CONTINUOUS
 10
4.7477761616
 20
10.1535034093
 11
4.635694439
 21
10.1535034093
  0
LINE
  5
35D
100
AcDbEntity
  8
0
100
AcDbLine
 62
9
  6
CONTINUOUS
 10
4.6011292968
 20
10.1535034093
 11
4.4394426278
 21
10.1535034093
  0
LINE
  5
35E
100
AcDbEntity
  8
0
100
AcDbLine
 62
9
  6
CONTINUOUS
 10
8.7820067859
 20
10.1692904859
 11
8.6591769584
 21
10.1692904859
  0
LINE
  5
35F
100
AcDbEntity
  8
0
100
AcDbLine
 62
9
  6
CONTINUOUS
 10
8.5447271743
 20
10.1692904859
 11
8.3416348576
 21
10.1692904859
  0
LINE
  5
360
100
AcDbEntity
  8
0
100
AcDbLine
 62
9
  6
CONTINUOUS
 10
8.2271850735
 20
10.1692904859
 11
7.9577083812
 21
10.1692904859
  0
LINE
  5
361
100
AcDbEntity
  8
0
100
AcDbLine
 62
9
  6
CONTINUOUS
 10
7.8432585971
 20
10.1692904859
 11
7.5241769584
 21
10.1692904859
  0
LINE
  5
362
100
AcDbEntity
  8
0
100
AcDbLine
 62
9
  6
CONTINUOUS
 10
7.4097271743
 20
10.1692904859
 11
7.0599879928
 21
10.1692904859
  0
LINE
  5
363
100
AcDbEntity
  8
0
100
AcDbLine
 62
9
  6
CONTINUOUS
 10
6.9455382087
 20
10.1692904859
 11
6.5854287696
 21
10.1692904859
  0
LINE
  5
364
100
AcDbEntity
  8
0
100
AcDbLine
 62
9
  6
CONTINUOUS
 10
6.4709789855
 20
10.1692904859
 11
6.121239804
 21
10.1692904859
  0
LINE
  5
365
100
AcDbEntity
  8
0
100
AcDbLine
 62
9
  6
CONTINUOUS
 10
6.0067900198
 20
10.1692904859
 11
5.6877083812
 21
10.1692904859
  0
LINE
  5
366
100
AcDbEntity
  8
0
100
AcDbLine
 62
9
  6
CONTINUOUS
 10
5.5732585971
 20
10.1692904859
 11
5.3037819048
 21
10.1692904859
  0
LINE
  5
367
100
AcDbEntity
  8
0
100
AcDbLine
 62
9
  6
CONTINUOUS
 10
5.1893321206
 20
10.1692904859
 11
4.986239804
 21
10.1692904859
  0
LINE
  5
368
100
AcDbEntity
  8
0
100
AcDbLine
 62
9
  6
CONTINUOUS
 10
4.8717900198
 20
10.1692904859
 11
4.7489601923
 21
10.1692904859
  0
LINE
  5
369
100
AcDbEntity
  8
0
100
AcDbLine
 62
7
  6
CONTINUOUS
 10
4.7490798512
 20
10.1708859381
 11
4.8716703609
 21
10.1708859381
  0
LINE
  5
36A
100
AcDbEntity
  8
0
100
AcDbLine
 62
7
  6
CONTINUOUS
 10
4.9863594629
 20
10.1708859381
 11
5.1892124617
 21
10.1708859381
  0
LINE
  5
36B
100
AcDbEntity
  8
0
100
AcDbLine
 62
7
  6
CONTINUOUS
 10
5.3039015637
 20
10.1708859381
 11
5.5731389382
 21
10.1708859381
  0
LINE
  5
36C
100
AcDbEntity
  8
0
100
AcDbLine
 62
7
  6
CONTINUOUS
 10
5.6878280401
 20
10.1708859381
 11
6.0066703609
 21
10.1708859381
  0
LINE
  5
36D
100
AcDbEntity
  8
0
100
AcDbLine
 62
7
  6
CONTINUOUS
 10
6.1213594629
 20
10.1708859381
 11
6.4708593266
 21
10.1708859381
  0
LINE
  5
36E
100
AcDbEntity
  8
0
100
AcDbLine
 62
7
  6
CONTINUOUS
 10
6.5855484285
 20
10.1708859381
 11
6.9454185498
 21
10.1708859381
  0
LINE
  5
36F
100
AcDbEntity
  8
0
100
AcDbLine
 62
7
  6
CONTINUOUS
 10
7.0601076517
 20
10.1708859381
 11
7.4096075154
 21
10.1708859381
  0
LINE
  5
370
100
AcDbEntity
  8
0
100
AcDbLine
 62
7
  6
CONTINUOUS
 10
7.5242966173
 20
10.1708859381
 11
7.8431389382
 21
10.1708859381
  0
LINE
  5
371
100
AcDbEntity
  8
0
100
AcDbLine
 62
7
  6
CONTINUOUS
 10
7.9578280401
 20
10.1708859381
 11
8.2270654146
 21
10.1708859381
  0
LINE
  5
372
100
AcDbEntity
  8
0
100
AcDbLine
 62
7
  6
CONTINUOUS
 10
8.3417545165
 20
10.1708859381
 11
8.5446075154
 21
10.1708859381
  0
LINE
  5
373
100
AcDbEntity
  8
0
100
AcDbLine
 62
7
  6
CONTINUOUS
 10
8.6592966173
 20
10.1708859381
 11
8.781887127
 21
10.1708859381
  0
LINE
  5
374
100
AcDbEntity
  8
0
100
AcDbLine
 62
9
  6
CONTINUOUS
 10
4.6027602466
 20
10.1749998307
 11
4.6340822074
 21
10.1749998307
  0
LINE
  5
375
100
AcDbEntity
  8
0
100
AcDbLine
 62
9
  6
CONTINUOUS
 10
4.7494330551
 20
10.1749998307
 11
4.871361819
 21
10.1749998307
  0
LINE
  5
376
100
AcDbEntity
  8
0
100
AcDbLine
 62
9
  6
CONTINUOUS
 10
4.9866680048
 20
10.1749998307
 11
5.1889039198
 21
10.1749998307
  0
LINE
  5
377
100
AcDbEntity
  8
0
100
AcDbLine
 62
9
  6
CONTINUOUS
 10
5.3042101056
 20
10.1749998307
 11
5.5728303962
 21
10.1749998307
  0
LINE
  5
378
100
AcDbEntity
  8
0
100
AcDbLine
 62
9
  6
CONTINUOUS
 10
5.688136582
 20
10.1749998307
 11
6.006361819
 21
10.1749998307
  0
LINE
  5
379
100
AcDbEntity
  8
0
100
AcDbLine
 62
9
  6
CONTINUOUS
 10
6.1216680048
 20
10.1749998307
 11
6.4705507846
 21
10.1749998307
  0
LINE
  5
37A
100
AcDbEntity
  8
0
100
AcDbLine
 62
9
  6
CONTINUOUS
 10
6.5858569704
 20
10.1749998307
 11
6.9451100078
 21
10.1749998307
  0
LINE
  5
37B
100
AcDbEntity
  8
0
100
AcDbLine
 62
9
  6
CONTINUOUS
 10
7.0604161937
 20
10.1749998307
 11
7.4092989735
 21
10.1749998307
  0
LINE
  5
37C
100
AcDbEntity
  8
0
100
AcDbLine
 62
9
  6
CONTINUOUS
 10
7.5246051593
 20
10.1749998307
 11
7.8428303962
 21
10.1749998307
  0
LINE
  5
37D
100
AcDbEntity
  8
0
100
AcDbLine
 62
9
  6
CONTINUOUS
 10
7.958136582
 20
10.1749998307
 11
8.2267568727
 21
10.1749998307
  0
LINE
  5
37E
100
AcDbEntity
  8
0
100
AcDbLine
 62
9
  6
CONTINUOUS
 10
8.3420630585
 20
10.1749998307
 11
8.5442989735
 21
10.1749998307
  0
LINE
  5
37F
100
AcDbEntity
  8
0
100
AcDbLine
 62
9
  6
CONTINUOUS
 10
8.6596051593
 20
10.1749998307
 11
8.7815339232
 21
10.1749998307
  0
LINE
  5
380
100
AcDbEntity
  8
0
100
AcDbLine
 62
9
  6
CONTINUOUS
 10
8.8968847709
 20
10.1749998307
 11
8.9282067316
 21
10.1749998307
  0
LINE
  5
381
100
AcDbEntity
  8
0
100
AcDbLine
 62
7
  6
CONTINUOUS
 10
4.1194820397
 20
10.1976964551
 11
9.4114849386
 21
10.1976964551
  0
LINE
  5
382
100
AcDbEntity
  8
0
100
AcDbLine
 62
9
  6
CONTINUOUS
 10
9.4196142538
 20
10.2009183245
 11
4.1113527245
 21
10.2009183245
  0
LINE
  5
383
100
AcDbEntity
  8
0
100
AcDbLine
 62
9
  6
CONTINUOUS
 10
9.7054834891
 20
10.3659650045
 11
3.8254834891
 21
10.3659650045
  0
LINE
  5
384
100
AcDbEntity
  8
0
100
AcDbLine
 62
9
  6
CONTINUOUS
 10
9.7204834891
 20
10.3919457666
 11
3.8104834891
 21
10.3919457666
  0
LINE
  5
385
100
AcDbEntity
  8
0
100
AcDbLine
 62
7
  6
CONTINUOUS
 10
6.3795602359
 20
13.1614766861
 11
6.3592334891
 21
13.1732123388
  0
LINE
  5
386
100
AcDbEntity
  8
0
100
AcDbLine
 62
7
  6
CONTINUOUS
 10
6.3597098512
 20
13.1115267752
 11
6.374093373
 21
13.1032123388
  0
LINE
  5
387
100
AcDbEntity
  8
0
100
AcDbLine
 62
9
  6
CONTINUOUS
 10
9.7204834891
 20
11.2706252586
 11
3.8104834891
 21
11.2706252586
  0
LINE
  5
388
100
AcDbEntity
  8
0
100
AcDbLine
 62
7
  6
CONTINUOUS
 10
9.6904834891
 20
11.3006252586
 11
3.8404834891
 21
11.3006252586
  0
LINE
  5
389
100
AcDbEntity
  8
0
100
AcDbLine
 62
9
  6
CONTINUOUS
 10
5.3054834891
 20
11.3306252586
 11
8.2254834891
 21
11.3306252586
  0
LINE
  5
38A
100
AcDbEntity
  8
0
100
AcDbLine
 62
7
  6
CONTINUOUS
 10
7.1412093036
 20
13.1032123388
 11
7.1330734878
 21
13.1079161339
  0
LINE
  5
38B
100
AcDbEntity
  8
0
100
AcDbLine
 62
9
  6
CONTINUOUS
 10
8.2254834891
 20
11.5616252586
 11
5.3054834891
 21
11.5616252586
  0
LINE
  5
38C
100
AcDbEntity
  8
0
100
AcDbLine
 62
7
  6
CONTINUOUS
 10
8.1954834891
 20
11.5916252586
 11
5.3354834891
 21
11.5916252586
  0
LINE
  5
38D
100
AcDbEntity
  8
0
100
AcDbLine
 62
9
  6
CONTINUOUS
 10
6.0654834891
 20
11.6216252586
 11
7.4654834891
 21
11.6216252586
  0
LINE
  5
38E
100
AcDbEntity
  8
0
100
AcDbLine
 62
9
  6
CONTINUOUS
 10
7.4654834891
 20
11.8056252586
 11
6.0654834891
 21
11.8056252586
  0
LINE
  5
38F
100
AcDbEntity
  8
0
100
AcDbLine
 62
7
  6
CONTINUOUS
 10
6.0854834891
 20
11.8256252586
 11
7.4454834891
 21
11.8256252586
  0
LINE
  5
390
100
AcDbEntity
  8
0
100
AcDbLine
 62
9
  6
CONTINUOUS
 10
6.0654834891
 20
11.8456252586
 11
7.4654834891
 21
11.8456252586
  0
LINE
  5
391
100
AcDbEntity
  8
0
100
AcDbLine
 62
7
  6
CONTINUOUS
 10
7.4654834891
 20
12.0346252586
 11
7.4154834891
 21
12.0346252586
  0
LINE
  5
392
100
AcDbEntity
  8
0
100
AcDbLine
 62
7
  6
CONTINUOUS
 10
6.1154834891
 20
12.0346252586
 11
6.0654834891
 21
12.0346252586
  0
LINE
  5
393
100
AcDbEntity
  8
0
100
AcDbLine
 62
7
  6
CONTINUOUS
 10
14.0594834891
 20
-0.0727876612
 11
14.0594834891
 21
3.0342123388
  0
LINE
  5
394
100
AcDbEntity
  8
0
100
AcDbLine
 62
9
  6
CONTINUOUS
 10
14.0994834891
 20
-0.1127876612
 11
14.0994834891
 21
3.0742123388
  0
LINE
  5
395
100
AcDbEntity
  8
0
100
AcDbLine
 62
9
  6
CONTINUOUS
 10
14.3097508911
 20
2.8521868749
 11
14.3097510611
 21
2.8898589247
  0
LINE
  5
396
100
AcDbEntity
  8
0
100
AcDbLine
 62
7
  6
CONTINUOUS
 10
7.4154834891
 20
12.3846252586
 11
6.1154834891
 21
12.3846252586
  0
LINE
  5
397
100
AcDbEntity
  8
0
100
AcDbLine
 62
9
  6
CONTINUOUS
 10
6.4198642533
 20
12.4831434647
 11
7.1111027249
 21
12.4831434647
  0
LINE
  5
398
100
AcDbEntity
  8
0
100
AcDbLine
 62
9
  6
CONTINUOUS
 10
6.4198897716
 20
12.5963060564
 11
7.1110772067
 21
12.5963060564
  0
LINE
  5
399
100
AcDbEntity
  8
0
100
AcDbLine
 62
9
  6
CONTINUOUS
 10
6.3680474143
 20
12.6481484137
 11
7.162919564
 21
12.6481484137
  0
LINE
  5
39A
100
AcDbEntity
  8
0
100
AcDbLine
 62
9
  6
CONTINUOUS
 10
6.3129834891
 20
12.7810844886
 11
6.6408590533
 21
12.7810844886
  0
LINE
  5
39B
100
AcDbEntity
  8
0
100
AcDbLine
 62
9
  6
CONTINUOUS
 10
6.8901079249
 20
12.7810844886
 11
7.2179834891
 21
12.7810844886
  0
LINE
  5
39C
100
AcDbEntity
  8
0
100
AcDbLine
 62
7
  6
CONTINUOUS
 10
6.6408590533
 20
12.9782123388
 11
6.8901079249
 21
12.9782123388
  0
LINE
  5
39D
100
AcDbEntity
  8
0
100
AcDbLine
 62
9
  6
CONTINUOUS
 10
15.0034834891
 20
-0.1127876612
 11
15.0034834891
 21
2.0147184905
  0
LINE
  5
39E
100
AcDbEntity
  8
0
100
AcDbLine
 62
9
  6
CONTINUOUS
 10
15.00348349
 20
2.8521868749
 11
15.0034834891
 21
3.0742123388
  0
LINE
  5
39F
100
AcDbEntity
  8
0
100
AcDbLine
 62
7
  6
CONTINUOUS
 10
15.0434834891
 20
3.0342123388
 11
15.0434834891
 21
2.9106948088
  0
LINE
  5
3A0
100
AcDbEntity
  8
0
100
AcDbLine
 62
7
  6
CONTINUOUS
 10
15.0434834891
 20
1.9837298688
 11
15.0434834891
 21
-0.0727876612
  0
LINE
  5
3A1
100
AcDbEntity
  8
0
100
AcDbLine
 62
9
  6
CONTINUOUS
 10
15.0834834891
 20
2.8772123388
 11
15.0834834891
 21
2.8712494922
  0
LINE
  5
3A2
100
AcDbEntity
  8
0
100
AcDbLine
 62
9
  6
CONTINUOUS
 10
15.0834834891
 20
2.0231751854
 11
15.0834834891
 21
2.0172123388
  0
LINE
  5
3A3
100
AcDbEntity
  8
0
100
AcDbLine
 62
7
  6
CONTINUOUS
 10
6.3129834891
 20
13.1032123388
 11
7.2179834891
 21
13.1032123388
  0
LINE
  5
3A4
100
AcDbEntity
  8
0
100
AcDbLine
 62
7
  6
CONTINUOUS
 10
6.5660946719
 20
13.1732123388
 11
6.3592334891
 21
13.1732123388
  0
LINE
  5
3A5
100
AcDbEntity
  8
0
100
AcDbLine
 62
9
  6
CONTINUOUS
 10
7.1717334891
 20
14.5472123388
 11
6.3592334891
 21
14.5472123388
  0
LINE
  5
3A6
100
AcDbEntity
  8
0
100
AcDbLine
 62
7
  6
CONTINUOUS
 10
16.8334834891
 20
2.0172123388
 11
16.8334834891
 21
2.8772123388
  0
LINE
  5
3A7
100
AcDbEntity
  8
0
100
AcDbLine
 62
7
  6
CONTINUOUS
 10
16.8834834891
 20
2.0172127616
 11
16.8834834891
 21
2.877211916
  0
LINE
  5
3A8
100
AcDbEntity
  8
0
100
AcDbLine
 62
7
  6
CONTINUOUS
 10
17.2594834891
 20
-0.5038398325
 11
17.2594834891
 21
5.3982645102
  0
LINE
  5
3A9
100
AcDbEntity
  8
0
100
AcDbLine
 62
9
  6
CONTINUOUS
 10
17.2777403743
 20
-0.5237638994
 11
17.2777403743
 21
5.4181885771
  0
LINE
  5
3AA
100
AcDbEntity
  8
0
100
AcDbLine
 62
7
  6
CONTINUOUS
 10
17.2994834891
 20
16.3522124103
 11
17.2994834891
 21
18.5422123388
  0
LINE
  5
3AB
100
AcDbEntity
  8
0
100
AcDbLine
 62
9
  6
CONTINUOUS
 10
17.3294834891
 20
16.3222123388
 11
17.3294834891
 21
18.5722123388
  0
LINE
  5
3AC
100
AcDbEntity
  8
0
100
AcDbLine
 62
7
  6
CONTINUOUS
 10
17.6094834891
 20
-0.5527874854
 11
17.6094834891
 21
5.447212163
  0
LINE
  5
3AD
100
AcDbEntity
  8
0
100
AcDbLine
 62
7
  6
CONTINUOUS
 10
17.6094834891
 20
16.3222125584
 11
17.6094834891
 21
18.5722121193
  0
LINE
  5
3AE
100
AcDbEntity
  8
0
100
AcDbLine
 62
9
  6
CONTINUOUS
 10
15.0214215462
 20
2.0498117694
 11
15.0034834891
 21
2.0147184905
  0
LINE
  5
3AF
100
AcDbEntity
  8
0
100
AcDbLine
 62
9
  6
CONTINUOUS
 10
14.2922067204
 20
2.7754891075
 11
14.2639224492
 21
2.7472048363
  0
LINE
  5
3B0
100
AcDbEntity
  8
0
100
AcDbLine
 62
9
  6
CONTINUOUS
 10
15.0053285388
 20
2.0623672892
 11
14.9770442675
 21
2.0340830179
  0
LINE
  5
3B1
100
AcDbEntity
  8
0
100
AcDbLine
 62
7
  6
CONTINUOUS
 10
17.6094834891
 20
16.3222123388
 11
17.3294834891
 21
16.3222123388
  0
LINE
  5
3B2
100
AcDbEntity
  8
0
100
AcDbLine
 62
7
  6
CONTINUOUS
 10
17.2994834891
 20
17.0409623388
 11
9.6654834891
 21
17.0409623388
  0
LINE
  5
3B3
100
AcDbEntity
  8
0
100
AcDbLine
 62
7
  6
CONTINUOUS
 10
17.2994834891
 20
17.8534623388
 11
9.6654834891
 21
17.8534623388
  0
LINE
  5
3B4
100
AcDbEntity
  8
0
100
AcDbLine
 62
7
  6
CONTINUOUS
 10
17.6094834891
 20
18.5722123388
 11
17.3294834891
 21
18.5722123388
  0
ARC
  5
3B5
100
AcDbEntity
  8
0
100
AcDbCircle
 62
7
  6
CONTINUOUS
 10
3.8404834891
 20
10.3919457666
 40
0.03
100
AcDbArc
 50
180.0
 51
240.0000000021
  0
ARC
  5
3B6
100
AcDbEntity
  8
0
100
AcDbCircle
 62
7
  6
CONTINUOUS
 10
4.1263527245
 20
10.2268990866
 40
0.03
100
AcDbArc
 50
240.000000002
 51
256.7604517071
  0
ARC
  5
3B7
100
AcDbEntity
  8
0
100
AcDbCircle
 62
7
  6
CONTINUOUS
 10
5.1309138745
 20
10.1196252586
 40
0.015
100
AcDbArc
 50
184.2891533288
 51
270.0
  0
ARC
  5
3B8
100
AcDbEntity
  8
0
100
AcDbCircle
 62
7
  6
CONTINUOUS
 10
5.2130796178
 20
10.1196252586
 40
0.015
100
AcDbArc
 50
270.0
 51
355.7108466712
  0
ARC
  5
3B9
100
AcDbEntity
  8
0
100
AcDbCircle
 62
7
  6
CONTINUOUS
 10
4.9470970971
 20
10.1196252586
 40
0.015
100
AcDbArc
 50
184.2891533288
 51
270.0
  0
ARC
  5
3BA
100
AcDbEntity
  8
0
100
AcDbCircle
 62
7
  6
CONTINUOUS
 10
5.0292628404
 20
10.1196252586
 40
0.015
100
AcDbArc
 50
270.0
 51
355.7108466712
  0
ARC
  5
3BB
100
AcDbEntity
  8
0
100
AcDbCircle
 62
7
  6
CONTINUOUS
 10
4.8844006175
 20
10.1196252586
 40
0.015
100
AcDbArc
 50
184.2891533288
 51
270.0
  0
ARC
  5
3BC
100
AcDbEntity
  8
0
100
AcDbCircle
 62
7
  6
CONTINUOUS
 10
4.4544006175
 20
10.1546252586
 40
0.015
100
AcDbArc
 50
184.2891533288
 51
270.0
  0
ARC
  5
3BD
100
AcDbEntity
  8
0
100
AcDbCircle
 62
7
  6
CONTINUOUS
 10
4.5861713071
 20
10.1546252586
 40
0.015
100
AcDbArc
 50
270.0
 51
355.7108466712
  0
ARC
  5
3BE
100
AcDbEntity
  8
0
100
AcDbCircle
 62
7
  6
CONTINUOUS
 10
4.5040055638
 20
10.1546252586
 40
0.015
100
AcDbArc
 50
184.2891533288
 51
270.0
  0
ARC
  5
3BF
100
AcDbEntity
  8
0
100
AcDbCircle
 62
7
  6
CONTINUOUS
 10
4.7328181719
 20
10.1546252586
 40
0.015
100
AcDbArc
 50
270.0
 51
355.7108466712
  0
ARC
  5
3C0
100
AcDbEntity
  8
0
100
AcDbCircle
 62
7
  6
CONTINUOUS
 10
4.6506524286
 20
10.1546252586
 40
0.015
100
AcDbArc
 50
184.2891533288
 51
270.0
  0
ARC
  5
3C1
100
AcDbEntity
  8
0
100
AcDbCircle
 62
7
  6
CONTINUOUS
 10
4.9700977836
 20
10.1546252586
 40
0.015
100
AcDbArc
 50
270.0
 51
355.7108466712
  0
ARC
  5
3C2
100
AcDbEntity
  8
0
100
AcDbCircle
 62
7
  6
CONTINUOUS
 10
4.8879320402
 20
10.1546252586
 40
0.015
100
AcDbArc
 50
184.2891533288
 51
270.0
  0
ARC
  5
3C3
100
AcDbEntity
  8
0
100
AcDbCircle
 62
7
  6
CONTINUOUS
 10
5.205474141
 20
10.1546252586
 40
0.015
100
AcDbArc
 50
184.2891533288
 51
270.0
  0
ARC
  5
3C4
100
AcDbEntity
  8
0
100
AcDbCircle
 62
7
  6
CONTINUOUS
 10
4.6452176072
 20
11.1708859381
 40
1.0
100
AcDbArc
 50
267.5520868017
 51
269.3791378081
  0
ARC
  5
3C5
100
AcDbEntity
  8
0
100
AcDbCircle
 62
7
  6
CONTINUOUS
 10
5.0554603031
 20
11.1371942383
 40
1.0
100
AcDbArc
 50
269.4370126836
 51
270.0
  0
ARC
  5
3C6
100
AcDbEntity
  8
0
100
AcDbCircle
 62
7
  6
CONTINUOUS
 10
4.9436021338
 20
11.1456605128
 40
1.0
100
AcDbArc
 50
258.7557154425
 51
265.5343308342
  0
ARC
  5
3C7
100
AcDbEntity
  8
0
100
AcDbCircle
 62
7
  6
CONTINUOUS
 10
3.8404834891
 20
11.2706252586
 40
0.03
100
AcDbArc
 50
90.0
 51
180.0
  0
ARC
  5
3C8
100
AcDbEntity
  8
0
100
AcDbCircle
 62
7
  6
CONTINUOUS
 10
5.2754834891
 20
11.3306252586
 40
0.03
100
AcDbArc
 50
270.0000000001
 51
360.0
  0
ARC
  5
3C9
100
AcDbEntity
  8
0
100
AcDbCircle
 62
7
  6
CONTINUOUS
 10
6.4494006175
 20
10.0546252586
 40
0.015
100
AcDbArc
 50
184.2891533288
 51
270.0
  0
ARC
  5
3CA
100
AcDbEntity
  8
0
100
AcDbCircle
 62
7
  6
CONTINUOUS
 10
6.5315663608
 20
10.0546252586
 40
0.015
100
AcDbArc
 50
270.0
 51
355.7108466712
  0
ARC
  5
3CB
100
AcDbEntity
  8
0
100
AcDbCircle
 62
7
  6
CONTINUOUS
 10
6.1744006175
 20
10.0546252586
 40
0.015
100
AcDbArc
 50
184.2891533288
 51
270.0
  0
ARC
  5
3CC
100
AcDbEntity
  8
0
100
AcDbCircle
 62
7
  6
CONTINUOUS
 10
6.2565663608
 20
10.0546252586
 40
0.015
100
AcDbArc
 50
270.0
 51
340.4990075134
  0
ARC
  5
3CD
100
AcDbEntity
  8
0
100
AcDbCircle
 62
7
  6
CONTINUOUS
 10
6.7244006175
 20
10.0646252586
 40
0.015
100
AcDbArc
 50
184.2891533288
 51
270.0
  0
ARC
  5
3CE
100
AcDbEntity
  8
0
100
AcDbCircle
 62
7
  6
CONTINUOUS
 10
6.2344006175
 20
10.0646252586
 40
0.015
100
AcDbArc
 50
184.2891533288
 51
270.0
  0
ARC
  5
3CF
100
AcDbEntity
  8
0
100
AcDbCircle
 62
7
  6
CONTINUOUS
 10
6.3165663608
 20
10.0646252586
 40
0.015
100
AcDbArc
 50
270.0
 51
355.7108466712
  0
ARC
  5
3D0
100
AcDbEntity
  8
0
100
AcDbCircle
 62
7
  6
CONTINUOUS
 10
5.8756957218
 20
10.0646252586
 40
0.015
100
AcDbArc
 50
184.2891533288
 51
270.0
  0
ARC
  5
3D1
100
AcDbEntity
  8
0
100
AcDbCircle
 62
7
  6
CONTINUOUS
 10
5.9578614651
 20
10.0646252586
 40
0.015
100
AcDbArc
 50
270.0
 51
355.7108466712
  0
ARC
  5
3D2
100
AcDbEntity
  8
0
100
AcDbCircle
 62
7
  6
CONTINUOUS
 10
5.7444006175
 20
10.0646252586
 40
0.015
100
AcDbArc
 50
184.2891533288
 51
270.0
  0
ARC
  5
3D3
100
AcDbEntity
  8
0
100
AcDbCircle
 62
7
  6
CONTINUOUS
 10
5.8265663608
 20
10.0646252586
 40
0.015
100
AcDbArc
 50
270.0
 51
355.7108466712
  0
ARC
  5
3D4
100
AcDbEntity
  8
0
100
AcDbCircle
 62
7
  6
CONTINUOUS
 10
6.479556687
 20
10.0896252586
 40
0.015
100
AcDbArc
 50
184.2891533288
 51
270.0
  0
ARC
  5
3D5
100
AcDbEntity
  8
0
100
AcDbCircle
 62
7
  6
CONTINUOUS
 10
6.5617224303
 20
10.0896252586
 40
0.015
100
AcDbArc
 50
270.0
 51
355.7108466712
  0
ARC
  5
3D6
100
AcDbEntity
  8
0
100
AcDbCircle
 62
7
  6
CONTINUOUS
 10
6.0194006175
 20
10.0896252586
 40
0.015
100
AcDbArc
 50
184.2891533288
 51
270.0
  0
ARC
  5
3D7
100
AcDbEntity
  8
0
100
AcDbCircle
 62
7
  6
CONTINUOUS
 10
6.1015663608
 20
10.0896252586
 40
0.015
100
AcDbArc
 50
270.0
 51
355.7108466712
  0
ARC
  5
3D8
100
AcDbEntity
  8
0
100
AcDbCircle
 62
7
  6
CONTINUOUS
 10
5.6442779527
 20
10.0896252586
 40
0.015
100
AcDbArc
 50
184.2891533288
 51
270.0
  0
ARC
  5
3D9
100
AcDbEntity
  8
0
100
AcDbCircle
 62
7
  6
CONTINUOUS
 10
5.726443696
 20
10.0896252586
 40
0.015
100
AcDbArc
 50
270.0
 51
355.7108466712
  0
ARC
  5
3DA
100
AcDbEntity
  8
0
100
AcDbCircle
 62
7
  6
CONTINUOUS
 10
5.3994340222
 20
10.0896252586
 40
0.015
100
AcDbArc
 50
184.2891533288
 51
270.0
  0
ARC
  5
3DB
100
AcDbEntity
  8
0
100
AcDbCircle
 62
7
  6
CONTINUOUS
 10
5.4815997655
 20
10.0896252586
 40
0.015
100
AcDbArc
 50
270.0
 51
355.7108466712
  0
ARC
  5
3DC
100
AcDbEntity
  8
0
100
AcDbCircle
 62
7
  6
CONTINUOUS
 10
5.3144006175
 20
10.0896252586
 40
0.015
100
AcDbArc
 50
184.2891533288
 51
270.0
  0
ARC
  5
3DD
100
AcDbEntity
  8
0
100
AcDbCircle
 62
7
  6
CONTINUOUS
 10
5.3965663608
 20
10.0896252586
 40
0.015
100
AcDbArc
 50
270.0
 51
275.4889354626
  0
ARC
  5
3DE
100
AcDbEntity
  8
0
100
AcDbCircle
 62
7
  6
CONTINUOUS
 10
6.7244006175
 20
10.1196252586
 40
0.015
100
AcDbArc
 50
184.2891533288
 51
270.0
  0
ARC
  5
3DF
100
AcDbEntity
  8
0
100
AcDbCircle
 62
7
  6
CONTINUOUS
 10
6.2481735745
 20
10.1196252586
 40
0.015
100
AcDbArc
 50
184.2891533288
 51
270.0
  0
ARC
  5
3E0
100
AcDbEntity
  8
0
100
AcDbCircle
 62
7
  6
CONTINUOUS
 10
6.3303393178
 20
10.1196252586
 40
0.015
100
AcDbArc
 50
270.0
 51
355.7108466712
  0
ARC
  5
3E1
100
AcDbEntity
  8
0
100
AcDbCircle
 62
7
  6
CONTINUOUS
 10
5.8044006175
 20
10.1196252586
 40
0.015
100
AcDbArc
 50
184.2891533288
 51
270.0
  0
ARC
  5
3E2
100
AcDbEntity
  8
0
100
AcDbCircle
 62
7
  6
CONTINUOUS
 10
5.8865663608
 20
10.1196252586
 40
0.015
100
AcDbArc
 50
270.0
 51
355.7108466712
  0
ARC
  5
3E3
100
AcDbEntity
  8
0
100
AcDbCircle
 62
7
  6
CONTINUOUS
 10
5.4233241401
 20
10.1196252586
 40
0.015
100
AcDbArc
 50
184.2891533288
 51
270.0
  0
ARC
  5
3E4
100
AcDbEntity
  8
0
100
AcDbCircle
 62
7
  6
CONTINUOUS
 10
5.5054898834
 20
10.1196252586
 40
0.015
100
AcDbArc
 50
270.0
 51
355.7108466712
  0
ARC
  5
3E5
100
AcDbEntity
  8
0
100
AcDbCircle
 62
7
  6
CONTINUOUS
 10
5.2876398844
 20
10.1546252586
 40
0.015
100
AcDbArc
 50
270.0
 51
355.7108466712
  0
ARC
  5
3E6
100
AcDbEntity
  8
0
100
AcDbCircle
 62
7
  6
CONTINUOUS
 10
5.6715663608
 20
10.1546252586
 40
0.015
100
AcDbArc
 50
270.0
 51
355.7108466712
  0
ARC
  5
3E7
100
AcDbEntity
  8
0
100
AcDbCircle
 62
7
  6
CONTINUOUS
 10
5.5894006175
 20
10.1546252586
 40
0.015
100
AcDbArc
 50
184.2891533288
 51
270.0
  0
ARC
  5
3E8
100
AcDbEntity
  8
0
100
AcDbCircle
 62
7
  6
CONTINUOUS
 10
6.1050977836
 20
10.1546252586
 40
0.015
100
AcDbArc
 50
270.0
 51
355.7108466712
  0
ARC
  5
3E9
100
AcDbEntity
  8
0
100
AcDbCircle
 62
7
  6
CONTINUOUS
 10
6.0229320402
 20
10.1546252586
 40
0.015
100
AcDbArc
 50
184.2891533288
 51
270.0
  0
ARC
  5
3EA
100
AcDbEntity
  8
0
100
AcDbCircle
 62
7
  6
CONTINUOUS
 10
6.5692867492
 20
10.1546252586
 40
0.015
100
AcDbArc
 50
270.0
 51
355.7108466712
  0
ARC
  5
3EB
100
AcDbEntity
  8
0
100
AcDbCircle
 62
7
  6
CONTINUOUS
 10
6.4871210059
 20
10.1546252586
 40
0.015
100
AcDbArc
 50
184.2891533288
 51
270.0
  0
ARC
  5
3EC
100
AcDbEntity
  8
0
100
AcDbCircle
 62
7
  6
CONTINUOUS
 10
6.3378577663
 20
11.0785331091
 40
1.0
100
AcDbArc
 50
269.701895091
 51
270.0
  0
ARC
  5
3ED
100
AcDbEntity
  8
0
100
AcDbCircle
 62
7
  6
CONTINUOUS
 10
5.8760847024
 20
11.091534497
 40
1.0
100
AcDbArc
 50
268.1422256028
 51
268.998836011
  0
ARC
  5
3EE
100
AcDbEntity
  8
0
100
AcDbCircle
 62
7
  6
CONTINUOUS
 10
5.3542423977
 20
11.117221565
 40
1.0
100
AcDbArc
 50
262.7783136043
 51
266.542266468
  0
ARC
  5
3EF
100
AcDbEntity
  8
0
100
AcDbCircle
 62
7
  6
CONTINUOUS
 10
5.7648362786
 20
11.0960312185
 40
1.0
100
AcDbArc
 50
260.2020724392
 51
262.1365541428
  0
ARC
  5
3F0
100
AcDbEntity
  8
0
100
AcDbCircle
 62
7
  6
CONTINUOUS
 10
6.175383918
 20
11.0820673277
 40
1.0
100
AcDbArc
 50
266.5611011856
 51
268.5548996513
  0
ARC
  5
3F1
100
AcDbEntity
  8
0
100
AcDbCircle
 62
7
  6
CONTINUOUS
 10
5.3354834891
 20
11.5616252586
 40
0.03
100
AcDbArc
 50
90.0
 51
180.0
  0
ARC
  5
3F2
100
AcDbEntity
  8
0
100
AcDbCircle
 62
7
  6
CONTINUOUS
 10
6.0354834891
 20
11.6216252586
 40
0.03
100
AcDbArc
 50
270.0000000036
 51
360.0
  0
ARC
  5
3F3
100
AcDbEntity
  8
0
100
AcDbCircle
 62
7
  6
CONTINUOUS
 10
6.0854834891
 20
11.8056252586
 40
0.02
100
AcDbArc
 50
90.0
 51
180.0
  0
ARC
  5
3F4
100
AcDbEntity
  8
0
100
AcDbCircle
 62
7
  6
CONTINUOUS
 10
6.0854834891
 20
11.8456252586
 40
0.02
100
AcDbArc
 50
180.0
 51
270.0
  0
ARC
  5
3F5
100
AcDbEntity
  8
0
100
AcDbCircle
 62
7
  6
CONTINUOUS
 10
6.5009834891
 20
12.7810844886
 40
0.188
100
AcDbArc
 50
180.0
 51
225.0
  0
ARC
  5
3F6
100
AcDbEntity
  8
0
100
AcDbCircle
 62
7
  6
CONTINUOUS
 10
6.3633212291
 20
12.5397375139
 40
0.08
100
AcDbArc
 50
314.9741595356
 51
45.0
  0
ARC
  5
3F7
100
AcDbEntity
  8
0
100
AcDbCircle
 62
7
  6
CONTINUOUS
 10
7.2744006175
 20
10.0546252586
 40
0.015
100
AcDbArc
 50
199.5009924866
 51
270.0
  0
ARC
  5
3F8
100
AcDbEntity
  8
0
100
AcDbCircle
 62
7
  6
CONTINUOUS
 10
7.3565663608
 20
10.0546252586
 40
0.015
100
AcDbArc
 50
270.0
 51
355.7108466712
  0
ARC
  5
3F9
100
AcDbEntity
  8
0
100
AcDbCircle
 62
7
  6
CONTINUOUS
 10
6.9994006175
 20
10.0546252586
 40
0.015
100
AcDbArc
 50
184.2891533288
 51
270.0
  0
ARC
  5
3FA
100
AcDbEntity
  8
0
100
AcDbCircle
 62
7
  6
CONTINUOUS
 10
7.0815663608
 20
10.0546252586
 40
0.015
100
AcDbArc
 50
270.0
 51
355.7108466712
  0
ARC
  5
3FB
100
AcDbEntity
  8
0
100
AcDbCircle
 62
7
  6
CONTINUOUS
 10
7.2144006175
 20
10.0646252586
 40
0.015
100
AcDbArc
 50
184.2891533288
 51
270.0
  0
ARC
  5
3FC
100
AcDbEntity
  8
0
100
AcDbCircle
 62
7
  6
CONTINUOUS
 10
7.2965663608
 20
10.0646252586
 40
0.015
100
AcDbArc
 50
270.0
 51
355.7108466712
  0
ARC
  5
3FD
100
AcDbEntity
  8
0
100
AcDbCircle
 62
7
  6
CONTINUOUS
 10
6.8065663608
 20
10.0646252586
 40
0.015
100
AcDbArc
 50
270.0
 51
355.7108466712
  0
ARC
  5
3FE
100
AcDbEntity
  8
0
100
AcDbCircle
 62
7
  6
CONTINUOUS
 10
7.4294006175
 20
10.0896252586
 40
0.015
100
AcDbArc
 50
184.2891533288
 51
270.0
  0
ARC
  5
3FF
100
AcDbEntity
  8
0
100
AcDbCircle
 62
7
  6
CONTINUOUS
 10
6.969244548
 20
10.0896252586
 40
0.015
100
AcDbArc
 50
184.2891533288
 51
270.0
  0
ARC
  5
400
100
AcDbEntity
  8
0
100
AcDbCircle
 62
7
  6
CONTINUOUS
 10
7.0514102913
 20
10.0896252586
 40
0.015
100
AcDbArc
 50
270.0
 51
355.7108466712
  0
ARC
  5
401
100
AcDbEntity
  8
0
100
AcDbCircle
 62
7
  6
CONTINUOUS
 10
7.2006276605
 20
10.1196252586
 40
0.015
100
AcDbArc
 50
184.2891533288
 51
270.0
  0
ARC
  5
402
100
AcDbEntity
  8
0
100
AcDbCircle
 62
7
  6
CONTINUOUS
 10
7.2827934038
 20
10.1196252586
 40
0.015
100
AcDbArc
 50
270.0
 51
355.7108466712
  0
ARC
  5
403
100
AcDbEntity
  8
0
100
AcDbCircle
 62
7
  6
CONTINUOUS
 10
6.8065663608
 20
10.1196252586
 40
0.015
100
AcDbArc
 50
270.0
 51
355.7108466712
  0
ARC
  5
404
100
AcDbEntity
  8
0
100
AcDbCircle
 62
7
  6
CONTINUOUS
 10
7.0438459724
 20
10.1546252586
 40
0.015
100
AcDbArc
 50
270.0
 51
355.7108466712
  0
ARC
  5
405
100
AcDbEntity
  8
0
100
AcDbCircle
 62
7
  6
CONTINUOUS
 10
6.9616802291
 20
10.1546252586
 40
0.015
100
AcDbArc
 50
184.2891533288
 51
270.0
  0
ARC
  5
406
100
AcDbEntity
  8
0
100
AcDbCircle
 62
7
  6
CONTINUOUS
 10
7.508034938
 20
10.1546252586
 40
0.015
100
AcDbArc
 50
270.0
 51
355.7108466712
  0
ARC
  5
407
100
AcDbEntity
  8
0
100
AcDbCircle
 62
7
  6
CONTINUOUS
 10
7.4258691947
 20
10.1546252586
 40
0.015
100
AcDbArc
 50
184.2891533288
 51
270.0
  0
ARC
  5
408
100
AcDbEntity
  8
0
100
AcDbCircle
 62
7
  6
CONTINUOUS
 10
7.193109212
 20
11.0785331091
 40
1.0
100
AcDbArc
 50
270.0
 51
270.298104909
  0
ARC
  5
409
100
AcDbEntity
  8
0
100
AcDbCircle
 62
7
  6
CONTINUOUS
 10
7.3555830602
 20
11.0820673277
 40
1.0
100
AcDbArc
 50
271.4451003487
 51
273.4388988144
  0
ARC
  5
40A
100
AcDbEntity
  8
0
100
AcDbCircle
 62
7
  6
CONTINUOUS
 10
7.7044006175
 20
10.0646252586
 40
0.015
100
AcDbArc
 50
184.2891533288
 51
270.0
  0
ARC
  5
40B
100
AcDbEntity
  8
0
100
AcDbCircle
 62
7
  6
CONTINUOUS
 10
7.7865663608
 20
10.0646252586
 40
0.015
100
AcDbArc
 50
270.0
 51
355.7108466712
  0
ARC
  5
40C
100
AcDbEntity
  8
0
100
AcDbCircle
 62
7
  6
CONTINUOUS
 10
7.5731055132
 20
10.0646252586
 40
0.015
100
AcDbArc
 50
184.2891533288
 51
270.0
  0
ARC
  5
40D
100
AcDbEntity
  8
0
100
AcDbCircle
 62
7
  6
CONTINUOUS
 10
7.6552712565
 20
10.0646252586
 40
0.015
100
AcDbArc
 50
270.0
 51
355.7108466712
  0
ARC
  5
40E
100
AcDbEntity
  8
0
100
AcDbCircle
 62
7
  6
CONTINUOUS
 10
8.1344006175
 20
10.0896252586
 40
0.015
100
AcDbArc
 50
264.5110645374
 51
270.0
  0
ARC
  5
40F
100
AcDbEntity
  8
0
100
AcDbCircle
 62
7
  6
CONTINUOUS
 10
8.2165663608
 20
10.0896252586
 40
0.015
100
AcDbArc
 50
270.0
 51
355.7108466712
  0
ARC
  5
410
100
AcDbEntity
  8
0
100
AcDbCircle
 62
7
  6
CONTINUOUS
 10
8.0493672128
 20
10.0896252586
 40
0.015
100
AcDbArc
 50
184.2891533288
 51
270.0
  0
ARC
  5
411
100
AcDbEntity
  8
0
100
AcDbCircle
 62
7
  6
CONTINUOUS
 10
8.1315329561
 20
10.0896252586
 40
0.015
100
AcDbArc
 50
270.0
 51
355.7108466712
  0
ARC
  5
412
100
AcDbEntity
  8
0
100
AcDbCircle
 62
7
  6
CONTINUOUS
 10
7.8045232823
 20
10.0896252586
 40
0.015
100
AcDbArc
 50
184.2891533288
 51
270.0
  0
ARC
  5
413
100
AcDbEntity
  8
0
100
AcDbCircle
 62
7
  6
CONTINUOUS
 10
7.8866890256
 20
10.0896252586
 40
0.015
100
AcDbArc
 50
270.0
 51
355.7108466712
  0
ARC
  5
414
100
AcDbEntity
  8
0
100
AcDbCircle
 62
7
  6
CONTINUOUS
 10
7.5115663608
 20
10.0896252586
 40
0.015
100
AcDbArc
 50
270.0
 51
355.7108466712
  0
ARC
  5
415
100
AcDbEntity
  8
0
100
AcDbCircle
 62
7
  6
CONTINUOUS
 10
8.0254770949
 20
10.1196252586
 40
0.015
100
AcDbArc
 50
184.2891533288
 51
270.0
  0
ARC
  5
416
100
AcDbEntity
  8
0
100
AcDbCircle
 62
7
  6
CONTINUOUS
 10
8.1076428382
 20
10.1196252586
 40
0.015
100
AcDbArc
 50
270.0
 51
355.7108466712
  0
ARC
  5
417
100
AcDbEntity
  8
0
100
AcDbCircle
 62
7
  6
CONTINUOUS
 10
7.6444006175
 20
10.1196252586
 40
0.015
100
AcDbArc
 50
184.2891533288
 51
270.0
  0
ARC
  5
418
100
AcDbEntity
  8
0
100
AcDbCircle
 62
7
  6
CONTINUOUS
 10
7.7265663608
 20
10.1196252586
 40
0.015
100
AcDbArc
 50
270.0
 51
355.7108466712
  0
ARC
  5
419
100
AcDbEntity
  8
0
100
AcDbCircle
 62
7
  6
CONTINUOUS
 10
7.9415663608
 20
10.1546252586
 40
0.015
100
AcDbArc
 50
270.0
 51
355.7108466712
  0
ARC
  5
41A
100
AcDbEntity
  8
0
100
AcDbCircle
 62
7
  6
CONTINUOUS
 10
7.8594006175
 20
10.1546252586
 40
0.015
100
AcDbArc
 50
184.2891533288
 51
270.0
  0
ARC
  5
41B
100
AcDbEntity
  8
0
100
AcDbCircle
 62
7
  6
CONTINUOUS
 10
7.6548822759
 20
11.091534497
 40
1.0
100
AcDbArc
 50
271.001163989
 51
271.8577743972
  0
ARC
  5
41C
100
AcDbEntity
  8
0
100
AcDbCircle
 62
7
  6
CONTINUOUS
 10
7.655398135
 20
11.016843641
 40
0.9253336422
100
AcDbArc
 50
271.9757788691
 51
272.3026137235
  0
ARC
  5
41D
100
AcDbEntity
  8
0
100
AcDbCircle
 62
7
  6
CONTINUOUS
 10
8.1767245805
 20
11.117221565
 40
1.0
100
AcDbArc
 50
273.457733532
 51
277.2216863957
  0
ARC
  5
41E
100
AcDbEntity
  8
0
100
AcDbCircle
 62
7
  6
CONTINUOUS
 10
7.7661306997
 20
11.0960312185
 40
1.0
100
AcDbArc
 50
277.8634458572
 51
279.7979275608
  0
ARC
  5
41F
100
AcDbEntity
  8
0
100
AcDbCircle
 62
7
  6
CONTINUOUS
 10
6.7654834891
 20
12.1372123388
 40
0.489
100
AcDbArc
 50
30.394893546
 51
45.0258404644
  0
ARC
  5
420
100
AcDbEntity
  8
0
100
AcDbCircle
 62
7
  6
CONTINUOUS
 10
6.7654834891
 20
12.1372123388
 40
0.489
100
AcDbArc
 50
134.9741595356
 51
149.605106454
  0
ARC
  5
421
100
AcDbEntity
  8
0
100
AcDbCircle
 62
7
  6
CONTINUOUS
 10
8.1954834891
 20
11.5616252586
 40
0.03
100
AcDbArc
 50
0.0
 51
90.0
  0
ARC
  5
422
100
AcDbEntity
  8
0
100
AcDbCircle
 62
7
  6
CONTINUOUS
 10
7.4954834891
 20
11.6216252586
 40
0.03
100
AcDbArc
 50
180.0
 51
269.9999999964
  0
ARC
  5
423
100
AcDbEntity
  8
0
100
AcDbCircle
 62
7
  6
CONTINUOUS
 10
7.4454834891
 20
11.8056252586
 40
0.02
100
AcDbArc
 50
0.0
 51
90.0
  0
ARC
  5
424
100
AcDbEntity
  8
0
100
AcDbCircle
 62
7
  6
CONTINUOUS
 10
7.4454834891
 20
11.8456252586
 40
0.02
100
AcDbArc
 50
270.0
 51
360.0
  0
ARC
  5
425
100
AcDbEntity
  8
0
100
AcDbCircle
 62
7
  6
CONTINUOUS
 10
9.6904834891
 20
10.3919457666
 40
0.03
100
AcDbArc
 50
299.9999999979
 51
360.0
  0
ARC
  5
426
100
AcDbEntity
  8
0
100
AcDbCircle
 62
7
  6
CONTINUOUS
 10
9.4046142538
 20
10.2268990866
 40
0.03
100
AcDbArc
 50
283.2395482929
 51
299.999999998
  0
ARC
  5
427
100
AcDbEntity
  8
0
100
AcDbCircle
 62
7
  6
CONTINUOUS
 10
8.6465663608
 20
10.1196252586
 40
0.015
100
AcDbArc
 50
270.0
 51
355.7108466712
  0
ARC
  5
428
100
AcDbEntity
  8
0
100
AcDbCircle
 62
7
  6
CONTINUOUS
 10
8.5017041378
 20
10.1196252586
 40
0.015
100
AcDbArc
 50
184.2891533288
 51
270.0
  0
ARC
  5
429
100
AcDbEntity
  8
0
100
AcDbCircle
 62
7
  6
CONTINUOUS
 10
8.5838698812
 20
10.1196252586
 40
0.015
100
AcDbArc
 50
270.0
 51
355.7108466712
  0
ARC
  5
42A
100
AcDbEntity
  8
0
100
AcDbCircle
 62
7
  6
CONTINUOUS
 10
8.3178873604
 20
10.1196252586
 40
0.015
100
AcDbArc
 50
184.2891533288
 51
270.0
  0
ARC
  5
42B
100
AcDbEntity
  8
0
100
AcDbCircle
 62
7
  6
CONTINUOUS
 10
8.4000531038
 20
10.1196252586
 40
0.015
100
AcDbArc
 50
270.0
 51
355.7108466712
  0
ARC
  5
42C
100
AcDbEntity
  8
0
100
AcDbCircle
 62
7
  6
CONTINUOUS
 10
9.0765663608
 20
10.1546252586
 40
0.015
100
AcDbArc
 50
270.0
 51
355.7108466712
  0
ARC
  5
42D
100
AcDbEntity
  8
0
100
AcDbCircle
 62
7
  6
CONTINUOUS
 10
8.9447956711
 20
10.1546252586
 40
0.015
100
AcDbArc
 50
184.2891533288
 51
270.0
  0
ARC
  5
42E
100
AcDbEntity
  8
0
100
AcDbCircle
 62
7
  6
CONTINUOUS
 10
9.0269614145
 20
10.1546252586
 40
0.015
100
AcDbArc
 50
270.0
 51
355.7108466712
  0
ARC
  5
42F
100
AcDbEntity
  8
0
100
AcDbCircle
 62
7
  6
CONTINUOUS
 10
8.7981488063
 20
10.1546252586
 40
0.015
100
AcDbArc
 50
184.2891533288
 51
270.0
  0
ARC
  5
430
100
AcDbEntity
  8
0
100
AcDbCircle
 62
7
  6
CONTINUOUS
 10
8.8803145496
 20
10.1546252586
 40
0.015
100
AcDbArc
 50
270.0
 51
355.7108466712
  0
ARC
  5
431
100
AcDbEntity
  8
0
100
AcDbCircle
 62
7
  6
CONTINUOUS
 10
8.3254928372
 20
10.1546252586
 40
0.015
100
AcDbArc
 50
270.0
 51
355.7108466712
  0
ARC
  5
432
100
AcDbEntity
  8
0
100
AcDbCircle
 62
7
  6
CONTINUOUS
 10
8.2433270939
 20
10.1546252586
 40
0.015
100
AcDbArc
 50
184.2891533288
 51
270.0
  0
ARC
  5
433
100
AcDbEntity
  8
0
100
AcDbCircle
 62
7
  6
CONTINUOUS
 10
8.643034938
 20
10.1546252586
 40
0.015
100
AcDbArc
 50
270.0
 51
355.7108466712
  0
ARC
  5
434
100
AcDbEntity
  8
0
100
AcDbCircle
 62
7
  6
CONTINUOUS
 10
8.5608691947
 20
10.1546252586
 40
0.015
100
AcDbArc
 50
184.2891533288
 51
270.0
  0
ARC
  5
435
100
AcDbEntity
  8
0
100
AcDbCircle
 62
7
  6
CONTINUOUS
 10
8.8857493711
 20
11.1708859381
 40
1.0
100
AcDbArc
 50
270.6208621919
 51
272.4479131983
  0
ARC
  5
436
100
AcDbEntity
  8
0
100
AcDbCircle
 62
7
  6
CONTINUOUS
 10
8.4755066752
 20
11.1371942383
 40
1.0
100
AcDbArc
 50
270.0
 51
270.5629873164
  0
ARC
  5
437
100
AcDbEntity
  8
0
100
AcDbCircle
 62
7
  6
CONTINUOUS
 10
8.5873648445
 20
11.1456605128
 40
1.0
100
AcDbArc
 50
274.4656691658
 51
281.2442845575
  0
ARC
  5
438
100
AcDbEntity
  8
0
100
AcDbCircle
 62
7
  6
CONTINUOUS
 10
9.6904834891
 20
11.2706252586
 40
0.03
100
AcDbArc
 50
0.0
 51
90.0
  0
ARC
  5
439
100
AcDbEntity
  8
0
100
AcDbCircle
 62
7
  6
CONTINUOUS
 10
8.2554834891
 20
11.3306252586
 40
0.03
100
AcDbArc
 50
180.0
 51
269.9999999999
  0
ARC
  5
43A
100
AcDbEntity
  8
0
100
AcDbCircle
 62
7
  6
CONTINUOUS
 10
9.6654834891
 20
14.5472123388
 40
3.30625
100
AcDbArc
 50
90.0
 51
180.0
  0
ARC
  5
43B
100
AcDbEntity
  8
0
100
AcDbCircle
 62
7
  6
CONTINUOUS
 10
9.6654834891
 20
14.5472123388
 40
2.49375
100
AcDbArc
 50
90.0
 51
180.0
  0
ARC
  5
43C
100
AcDbEntity
  8
0
100
AcDbCircle
 62
7
  6
CONTINUOUS
 10
7.0299834891
 20
12.7810844886
 40
0.188
100
AcDbArc
 50
315.0
 51
360.0
  0
ARC
  5
43D
100
AcDbEntity
  8
0
100
AcDbCircle
 62
7
  6
CONTINUOUS
 10
7.1676457492
 20
12.5397375139
 40
0.08
100
AcDbArc
 50
135.0
 51
225.0258404644
  0
ARC
  5
43E
100
AcDbEntity
  8
0
100
AcDbCircle
 62
7
  6
CONTINUOUS
 10
6.7654834891
 20
34.47355383
 40
24.3989285714
100
AcDbArc
 50
264.2430588061
 51
264.5237244568
  0
ARC
  5
43F
100
AcDbEntity
  8
0
100
AcDbCircle
 62
7
  6
CONTINUOUS
 10
6.7654834891
 20
34.47355383
 40
24.3989285714
100
AcDbArc
 50
275.4762755432
 51
275.7569411939
  0
ARC
  5
440
100
AcDbEntity
  8
0
100
AcDbCircle
 62
7
  6
CONTINUOUS
 10
6.7654834891
 20
34.47355383
 40
24.3989285714
100
AcDbArc
 50
271.4283633978
 51
271.4451003487
  0
ARC
  5
441
100
AcDbEntity
  8
0
100
AcDbCircle
 62
7
  6
CONTINUOUS
 10
6.7654834891
 20
34.47355383
 40
24.3989285714
100
AcDbArc
 50
268.5548996513
 51
268.5716366022
  0
ARC
  5
442
100
AcDbEntity
  8
0
100
AcDbCircle
 62
7
  6
CONTINUOUS
 10
15.0034834891
 20
-0.0727876612
 40
0.04
100
AcDbArc
 50
270.0
 51
360.0
  0
ARC
  5
443
100
AcDbEntity
  8
0
100
AcDbCircle
 62
7
  6
CONTINUOUS
 10
14.0994834891
 20
-0.0727876612
 40
0.04
100
AcDbArc
 50
180.0
 51
270.0
  0
ARC
  5
444
100
AcDbEntity
  8
0
100
AcDbCircle
 62
7
  6
CONTINUOUS
 10
15.0034834891
 20
3.0342123388
 40
0.04
100
AcDbArc
 50
0.0
 51
90.0
  0
ARC
  5
445
100
AcDbEntity
  8
0
100
AcDbCircle
 62
7
  6
CONTINUOUS
 10
14.0994834891
 20
3.0342123388
 40
0.04
100
AcDbArc
 50
90.0
 51
180.0
  0
ARC
  5
446
100
AcDbEntity
  8
0
100
AcDbCircle
 62
7
  6
CONTINUOUS
 10
15.0834834891
 20
1.9772123388
 40
0.04
100
AcDbArc
 50
90.0
 51
180.0
  0
ARC
  5
447
100
AcDbEntity
  8
0
100
AcDbCircle
 62
7
  6
CONTINUOUS
 10
15.0834834891
 20
2.9172123388
 40
0.04
100
AcDbArc
 50
180.0
 51
270.0
  0
ARC
  5
448
100
AcDbEntity
  8
0
100
AcDbCircle
 62
7
  6
CONTINUOUS
 10
17.3294834891
 20
16.3522123388
 40
0.03
100
AcDbArc
 50
180.0
 51
270.0
  0
ARC
  5
449
100
AcDbEntity
  8
0
100
AcDbCircle
 62
7
  6
CONTINUOUS
 10
17.2794834891
 20
5.3982646831
 40
0.02
100
AcDbArc
 50
95.0
 51
180.0
  0
ARC
  5
44A
100
AcDbEntity
  8
0
100
AcDbCircle
 62
7
  6
CONTINUOUS
 10
17.2794834891
 20
-0.5038400055
 40
0.02
100
AcDbArc
 50
180.0
 51
265.0
  0
ARC
  5
44B
100
AcDbEntity
  8
0
100
AcDbCircle
 62
7
  6
CONTINUOUS
 10
17.3294834891
 20
18.5422123388
 40
0.03
100
AcDbArc
 50
90.0
 51
180.0
  0
LINE
  5
44C
100
AcDbEntity
  8
0
100
AcDbLine
 62
7
  6
CONTINUOUS
 10
6.3592334959
 20
13.1120773676
 11
6.3597098578
 21
13.1115267752
  0
SPLINE
  5
44D
100
AcDbEntity
  8
0
100
AcDbSpline
 62
7
  6
CONTINUOUS
 70
0
 71
3
 72
15
 73
11
 74
0
 42
0.0000001
 43
0.0000001
 44
0.0000000001
 40
0.0
 40
0.0
 40
0.0
 40
0.0
 40
0.0913217065
 40
0.1867556038
 40
0.2899200803
 40
0.4036952039
 40
0.5302351289
 40
0.6711010241
 40
0.8274171572
 40
1.0
 40
1.0
 40
1.0
 40
1.0
 10
6.3592334891
 20
13.131301616
 30
0.0
 10
6.359233489
 20
13.1313936986
 30
0.0
 10
6.3592543423
 20
13.1315825825
 30
0.0
 10
6.3593467595
 20
13.1318618181
 30
0.0
 10
6.3594991413
 20
13.132139175
 30
0.0
 10
6.3597104855
 20
13.1324148907
 30
0.0
 10
6.3599803876
 20
13.1326896137
 30
0.0
 10
6.3603087763
 20
13.1329638007
 30
0.0
 10
6.3606956867
 20
13.1332377404
 30
0.0
 10
6.3609784086
 20
13.1334115224
 30
0.0
 10
6.3611289381
 20
13.1334988386
 30
0.0
  0
LINE
  5
44E
100
AcDbEntity
  8
0
100
AcDbLine
 62
7
  6
CONTINUOUS
 10
9.0939606086
 20
10.1859868514
 11
9.0440116556
 21
10.1813180577
  0
LINE
  5
44F
100
AcDbEntity
  8
0
100
AcDbLine
 62
7
  6
CONTINUOUS
 10
4.4869553205
 20
10.1813180579
 11
4.4370063697
 21
10.1859868514
  0
SPLINE
  5
450
100
AcDbEntity
  8
0
100
AcDbSpline
 62
7
  6
CONTINUOUS
 70
0
 71
3
 72
66
 73
62
 74
0
 42
0.0000001
 43
0.0000001
 44
0.0000000001
 40
0.0
 40
0.0
 40
0.0
 40
0.0
 40
0.0002831785
 40
0.0005079608
 40
0.0007997021
 40
0.0011617647
 40
0.0015958571
 40
0.0026834327
 40
0.00406628
 40
0.0057454616
 40
0.009992517
 40
0.015418601
 40
0.0220122526
 40
0.0297578691
 40
0.0386367316
 40
0.0486272071
 40
0.0597045878
 40
0.0718417494
 40
0.0850088342
 40
0.0991734879
 40
0.1143011577
 40
0.1472953776
 40
0.1836708404
 40
0.2230757677
 40
0.2651307784
 40
0.3094326713
 40
0.3555580581
 40
0.4030671454
 40
0.4515074606
 40
0.5004178679
 40
0.5493324847
 40
0.5977846716
 40
0.6453111542
 40
0.6914560418
 40
0.7357751341
 40
0.7778400316
 40
0.8172424075
 40
0.853598187
 40
0.8865517293
 40
0.9157796793
 40
0.9289052616
 40
0.9409947508
 40
0.9520183413
 40
0.9619491892
 40
0.970762938
 40
0.9784383769
 40
0.9849573879
 40
0.9877784102
 40
0.9903050715
 40
0.9925362012
 40
0.9944707977
 40
0.9961084397
 40
0.9974494498
 40
0.99800913
 40
0.9984953348
 40
0.9989087135
 40
0.9992504047
 40
0.9995224752
 40
0.9997291255
 40
0.9998801638
 40
1.0
 40
1.0
 40
1.0
 40
1.0
 10
4.6027602466
 20
10.1752494076
 30
0.0
 10
4.6027610707
 20
10.1752603953
 30
0.0
 10
4.6027468229
 20
10.1752787616
 30
0.0
 10
4.602722028
 20
10.1752961054
 30
0.0
 10
4.6026917349
 20
10.1753127209
 30
0.0
 10
4.6026530874
 20
10.1753297926
 30
0.0
 10
4.6025845033
 20
10.1753558577
 30
0.0
 10
4.6024765343
 20
10.1753894284
 30
0.0
 10
4.602320416
 20
10.1754307477
 30
0.0
 10
4.6020434124
 20
10.1754953043
 30
0.0
 10
4.6016101347
 20
10.1755817072
 30
0.0
 10
4.600986787
 20
10.1756916214
 30
0.0
 10
4.6002274204
 20
10.1758135941
 30
0.0
 10
4.5993339354
 20
10.1759472983
 30
0.0
 10
4.59830853
 20
10.1760922749
 30
0.0
 10
4.5971537605
 20
10.1762481311
 30
0.0
 10
4.5958724906
 20
10.1764144502
 30
0.0
 10
4.5944678971
 20
10.1765908034
 30
0.0
 10
4.5929434483
 20
10.1767767449
 30
0.0
 10
4.591302897
 20
10.1769718138
 30
0.0
 10
4.5888955162
 20
10.1772516148
 30
0.0
 10
4.5856283469
 20
10.1776195592
 30
0.0
 10
4.5814207571
 20
10.1780776501
 30
0.0
 10
4.5768611563
 20
10.178559683
 30
0.0
 10
4.5719934752
 20
10.1790609975
 30
0.0
 10
4.5668644202
 20
10.1795767616
 30
0.0
 10
4.561523045
 20
10.1801020315
 30
0.0
 10
4.5560203189
 20
10.1806317855
 30
0.0
 10
4.5504086821
 20
10.1811609684
 30
0.0
 10
4.5447415936
 20
10.1816845322
 30
0.0
 10
4.5390730706
 20
10.1821974805
 30
0.0
 10
4.5334572224
 20
10.1826949108
 30
0.0
 10
4.5279477807
 20
10.1831720584
 30
0.0
 10
4.5225976183
 20
10.1836243407
 30
0.0
 10
4.5174582671
 20
10.1840474003
 30
0.0
 10
4.5125794276
 20
10.1844371501
 30
0.0
 10
4.5080084829
 20
10.1847898143
 30
0.0
 10
4.5037900113
 20
10.1851019859
 30
0.0
 10
4.4999653165
 20
10.1853706332
 30
0.0
 10
4.4970413717
 20
10.1855624837
 30
0.0
 10
4.4949268942
 20
10.185691248
 30
0.0
 10
4.4935191453
 20
10.1857719178
 30
0.0
 10
4.4922351991
 20
10.1858400323
 30
0.0
 10
4.4910782317
 20
10.1858954374
 30
0.0
 10
4.4900510952
 20
10.1859380342
 30
0.0
 10
4.489156323
 20
10.1859677426
 30
0.0
 10
4.4884943875
 20
10.1859824714
 30
0.0
 10
4.488032668
 20
10.1859870042
 30
0.0
 10
4.4877377685
 20
10.1859869725
 30
0.0
 10
4.4874773787
 20
10.1859837069
 30
0.0
 10
4.4872516463
 20
10.1859772379
 30
0.0
 10
4.4870606992
 20
10.1859675854
 30
0.0
 10
4.4869234312
 20
10.1859564418
 30
0.0
 10
4.4868312044
 20
10.1859453852
 30
0.0
 10
4.4867750638
 20
10.1859368109
 30
0.0
 10
4.4867276525
 20
10.1859274716
 30
0.0
 10
4.4866889571
 20
10.1859173832
 30
0.0
 10
4.4866588218
 20
10.1859065739
 30
0.0
 10
4.4866371618
 20
10.1858949691
 30
0.0
 10
4.4866230908
 20
10.1858821109
 30
0.0
 10
4.4866199883
 20
10.1858712214
 30
0.0
 10
4.486620337
 20
10.1858665716
 30
0.0
  0
SPLINE
  5
451
100
AcDbEntity
  8
0
100
AcDbSpline
 62
7
  6
CONTINUOUS
 70
0
 71
3
 72
60
 73
56
 74
0
 42
0.0000001
 43
0.0000001
 44
0.0000000001
 40
0.0
 40
0.0
 40
0.0
 40
0.0
 40
0.0002349657
 40
0.0004937806
 40
0.0007940168
 40
0.0011470852
 40
0.002036297
 40
0.0031931415
 40
0.0046301362
 40
0.0063531133
 40
0.0083649683
 40
0.0106668448
 40
0.0161400784
 40
0.0227674237
 40
0.0305363871
 40
0.0394301483
 40
0.0605071137
 40
0.0857988987
 40
0.1150622122
 40
0.1480151648
 40
0.184340988
 40
0.2236915046
 40
0.2656905687
 40
0.3099376705
 40
0.3560114243
 40
0.4034732958
 40
0.5007437017
 40
0.5980433799
 40
0.6455367602
 40
0.6916456384
 40
0.7359234337
 40
0.7779396817
 40
0.8172845861
 40
0.8535734493
 40
0.8864511113
 40
0.9155960351
 40
0.9286784838
 40
0.9407245251
 40
0.9517051409
 40
0.9615944944
 40
0.9703695333
 40
0.9780107993
 40
0.9845026799
 40
0.9873139868
 40
0.9898343507
 40
0.9920635614
 40
0.9940019905
 40
0.995651285
 40
0.9970150965
 40
0.9981006522
 40
0.9989236101
 40
0.9992478826
 40
0.9995246361
 40
0.9997683951
 40
1.0
 40
1.0
 40
1.0
 40
1.0
 10
4.7494330551
 20
10.1755953225
 30
0.0
 10
4.74943374
 20
10.1756044542
 30
0.0
 10
4.7494318637
 20
10.1756239986
 30
0.0
 10
4.7494197731
 20
10.1756528475
 30
0.0
 10
4.7493989725
 20
10.1756819383
 30
0.0
 10
4.7493564255
 20
10.1757246668
 30
0.0
 10
4.7492791176
 20
10.1757782879
 30
0.0
 10
4.7491588738
 20
10.1758415092
 30
0.0
 10
4.7490040832
 20
10.1759078069
 30
0.0
 10
4.7488147538
 20
10.1759771141
 30
0.0
 10
4.7485907945
 20
10.1760493417
 30
0.0
 10
4.7482244426
 20
10.1761556633
 30
0.0
 10
4.7476800206
 20
10.1762929376
 30
0.0
 10
4.7469239366
 20
10.1764605299
 30
0.0
 10
4.7460337898
 20
10.1766383912
 30
0.0
 10
4.7445870666
 20
10.1769038571
 30
0.0
 10
4.742461525
 20
10.1772523705
 30
0.0
 10
4.7395455779
 20
10.1776837722
 30
0.0
 10
4.7361662032
 20
10.1781437033
 30
0.0
 10
4.7323562717
 20
10.178627571
 30
0.0
 10
4.7281525871
 20
10.1791304578
 30
0.0
 10
4.7235956123
 20
10.1796474366
 30
0.0
 10
4.7187290408
 20
10.1801734764
 30
0.0
 10
4.7135994084
 20
10.1807034987
 30
0.0
 10
4.7082556768
 20
10.1812324159
 30
0.0
 10
4.7008526213
 20
10.1819351048
 30
0.0
 10
4.6914570135
 20
10.1827723981
 30
0.0
 10
4.6820543364
 20
10.1835413871
 30
0.0
 10
4.6746356508
 20
10.1841050473
 30
0.0
 10
4.6692758566
 20
10.1844905081
 30
0.0
 10
4.6641274188
 20
10.1848383825
 30
0.0
 10
4.659240479
 20
10.1851452833
 30
0.0
 10
4.6546628081
 20
10.1854082342
 30
0.0
 10
4.6504392872
 20
10.1856247267
 30
0.0
 10
4.6466114256
 20
10.1857926909
 30
0.0
 10
4.643686054
 20
10.1858944871
 30
0.0
 10
4.6415715226
 20
10.1859484725
 30
0.0
 10
4.6401644631
 20
10.1859744619
 30
0.0
 10
4.6388816696
 20
10.1859874282
 30
0.0
 10
4.6377262868
 20
10.1859873708
 30
0.0
 10
4.6367011175
 20
10.1859743658
 30
0.0
 10
4.6358086459
 20
10.1859484967
 30
0.0
 10
4.635149021
 20
10.1859151125
 30
0.0
 10
4.6346894946
 20
10.1858805602
 30
0.0
 10
4.6343961164
 20
10.1858527318
 30
0.0
 10
4.6341372755
 20
10.1858217956
 30
0.0
 10
4.6339130789
 20
10.1857877988
 30
0.0
 10
4.6337236194
 20
10.1857508172
 30
0.0
 10
4.6335687443
 20
10.1857109625
 30
0.0
 10
4.6334484362
 20
10.1856683161
 30
0.0
 10
4.6333706224
 20
10.1856277279
 30
0.0
 10
4.6333278224
 20
10.1855920273
 30
0.0
 10
4.6333068937
 20
10.185566246
 30
0.0
 10
4.6332948299
 20
10.1855390665
 30
0.0
 10
4.6332931789
 20
10.1855202104
 30
0.0
 10
4.633293854
 20
10.1855112093
 30
0.0
  0
SPLINE
  5
452
100
AcDbEntity
  8
0
100
AcDbSpline
 62
7
  6
CONTINUOUS
 70
0
 71
3
 72
56
 73
52
 74
0
 42
0.0000001
 43
0.0000001
 44
0.0000000001
 40
0.0
 40
0.0
 40
0.0
 40
0.0
 40
0.0006851866
 40
0.0014919405
 40
0.0024981377
 40
0.0037445068
 40
0.0052518806
 40
0.0070313922
 40
0.0090893232
 40
0.0114290569
 40
0.0169589137
 40
0.0236239004
 40
0.0314160913
 40
0.040321555
 40
0.0503220138
 40
0.0613952532
 40
0.0735161004
 40
0.0866564189
 40
0.1158692919
 40
0.1487583158
 40
0.1850117569
 40
0.2242856737
 40
0.2662073451
 40
0.3103788413
 40
0.3563804795
 40
0.4037745652
 40
0.5009214487
 40
0.5981058452
 40
0.6915862475
 40
0.7357966216
 40
0.7777396599
 40
0.817005601
 40
0.8532108828
 40
0.8860027342
 40
0.9150634978
 40
0.9281062519
 40
0.9401153453
 40
0.9510628854
 40
0.9609244373
 40
0.9696787472
 40
0.9773087638
 40
0.9838023308
 40
0.989153739
 40
0.9914026944
 40
0.9933695715
 40
0.9950587377
 40
0.9964780014
 40
0.997641226
 40
0.9985746306
 40
0.999329571
 40
1.0
 40
1.0
 40
1.0
 40
1.0
 10
4.9867546946
 20
10.1761556947
 30
0.0
 10
4.9867566958
 20
10.1761823772
 30
0.0
 10
4.9867465484
 20
10.1762419147
 30
0.0
 10
4.9866943636
 20
10.1763260337
 30
0.0
 10
4.9866089047
 20
10.1764104493
 30
0.0
 10
4.9864896448
 20
10.1764967389
 30
0.0
 10
4.9863362175
 20
10.1765854601
 30
0.0
 10
4.9861483395
 20
10.1766766818
 30
0.0
 10
4.98592596
 20
10.176770376
 30
0.0
 10
4.9855627507
 20
10.1769061704
 30
0.0
 10
4.9850215961
 20
10.1770783883
 30
0.0
 10
4.9842686316
 20
10.1772844006
 30
0.0
 10
4.9833817218
 20
10.1774987809
 30
0.0
 10
4.9823630046
 20
10.1777209322
 30
0.0
 10
4.9812148927
 20
10.1779501694
 30
0.0
 10
4.9799401784
 20
10.1781858801
 30
0.0
 10
4.9785419608
 20
10.1784274499
 30
0.0
 10
4.9764422038
 20
10.1787687136
 30
0.0
 10
4.9735359024
 20
10.1792020446
 30
0.0
 10
4.9697299265
 20
10.1797193919
 30
0.0
 10
4.9655288801
 20
10.1802455219
 30
0.0
 10
4.9609729947
 20
10.1807752876
 30
0.0
 10
4.9561057864
 20
10.1813034922
 30
0.0
 10
4.9509737115
 20
10.1818250087
 30
0.0
 10
4.9456257473
 20
10.1823348018
 30
0.0
 10
4.9382143723
 20
10.1829977107
 30
0.0
 10
4.9288053387
 20
10.1837602809
 30
0.0
 10
4.9175934957
 20
10.1845497754
 30
0.0
 10
4.9084372237
 20
10.1850936133
 30
0.0
 10
4.9014309537
 20
10.185442913
 30
0.0
 10
4.8965376337
 20
10.1856530196
 30
0.0
 10
4.8919552421
 20
10.1858142243
 30
0.0
 10
4.8877288155
 20
10.1859250391
 30
0.0
 10
4.8838999134
 20
10.1859844802
 30
0.0
 10
4.8809750322
 20
10.1859913691
 30
0.0
 10
4.8788619667
 20
10.1859679347
 30
0.0
 10
4.8774564359
 20
10.1859379441
 30
0.0
 10
4.8761755252
 20
10.1858950524
 30
0.0
 10
4.8750223254
 20
10.1858394231
 30
0.0
 10
4.8739995925
 20
10.1857712635
 30
0.0
 10
4.8731096806
 20
10.1856909187
 30
0.0
 10
4.8723546428
 20
10.1855986845
 30
0.0
 10
4.8718114128
 20
10.1855081275
 30
0.0
 10
4.8714466265
 20
10.1854269668
 30
0.0
 10
4.8712239026
 20
10.1853668455
 30
0.0
 10
4.8710357762
 20
10.1853039889
 30
0.0
 10
4.8708821186
 20
10.1852384295
 30
0.0
 10
4.8707625507
 20
10.1851700225
 30
0.0
 10
4.8706764557
 20
10.1850980998
 30
0.0
 10
4.8706237502
 20
10.1850202196
 30
0.0
 10
4.8706145794
 20
10.1849630256
 30
0.0
 10
4.8706165375
 20
10.1849369179
 30
0.0
  0
SPLINE
  5
453
100
AcDbEntity
  8
0
100
AcDbSpline
 62
7
  6
CONTINUOUS
 70
0
 71
3
 72
55
 73
51
 74
0
 42
0.0000001
 43
0.0000001
 44
0.0000000001
 40
0.0
 40
0.0
 40
0.0
 40
0.0
 40
0.0008553229
 40
0.001806637
 40
0.0029278228
 40
0.0042646079
 40
0.0058435982
 40
0.0076803912
 40
0.0097844384
 40
0.0121613634
 40
0.0177446624
 40
0.0244422333
 40
0.032251299
 40
0.0411612819
 40
0.0511562983
 40
0.0622159372
 40
0.0743164502
 40
0.087430901
 40
0.1165792231
 40
0.1493922174
 40
0.185563382
 40
0.2247528416
 40
0.2665908601
 40
0.3106814854
 40
0.403926401
 40
0.500935554
 40
0.5979840158
 40
0.691317887
 40
0.7354489282
 40
0.7773088063
 40
0.8164892345
 40
0.8526092367
 40
0.8853198743
 40
0.9143086587
 40
0.9273210308
 40
0.9393048051
 40
0.9502333449
 40
0.960083748
 40
0.9688367077
 40
0.9764777631
 40
0.9829984576
 40
0.9883987827
 40
0.9906833526
 40
0.9926954891
 40
0.9944421481
 40
0.9959348042
 40
0.9971924426
 40
0.9982475438
 40
0.9991551946
 40
1.0
 40
1.0
 40
1.0
 40
1.0
 10
5.3043531372
 20
10.1769069179
 30
0.0
 10
5.3043556404
 20
10.1769402948
 30
0.0
 10
5.3043475382
 20
10.1770122486
 30
0.0
 10
5.304298092
 20
10.1771171846
 30
0.0
 10
5.3042141247
 20
10.1772219418
 30
0.0
 10
5.3040961246
 20
10.1773276972
 30
0.0
 10
5.3039439475
 20
10.1774351207
 30
0.0
 10
5.3037574088
 20
10.1775444003
 30
0.0
 10
5.3035364413
 20
10.1776555678
 30
0.0
 10
5.3031761379
 20
10.1778148974
 30
0.0
 10
5.302637959
 20
10.1780146611
 30
0.0
 10
5.3018877334
 20
10.1782502727
 30
0.0
 10
5.3010036662
 20
10.1784919878
 30
0.0
 10
5.2999878218
 20
10.1787391425
 30
0.0
 10
5.2988425259
 20
10.1789909841
 30
0.0
 10
5.2975705148
 20
10.1792468406
 30
0.0
 10
5.2961748345
 20
10.1795060465
 30
0.0
 10
5.2940784766
 20
10.1798681166
 30
0.0
 10
5.2911753724
 20
10.1803200728
 30
0.0
 10
5.2873716744
 20
10.180848685
 30
0.0
 10
5.2831714091
 20
10.181375468
 30
0.0
 10
5.2786146455
 20
10.1818952277
 30
0.0
 10
5.2737448239
 20
10.1824028353
 30
0.0
 10
5.2667650525
 20
10.1830692209
 30
0.0
 10
5.2576260027
 20
10.1838313712
 30
0.0
 10
5.2464099271
 20
10.1846102319
 30
0.0
 10
5.2351809268
 20
10.1852385893
 30
0.0
 10
5.2260116327
 20
10.1856237491
 30
0.0
 10
5.2189973417
 20
10.1858336106
 30
0.0
 10
5.2141001468
 20
10.1859372114
 30
0.0
 10
5.2095156283
 20
10.1859891288
 30
0.0
 10
5.2052888157
 20
10.1859889976
 30
0.0
 10
5.2014611619
 20
10.185936979
 30
0.0
 10
5.1985386628
 20
10.1858484453
 30
0.0
 10
5.1964284356
 20
10.1857485195
 30
0.0
 10
5.1950251342
 20
10.1856638139
 30
0.0
 10
5.1937466672
 20
10.185566919
 30
0.0
 10
5.1925960682
 20
10.1854581414
 30
0.0
 10
5.1915760319
 20
10.1853378326
 30
0.0
 10
5.1906888119
 20
10.18520648
 30
0.0
 10
5.1899363764
 20
10.1850645167
 30
0.0
 10
5.1893960275
 20
10.1849317566
 30
0.0
 10
5.1890341578
 20
10.1848170778
 30
0.0
 10
5.1888127925
 20
10.1847334443
 30
0.0
 10
5.1886259346
 20
10.1846473928
 30
0.0
 10
5.1884734439
 20
10.1845588614
 30
0.0
 10
5.1883550652
 20
10.1844675698
 30
0.0
 10
5.1882706078
 20
10.1843726417
 30
0.0
 10
5.188221104
 20
10.1842726255
 30
0.0
 10
5.1882137063
 20
10.1842026769
 30
0.0
 10
5.1882161788
 20
10.1841697105
 30
0.0
  0
SPLINE
  5
454
100
AcDbEntity
  8
0
100
AcDbSpline
 62
7
  6
CONTINUOUS
 70
0
 71
3
 72
56
 73
52
 74
0
 42
0.0000001
 43
0.0000001
 44
0.0000000001
 40
0.0
 40
0.0
 40
0.0
 40
0.0
 40
0.000989711
 40
0.0020580585
 40
0.0032747667
 40
0.0046875195
 40
0.0063265337
 40
0.0082107007
 40
0.0103520376
 40
0.012758093
 40
0.0183803873
 40
0.0250978194
 40
0.0329125146
 40
0.0418171773
 40
0.0517982833
 40
0.0628372071
 40
0.0749116284
 40
0.0879957663
 40
0.1170744646
 40
0.1498109866
 40
0.18590335
 40
0.2250148758
 40
0.2667778597
 40
0.3107973195
 40
0.4039106774
 40
0.5007955888
 40
0.5977148004
 40
0.6450084928
 40
0.690906524
 40
0.7349610404
 40
0.7767427606
 40
0.8158459545
 40
0.8518931862
 40
0.8845400132
 40
0.9134794374
 40
0.9264746625
 40
0.9384475603
 40
0.9493726437
 40
0.9592283859
 40
0.9679972091
 40
0.9756669316
 40
0.982232316
 40
0.9876982317
 40
0.9900259135
 40
0.9920897926
 40
0.9938987609
 40
0.9954668045
 40
0.9968159197
 40
0.9979812086
 40
0.9990171235
 40
1.0
 40
1.0
 40
1.0
 40
1.0
 10
5.6883478833
 20
10.1778171809
 30
0.0
 10
5.6883507852
 20
10.1778558725
 30
0.0
 10
5.6883439929
 20
10.1779377428
 30
0.0
 10
5.6882966073
 20
10.1780585373
 30
0.0
 10
5.6882140916
 20
10.1781788578
 30
0.0
 10
5.6880972512
 20
10.1782994369
 30
0.0
 10
5.6879461655
 20
10.178420921
 30
0.0
 10
5.6877607413
 20
10.178543553
 30
0.0
 10
5.6875409281
 20
10.178667409
 30
0.0
 10
5.6871829984
 20
10.1788433838
 30
0.0
 10
5.6866472181
 20
10.1790621014
 30
0.0
 10
5.685899123
 20
10.1793171808
 30
0.0
 10
5.6850172312
 20
10.179575833
 30
0.0
 10
5.6840035318
 20
10.179837358
 30
0.0
 10
5.682860268
 20
10.1801009709
 30
0.0
 10
5.6815901194
 20
10.1803659687
 30
0.0
 10
5.6801960811
 20
10.1806316621
 30
0.0
 10
5.6781016907
 20
10.1809989831
 30
0.0
 10
5.6751999531
 20
10.1814501241
 30
0.0
 10
5.671396443
 20
10.1819672057
 30
0.0
 10
5.6671948423
 20
10.1824718702
 30
0.0
 10
5.6626351666
 20
10.1829590861
 30
0.0
 10
5.6577608978
 20
10.1834239827
 30
0.0
 10
5.6507727297
 20
10.1840190153
 30
0.0
 10
5.641620948
 20
10.1846692432
 30
0.0
 10
5.6303891464
 20
10.1852842644
 30
0.0
 10
5.6209439899
 20
10.185653047
 30
0.0
 10
5.6134935229
 20
10.185851413
 30
0.0
 10
5.6081137663
 20
10.1859478702
 30
0.0
 10
5.6029494205
 20
10.1859923864
 30
0.0
 10
5.5980512559
 20
10.1859845769
 30
0.0
 10
5.5934673741
 20
10.1859246357
 30
0.0
 10
5.589242647
 20
10.1858133722
 30
0.0
 10
5.5854182903
 20
10.1856520818
 30
0.0
 10
5.5824996925
 20
10.1854720215
 30
0.0
 10
5.5803932647
 20
10.1853000739
 30
0.0
 10
5.578992611
 20
10.1851644335
 30
0.0
 10
5.5777168589
 20
10.1850178649
 30
0.0
 10
5.5765689898
 20
10.1848607991
 30
0.0
 10
5.5755516441
 20
10.1846937099
 30
0.0
 10
5.574666995
 20
10.1845171915
 30
0.0
 10
5.5739169417
 20
10.1843317847
 30
0.0
 10
5.5733792782
 20
10.1841627693
 30
0.0
 10
5.5730200498
 20
10.1840198134
 30
0.0
 10
5.5727998688
 20
10.1839163727
 30
0.0
 10
5.5726141384
 20
10.1838109331
 30
0.0
 10
5.5724627581
 20
10.1837033797
 30
0.0
 10
5.5723456047
 20
10.1835933851
 30
0.0
 10
5.5722628061
 20
10.1834801669
 30
0.0
 10
5.5722155169
 20
10.1833629691
 30
0.0
 10
5.5722091895
 20
10.1832825866
 30
0.0
 10
5.5722120714
 20
10.1832441622
 30
0.0
  0
SPLINE
  5
455
100
AcDbEntity
  8
0
100
AcDbSpline
 62
7
  6
CONTINUOUS
 70
0
 71
3
 72
57
 73
53
 74
0
 42
0.0000001
 43
0.0000001
 44
0.0000000001
 40
0.0
 40
0.0
 40
0.0
 40
0.0
 40
0.001082215
 40
0.0022307105
 40
0.0035124978
 40
0.0049761907
 40
0.0066542749
 40
0.0085679139
 40
0.0107309988
 40
0.0131525446
 40
0.0187910981
 40
0.0255104046
 40
0.0333165718
 40
0.0422050349
 40
0.0521642301
 40
0.0631770162
 40
0.0752222766
 40
0.0882751447
 40
0.1172879391
 40
0.1499579138
 40
0.1859861726
 40
0.225037835
 40
0.2667458442
 40
0.3107149187
 40
0.3565254045
 40
0.4037374918
 40
0.5005316653
 40
0.5973491597
 40
0.6445862328
 40
0.6904243374
 40
0.734417137
 40
0.7761377266
 40
0.815183528
 40
0.8511809011
 40
0.8837897379
 40
0.9127078268
 40
0.9257003326
 40
0.937676755
 40
0.9486124463
 40
0.958486854
 40
0.9672836051
 40
0.9749920856
 40
0.9816092426
 40
0.9871431983
 40
0.9895125993
 40
0.9916244061
 40
0.9934886215
 40
0.9951205349
 40
0.9965434231
 40
0.9977928999
 40
0.9989215667
 40
1.0
 40
1.0
 40
1.0
 40
1.0
 10
6.1219565938
 20
10.1788476837
 30
0.0
 10
6.1219597712
 20
10.1788900488
 30
0.0
 10
6.121953816
 20
10.1789787529
 30
0.0
 10
6.1219077963
 20
10.1791101472
 30
0.0
 10
6.1218263545
 20
10.1792406561
 30
0.0
 10
6.1217103788
 20
10.1793707324
 30
0.0
 10
6.1215600848
 20
10.1795009643
 30
0.0
 10
6.1213754463
 20
10.1796316168
 30
0.0
 10
6.1211564313
 20
10.1797627926
 30
0.0
 10
6.1208001097
 20
10.1799478626
 30
0.0
 10
6.1202659048
 20
10.1801761052
 30
0.0
 10
6.1195191462
 20
10.1804396173
 30
0.0
 10
6.1186385547
 20
10.1807040282
 30
0.0
 10
6.1176260533
 20
10.1809686275
 30
0.0
 10
6.1164838169
 20
10.1812326263
 30
0.0
 10
6.1152144775
 20
10.1814953181
 30
0.0
 10
6.1138209892
 20
10.1817560143
 30
0.0
 10
6.1117268678
 20
10.1821127227
 30
0.0
 10
6.1088244641
 20
10.1825435033
 30
0.0
 10
6.1050189964
 20
10.1830265626
 30
0.0
 10
6.1008140664
 20
10.1834870722
 30
0.0
 10
6.0962497595
 20
10.1839203789
 30
0.0
 10
6.0913697244
 20
10.1843220468
 30
0.0
 10
6.0862208662
 20
10.184688019
 30
0.0
 10
6.0808528805
 20
10.1850146231
 30
0.0
 10
6.0734110122
 20
10.1853962813
 30
0.0
 10
6.063963261
 20
10.1857517692
 30
0.0
 10
6.0545098047
 20
10.185944418
 30
0.0
 10
6.0470553432
 20
10.1859944918
 30
0.0
 10
6.0416744554
 20
10.1859792034
 30
0.0
 10
6.0365105384
 20
10.185911671
 30
0.0
 10
6.0316142507
 20
10.1857926466
 30
0.0
 10
6.0270334925
 20
10.1856234519
 30
0.0
 10
6.0228128578
 20
10.1854060056
 30
0.0
 10
6.0189932465
 20
10.185142672
 30
0.0
 10
6.016079415
 20
10.1848791957
 30
0.0
 10
6.013977146
 20
10.1846429908
 30
0.0
 10
6.0125791798
 20
10.1844625111
 30
0.0
 10
6.0113060473
 20
10.184272847
 30
0.0
 10
6.0101606921
 20
10.1840745312
 30
0.0
 10
6.0091457176
 20
10.1838681346
 30
0.0
 10
6.0082632482
 20
10.1836543292
 30
0.0
 10
6.0075151426
 20
10.1834337342
 30
0.0
 10
6.0069796647
 20
10.1832360371
 30
0.0
 10
6.0066224937
 20
10.183071219
 30
0.0
 10
6.0064032207
 20
10.1829525852
 30
0.0
 10
6.0062183654
 20
10.1828324799
 30
0.0
 10
6.0060678692
 20
10.1827107708
 30
0.0
 10
6.0059516999
 20
10.1825871389
 30
0.0
 10
6.0058701232
 20
10.1824609328
 30
0.0
 10
6.0058242025
 20
10.1823317323
 30
0.0
 10
6.0058185113
 20
10.1822439329
 30
0.0
 10
6.0058216776
 20
10.1822017159
 30
0.0
  0
SPLINE
  5
456
100
AcDbEntity
  8
0
100
AcDbSpline
 62
7
  6
CONTINUOUS
 70
0
 71
3
 72
57
 73
53
 74
0
 42
0.0000001
 43
0.0000001
 44
0.0000000001
 40
0.0
 40
0.0
 40
0.0
 40
0.0
 40
0.0011288814
 40
0.0023153238
 40
0.0036254667
 40
0.0051088286
 40
0.0067994254
 40
0.0087198834
 40
0.0108852904
 40
0.0133056057
 40
0.0189336065
 40
0.0256349404
 40
0.0334182532
 40
0.0422807717
 40
0.0522121821
 40
0.0631963057
 40
0.0752128011
 40
0.0882373351
 40
0.117196546
 40
0.149818976
 40
0.1858068189
 40
0.2248251846
 40
0.2665061145
 40
0.3104527551
 40
0.3562434917
 40
0.4034364201
 40
0.5001864939
 40
0.5969448258
 40
0.644146598
 40
0.689947105
 40
0.7339021278
 40
0.7755874842
 40
0.8146037408
 40
0.850580619
 40
0.8831813864
 40
0.9121070755
 40
0.925110256
 40
0.9371024122
 40
0.9480592947
 40
0.9579607669
 40
0.966790941
 40
0.9745398395
 40
0.98120525
 40
0.9867965527
 40
0.9891986248
 40
0.9913461367
 40
0.9932494114
 40
0.9949240382
 40
0.9963933857
 40
0.9976925375
 40
0.9988723209
 40
1.0
 40
1.0
 40
1.0
 40
1.0
 10
6.5862285455
 20
10.1799541644
 30
0.0
 10
6.5862318622
 20
10.1799983879
 30
0.0
 10
6.5862263548
 20
10.1800904538
 30
0.0
 10
6.5861810335
 20
10.1802268693
 30
0.0
 10
6.5861001409
 20
10.180361835
 30
0.0
 10
6.5859845987
 20
10.1804956675
 30
0.0
 10
6.5858346907
 20
10.1806289223
 30
0.0
 10
6.5856504253
 20
10.1807618778
 30
0.0
 10
6.5854317785
 20
10.1808946534
 30
0.0
 10
6.5850761452
 20
10.181080899
 30
0.0
 10
6.5845425284
 20
10.1813087827
 30
0.0
 10
6.583796202
 20
10.1815692442
 30
0.0
 10
6.5829159244
 20
10.1818279104
 30
0.0
 10
6.5819035703
 20
10.1820840804
 30
0.0
 10
6.5807612686
 20
10.1823369853
 30
0.0
 10
6.5794916196
 20
10.1825859393
 30
0.0
 10
6.5780975534
 20
10.18283028
 30
0.0
 10
6.5760019997
 20
10.183160834
 30
0.0
 10
6.5730970246
 20
10.1835524004
 30
0.0
 10
6.569287761
 20
10.1839801938
 30
0.0
 10
6.5650779926
 20
10.1843762014
 30
0.0
 10
6.5605079983
 20
10.184736347
 30
0.0
 10
6.555621699
 20
10.1850568582
 30
0.0
 10
6.5504663356
 20
10.1853344329
 30
0.0
 10
6.5450919725
 20
10.1855662365
 30
0.0
 10
6.5376423306
 20
10.1858130453
 30
0.0
 10
6.5281875645
 20
10.1859911519
 30
0.0
 10
6.5187307759
 20
10.1859986302
 30
0.0
 10
6.5112766703
 20
10.1858979791
 30
0.0
 10
6.5058977352
 20
10.1857715517
 30
0.0
 10
6.5007370371
 20
10.1855949778
 30
0.0
 10
6.4958449822
 20
10.1853701023
 30
0.0
 10
6.4912691639
 20
10.1850993019
 30
0.0
 10
6.487053838
 20
10.1847854993
 30
0.0
 10
6.4832395713
 20
10.1844319996
 30
0.0
 10
6.4803305561
 20
10.1840969826
 30
0.0
 10
6.4782321245
 20
10.1838071454
 30
0.0
 10
6.476836477
 20
10.1835899095
 30
0.0
 10
6.4755654887
 20
10.183365628
 30
0.0
 10
6.4744220855
 20
10.1831349108
 30
0.0
 10
6.4734088569
 20
10.1828983994
 30
0.0
 10
6.4725279134
 20
10.1826568225
 30
0.0
 10
6.4717811064
 20
10.1824108521
 30
0.0
 10
6.47124704
 20
10.1821932691
 30
0.0
 10
6.4708911115
 20
10.1820138465
 30
0.0
 10
6.470672372
 20
10.1818852995
 30
0.0
 10
6.4704880286
 20
10.1817558973
 30
0.0
 10
6.4703380491
 20
10.1816255098
 30
0.0
 10
6.4702224424
 20
10.1814938404
 30
0.0
 10
6.4701415107
 20
10.1813603165
 30
0.0
 10
6.4700962281
 20
10.1812246381
 30
0.0
 10
6.4700908063
 20
10.1811328749
 30
0.0
 10
6.4700941195
 20
10.1810886984
 30
0.0
  0
SPLINE
  5
457
100
AcDbEntity
  8
0
100
AcDbSpline
 62
7
  6
CONTINUOUS
 70
0
 71
3
 72
57
 73
53
 74
0
 42
0.0000001
 43
0.0000001
 44
0.0000000001
 40
0.0
 40
0.0
 40
0.0
 40
0.0
 40
0.0011276791
 40
0.0023074625
 40
0.0036066143
 40
0.0050759618
 40
0.0067505886
 40
0.0086538633
 40
0.0108013752
 40
0.0132034473
 40
0.0187947499
 40
0.0254601604
 40
0.0332090588
 40
0.0420392329
 40
0.0519407049
 40
0.0628975874
 40
0.0748897435
 40
0.087892924
 40
0.1168186127
 40
0.1494193803
 40
0.1853962581
 40
0.2244125151
 40
0.2660978713
 40
0.3100528937
 40
0.355853401
 40
0.4030551724
 40
0.4998135043
 40
0.5965635779
 40
0.6437565079
 40
0.6895472447
 40
0.7334938866
 40
0.7751748163
 40
0.8141931817
 40
0.8501810243
 40
0.8828034541
 40
0.9117626652
 40
0.9247871993
 40
0.9368036946
 40
0.9477878181
 40
0.9577192286
 40
0.9665817471
 40
0.9743650597
 40
0.9810663935
 40
0.9866943944
 40
0.9891147097
 40
0.9912801166
 40
0.9932005747
 40
0.9948911714
 40
0.9963745333
 40
0.9976846762
 40
0.9988711186
 40
1.0
 40
1.0
 40
1.0
 40
1.0
 10
7.0608728587
 20
10.1810886984
 30
0.0
 10
7.060876172
 20
10.1811328749
 30
0.0
 10
7.0608707502
 20
10.1812246381
 30
0.0
 10
7.0608254675
 20
10.1813603165
 30
0.0
 10
7.0607445359
 20
10.1814938404
 30
0.0
 10
7.0606289292
 20
10.1816255098
 30
0.0
 10
7.0604789497
 20
10.1817558973
 30
0.0
 10
7.0602946063
 20
10.1818852995
 30
0.0
 10
7.0600758668
 20
10.1820138465
 30
0.0
 10
7.0597199383
 20
10.1821932691
 30
0.0
 10
7.0591858718
 20
10.1824108521
 30
0.0
 10
7.0584390649
 20
10.1826568225
 30
0.0
 10
7.0575581214
 20
10.1828983994
 30
0.0
 10
7.0565448928
 20
10.1831349108
 30
0.0
 10
7.0554014896
 20
10.183365628
 30
0.0
 10
7.0541305013
 20
10.1835899095
 30
0.0
 10
7.0527348538
 20
10.1838071454
 30
0.0
 10
7.0506364223
 20
10.1840969826
 30
0.0
 10
7.047727407
 20
10.1844319996
 30
0.0
 10
7.0439131403
 20
10.1847854993
 30
0.0
 10
7.0396978145
 20
10.1850993019
 30
0.0
 10
7.0351219962
 20
10.1853701023
 30
0.0
 10
7.0302299413
 20
10.1855949778
 30
0.0
 10
7.0250692432
 20
10.1857715517
 30
0.0
 10
7.0196903082
 20
10.1858979791
 30
0.0
 10
7.0122362026
 20
10.1859986302
 30
0.0
 10
7.002779414
 20
10.1859911519
 30
0.0
 10
6.9933246478
 20
10.1858130454
 30
0.0
 10
6.9858750059
 20
10.1855662366
 30
0.0
 10
6.9805006426
 20
10.1853344329
 30
0.0
 10
6.9753452792
 20
10.1850568582
 30
0.0
 10
6.9704589799
 20
10.184736347
 30
0.0
 10
6.9658889855
 20
10.1843762014
 30
0.0
 10
6.9616792173
 20
10.1839801938
 30
0.0
 10
6.9578699536
 20
10.1835524004
 30
0.0
 10
6.9549649785
 20
10.183160834
 30
0.0
 10
6.9528694249
 20
10.18283028
 30
0.0
 10
6.9514753586
 20
10.1825859393
 30
0.0
 10
6.9502057096
 20
10.1823369853
 30
0.0
 10
6.949063408
 20
10.1820840804
 30
0.0
 10
6.9480510538
 20
10.1818279104
 30
0.0
 10
6.9471707763
 20
10.1815692442
 30
0.0
 10
6.9464244498
 20
10.1813087826
 30
0.0
 10
6.9458908331
 20
10.181080899
 30
0.0
 10
6.9455351997
 20
10.1808946534
 30
0.0
 10
6.945316553
 20
10.1807618778
 30
0.0
 10
6.9451322876
 20
10.1806289223
 30
0.0
 10
6.9449823795
 20
10.1804956675
 30
0.0
 10
6.9448668374
 20
10.180361835
 30
0.0
 10
6.9447859447
 20
10.1802268693
 30
0.0
 10
6.9447406234
 20
10.1800904538
 30
0.0
 10
6.944735116
 20
10.1799983879
 30
0.0
 10
6.9447384328
 20
10.1799541644
 30
0.0
  0
SPLINE
  5
458
100
AcDbEntity
  8
0
100
AcDbSpline
 62
7
  6
CONTINUOUS
 70
0
 71
3
 72
57
 73
53
 74
0
 42
0.0000001
 43
0.0000001
 44
0.0000000001
 40
0.0
 40
0.0
 40
0.0
 40
0.0
 40
0.0010784333
 40
0.0022071001
 40
0.0034565769
 40
0.0048794651
 40
0.0065113785
 40
0.0083755939
 40
0.0104874007
 40
0.0128568017
 40
0.0183907575
 40
0.0250079144
 40
0.0327163949
 40
0.0415131459
 40
0.0513875535
 40
0.0623232447
 40
0.074299667
 40
0.0872921728
 40
0.1162102612
 40
0.1488190982
 40
0.1848164708
 40
0.2238622728
 40
0.2655828619
 40
0.3095756613
 40
0.3554137664
 40
0.4026508387
 40
0.4994683339
 40
0.5962625078
 40
0.6434745968
 40
0.6892850831
 40
0.7332541594
 40
0.774962168
 40
0.8140138302
 40
0.8500420882
 40
0.8827120628
 40
0.9117248568
 40
0.9247777248
 40
0.936822985
 40
0.9478357709
 40
0.9577949658
 40
0.9666834288
 40
0.9744895959
 40
0.9812089022
 40
0.9868474556
 40
0.9892690014
 40
0.9914320863
 40
0.9933457252
 40
0.9950238094
 40
0.9964875022
 40
0.9977692895
 40
0.998917785
 40
1.0
 40
1.0
 40
1.0
 40
1.0
 10
7.5251453007
 20
10.1822017159
 30
0.0
 10
7.5251484669
 20
10.1822439329
 30
0.0
 10
7.5251427758
 20
10.1823317323
 30
0.0
 10
7.5250968551
 20
10.1824609328
 30
0.0
 10
7.5250152784
 20
10.1825871389
 30
0.0
 10
7.5248991091
 20
10.1827107708
 30
0.0
 10
7.5247486128
 20
10.1828324799
 30
0.0
 10
7.5245637576
 20
10.1829525852
 30
0.0
 10
7.5243444846
 20
10.183071219
 30
0.0
 10
7.5239873136
 20
10.1832360371
 30
0.0
 10
7.5234518356
 20
10.1834337342
 30
0.0
 10
7.5227037301
 20
10.1836543292
 30
0.0
 10
7.5218212607
 20
10.1838681346
 30
0.0
 10
7.5208062862
 20
10.1840745312
 30
0.0
 10
7.519660931
 20
10.184272847
 30
0.0
 10
7.5183877985
 20
10.1844625111
 30
0.0
 10
7.5169898323
 20
10.1846429908
 30
0.0
 10
7.5148875634
 20
10.1848791957
 30
0.0
 10
7.5119737318
 20
10.185142672
 30
0.0
 10
7.5081541205
 20
10.1854060056
 30
0.0
 10
7.5039334859
 20
10.1856234519
 30
0.0
 10
7.4993527277
 20
10.1857926466
 30
0.0
 10
7.49445644
 20
10.185911671
 30
0.0
 10
7.489292523
 20
10.1859792034
 30
0.0
 10
7.4839116353
 20
10.1859944918
 30
0.0
 10
7.4764571737
 20
10.185944418
 30
0.0
 10
7.4670037173
 20
10.1857517692
 30
0.0
 10
7.4575559661
 20
10.1853962813
 30
0.0
 10
7.4501140977
 20
10.1850146231
 30
0.0
 10
7.4447461118
 20
10.184688019
 30
0.0
 10
7.4395972536
 20
10.1843220468
 30
0.0
 10
7.4347172184
 20
10.1839203789
 30
0.0
 10
7.4301529115
 20
10.1834870722
 30
0.0
 10
7.4259479816
 20
10.1830265626
 30
0.0
 10
7.4221425139
 20
10.1825435033
 30
0.0
 10
7.4192401103
 20
10.1821127227
 30
0.0
 10
7.417145989
 20
10.1817560143
 30
0.0
 10
7.4157525006
 20
10.181495318
 30
0.0
 10
7.4144831612
 20
10.1812326263
 30
0.0
 10
7.4133409249
 20
10.1809686275
 30
0.0
 10
7.4123284235
 20
10.1807040282
 30
0.0
 10
7.411447832
 20
10.1804396172
 30
0.0
 10
7.4107010734
 20
10.1801761052
 30
0.0
 10
7.4101668685
 20
10.1799478625
 30
0.0
 10
7.4098105469
 20
10.1797627926
 30
0.0
 10
7.409591532
 20
10.1796316168
 30
0.0
 10
7.4094068934
 20
10.1795009643
 30
0.0
 10
7.4092565994
 20
10.1793707324
 30
0.0
 10
7.4091406238
 20
10.1792406561
 30
0.0
 10
7.409059182
 20
10.1791101472
 30
0.0
 10
7.4090131623
 20
10.1789787529
 30
0.0
 10
7.4090072071
 20
10.1788900488
 30
0.0
 10
7.4090103845
 20
10.1788476837
 30
0.0
  0
SPLINE
  5
459
100
AcDbEntity
  8
0
100
AcDbSpline
 62
7
  6
CONTINUOUS
 70
0
 71
3
 72
56
 73
52
 74
0
 42
0.0000001
 43
0.0000001
 44
0.0000000001
 40
0.0
 40
0.0
 40
0.0
 40
0.0
 40
0.0009828765
 40
0.0020187914
 40
0.0031840803
 40
0.0045331955
 40
0.0061012391
 40
0.0079102075
 40
0.0099740866
 40
0.0123017684
 40
0.0177676841
 40
0.0243330686
 40
0.0320027912
 40
0.0407716144
 40
0.0506273564
 40
0.0615524397
 40
0.0735253374
 40
0.0865205625
 40
0.1154599862
 40
0.1481068135
 40
0.1841540448
 40
0.2232572393
 40
0.2650389592
 40
0.3090934755
 40
0.3549915071
 40
0.402285199
 40
0.4992044113
 40
0.5960893231
 40
0.6892026817
 40
0.733222142
 40
0.7749851257
 40
0.8140966514
 40
0.8501890146
 40
0.8829255363
 40
0.9120042345
 40
0.9250883723
 40
0.9371627935
 40
0.9482017172
 40
0.9581828231
 40
0.9670874857
 40
0.9749021808
 40
0.9816196128
 40
0.9872419071
 40
0.9896479625
 40
0.9917892993
 40
0.9936734664
 40
0.9953124806
 40
0.9967252333
 40
0.9979419415
 40
0.999010289
 40
1.0
 40
1.0
 40
1.0
 40
1.0
 10
7.9587549069
 20
10.1832441622
 30
0.0
 10
7.9587577887
 20
10.1832825866
 30
0.0
 10
7.9587514613
 20
10.1833629691
 30
0.0
 10
7.9587041721
 20
10.1834801669
 30
0.0
 10
7.9586213736
 20
10.1835933851
 30
0.0
 10
7.9585042202
 20
10.1837033797
 30
0.0
 10
7.9583528399
 20
10.1838109331
 30
0.0
 10
7.9581671095
 20
10.1839163727
 30
0.0
 10
7.9579469285
 20
10.1840198134
 30
0.0
 10
7.9575877001
 20
10.1841627693
 30
0.0
 10
7.9570500365
 20
10.1843317847
 30
0.0
 10
7.9562999832
 20
10.1845171915
 30
0.0
 10
7.9554153341
 20
10.18469371
 30
0.0
 10
7.9543979885
 20
10.1848607991
 30
0.0
 10
7.9532501194
 20
10.1850178649
 30
0.0
 10
7.9519743673
 20
10.1851644335
 30
0.0
 10
7.9505737136
 20
10.1853000739
 30
0.0
 10
7.9484672858
 20
10.1854720215
 30
0.0
 10
7.945548688
 20
10.1856520818
 30
0.0
 10
7.9417243313
 20
10.1858133722
 30
0.0
 10
7.9374996042
 20
10.1859246357
 30
0.0
 10
7.9329157224
 20
10.1859845769
 30
0.0
 10
7.9280175578
 20
10.1859923864
 30
0.0
 10
7.922853212
 20
10.1859478702
 30
0.0
 10
7.9174734554
 20
10.185851413
 30
0.0
 10
7.9100229884
 20
10.185653047
 30
0.0
 10
7.9005778319
 20
10.1852842644
 30
0.0
 10
7.8893460302
 20
10.1846692432
 30
0.0
 10
7.8801942485
 20
10.1840190153
 30
0.0
 10
7.8732060803
 20
10.1834239827
 30
0.0
 10
7.8683318114
 20
10.1829590861
 30
0.0
 10
7.8637721358
 20
10.1824718702
 30
0.0
 10
7.8595705352
 20
10.1819672057
 30
0.0
 10
7.8557670251
 20
10.181450124
 30
0.0
 10
7.8528652874
 20
10.1809989831
 30
0.0
 10
7.8507708971
 20
10.180631662
 30
0.0
 10
7.8493768587
 20
10.1803659687
 30
0.0
 10
7.8481067102
 20
10.1801009709
 30
0.0
 10
7.8469634464
 20
10.179837358
 30
0.0
 10
7.845949747
 20
10.179575833
 30
0.0
 10
7.8450678552
 20
10.1793171808
 30
0.0
 10
7.8443197602
 20
10.1790621014
 30
0.0
 10
7.8437839798
 20
10.1788433838
 30
0.0
 10
7.8434260501
 20
10.178667409
 30
0.0
 10
7.843206237
 20
10.178543553
 30
0.0
 10
7.8430208128
 20
10.178420921
 30
0.0
 10
7.8428697271
 20
10.1782994369
 30
0.0
 10
7.8427528867
 20
10.1781788578
 30
0.0
 10
7.842670371
 20
10.1780585373
 30
0.0
 10
7.8426229854
 20
10.1779377428
 30
0.0
 10
7.8426161931
 20
10.1778558725
 30
0.0
 10
7.842619095
 20
10.1778171809
 30
0.0
  0
SPLINE
  5
45A
100
AcDbEntity
  8
0
100
AcDbSpline
 62
7
  6
CONTINUOUS
 70
0
 71
3
 72
55
 73
51
 74
0
 42
0.0000001
 43
0.0000001
 44
0.0000000001
 40
0.0
 40
0.0
 40
0.0
 40
0.0
 40
0.0008448054
 40
0.0017524562
 40
0.0028075574
 40
0.004065196
 40
0.0055578524
 40
0.0073045116
 40
0.009316648
 40
0.0116012178
 40
0.0170015429
 40
0.0235222385
 40
0.0311632943
 40
0.0399162539
 40
0.0497666571
 40
0.0606951977
 40
0.0726789732
 40
0.0856913446
 40
0.114680132
 40
0.1473907665
 40
0.1835107744
 40
0.222691195
 40
0.2645510766
 40
0.3086821135
 40
0.4020159814
 40
0.4990644389
 40
0.5960735899
 40
0.6893185032
 40
0.7334091274
 40
0.7752471466
 40
0.8144366085
 40
0.850607774
 40
0.8834207709
 40
0.912569095
 40
0.9256835468
 40
0.9377840608
 40
0.9488437002
 40
0.958838717
 40
0.9677487005
 40
0.9755577665
 40
0.9822553375
 40
0.9878386365
 40
0.9902155617
 40
0.9923196089
 40
0.9941564019
 40
0.9957353921
 40
0.9970721772
 40
0.998193363
 40
0.9991446771
 40
1.0
 40
1.0
 40
1.0
 40
1.0
 10
8.3427507995
 20
10.1841697105
 30
0.0
 10
8.3427532719
 20
10.1842026769
 30
0.0
 10
8.3427458742
 20
10.1842726255
 30
0.0
 10
8.3426963705
 20
10.1843726417
 30
0.0
 10
8.342611913
 20
10.1844675698
 30
0.0
 10
8.3424935344
 20
10.1845588615
 30
0.0
 10
8.3423410436
 20
10.1846473928
 30
0.0
 10
8.3421541857
 20
10.1847334444
 30
0.0
 10
8.3419328204
 20
10.1848170778
 30
0.0
 10
8.3415709508
 20
10.1849317566
 30
0.0
 10
8.3410306018
 20
10.1850645167
 30
0.0
 10
8.3402781662
 20
10.18520648
 30
0.0
 10
8.3393909462
 20
10.1853378327
 30
0.0
 10
8.3383709098
 20
10.1854581414
 30
0.0
 10
8.3372203108
 20
10.185566919
 30
0.0
 10
8.3359418438
 20
10.1856638139
 30
0.0
 10
8.3345385423
 20
10.1857485195
 30
0.0
 10
8.332428315
 20
10.1858484454
 30
0.0
 10
8.3295058158
 20
10.185936979
 30
0.0
 10
8.3256781619
 20
10.1859889976
 30
0.0
 10
8.3214513494
 20
10.1859891288
 30
0.0
 10
8.3168668309
 20
10.1859372114
 30
0.0
 10
8.3119696363
 20
10.1858336106
 30
0.0
 10
8.3049553455
 20
10.1856237491
 30
0.0
 10
8.2957860518
 20
10.1852385893
 30
0.0
 10
8.2845570519
 20
10.1846102319
 30
0.0
 10
8.2733409766
 20
10.1838313713
 30
0.0
 10
8.2642019271
 20
10.183069221
 30
0.0
 10
8.2572221558
 20
10.1824028354
 30
0.0
 10
8.2523523341
 20
10.1818952278
 30
0.0
 10
8.2477955704
 20
10.1813754681
 30
0.0
 10
8.2435953048
 20
10.1808486851
 30
0.0
 10
8.2397916065
 20
10.1803200729
 30
0.0
 10
8.2368885022
 20
10.1798681167
 30
0.0
 10
8.2347921441
 20
10.1795060466
 30
0.0
 10
8.2333964637
 20
10.1792468406
 30
0.0
 10
8.2321244526
 20
10.1789909842
 30
0.0
 10
8.2309791566
 20
10.1787391426
 30
0.0
 10
8.2299633121
 20
10.1784919878
 30
0.0
 10
8.2290792449
 20
10.1782502727
 30
0.0
 10
8.2283290193
 20
10.1780146611
 30
0.0
 10
8.2277908404
 20
10.1778148974
 30
0.0
 10
8.227430537
 20
10.1776555678
 30
0.0
 10
8.2272095695
 20
10.1775444003
 30
0.0
 10
8.2270230307
 20
10.1774351207
 30
0.0
 10
8.2268708536
 20
10.1773276972
 30
0.0
 10
8.2267528536
 20
10.1772219418
 30
0.0
 10
8.2266688863
 20
10.1771171846
 30
0.0
 10
8.22661944
 20
10.1770122486
 30
0.0
 10
8.2266113379
 20
10.1769402948
 30
0.0
 10
8.2266138411
 20
10.1769069179
 30
0.0
  0
SPLINE
  5
45B
100
AcDbEntity
  8
0
100
AcDbSpline
 62
7
  6
CONTINUOUS
 70
0
 71
3
 72
56
 73
52
 74
0
 42
0.0000001
 43
0.0000001
 44
0.0000000001
 40
0.0
 40
0.0
 40
0.0
 40
0.0
 40
0.000670429
 40
0.0014253694
 40
0.002358774
 40
0.0035219985
 40
0.0049412621
 40
0.0066304283
 40
0.0085973054
 40
0.0108462607
 40
0.0161976689
 40
0.0226912356
 40
0.030321252
 40
0.0390755618
 40
0.0489371139
 40
0.059884654
 40
0.0718937473
 40
0.0849365016
 40
0.1139972654
 40
0.1467891174
 40
0.1829943984
 40
0.2222603407
 40
0.2642033785
 40
0.3084137533
 40
0.4018941562
 40
0.4990785534
 40
0.5962254374
 40
0.6436195241
 40
0.6896211616
 40
0.7337926579
 40
0.7757143286
 40
0.8149882445
 40
0.8512416852
 40
0.8841307082
 40
0.9133435812
 40
0.9264838995
 40
0.9386047467
 40
0.9496779861
 40
0.9596784449
 40
0.9685839086
 40
0.9763760995
 40
0.9830410862
 40
0.988570943
 40
0.9909106767
 40
0.9929686078
 40
0.9947481194
 40
0.9962554931
 40
0.9975018623
 40
0.9985080595
 40
0.9993148134
 40
1.0
 40
1.0
 40
1.0
 40
1.0
 10
8.6603504408
 20
10.1849369179
 30
0.0
 10
8.6603523989
 20
10.1849630256
 30
0.0
 10
8.6603432281
 20
10.1850202196
 30
0.0
 10
8.6602905225
 20
10.1850980998
 30
0.0
 10
8.6602044275
 20
10.1851700224
 30
0.0
 10
8.6600848597
 20
10.1852384295
 30
0.0
 10
8.6599312021
 20
10.1853039888
 30
0.0
 10
8.6597430757
 20
10.1853668455
 30
0.0
 10
8.6595203518
 20
10.1854269668
 30
0.0
 10
8.6591555655
 20
10.1855081275
 30
0.0
 10
8.6586123355
 20
10.1855986845
 30
0.0
 10
8.6578572977
 20
10.1856909187
 30
0.0
 10
8.6569673859
 20
10.1857712635
 30
0.0
 10
8.6559446529
 20
10.1858394231
 30
0.0
 10
8.6547914531
 20
10.1858950524
 30
0.0
 10
8.6535105425
 20
10.1859379441
 30
0.0
 10
8.6521050116
 20
10.1859679347
 30
0.0
 10
8.6499919462
 20
10.1859913691
 30
0.0
 10
8.6470670649
 20
10.1859844802
 30
0.0
 10
8.6432381628
 20
10.1859250391
 30
0.0
 10
8.6390117362
 20
10.1858142243
 30
0.0
 10
8.6344293445
 20
10.1856530196
 30
0.0
 10
8.6295360245
 20
10.185442913
 30
0.0
 10
8.6225297545
 20
10.1850936133
 30
0.0
 10
8.6133734824
 20
10.1845497754
 30
0.0
 10
8.6021616393
 20
10.1837602809
 30
0.0
 10
8.5927526057
 20
10.1829977106
 30
0.0
 10
8.5853412306
 20
10.1823348018
 30
0.0
 10
8.5799932664
 20
10.1818250087
 30
0.0
 10
8.5748611915
 20
10.1813034922
 30
0.0
 10
8.5699939833
 20
10.1807752876
 30
0.0
 10
8.5654380979
 20
10.1802455219
 30
0.0
 10
8.5612370517
 20
10.1797193918
 30
0.0
 10
8.5574310758
 20
10.1792020446
 30
0.0
 10
8.5545247745
 20
10.1787687136
 30
0.0
 10
8.5524250175
 20
10.1784274499
 30
0.0
 10
8.5510267998
 20
10.1781858801
 30
0.0
 10
8.5497520856
 20
10.1779501694
 30
0.0
 10
8.5486039737
 20
10.1777209322
 30
0.0
 10
8.5475852564
 20
10.1774987809
 30
0.0
 10
8.5466983467
 20
10.1772844006
 30
0.0
 10
8.5459453821
 20
10.1770783883
 30
0.0
 10
8.5454042275
 20
10.1769061704
 30
0.0
 10
8.5450410183
 20
10.176770376
 30
0.0
 10
8.5448186388
 20
10.1766766818
 30
0.0
 10
8.5446307608
 20
10.1765854601
 30
0.0
 10
8.5444773335
 20
10.1764967389
 30
0.0
 10
8.5443580735
 20
10.1764104493
 30
0.0
 10
8.5442726147
 20
10.1763260337
 30
0.0
 10
8.5442204299
 20
10.1762419147
 30
0.0
 10
8.5442102825
 20
10.1761823772
 30
0.0
 10
8.5442122837
 20
10.1761556947
 30
0.0
  0
SPLINE
  5
45C
100
AcDbEntity
  8
0
100
AcDbSpline
 62
7
  6
CONTINUOUS
 70
0
 71
3
 72
60
 73
56
 74
0
 42
0.0000001
 43
0.0000001
 44
0.0000000001
 40
0.0
 40
0.0
 40
0.0
 40
0.0
 40
0.0002316049
 40
0.0004753639
 40
0.0007521174
 40
0.0010763899
 40
0.0018993478
 40
0.0029849035
 40
0.0043487149
 40
0.0059980094
 40
0.0079364384
 40
0.0101656492
 40
0.0126860131
 40
0.0154973199
 40
0.0219892003
 40
0.0296304662
 40
0.0384055051
 40
0.0482948586
 40
0.0592754744
 40
0.0713215155
 40
0.0844039644
 40
0.113548888
 40
0.1464265503
 40
0.1827154136
 40
0.2220603186
 40
0.2640765668
 40
0.308354362
 40
0.3544632402
 40
0.4019566204
 40
0.4992562987
 40
0.5965267046
 40
0.6439885763
 40
0.6900623299
 40
0.7343094318
 40
0.7763084958
 40
0.8156590121
 40
0.8519848351
 40
0.8849377876
 40
0.9142011012
 40
0.9394928863
 40
0.9605698518
 40
0.969463613
 40
0.9772325764
 40
0.9838599216
 40
0.9893331552
 40
0.9916350317
 40
0.9936468867
 40
0.9953698638
 40
0.9968068585
 40
0.997963703
 40
0.9988529148
 40
0.9992059832
 40
0.9995062194
 40
0.9997650343
 40
1.0
 40
1.0
 40
1.0
 40
1.0
 10
8.8976731243
 20
10.1855112093
 30
0.0
 10
8.8976737994
 20
10.1855202104
 30
0.0
 10
8.8976721484
 20
10.1855390665
 30
0.0
 10
8.8976600845
 20
10.185566246
 30
0.0
 10
8.8976391559
 20
10.1855920273
 30
0.0
 10
8.8975963558
 20
10.1856277279
 30
0.0
 10
8.8975185421
 20
10.1856683161
 30
0.0
 10
8.8973982339
 20
10.1857109625
 30
0.0
 10
8.8972433588
 20
10.1857508172
 30
0.0
 10
8.8970538993
 20
10.1857877988
 30
0.0
 10
8.8968297027
 20
10.1858217956
 30
0.0
 10
8.8965708619
 20
10.1858527318
 30
0.0
 10
8.8962774837
 20
10.1858805602
 30
0.0
 10
8.8958179573
 20
10.1859151125
 30
0.0
 10
8.8951583324
 20
10.1859484967
 30
0.0
 10
8.8942658608
 20
10.1859743658
 30
0.0
 10
8.8932406915
 20
10.1859873708
 30
0.0
 10
8.8920853087
 20
10.1859874282
 30
0.0
 10
8.8908025153
 20
10.1859744619
 30
0.0
 10
8.8893954557
 20
10.1859484725
 30
0.0
 10
8.8872809244
 20
10.1858944871
 30
0.0
 10
8.8843555527
 20
10.185792691
 30
0.0
 10
8.8805276911
 20
10.1856247267
 30
0.0
 10
8.8763041702
 20
10.1854082342
 30
0.0
 10
8.8717264993
 20
10.1851452833
 30
0.0
 10
8.8668395594
 20
10.1848383825
 30
0.0
 10
8.8616911216
 20
10.1844905081
 30
0.0
 10
8.8563313274
 20
10.1841050473
 30
0.0
 10
8.8489126418
 20
10.1835413871
 30
0.0
 10
8.8395099647
 20
10.1827723981
 30
0.0
 10
8.8301143569
 20
10.1819351048
 30
0.0
 10
8.8227113014
 20
10.1812324159
 30
0.0
 10
8.8173675698
 20
10.1807034987
 30
0.0
 10
8.8122379374
 20
10.1801734764
 30
0.0
 10
8.8073713659
 20
10.1796474366
 30
0.0
 10
8.8028143912
 20
10.1791304578
 30
0.0
 10
8.7986107066
 20
10.178627571
 30
0.0
 10
8.794800775
 20
10.1781437033
 30
0.0
 10
8.7914214004
 20
10.1776837722
 30
0.0
 10
8.7885054533
 20
10.1772523705
 30
0.0
 10
8.7863799116
 20
10.1769038571
 30
0.0
 10
8.7849331885
 20
10.1766383912
 30
0.0
 10
8.7840430417
 20
10.1764605299
 30
0.0
 10
8.7832869576
 20
10.1762929376
 30
0.0
 10
8.7827425357
 20
10.1761556633
 30
0.0
 10
8.7823761838
 20
10.1760493417
 30
0.0
 10
8.7821522245
 20
10.1759771141
 30
0.0
 10
8.7819628951
 20
10.1759078069
 30
0.0
 10
8.7818081045
 20
10.1758415092
 30
0.0
 10
8.7816878607
 20
10.1757782879
 30
0.0
 10
8.7816105528
 20
10.1757246668
 30
0.0
 10
8.7815680057
 20
10.1756819383
 30
0.0
 10
8.7815472051
 20
10.1756528475
 30
0.0
 10
8.7815351146
 20
10.1756239986
 30
0.0
 10
8.7815332383
 20
10.1756044542
 30
0.0
 10
8.7815339232
 20
10.1755953225
 30
0.0
  0
SPLINE
  5
45D
100
AcDbEntity
  8
0
100
AcDbSpline
 62
7
  6
CONTINUOUS
 70
0
 71
3
 72
66
 73
62
 74
0
 42
0.0000001
 43
0.0000001
 44
0.0000000001
 40
0.0
 40
0.0
 40
0.0
 40
0.0
 40
0.0001198362
 40
0.0002708745
 40
0.0004775248
 40
0.0007495953
 40
0.0010912865
 40
0.0015046652
 40
0.00199087
 40
0.0025505502
 40
0.0038915603
 40
0.0055292023
 40
0.0074637988
 40
0.0096949285
 40
0.0122215898
 40
0.0150426121
 40
0.0215616231
 40
0.029237062
 40
0.0380508107
 40
0.0479816586
 40
0.0590052492
 40
0.0710947383
 40
0.0842203206
 40
0.1134482707
 40
0.146401813
 40
0.1827575934
 40
0.2221599691
 40
0.2642248676
 40
0.3085439589
 40
0.3546888461
 40
0.4022153284
 40
0.4506675151
 40
0.4995821318
 40
0.5484925387
 40
0.5969328541
 40
0.6444419414
 40
0.6905673295
 40
0.7348692232
 40
0.7769242341
 40
0.8163291619
 40
0.852704624
 40
0.8856988442
 40
0.9008265138
 40
0.9149911674
 40
0.9281582522
 40
0.9402954138
 40
0.9513727942
 40
0.9613632697
 40
0.9702421321
 40
0.9779877484
 40
0.9845813995
 40
0.9900074834
 40
0.9942545388
 40
0.9959337203
 40
0.9973165675
 40
0.998404143
 40
0.9988382353
 40
0.9992002979
 40
0.9994920392
 40
0.9997168215
 40
1.0
 40
1.0
 40
1.0
 40
1.0
 10
9.0443466413
 20
10.1858665716
 30
0.0
 10
9.04434699
 20
10.1858712214
 30
0.0
 10
9.0443438875
 20
10.1858821109
 30
0.0
 10
9.0443298165
 20
10.1858949691
 30
0.0
 10
9.0443081565
 20
10.1859065739
 30
0.0
 10
9.0442780212
 20
10.1859173832
 30
0.0
 10
9.0442393257
 20
10.1859274716
 30
0.0
 10
9.0441919144
 20
10.1859368109
 30
0.0
 10
9.0441357738
 20
10.1859453852
 30
0.0
 10
9.0440435471
 20
10.1859564418
 30
0.0
 10
9.043906279
 20
10.1859675854
 30
0.0
 10
9.0437153319
 20
10.1859772379
 30
0.0
 10
9.0434895995
 20
10.1859837069
 30
0.0
 10
9.0432292098
 20
10.1859869725
 30
0.0
 10
9.0429343102
 20
10.1859870042
 30
0.0
 10
9.0424725908
 20
10.1859824714
 30
0.0
 10
9.0418106553
 20
10.1859677426
 30
0.0
 10
9.0409158831
 20
10.1859380342
 30
0.0
 10
9.0398887465
 20
10.1858954374
 30
0.0
 10
9.0387317792
 20
10.1858400323
 30
0.0
 10
9.037447833
 20
10.1857719178
 30
0.0
 10
9.036040084
 20
10.185691248
 30
0.0
 10
9.0339256066
 20
10.1855624837
 30
0.0
 10
9.0310016618
 20
10.1853706332
 30
0.0
 10
9.0271769669
 20
10.1851019859
 30
0.0
 10
9.0229584953
 20
10.1847898143
 30
0.0
 10
9.0183875506
 20
10.1844371501
 30
0.0
 10
9.013508711
 20
10.1840474003
 30
0.0
 10
9.0083693599
 20
10.1836243407
 30
0.0
 10
9.0030191975
 20
10.1831720584
 30
0.0
 10
8.9975097559
 20
10.1826949108
 30
0.0
 10
8.9918939077
 20
10.1821974805
 30
0.0
 10
8.9862253847
 20
10.1816845322
 30
0.0
 10
8.9805582963
 20
10.1811609684
 30
0.0
 10
8.9749466594
 20
10.1806317855
 30
0.0
 10
8.9694439333
 20
10.1801020315
 30
0.0
 10
8.964102558
 20
10.1795767616
 30
0.0
 10
8.9589735029
 20
10.1790609975
 30
0.0
 10
8.9541058218
 20
10.178559683
 30
0.0
 10
8.949546221
 20
10.1780776501
 30
0.0
 10
8.9453386311
 20
10.1776195592
 30
0.0
 10
8.9420714619
 20
10.1772516148
 30
0.0
 10
8.939664081
 20
10.1769718138
 30
0.0
 10
8.9380235298
 20
10.1767767448
 30
0.0
 10
8.9364990809
 20
10.1765908034
 30
0.0
 10
8.9350944875
 20
10.1764144502
 30
0.0
 10
8.9338132176
 20
10.176248131
 30
0.0
 10
8.9326584481
 20
10.1760922749
 30
0.0
 10
8.9316330427
 20
10.1759472982
 30
0.0
 10
8.9307395578
 20
10.1758135941
 30
0.0
 10
8.9299801912
 20
10.1756916214
 30
0.0
 10
8.9293568435
 20
10.1755817072
 30
0.0
 10
8.9289235658
 20
10.1754953043
 30
0.0
 10
8.9286465622
 20
10.1754307477
 30
0.0
 10
8.928490444
 20
10.1753894284
 30
0.0
 10
8.928382475
 20
10.1753558577
 30
0.0
 10
8.9283138909
 20
10.1753297926
 30
0.0
 10
8.9282752434
 20
10.1753127209
 30
0.0
 10
8.9282449503
 20
10.1752961054
 30
0.0
 10
8.9282201553
 20
10.1752787616
 30
0.0
 10
8.9282059075
 20
10.1752603953
 30
0.0
 10
8.9282067316
 20
10.1752494076
 30
0.0
  0
SPLINE
  5
45E
100
AcDbEntity
  8
0
100
AcDbSpline
 62
7
  6
CONTINUOUS
 70
0
 71
3
 72
33
 73
29
 74
0
 42
0.0000001
 43
0.0000001
 44
0.0000000001
 40
0.0
 40
0.0
 40
0.0
 40
0.0
 40
0.0003001881
 40
0.0006471826
 40
0.0010807047
 40
0.0016217067
 40
0.0030631817
 40
0.0050142914
 40
0.00748983
 40
0.010496314
 40
0.0140365798
 40
0.0181118634
 40
0.027868243
 40
0.0397612174
 40
0.053779238
 40
0.0699074415
 40
0.0881260537
 40
0.108413501
 40
0.1550896359
 40
0.2097006123
 40
0.2719682673
 40
0.3415739846
 40
0.4181609707
 40
0.5013359993
 40
0.5906714756
 40
0.6857077387
 40
0.785955841
 40
1.0
 40
1.0
 40
1.0
 40
1.0
 10
7.0986278379
 20
10.0815499091
 30
0.0
 10
7.0986280942
 20
10.0815533259
 30
0.0
 10
7.098626792
 20
10.0815609015
 30
0.0
 10
7.0986197843
 20
10.0815713266
 30
0.0
 10
7.0986083735
 20
10.0815813363
 30
0.0
 10
7.0985848637
 20
10.081595902
 30
0.0
 10
7.0985430771
 20
10.0816129175
 30
0.0
 10
7.0984788431
 20
10.0816319495
 30
0.0
 10
7.0983960843
 20
10.0816508796
 30
0.0
 10
7.0982948258
 20
10.081669703
 30
0.0
 10
7.0981750129
 20
10.0816883514
 30
0.0
 10
7.0979784553
 20
10.0817145408
 30
0.0
 10
7.0976864475
 20
10.0817456984
 30
0.0
 10
7.0972808076
 20
10.0817804278
 30
0.0
 10
7.0968021433
 20
10.0818141709
 30
0.0
 10
7.0962510654
 20
10.081846855
 30
0.0
 10
7.0956282595
 20
10.081878399
 30
0.0
 10
7.0946569075
 20
10.0819208503
 30
0.0
 10
7.0932700738
 20
10.0819693548
 30
0.0
 10
7.0914039301
 20
10.0820200788
 30
0.0
 10
7.0892758586
 20
10.0820652518
 30
0.0
 10
7.0868968016
 20
10.0821045996
 30
0.0
 10
7.0842789942
 20
10.08213786
 30
0.0
 10
7.0814359084
 20
10.0821648342
 30
0.0
 10
7.0783821835
 20
10.0821853599
 30
0.0
 10
7.0751335473
 20
10.0821993197
 30
0.0
 10
7.0704614616
 20
10.0822092713
 30
0.0
 10
7.0668741068
 20
10.0822061904
 30
0.0
 10
7.0644310048
 20
10.0822001766
 30
0.0
  0
SPLINE
  5
45F
100
AcDbEntity
  8
0
100
AcDbSpline
 62
7
  6
CONTINUOUS
 70
0
 71
3
 72
33
 73
29
 74
0
 42
0.0000001
 43
0.0000001
 44
0.0000000001
 40
0.0
 40
0.0
 40
0.0
 40
0.0
 40
0.2140441618
 40
0.314292266
 40
0.4093285331
 40
0.4986640096
 40
0.5818390323
 40
0.6584260121
 40
0.7280317342
 40
0.7902993924
 40
0.8449103689
 40
0.8915865019
 40
0.9118739482
 40
0.9300925599
 40
0.9462207634
 40
0.9602387837
 40
0.9721317578
 40
0.9818881371
 40
0.9859634206
 40
0.9895036863
 40
0.9925101701
 40
0.9949857086
 40
0.9969368182
 40
0.9983782933
 40
0.9989192952
 40
0.9993528173
 40
0.9996998119
 40
1.0
 40
1.0
 40
1.0
 40
1.0
 10
6.4665359619
 20
10.0822001766
 30
0.0
 10
6.4640928608
 20
10.0822061904
 30
0.0
 10
6.460505507
 20
10.0822092713
 30
0.0
 10
6.4558334229
 20
10.0821993197
 30
0.0
 10
6.4525847877
 20
10.0821853598
 30
0.0
 10
6.4495310639
 20
10.0821648341
 30
0.0
 10
6.4466879791
 20
10.08213786
 30
0.0
 10
6.4440701727
 20
10.0821045996
 30
0.0
 10
6.4416911165
 20
10.0820652518
 30
0.0
 10
6.4395630456
 20
10.0820200787
 30
0.0
 10
6.4376969025
 20
10.0819693548
 30
0.0
 10
6.4363100694
 20
10.0819208502
 30
0.0
 10
6.4353387177
 20
10.081878399
 30
0.0
 10
6.434715912
 20
10.0818468549
 30
0.0
 10
6.4341648343
 20
10.0818141708
 30
0.0
 10
6.4336861702
 20
10.0817804277
 30
0.0
 10
6.4332805304
 20
10.0817456983
 30
0.0
 10
6.4329885227
 20
10.0817145408
 30
0.0
 10
6.4327919652
 20
10.0816883514
 30
0.0
 10
6.4326721523
 20
10.0816697029
 30
0.0
 10
6.4325708939
 20
10.0816508796
 30
0.0
 10
6.4324881351
 20
10.0816319494
 30
0.0
 10
6.4324239012
 20
10.0816129175
 30
0.0
 10
6.4323821145
 20
10.081595902
 30
0.0
 10
6.4323586048
 20
10.0815813363
 30
0.0
 10
6.432347194
 20
10.0815713266
 30
0.0
 10
6.4323401862
 20
10.0815609015
 30
0.0
 10
6.4323388841
 20
10.0815533259
 30
0.0
 10
6.4323391403
 20
10.0815499091
 30
0.0
  0
LINE
  5
460
100
AcDbEntity
  8
0
100
AcDbLine
 62
7
  6
CONTINUOUS
 10
6.218143019
 20
10.0808342934
 11
6.1572898828
 21
10.0822066763
  0
LINE
  5
461
100
AcDbEntity
  8
0
100
AcDbLine
 62
7
  6
CONTINUOUS
 10
7.3736770955
 20
10.0822066763
 11
7.3128241606
 21
10.080834298
  0
LINE
  5
462
100
AcDbEntity
  8
0
100
AcDbLine
 62
7
  6
CONTINUOUS
 10
5.8383913676
 20
10.0922571471
 11
5.7419693477
 21
10.0961338095
  0
SPLINE
  5
463
100
AcDbEntity
  8
0
100
AcDbSpline
 62
7
  6
CONTINUOUS
 70
0
 71
3
 72
69
 73
65
 74
0
 42
0.0000001
 43
0.0000001
 44
0.0000000001
 40
0.0
 40
0.0
 40
0.0
 40
0.0
 40
0.0001274682
 40
0.0002914034
 40
0.0005124286
 40
0.0007990696
 40
0.0011551463
 40
0.0015826011
 40
0.0020825258
 40
0.0026555451
 40
0.0040220769
 40
0.005683709
 40
0.0076407657
 40
0.0098927771
 40
0.0152775509
 40
0.0218275301
 40
0.029528021
 40
0.0383610433
 40
0.0483058094
 40
0.0593384701
 40
0.0714325687
 40
0.0845591246
 40
0.0986864601
 40
0.1137806492
 40
0.1467219906
 40
0.1830661219
 40
0.2224633257
 40
0.2645347186
 40
0.3088755546
 40
0.355059255
 40
0.4026416681
 40
0.4511648281
 40
0.5001615015
 40
0.5491599567
 40
0.5976879875
 40
0.6452775206
 40
0.691469433
 40
0.7358177651
 40
0.7778938771
 40
0.8172910357
 40
0.8536284903
 40
0.886554869
 40
0.9157520372
 40
0.9288626399
 40
0.9409384328
 40
0.9519502091
 40
0.9618717709
 40
0.9706794095
 40
0.978352385
 40
0.9848731143
 40
0.9876966804
 40
0.9902270966
 40
0.9924632144
 40
0.9944040736
 40
0.9960493333
 40
0.9973993796
 40
0.9979641422
 40
0.9984558298
 40
0.99887512
 40
0.9992231804
 40
0.9995021025
 40
0.9997160512
 40
0.9998744513
 40
1.0
 40
1.0
 40
1.0
 40
1.0
 10
5.9749835257
 20
10.0923576895
 30
0.0
 10
5.9749838972
 20
10.0923626426
 30
0.0
 10
5.9749806788
 20
10.0923742705
 30
0.0
 10
5.9749668958
 20
10.0923891933
 30
0.0
 10
5.9749452648
 20
10.0924040808
 30
0.0
 10
5.9749151198
 20
10.0924192204
 30
0.0
 10
5.9748763817
 20
10.0924347301
 30
0.0
 10
5.9748289243
 20
10.0924505806
 30
0.0
 10
5.9747727311
 20
10.0924667663
 30
0.0
 10
5.9746805845
 20
10.0924901664
 30
0.0
 10
5.9745433183
 20
10.0925195234
 30
0.0
 10
5.9743521841
 20
10.0925543162
 30
0.0
 10
5.9741262556
 20
10.0925903169
 30
0.0
 10
5.9737561418
 20
10.0926430743
 30
0.0
 10
5.9732073883
 20
10.0927103459
 30
0.0
 10
5.97244656
 20
10.092791489
 30
0.0
 10
5.9715510949
 20
10.0928767059
 30
0.0
 10
5.9705231568
 20
10.0929657577
 30
0.0
 10
5.9693652223
 20
10.093058357
 30
0.0
 10
5.9680800919
 20
10.0931542556
 30
0.0
 10
5.9666708738
 20
10.093253199
 30
0.0
 10
5.9651409759
 20
10.0933549331
 30
0.0
 10
5.9634940929
 20
10.0934592065
 30
0.0
 10
5.9610762156
 20
10.0936055819
 30
0.0
 10
5.9577934707
 20
10.0937920306
 30
0.0
 10
5.953564339
 20
10.094015802
 30
0.0
 10
5.9489791673
 20
10.0942434126
 30
0.0
 10
5.9440821055
 20
10.0944726402
 30
0.0
 10
5.9389202925
 20
10.0947012441
 30
0.0
 10
5.9335434099
 20
10.0949270043
 30
0.0
 10
5.9280032128
 20
10.0951477329
 30
0.0
 10
5.9223530421
 20
10.0953612944
 30
0.0
 10
5.9166473155
 20
10.0955656253
 30
0.0
 10
5.9109410087
 20
10.0957587526
 30
0.0
 10
5.9052891342
 20
10.0959388134
 30
0.0
 10
5.8997462176
 20
10.0961040727
 30
0.0
 10
5.8943657671
 20
10.096252941
 30
0.0
 10
5.8891997604
 20
10.0963839906
 30
0.0
 10
5.8842981412
 20
10.0964959723
 30
0.0
 10
5.879708321
 20
10.0965878278
 30
0.0
 10
5.8754747107
 20
10.0966587185
 30
0.0
 10
5.8716382853
 20
10.0967080008
 30
0.0
 10
5.8687067127
 20
10.0967315997
 30
0.0
 10
5.8665875541
 20
10.0967382969
 30
0.0
 10
5.8651770158
 20
10.0967375026
 30
0.0
 10
5.8638907593
 20
10.0967311076
 30
0.0
 10
5.8627318975
 20
10.0967191441
 30
0.0
 10
5.8617032213
 20
10.0967016826
 30
0.0
 10
5.8608072082
 20
10.0966787915
 30
0.0
 10
5.860144522
 20
10.0966543372
 30
0.0
 10
5.8596823662
 20
10.0966313267
 30
0.0
 10
5.8593871284
 20
10.0966135893
 30
0.0
 10
5.859126446
 20
10.096594567
 30
0.0
 10
5.8589004624
 20
10.096574299
 30
0.0
 10
5.8587093021
 20
10.0965528137
 30
0.0
 10
5.8585719528
 20
10.0965330084
 30
0.0
 10
5.8584797195
 20
10.0965160083
 30
0.0
 10
5.8584235268
 20
10.0965037353
 30
0.0
 10
5.8583760723
 20
10.09649119
 30
0.0
 10
5.8583373379
 20
10.0964783836
 30
0.0
 10
5.8583071842
 20
10.0964653392
 30
0.0
 10
5.8582855177
 20
10.0964519606
 30
0.0
 10
5.8582716073
 20
10.0964378374
 30
0.0
 10
5.8582685039
 20
10.0964264517
 30
0.0
 10
5.8582688698
 20
10.0964215731
 30
0.0
  0
SPLINE
  5
464
100
AcDbEntity
  8
0
100
AcDbSpline
 62
7
  6
CONTINUOUS
 70
0
 71
3
 72
60
 73
56
 74
0
 42
0.0000001
 43
0.0000001
 44
0.0000000001
 40
0.0
 40
0.0
 40
0.0
 40
0.0
 40
0.0002148257
 40
0.0004509055
 40
0.0007277326
 40
0.0010576314
 40
0.0019021007
 40
0.0030161136
 40
0.0044115982
 40
0.0060940137
 40
0.0080660073
 40
0.0103285091
 40
0.0157244743
 40
0.0222763684
 40
0.0299722441
 40
0.0387957587
 40
0.0597436701
 40
0.0849261207
 40
0.1141048436
 40
0.1470016784
 40
0.1833016514
 40
0.2226564677
 40
0.2646881841
 40
0.3089925235
 40
0.3551428956
 40
0.4026947737
 40
0.5001586903
 40
0.5976292209
 40
0.6451881181
 40
0.6913464058
 40
0.7356577339
 40
0.7776934803
 40
0.8170473851
 40
0.853339711
 40
0.8862206854
 40
0.9153743781
 40
0.9284649037
 40
0.9405222881
 40
0.9515178947
 40
0.9614262096
 40
0.970224375
 40
0.977892851
 40
0.9844157334
 40
0.987243721
 40
0.9897813744
 40
0.9920282349
 40
0.9939843266
 40
0.9956507811
 40
0.9970303769
 40
0.9981287888
 40
0.9989585971
 40
0.9992820246
 40
0.9995534793
 40
0.9997860227
 40
1.0
 40
1.0
 40
1.0
 40
1.0
 10
6.3337525623
 20
10.0932129004
 30
0.0
 10
6.3337531891
 20
10.0932212586
 30
0.0
 10
6.3337512273
 20
10.0932391751
 30
0.0
 10
6.3337388453
 20
10.0932651489
 30
0.0
 10
6.3337177802
 20
10.0932906937
 30
0.0
 10
6.3336746516
 20
10.0933276667
 30
0.0
 10
6.3335967202
 20
10.0933724117
 30
0.0
 10
6.3334761185
 20
10.0934234064
 30
0.0
 10
6.3333208506
 20
10.0934752569
 30
0.0
 10
6.3331309395
 20
10.0935278962
 30
0.0
 10
6.332906283
 20
10.0935812177
 30
0.0
 10
6.3325383691
 20
10.0936576773
 30
0.0
 10
6.3319919137
 20
10.0937521671
 30
0.0
 10
6.3312333837
 20
10.0938621737
 30
0.0
 10
6.3303401426
 20
10.0939738338
 30
0.0
 10
6.3288870619
 20
10.0941337531
 30
0.0
 10
6.326751888
 20
10.0943304839
 30
0.0
 10
6.3238223606
 20
10.0945573976
 30
0.0
 10
6.3204253861
 20
10.0947836111
 30
0.0
 10
6.3165936459
 20
10.0950068017
 30
0.0
 10
6.3123639903
 20
10.0952245645
 30
0.0
 10
6.3077771451
 20
10.0954346991
 30
0.0
 10
6.3028772916
 20
10.0956350941
 30
0.0
 10
6.2977116547
 20
10.0958237613
 30
0.0
 10
6.2923300484
 20
10.0959988485
 30
0.0
 10
6.2848746228
 20
10.0962136241
 30
0.0
 10
6.275416348
 20
10.0964357147
 30
0.0
 10
6.2659565197
 20
10.0965941972
 30
0.0
 10
6.2584976472
 20
10.0966794208
 30
0.0
 10
6.2531124977
 20
10.0967208823
 30
0.0
 10
6.2479427134
 20
10.0967400613
 30
0.0
 10
6.2430383703
 20
10.0967367995
 30
0.0
 10
6.2384469625
 20
10.0967111784
 30
0.0
 10
6.2342129249
 20
10.0966635381
 30
0.0
 10
6.2303772079
 20
10.0965944196
 30
0.0
 10
6.2274471018
 20
10.0965172156
 30
0.0
 10
6.2253297533
 20
10.0964434394
 30
0.0
 10
6.223920775
 20
10.0963852266
 30
0.0
 10
6.2226362874
 20
10.0963223096
 30
0.0
 10
6.2214793807
 20
10.0962548699
 30
0.0
 10
6.2204528121
 20
10.0961831395
 30
0.0
 10
6.2195590305
 20
10.0961073362
 30
0.0
 10
6.2188985374
 20
10.0960382301
 30
0.0
 10
6.2184383819
 20
10.0959797315
 30
0.0
 10
6.2181444338
 20
10.095937071
 30
0.0
 10
6.2178850412
 20
10.0958935691
 30
0.0
 10
6.2176603189
 20
10.0958492777
 30
0.0
 10
6.2174703696
 20
10.0958042692
 30
0.0
 10
6.2173150756
 20
10.0957586641
 30
0.0
 10
6.2171944602
 20
10.0957125255
 30
0.0
 10
6.2171164138
 20
10.0956708771
 30
0.0
 10
6.2170732154
 20
10.0956355804
 30
0.0
 10
6.2170521132
 20
10.0956108292
 30
0.0
 10
6.2170397268
 20
10.0955852534
 30
0.0
 10
6.2170378211
 20
10.0955674987
 30
0.0
 10
6.2170384455
 20
10.0955591736
 30
0.0
  0
SPLINE
  5
465
100
AcDbEntity
  8
0
100
AcDbSpline
 62
7
  6
CONTINUOUS
 70
0
 71
3
 72
63
 73
59
 74
0
 42
0.0000001
 43
0.0000001
 44
0.0000000001
 40
0.0
 40
0.0
 40
0.0
 40
0.0
 40
0.0002469222
 40
0.0005105957
 40
0.0008095527
 40
0.0011566993
 40
0.0020246475
 40
0.0031526592
 40
0.004556175
 40
0.006242575
 40
0.0082156671
 40
0.0104771721
 40
0.0130275739
 40
0.0158667566
 40
0.0224079761
 40
0.0300904968
 40
0.0388990244
 40
0.0488146061
 40
0.0598146892
 40
0.071874013
 40
0.0849642815
 40
0.1141114985
 40
0.1469795883
 40
0.1832542725
 40
0.2225874151
 40
0.2646007582
 40
0.3088893578
 40
0.3550257026
 40
0.4025642643
 40
0.4999999952
 40
0.5974357294
 40
0.6449742882
 40
0.6911106357
 40
0.7353992388
 40
0.7774125829
 40
0.8167457258
 40
0.8530204101
 40
0.8858884993
 40
0.9150357166
 40
0.9281259858
 40
0.9401853101
 40
0.9511853936
 40
0.9611009755
 40
0.9699095032
 40
0.9775920239
 40
0.9841332433
 40
0.986972426
 40
0.9895228278
 40
0.9917843328
 40
0.9937574249
 40
0.9954438249
 40
0.9968473407
 40
0.9979753525
 40
0.9988433007
 40
0.9991904473
 40
0.9994894043
 40
0.9997530778
 40
1.0
 40
1.0
 40
1.0
 40
1.0
 10
6.8238404127
 20
10.0943842399
 30
0.0
 10
6.8238411337
 20
10.0943938522
 30
0.0
 10
6.8238394788
 20
10.0944140902
 30
0.0
 10
6.8238275872
 20
10.0944437658
 30
0.0
 10
6.8238068522
 20
10.0944729085
 30
0.0
 10
6.823764472
 20
10.0945144201
 30
0.0
 10
6.8236870896
 20
10.0945644996
 30
0.0
 10
6.8235667475
 20
10.0946207553
 30
0.0
 10
6.8234118487
 20
10.0946771333
 30
0.0
 10
6.8232223569
 20
10.0947335606
 30
0.0
 10
6.8229981375
 20
10.0947899488
 30
0.0
 10
6.8227392769
 20
10.0948462178
 30
0.0
 10
6.8224458825
 20
10.0949023112
 30
0.0
 10
6.8219867158
 20
10.0949805155
 30
0.0
 10
6.8213273423
 20
10.0950756445
 30
0.0
 10
6.8204347073
 20
10.0951839355
 30
0.0
 10
6.8194093386
 20
10.095290605
 30
0.0
 10
6.818253677
 20
10.0953953415
 30
0.0
 10
6.8169704657
 20
10.0954978185
 30
0.0
 10
6.8155627836
 20
10.0955977562
 30
0.0
 10
6.8134473927
 20
10.0957321057
 30
0.0
 10
6.8105195714
 20
10.0958893047
 30
0.0
 10
6.8066862075
 20
10.096058218
 30
0.0
 10
6.8024542696
 20
10.0962115939
 30
0.0
 10
6.7978645729
 20
10.0963478559
 30
0.0
 10
6.7929614242
 20
10.0964655786
 30
0.0
 10
6.7877922115
 20
10.0965635612
 30
0.0
 10
6.7824069326
 20
10.0966408185
 30
0.0
 10
6.7749467189
 20
10.0967157241
 30
0.0
 10
6.7654834896
 20
10.0967525001
 30
0.0
 10
6.7560202604
 20
10.0967157241
 30
0.0
 10
6.7485600465
 20
10.0966408185
 30
0.0
 10
6.7431747675
 20
10.0965635612
 30
0.0
 10
6.7380055545
 20
10.0964655787
 30
0.0
 10
6.7331024056
 20
10.0963478559
 30
0.0
 10
6.7285127089
 20
10.0962115939
 30
0.0
 10
6.724280771
 20
10.096058218
 30
0.0
 10
6.7204474071
 20
10.0958893047
 30
0.0
 10
6.7175195857
 20
10.0957321058
 30
0.0
 10
6.7154041948
 20
10.0955977562
 30
0.0
 10
6.7139965127
 20
10.0954978185
 30
0.0
 10
6.7127133013
 20
10.0953953415
 30
0.0
 10
6.7115576397
 20
10.095290605
 30
0.0
 10
6.7105322709
 20
10.0951839355
 30
0.0
 10
6.7096396359
 20
10.0950756445
 30
0.0
 10
6.7089802625
 20
10.0949805155
 30
0.0
 10
6.7085210958
 20
10.0949023112
 30
0.0
 10
6.7082277014
 20
10.0948462178
 30
0.0
 10
6.7079688407
 20
10.0947899488
 30
0.0
 10
6.7077446214
 20
10.0947335606
 30
0.0
 10
6.7075551296
 20
10.0946771333
 30
0.0
 10
6.7074002308
 20
10.0946207554
 30
0.0
 10
6.7072798887
 20
10.0945644996
 30
0.0
 10
6.7072025062
 20
10.0945144201
 30
0.0
 10
6.707160126
 20
10.0944729085
 30
0.0
 10
6.7071393911
 20
10.0944437658
 30
0.0
 10
6.7071274995
 20
10.0944140902
 30
0.0
 10
6.7071258446
 20
10.0943938522
 30
0.0
 10
6.7071265655
 20
10.0943842399
 30
0.0
  0
SPLINE
  5
466
100
AcDbEntity
  8
0
100
AcDbSpline
 62
7
  6
CONTINUOUS
 70
0
 71
3
 72
60
 73
56
 74
0
 42
0.0000001
 43
0.0000001
 44
0.0000000001
 40
0.0
 40
0.0
 40
0.0
 40
0.0
 40
0.0002139773
 40
0.0004465207
 40
0.0007179754
 40
0.0010414029
 40
0.0018712112
 40
0.0029696231
 40
0.0043492189
 40
0.0060156733
 40
0.0079717651
 40
0.0102186255
 40
0.012756279
 40
0.0155842666
 40
0.022107149
 40
0.0297756249
 40
0.0385737902
 40
0.0484821049
 40
0.059477711
 40
0.0715350948
 40
0.0846256196
 40
0.1137793118
 40
0.146660287
 40
0.1829526128
 40
0.222306517
 40
0.2643422637
 40
0.3086535908
 40
0.3548118772
 40
0.4023707759
 40
0.4998413088
 40
0.5973052241
 40
0.6448571013
 40
0.6910074738
 40
0.735311815
 40
0.7773435335
 40
0.8166983502
 40
0.8529983221
 40
0.8858951569
 40
0.9150738801
 40
0.9402563304
 40
0.9612042415
 40
0.970027756
 40
0.9777236317
 40
0.9842755257
 40
0.9896714909
 40
0.9919339926
 40
0.9939059862
 40
0.9955884017
 40
0.9969838864
 40
0.9980978992
 40
0.9989423686
 40
0.9992722674
 40
0.9995490945
 40
0.9997851743
 40
1.0
 40
1.0
 40
1.0
 40
1.0
 10
7.3139285328
 20
10.0955591736
 30
0.0
 10
7.3139291571
 20
10.0955674987
 30
0.0
 10
7.3139272515
 20
10.0955852534
 30
0.0
 10
7.313914865
 20
10.0956108292
 30
0.0
 10
7.3138937628
 20
10.0956355804
 30
0.0
 10
7.3138505645
 20
10.0956708771
 30
0.0
 10
7.3137725181
 20
10.0957125255
 30
0.0
 10
7.3136519027
 20
10.0957586641
 30
0.0
 10
7.3134966087
 20
10.0958042692
 30
0.0
 10
7.3133066593
 20
10.0958492777
 30
0.0
 10
7.3130819371
 20
10.0958935691
 30
0.0
 10
7.3128225445
 20
10.095937071
 30
0.0
 10
7.3125285964
 20
10.0959797315
 30
0.0
 10
7.3120684409
 20
10.0960382301
 30
0.0
 10
7.3114079477
 20
10.0961073362
 30
0.0
 10
7.3105141662
 20
10.0961831395
 30
0.0
 10
7.3094875976
 20
10.0962548699
 30
0.0
 10
7.3083306909
 20
10.0963223096
 30
0.0
 10
7.3070462034
 20
10.0963852266
 30
0.0
 10
7.3056372251
 20
10.0964434394
 30
0.0
 10
7.3035198768
 20
10.0965172156
 30
0.0
 10
7.3005897706
 20
10.0965944195
 30
0.0
 10
7.2967540536
 20
10.0966635381
 30
0.0
 10
7.292520016
 20
10.0967111784
 30
0.0
 10
7.2879286082
 20
10.0967367995
 30
0.0
 10
7.2830242652
 20
10.0967400613
 30
0.0
 10
7.2778544809
 20
10.0967208823
 30
0.0
 10
7.2724693315
 20
10.0966794208
 30
0.0
 10
7.2650104589
 20
10.0965941972
 30
0.0
 10
7.2555506305
 20
10.0964357147
 30
0.0
 10
7.2460923558
 20
10.0962136241
 30
0.0
 10
7.2386369302
 20
10.0959988485
 30
0.0
 10
7.2332553239
 20
10.0958237614
 30
0.0
 10
7.2280896868
 20
10.0956350941
 30
0.0
 10
7.2231898331
 20
10.0954346991
 30
0.0
 10
7.2186029878
 20
10.0952245645
 30
0.0
 10
7.2143733323
 20
10.0950068017
 30
0.0
 10
7.2105415921
 20
10.0947836111
 30
0.0
 10
7.2071446176
 20
10.0945573976
 30
0.0
 10
7.2042150902
 20
10.0943304839
 30
0.0
 10
7.2020799164
 20
10.0941337531
 30
0.0
 10
7.2006268356
 20
10.0939738338
 30
0.0
 10
7.1997335945
 20
10.0938621737
 30
0.0
 10
7.1989750646
 20
10.0937521671
 30
0.0
 10
7.1984286092
 20
10.0936576773
 30
0.0
 10
7.1980606953
 20
10.0935812177
 30
0.0
 10
7.1978360387
 20
10.0935278962
 30
0.0
 10
7.1976461276
 20
10.0934752569
 30
0.0
 10
7.1974908598
 20
10.0934234064
 30
0.0
 10
7.1973702581
 20
10.0933724117
 30
0.0
 10
7.1972923266
 20
10.0933276667
 30
0.0
 10
7.1972491981
 20
10.0932906937
 30
0.0
 10
7.1972281329
 20
10.0932651489
 30
0.0
 10
7.1972157509
 20
10.0932391751
 30
0.0
 10
7.1972137891
 20
10.0932212586
 30
0.0
 10
7.197214416
 20
10.0932129004
 30
0.0
  0
SPLINE
  5
467
100
AcDbEntity
  8
0
100
AcDbSpline
 62
7
  6
CONTINUOUS
 70
0
 71
3
 72
69
 73
65
 74
0
 42
0.0000001
 43
0.0000001
 44
0.0000000001
 40
0.0
 40
0.0
 40
0.0
 40
0.0
 40
0.0001255487
 40
0.0002839488
 40
0.0004978975
 40
0.0007768197
 40
0.0011248801
 40
0.0015441702
 40
0.0020358578
 40
0.0026006204
 40
0.0039506667
 40
0.0055959263
 40
0.0075367854
 40
0.009772903
 40
0.0123033189
 40
0.0151268845
 40
0.0216476121
 40
0.0293205876
 40
0.0381282277
 40
0.0480497909
 40
0.0590615678
 40
0.0711373607
 40
0.0842479623
 40
0.113445131
 40
0.146371515
 40
0.1827089691
 40
0.2221061267
 40
0.2641822454
 40
0.3085305753
 40
0.3547224821
 40
0.4023120241
 40
0.4508400612
 40
0.4998385139
 40
0.5488351928
 40
0.5973583565
 40
0.6449407583
 40
0.6911244539
 40
0.7354652906
 40
0.7775366771
 40
0.8169338749
 40
0.8532780059
 40
0.8862193473
 40
0.9013135363
 40
0.9154408719
 40
0.9285674284
 40
0.9406615276
 40
0.9516941888
 40
0.9616389555
 40
0.9704719783
 40
0.9781724695
 40
0.9847224486
 40
0.9901072224
 40
0.9923592338
 40
0.9943162906
 40
0.9959779228
 40
0.9973444547
 40
0.9979174741
 40
0.9984173988
 40
0.9988448536
 40
0.9992009303
 40
0.9994875714
 40
0.9997085966
 40
0.9998725318
 40
1.0
 40
1.0
 40
1.0
 40
1.0
 10
7.6726981084
 20
10.0964215731
 30
0.0
 10
7.6726984743
 20
10.0964264517
 30
0.0
 10
7.672695371
 20
10.0964378374
 30
0.0
 10
7.6726814606
 20
10.0964519606
 30
0.0
 10
7.6726597941
 20
10.0964653392
 30
0.0
 10
7.6726296403
 20
10.0964783836
 30
0.0
 10
7.6725909059
 20
10.09649119
 30
0.0
 10
7.6725434515
 20
10.0965037353
 30
0.0
 10
7.6724872588
 20
10.0965160083
 30
0.0
 10
7.6723950255
 20
10.0965330084
 30
0.0
 10
7.6722576762
 20
10.0965528137
 30
0.0
 10
7.6720665159
 20
10.096574299
 30
0.0
 10
7.6718405323
 20
10.096594567
 30
0.0
 10
7.6715798499
 20
10.0966135893
 30
0.0
 10
7.6712846122
 20
10.0966313267
 30
0.0
 10
7.6708224565
 20
10.0966543371
 30
0.0
 10
7.6701597703
 20
10.0966787915
 30
0.0
 10
7.6692637573
 20
10.0967016826
 30
0.0
 10
7.668235081
 20
10.0967191441
 30
0.0
 10
7.667076219
 20
10.0967311076
 30
0.0
 10
7.6657899625
 20
10.0967375026
 30
0.0
 10
7.6643794241
 20
10.0967382968
 30
0.0
 10
7.6622602656
 20
10.0967315997
 30
0.0
 10
7.6593286928
 20
10.0967080008
 30
0.0
 10
7.6554922672
 20
10.0966587185
 30
0.0
 10
7.6512586567
 20
10.0965878278
 30
0.0
 10
7.6466688363
 20
10.0964959723
 30
0.0
 10
7.641767217
 20
10.0963839905
 30
0.0
 10
7.6366012104
 20
10.0962529409
 30
0.0
 10
7.6312207598
 20
10.0961040726
 30
0.0
 10
7.6256778428
 20
10.0959388134
 30
0.0
 10
7.6200259678
 20
10.0957587526
 30
0.0
 10
7.6143196607
 20
10.0955656252
 30
0.0
 10
7.6086139338
 20
10.0953612944
 30
0.0
 10
7.6029637631
 20
10.0951477328
 30
0.0
 10
7.5974235666
 20
10.0949270042
 30
0.0
 10
7.5920466845
 20
10.0947012441
 30
0.0
 10
7.586884872
 20
10.0944726402
 30
0.0
 10
7.5819878106
 20
10.0942434126
 30
0.0
 10
7.5774026394
 20
10.094015802
 30
0.0
 10
7.5731735079
 20
10.0937920306
 30
0.0
 10
7.5698907631
 20
10.0936055819
 30
0.0
 10
7.5674728858
 20
10.0934592066
 30
0.0
 10
7.5658260028
 20
10.0933549331
 30
0.0
 10
7.5642961048
 20
10.0932531991
 30
0.0
 10
7.5628868867
 20
10.0931542557
 30
0.0
 10
7.5616017562
 20
10.093058357
 30
0.0
 10
7.5604438216
 20
10.0929657577
 30
0.0
 10
7.5594158835
 20
10.0928767059
 30
0.0
 10
7.5585204184
 20
10.0927914891
 30
0.0
 10
7.5577595901
 20
10.0927103459
 30
0.0
 10
7.5572108365
 20
10.0926430743
 30
0.0
 10
7.5568407227
 20
10.0925903169
 30
0.0
 10
7.5566147942
 20
10.0925543162
 30
0.0
 10
7.55642366
 20
10.0925195235
 30
0.0
 10
7.5562863938
 20
10.0924901664
 30
0.0
 10
7.5561942472
 20
10.0924667663
 30
0.0
 10
7.556138054
 20
10.0924505806
 30
0.0
 10
7.5560905966
 20
10.0924347301
 30
0.0
 10
7.5560518585
 20
10.0924192204
 30
0.0
 10
7.5560217135
 20
10.0924040808
 30
0.0
 10
7.5560000824
 20
10.0923891933
 30
0.0
 10
7.5559862995
 20
10.0923742705
 30
0.0
 10
7.555983081
 20
10.0923626426
 30
0.0
 10
7.5559834525
 20
10.0923576895
 30
0.0
  0
LINE
  5
468
100
AcDbEntity
  8
0
100
AcDbLine
 62
7
  6
CONTINUOUS
 10
7.7889976804
 20
10.0961338115
 11
7.6925756107
 21
10.0922571471
  0
LINE
  5
469
100
AcDbEntity
  8
0
100
AcDbLine
 62
9
  6
CONTINUOUS
 10
15.0482039097
 20
2.037992475
 11
14.3097510146
 21
2.8521868749
  0
LINE
  5
46A
100
AcDbEntity
  8
0
100
AcDbLine
 62
7
  6
CONTINUOUS
 10
5.3825913371
 20
10.1139006743
 11
5.2971668847
 21
10.1188466508
  0
LINE
  5
46B
100
AcDbEntity
  8
0
100
AcDbLine
 62
7
  6
CONTINUOUS
 10
5.408339444
 20
10.1181827412
 11
5.4077681836
 21
10.1182062759
  0
SPLINE
  5
46C
100
AcDbEntity
  8
0
100
AcDbSpline
 62
7
  6
CONTINUOUS
 70
0
 71
3
 72
31
 73
27
 74
0
 42
0.0000001
 43
0.0000001
 44
0.0000000001
 40
0.0
 40
0.0
 40
0.0
 40
0.0
 40
0.219830516
 40
0.3215995543
 40
0.417421785
 40
0.5069374634
 40
0.5898111443
 40
0.6657325324
 40
0.7344173867
 40
0.7956087899
 40
0.8490795062
 40
0.8946327063
 40
0.932103507
 40
0.9477660409
 40
0.9613630386
 40
0.9728849857
 40
0.9823265997
 40
0.9862680114
 40
0.9896911363
 40
0.9925983908
 40
0.9949946122
 40
0.9968895025
 40
0.9983035073
 40
0.9988452904
 40
0.9992923326
 40
1.0
 40
1.0
 40
1.0
 40
1.0
 10
5.4077681836
 20
10.1182062759
 30
0.0
 10
5.4058942573
 20
10.1182831592
 30
0.0
 10
5.4031526182
 20
10.1183911046
 30
0.0
 10
5.3995936692
 20
10.1185197144
 30
0.0
 10
5.3971455842
 20
10.1186023728
 30
0.0
 10
5.3948584151
 20
10.1186734483
 30
0.0
 10
5.392740755
 20
10.1187326832
 30
0.0
 10
5.3908005594
 20
10.1187798716
 30
0.0
 10
5.3890451209
 20
10.1188148642
 30
0.0
 10
5.3874810364
 20
10.1188375608
 30
0.0
 10
5.3861141692
 20
10.1188479668
 30
0.0
 10
5.3849496383
 20
10.1188460858
 30
0.0
 10
5.3841077266
 20
10.1188340116
 30
0.0
 10
5.3835386594
 20
10.1188168107
 30
0.0
 10
5.3831910429
 20
10.118801671
 30
0.0
 10
5.3828967273
 20
10.118783569
 30
0.0
 10
5.3826849965
 20
10.1187652289
 30
0.0
 10
5.3825425947
 20
10.1187483866
 30
0.0
 10
5.3824558522
 20
10.1187358064
 30
0.0
 10
5.3823825801
 20
10.1187225265
 30
0.0
 10
5.3823227107
 20
10.1187086062
 30
0.0
 10
5.3822762485
 20
10.1186940192
 30
0.0
 10
5.3822460691
 20
10.1186805267
 30
0.0
 10
5.382229273
 20
10.1186685881
 30
0.0
 10
5.3822190521
 20
10.1186583443
 30
0.0
 10
5.3822151739
 20
10.1186481914
 30
0.0
 10
5.3822156254
 20
10.1186421707
 30
0.0
  0
LINE
  5
46D
100
AcDbEntity
  8
0
100
AcDbLine
 62
9
  6
CONTINUOUS
 10
5.5185165639
 20
10.112294326
 11
5.6274500796
 21
10.112295049
  0
SPLINE
  5
46E
100
AcDbEntity
  8
0
100
AcDbSpline
 62
7
  6
CONTINUOUS
 70
0
 71
3
 72
62
 73
58
 74
0
 42
0.0000001
 43
0.0000001
 44
0.0000000001
 40
0.0
 40
0.0
 40
0.0
 40
0.0
 40
0.000229654
 40
0.0004807541
 40
0.0007717649
 40
0.0011147387
 40
0.0019823867
 40
0.0031167413
 40
0.0045306723
 40
0.0062301698
 40
0.0082182169
 40
0.010495995
 40
0.013063632
 40
0.0159207508
 40
0.0224990894
 40
0.030219414
 40
0.0390654624
 40
0.049017574
 40
0.0600526624
 40
0.0852655623
 40
0.1144654124
 40
0.1473736555
 40
0.1836755647
 40
0.2230235507
 40
0.2650405951
 40
0.3093239227
 40
0.3554487187
 40
0.4029721832
 40
0.5003783636
 40
0.5977997269
 40
0.6453395158
 40
0.6914824833
 40
0.735781691
 40
0.7778077092
 40
0.8171530204
 40
0.8534363046
 40
0.8863064331
 40
0.9154462272
 40
0.9285283291
 40
0.9405761942
 40
0.9515612046
 40
0.9614578919
 40
0.970243512
 40
0.9778987545
 40
0.9844080875
 40
0.9872293774
 40
0.9897605276
 40
0.9920012497
 40
0.9939518077
 40
0.9956136876
 40
0.9969902379
 40
0.9980881215
 40
0.9989217982
 40
0.9992499586
 40
0.9995288426
 40
0.9997721223
 40
1.0
 40
1.0
 40
1.0
 40
1.0
 10
5.7432316968
 20
10.1129035579
 30
0.0
 10
5.7432323643
 20
10.1129124579
 30
0.0
 10
5.7432305074
 20
10.1129314504
 30
0.0
 10
5.7432183918
 20
10.112959277
 30
0.0
 10
5.7431975773
 20
10.1129869444
 30
0.0
 10
5.7431549981
 20
10.1130271307
 30
0.0
 10
5.7430777136
 20
10.1130765531
 30
0.0
 10
5.7429577408
 20
10.1131336215
 30
0.0
 10
5.7428032975
 20
10.1131923576
 30
0.0
 10
5.7426143887
 20
10.1132526947
 30
0.0
 10
5.7423909078
 20
10.1133145303
 30
0.0
 10
5.7421329552
 20
10.1133777866
 30
0.0
 10
5.7418406481
 20
10.1134424026
 30
0.0
 10
5.7413833699
 20
10.1135346753
 30
0.0
 10
5.7407268547
 20
10.1136513665
 30
0.0
 10
5.7398381676
 20
10.1137904762
 30
0.0
 10
5.7388175817
 20
10.1139339303
 30
0.0
 10
5.7376675641
 20
10.1140813449
 30
0.0
 10
5.735884485
 20
10.1142920976
 30
0.0
 10
5.73335496
 20
10.1145591447
 30
0.0
 10
5.7299762868
 20
10.1148769945
 30
0.0
 10
5.7261655317
 20
10.1152013785
 30
0.0
 10
5.7219593678
 20
10.1155290609
 30
0.0
 10
5.7173982254
 20
10.115856739
 30
0.0
 10
5.7125259421
 20
10.1161811885
 30
0.0
 10
5.7073893413
 20
10.1164992282
 30
0.0
 10
5.7020377969
 20
10.1168077667
 30
0.0
 10
5.6946235306
 20
10.1172057095
 30
0.0
 10
5.6852158106
 20
10.1176571038
 30
0.0
 10
5.6758044602
 20
10.1180410175
 30
0.0
 10
5.6683821624
 20
10.1183015411
 30
0.0
 10
5.6630223677
 20
10.1184683276
 30
0.0
 10
5.6578761136
 20
10.1186065306
 30
0.0
 10
5.6529933781
 20
10.1187148293
 30
0.0
 10
5.6484216148
 20
10.1187922166
 30
0.0
 10
5.6442052615
 20
10.1188380311
 30
0.0
 10
5.6403852956
 20
10.1188519067
 30
0.0
 10
5.6374669859
 20
10.118836528
 30
0.0
 10
5.6353581115
 20
10.1188062624
 30
0.0
 10
5.6339548845
 20
10.118776415
 30
0.0
 10
5.6326756854
 20
10.1187387209
 30
0.0
 10
5.6315236012
 20
10.1186933033
 30
0.0
 10
5.630501384
 20
10.1186403466
 30
0.0
 10
5.6296114754
 20
10.1185800279
 30
0.0
 10
5.6289538684
 20
10.1185215165
 30
0.0
 10
5.6284957828
 20
10.118469729
 30
0.0
 10
5.6282032184
 20
10.1184310177
 30
0.0
 10
5.6279450782
 20
10.1183906233
 30
0.0
 10
5.6277214711
 20
10.1183485959
 30
0.0
 10
5.6275324909
 20
10.1183050114
 30
0.0
 10
5.6273780009
 20
10.1182599793
 30
0.0
 10
5.6272579955
 20
10.1182135725
 30
0.0
 10
5.6271804507
 20
10.1181709132
 30
0.0
 10
5.6271377356
 20
10.1181343767
 30
0.0
 10
5.6271168514
 20
10.1181084303
 30
0.0
 10
5.6271047447
 20
10.1180814708
 30
0.0
 10
5.6271030061
 20
10.1180628349
 30
0.0
 10
5.6271036685
 20
10.1180540037
 30
0.0
  0
SPLINE
  5
46F
100
AcDbEntity
  8
0
100
AcDbSpline
 62
7
  6
CONTINUOUS
 70
0
 71
3
 72
58
 73
54
 74
0
 42
0.0000001
 43
0.0000001
 44
0.0000000001
 40
0.0
 40
0.0
 40
0.0
 40
0.0
 40
0.0006248289
 40
0.0013692067
 40
0.0023166625
 40
0.0035085064
 40
0.0049648758
 40
0.0066962066
 40
0.0087082469
 40
0.011003967
 40
0.0164506677
 40
0.0230380278
 40
0.0307578563
 40
0.0395961921
 40
0.0495350049
 40
0.0605524224
 40
0.072623532
 40
0.085720574
 40
0.114867295
 40
0.1477184447
 40
0.1839622288
 40
0.2232531149
 40
0.2652156153
 40
0.3094476037
 40
0.3555242734
 40
0.4030025079
 40
0.5003227088
 40
0.5976562857
 40
0.6451488218
 40
0.6912414335
 40
0.7354872868
 40
0.7774574346
 40
0.8167456076
 40
0.8529725558
 40
0.8857896974
 40
0.9148832082
 40
0.9279460774
 40
0.9399781369
 40
0.9509515191
 40
0.9608416892
 40
0.969627087
 40
0.9772900093
 40
0.9838172211
 40
0.9892011362
 40
0.9914648654
 40
0.9934447019
 40
0.9951439935
 40
0.9965689584
 40
0.9977308783
 40
0.9986517096
 40
0.9993765921
 40
0.9996935274
 40
1.0
 40
1.0
 40
1.0
 40
1.0
 10
6.1184210652
 20
10.1137929393
 30
0.0
 10
6.118422884
 20
10.1138171899
 30
0.0
 10
6.1184122616
 20
10.1138718072
 30
0.0
 10
6.1183591324
 20
10.1139465804
 30
0.0
 10
6.1182733831
 20
10.1140199201
 30
0.0
 10
6.1181540125
 20
10.1140936593
 30
0.0
 10
6.1180005732
 20
10.1141683108
 30
0.0
 10
6.1178127177
 20
10.1142439113
 30
0.0
 10
6.1175903923
 20
10.1143204154
 30
0.0
 10
6.1172267794
 20
10.1144298439
 30
0.0
 10
6.1166854759
 20
10.1145652827
 30
0.0
 10
6.1159328932
 20
10.1147230191
 30
0.0
 10
6.1150462905
 20
10.114883071
 30
0.0
 10
6.1140277473
 20
10.1150449814
 30
0.0
 10
6.1128796282
 20
10.11520821
 30
0.0
 10
6.1116046718
 20
10.1153723066
 30
0.0
 10
6.1102059278
 20
10.1155368339
 30
0.0
 10
6.1081042202
 20
10.1157643884
 30
0.0
 10
6.1051947543
 20
10.1160437205
 30
0.0
 10
6.1013844806
 20
10.116363716
 30
0.0
 10
6.0971775546
 20
10.1166759389
 30
0.0
 10
6.0926143924
 20
10.1169772687
 30
0.0
 10
6.087738856
 20
10.1172646688
 30
0.0
 10
6.0825978731
 20
10.117535288
 30
0.0
 10
6.0772409844
 20
10.1177864635
 30
0.0
 10
6.0698183793
 20
10.1180946232
 30
0.0
 10
6.0603996874
 20
10.1184133324
 30
0.0
 10
6.0509777929
 20
10.1186407803
 30
0.0
 10
6.0435481024
 20
10.1187630782
 30
0.0
 10
6.0381839412
 20
10.1188225579
 30
0.0
 10
6.033034456
 20
10.1188500382
 30
0.0
 10
6.0281497266
 20
10.1188452899
 30
0.0
 10
6.0235772374
 20
10.118808431
 30
0.0
 10
6.0193613813
 20
10.1187399528
 30
0.0
 10
6.0155430347
 20
10.1186406383
 30
0.0
 10
6.0126270219
 20
10.1185297291
 30
0.0
 10
6.0105206155
 20
10.1184237649
 30
0.0
 10
6.0091192833
 20
10.1183401639
 30
0.0
 10
6.0078421284
 20
10.1182498123
 30
0.0
 10
6.0066922004
 20
10.1181529804
 30
0.0
 10
6.0056722249
 20
10.1180499651
 30
0.0
 10
6.0047845467
 20
10.1179411727
 30
0.0
 10
6.0040312184
 20
10.1178269526
 30
0.0
 10
6.0034891688
 20
10.1177227664
 30
0.0
 10
6.0031249829
 20
10.1176342722
 30
0.0
 10
6.0029025318
 20
10.1175706202
 30
0.0
 10
6.0027145921
 20
10.1175058692
 30
0.0
 10
6.0025610665
 20
10.1174401218
 30
0.0
 10
6.0024416216
 20
10.1173731675
 30
0.0
 10
6.0023555767
 20
10.1173048801
 30
0.0
 10
6.002309457
 20
10.1172417138
 30
0.0
 10
6.0022940725
 20
10.1171910539
 30
0.0
 10
6.0022928941
 20
10.1171665263
 30
0.0
 10
6.0022937862
 20
10.1171546316
 30
0.0
  0
SPLINE
  5
470
100
AcDbEntity
  8
0
100
AcDbSpline
 62
7
  6
CONTINUOUS
 70
0
 71
3
 72
57
 73
53
 74
0
 42
0.0000001
 43
0.0000001
 44
0.0000000001
 40
0.0
 40
0.0
 40
0.0
 40
0.0
 40
0.0007043095
 40
0.001509926
 40
0.0025005388
 40
0.003722165
 40
0.0051989003
 40
0.006943825
 40
0.008964426
 40
0.0112648642
 40
0.0167123732
 40
0.0232925767
 40
0.03099974
 40
0.0398215786
 40
0.0497412238
 40
0.0607376156
 40
0.072786609
 40
0.0858609043
 40
0.1149619165
 40
0.1477689884
 40
0.1839718873
 40
0.2232259025
 40
0.2651553962
 40
0.3093577504
 40
0.4028591498
 40
0.5001261297
 40
0.5973983821
 40
0.6909117221
 40
0.7351195318
 40
0.7770520178
 40
0.8163049054
 40
0.8525010751
 40
0.8852946193
 40
0.9143745038
 40
0.9274352395
 40
0.9394687735
 40
0.9504477605
 40
0.9603482039
 40
0.9691492049
 40
0.9768339912
 40
0.9833906097
 40
0.9862439965
 40
0.9888141073
 40
0.9911020766
 40
0.9931101578
 40
0.9948426963
 40
0.9956080523
 40
0.996307827
 40
0.9975181294
 40
0.9984989045
 40
0.9992976091
 40
1.0
 40
1.0
 40
1.0
 40
1.0
 10
6.5786591724
 20
10.1148867758
 30
0.0
 10
6.5786612244
 20
10.1149141357
 30
0.0
 10
6.5786518505
 20
10.1149743303
 30
0.0
 10
6.5786000517
 20
10.1150587412
 30
0.0
 10
6.578514769
 20
10.115140756
 30
0.0
 10
6.5783958729
 20
10.1152222251
 30
0.0
 10
6.5782429355
 20
10.1153037871
 30
0.0
 10
6.5780556466
 20
10.1153855661
 30
0.0
 10
6.5778339156
 20
10.1154675456
 30
0.0
 10
6.5774714236
 20
10.1155836537
 30
0.0
 10
6.5769311957
 20
10.1157253694
 30
0.0
 10
6.5761795935
 20
10.115887633
 30
0.0
 10
6.5752938979
 20
10.116049461
 30
0.0
 10
6.5742761473
 20
10.1162103824
 30
0.0
 10
6.5731286615
 20
10.1163698454
 30
0.0
 10
6.5718541508
 20
10.1165274037
 30
0.0
 10
6.5704556428
 20
10.116682626
 30
0.0
 10
6.5683538228
 20
10.116893513
 30
0.0
 10
6.5654435316
 20
10.1171448596
 30
0.0
 10
6.5616315241
 20
10.1174218772
 30
0.0
 10
6.5574219242
 20
10.1176809799
 30
0.0
 10
6.5528552336
 20
10.1179195242
 30
0.0
 10
6.5479754581
 20
10.1181350656
 30
0.0
 10
6.5409824626
 20
10.1183936584
 30
0.0
 10
6.5318321255
 20
10.1186412745
 30
0.0
 10
6.5206124622
 20
10.1188163729
 30
0.0
 10
6.5093910828
 20
10.1188672861
 30
0.0
 10
6.5002367315
 20
10.118803962
 30
0.0
 10
6.4932391537
 20
10.1186861498
 30
0.0
 10
6.4883557445
 20
10.1185688114
 30
0.0
 10
6.4837853703
 20
10.1184221309
 30
0.0
 10
6.4795722473
 20
10.1182476707
 30
0.0
 10
6.4757570593
 20
10.1180472652
 30
0.0
 10
6.4728441922
 20
10.1178543669
 30
0.0
 10
6.4707405262
 20
10.1176856596
 30
0.0
 10
6.469341003
 20
10.1175585094
 30
0.0
 10
6.4680656279
 20
10.1174265297
 30
0.0
 10
6.4669174348
 20
10.1172900841
 30
0.0
 10
6.4658991052
 20
10.1171496001
 30
0.0
 10
6.465013023
 20
10.1170054838
 30
0.0
 10
6.4643592666
 20
10.1168776754
 30
0.0
 10
6.4639046772
 20
10.1167718617
 30
0.0
 10
6.4636140853
 20
10.1166955202
 30
0.0
 10
6.4633578457
 20
10.1166185617
 30
0.0
 10
6.4631360714
 20
10.1165410317
 30
0.0
 10
6.4629738765
 20
10.1164735033
 30
0.0
 10
6.4628620559
 20
10.1164185014
 30
0.0
 10
6.4627708739
 20
10.11636798
 30
0.0
 10
6.4626768114
 20
10.1163054016
 30
0.0
 10
6.4625914431
 20
10.1162250341
 30
0.0
 10
6.4625395837
 20
10.1161414411
 30
0.0
 10
6.462530336
 20
10.1160815596
 30
0.0
 10
6.4625323825
 20
10.1160542742
 30
0.0
  0
SPLINE
  5
471
100
AcDbEntity
  8
0
100
AcDbSpline
 62
7
  6
CONTINUOUS
 70
0
 71
3
 72
57
 73
53
 74
0
 42
0.0000001
 43
0.0000001
 44
0.0000000001
 40
0.0
 40
0.0
 40
0.0
 40
0.0
 40
0.0007023909
 40
0.0015010955
 40
0.0024818706
 40
0.0036921729
 40
0.0043919477
 40
0.0051573036
 40
0.0068898421
 40
0.0088979234
 40
0.0111858927
 40
0.0137560035
 40
0.0166093903
 40
0.0231660088
 40
0.030850795
 40
0.0396517961
 40
0.0495522393
 40
0.0605312262
 40
0.0725647601
 40
0.0856254957
 40
0.1147053798
 40
0.1474989242
 40
0.1836950936
 40
0.2229479817
 40
0.2648804673
 40
0.309088277
 40
0.4026016168
 40
0.4998738692
 40
0.5971408491
 40
0.6906422502
 40
0.734844606
 40
0.7767740992
 40
0.8160281143
 40
0.8522310124
 40
0.8850380841
 40
0.9141390963
 40
0.9272133916
 40
0.939262385
 40
0.9502587767
 40
0.9601784218
 40
0.9690002604
 40
0.9767074236
 40
0.983287627
 40
0.9887351359
 40
0.9910355741
 40
0.993056175
 40
0.9948010998
 40
0.996277835
 40
0.9974994612
 40
0.998490074
 40
0.9992956905
 40
1.0
 40
1.0
 40
1.0
 40
1.0
 10
7.0684345958
 20
10.1160542742
 30
0.0
 10
7.0684366422
 20
10.1160815596
 30
0.0
 10
7.0684273945
 20
10.1161414411
 30
0.0
 10
7.0683755351
 20
10.1162250341
 30
0.0
 10
7.0682901668
 20
10.1163054016
 30
0.0
 10
7.0681961044
 20
10.11636798
 30
0.0
 10
7.0681049223
 20
10.1164185014
 30
0.0
 10
7.0679931018
 20
10.1164735033
 30
0.0
 10
7.0678309069
 20
10.1165410317
 30
0.0
 10
7.0676091326
 20
10.1166185617
 30
0.0
 10
7.067352893
 20
10.1166955202
 30
0.0
 10
7.0670623011
 20
10.1167718617
 30
0.0
 10
7.0666077117
 20
10.1168776754
 30
0.0
 10
7.0659539553
 20
10.1170054838
 30
0.0
 10
7.0650678731
 20
10.1171496001
 30
0.0
 10
7.0640495435
 20
10.1172900841
 30
0.0
 10
7.0629013504
 20
10.1174265297
 30
0.0
 10
7.0616259753
 20
10.1175585094
 30
0.0
 10
7.0602264521
 20
10.1176856595
 30
0.0
 10
7.0581227861
 20
10.1178543669
 30
0.0
 10
7.055209919
 20
10.1180472652
 30
0.0
 10
7.0513947311
 20
10.1182476707
 30
0.0
 10
7.0471816081
 20
10.1184221309
 30
0.0
 10
7.0426112339
 20
10.1185688114
 30
0.0
 10
7.0377278246
 20
10.1186861498
 30
0.0
 10
7.0307302469
 20
10.118803962
 30
0.0
 10
7.0215758955
 20
10.1188672861
 30
0.0
 10
7.0103545162
 20
10.1188163729
 30
0.0
 10
6.9991348528
 20
10.1186412745
 30
0.0
 10
6.9899845156
 20
10.1183936584
 30
0.0
 10
6.98299152
 20
10.1181350656
 30
0.0
 10
6.9781117444
 20
10.1179195242
 30
0.0
 10
6.9735450539
 20
10.1176809799
 30
0.0
 10
6.969335454
 20
10.1174218772
 30
0.0
 10
6.9655234466
 20
10.1171448596
 30
0.0
 10
6.9626131554
 20
10.116893513
 30
0.0
 10
6.9605113354
 20
10.116682626
 30
0.0
 10
6.9591128274
 20
10.1165274037
 30
0.0
 10
6.9578383167
 20
10.1163698454
 30
0.0
 10
6.9566908309
 20
10.1162103823
 30
0.0
 10
6.9556730804
 20
10.116049461
 30
0.0
 10
6.9547873847
 20
10.115887633
 30
0.0
 10
6.9540357826
 20
10.1157253694
 30
0.0
 10
6.9534955547
 20
10.1155836537
 30
0.0
 10
6.9531330627
 20
10.1154675456
 30
0.0
 10
6.9529113316
 20
10.1153855661
 30
0.0
 10
6.9527240427
 20
10.1153037871
 30
0.0
 10
6.9525711053
 20
10.1152222251
 30
0.0
 10
6.9524522093
 20
10.115140756
 30
0.0
 10
6.9523669266
 20
10.1150587412
 30
0.0
 10
6.9523151278
 20
10.1149743303
 30
0.0
 10
6.9523057539
 20
10.1149141357
 30
0.0
 10
6.9523078059
 20
10.1148867758
 30
0.0
  0
SPLINE
  5
472
100
AcDbEntity
  8
0
100
AcDbSpline
 62
7
  6
CONTINUOUS
 70
0
 71
3
 72
58
 73
54
 74
0
 42
0.0000001
 43
0.0000001
 44
0.0000000001
 40
0.0
 40
0.0
 40
0.0
 40
0.0
 40
0.0003064726
 40
0.0006234079
 40
0.0013482904
 40
0.0022691217
 40
0.0034310416
 40
0.0048560065
 40
0.0065552982
 40
0.0085351346
 40
0.0107988639
 40
0.016182779
 40
0.0227099909
 40
0.0303729132
 40
0.0391583108
 40
0.0490484807
 40
0.0600218624
 40
0.0720539213
 40
0.0851167899
 40
0.1142103002
 40
0.1470274425
 40
0.1832543899
 40
0.2225425623
 40
0.2645127107
 40
0.3087585626
 40
0.3548511728
 40
0.402343711
 40
0.4996772901
 40
0.5969974901
 40
0.6444757235
 40
0.6905523938
 40
0.734784384
 40
0.7767468863
 40
0.8160377726
 40
0.8522815558
 40
0.8851327053
 40
0.9142794264
 40
0.9273764684
 40
0.939447578
 40
0.9504649954
 40
0.9604038081
 40
0.9692421439
 40
0.9769619723
 40
0.9835493323
 40
0.9889960331
 40
0.9912917531
 40
0.9933037934
 40
0.9950351242
 40
0.9964914936
 40
0.9976833375
 40
0.9986307933
 40
0.9993751711
 40
1.0
 40
1.0
 40
1.0
 40
1.0
 10
7.5286731921
 20
10.1171546316
 30
0.0
 10
7.5286740842
 20
10.1171665263
 30
0.0
 10
7.5286729058
 20
10.1171910539
 30
0.0
 10
7.5286575213
 20
10.1172417138
 30
0.0
 10
7.5286114015
 20
10.1173048801
 30
0.0
 10
7.5285253566
 20
10.1173731675
 30
0.0
 10
7.5284059117
 20
10.1174401218
 30
0.0
 10
7.5282523862
 20
10.1175058692
 30
0.0
 10
7.5280644465
 20
10.1175706202
 30
0.0
 10
7.5278419953
 20
10.1176342722
 30
0.0
 10
7.5274778095
 20
10.1177227664
 30
0.0
 10
7.5269357599
 20
10.1178269526
 30
0.0
 10
7.5261824316
 20
10.1179411727
 30
0.0
 10
7.5252947533
 20
10.1180499651
 30
0.0
 10
7.5242747778
 20
10.1181529804
 30
0.0
 10
7.5231248499
 20
10.1182498123
 30
0.0
 10
7.5218476951
 20
10.1183401639
 30
0.0
 10
7.5204463629
 20
10.1184237649
 30
0.0
 10
7.5183399565
 20
10.1185297291
 30
0.0
 10
7.5154239438
 20
10.1186406383
 30
0.0
 10
7.5116055972
 20
10.1187399528
 30
0.0
 10
7.5073897411
 20
10.118808431
 30
0.0
 10
7.502817252
 20
10.1188452899
 30
0.0
 10
7.4979325227
 20
10.1188500382
 30
0.0
 10
7.4927830375
 20
10.1188225579
 30
0.0
 10
7.4874188764
 20
10.1187630782
 30
0.0
 10
7.4799891858
 20
10.1186407803
 30
0.0
 10
7.4705672911
 20
10.1184133324
 30
0.0
 10
7.4611485992
 20
10.1180946232
 30
0.0
 10
7.4537259942
 20
10.1177864635
 30
0.0
 10
7.4483691055
 20
10.117535288
 30
0.0
 10
7.4432281223
 20
10.1172646688
 30
0.0
 10
7.4383525858
 20
10.1169772687
 30
0.0
 10
7.4337894236
 20
10.1166759389
 30
0.0
 10
7.4295824976
 20
10.116363716
 30
0.0
 10
7.4257722239
 20
10.1160437205
 30
0.0
 10
7.422862758
 20
10.1157643884
 30
0.0
 10
7.4207610504
 20
10.1155368339
 30
0.0
 10
7.4193623064
 20
10.1153723066
 30
0.0
 10
7.41808735
 20
10.11520821
 30
0.0
 10
7.4169392309
 20
10.1150449814
 30
0.0
 10
7.4159206878
 20
10.114883071
 30
0.0
 10
7.4150340851
 20
10.1147230191
 30
0.0
 10
7.4142815023
 20
10.1145652827
 30
0.0
 10
7.4137401989
 20
10.1144298439
 30
0.0
 10
7.413376586
 20
10.1143204154
 30
0.0
 10
7.4131542606
 20
10.1142439113
 30
0.0
 10
7.4129664051
 20
10.1141683108
 30
0.0
 10
7.4128129658
 20
10.1140936593
 30
0.0
 10
7.4126935952
 20
10.1140199201
 30
0.0
 10
7.4126078459
 20
10.1139465804
 30
0.0
 10
7.4125547167
 20
10.1138718072
 30
0.0
 10
7.4125440943
 20
10.1138171899
 30
0.0
 10
7.4125459131
 20
10.1137929393
 30
0.0
  0
SPLINE
  5
473
100
AcDbEntity
  8
0
100
AcDbSpline
 62
7
  6
CONTINUOUS
 70
0
 71
3
 72
62
 73
58
 74
0
 42
0.0000001
 43
0.0000001
 44
0.0000000001
 40
0.0
 40
0.0
 40
0.0
 40
0.0
 40
0.0002278777
 40
0.0004711574
 40
0.0007500414
 40
0.0010782018
 40
0.0019118785
 40
0.003009762
 40
0.0043863122
 40
0.0060481921
 40
0.00799875
 40
0.0102394722
 40
0.0127706224
 40
0.0155919123
 40
0.0221012449
 40
0.0297564872
 40
0.0385421072
 40
0.0484387948
 40
0.0594238054
 40
0.0714716703
 40
0.0845537724
 40
0.1136935669
 40
0.1465636961
 40
0.1828469793
 40
0.2221922924
 40
0.2642183098
 40
0.3085175189
 40
0.354660487
 40
0.4022002763
 40
0.4996216407
 40
0.5970278213
 40
0.6445512871
 40
0.6906760831
 40
0.7349594122
 40
0.7769764558
 40
0.8163244407
 40
0.8526263483
 40
0.8855345896
 40
0.9147344391
 40
0.9399473382
 40
0.9509824264
 40
0.9609345378
 40
0.9697805861
 40
0.9775009106
 40
0.9840792492
 40
0.986936368
 40
0.989504005
 40
0.991781783
 40
0.9937698301
 40
0.9954693277
 40
0.9968832587
 40
0.9980176133
 40
0.9988852612
 40
0.9992282351
 40
0.9995192459
 40
0.999770346
 40
1.0
 40
1.0
 40
1.0
 40
1.0
 10
7.9038633098
 20
10.1180540037
 30
0.0
 10
7.9038639722
 20
10.1180628349
 30
0.0
 10
7.9038622336
 20
10.1180814708
 30
0.0
 10
7.9038501268
 20
10.1181084303
 30
0.0
 10
7.9038292427
 20
10.1181343767
 30
0.0
 10
7.9037865276
 20
10.1181709132
 30
0.0
 10
7.9037089828
 20
10.1182135725
 30
0.0
 10
7.9035889774
 20
10.1182599793
 30
0.0
 10
7.9034344874
 20
10.1183050114
 30
0.0
 10
7.9032455072
 20
10.1183485959
 30
0.0
 10
7.9030219001
 20
10.1183906233
 30
0.0
 10
7.9027637599
 20
10.1184310177
 30
0.0
 10
7.9024711955
 20
10.118469729
 30
0.0
 10
7.9020131099
 20
10.1185215165
 30
0.0
 10
7.9013555029
 20
10.1185800279
 30
0.0
 10
7.9004655943
 20
10.1186403466
 30
0.0
 10
7.8994433771
 20
10.1186933033
 30
0.0
 10
7.898291293
 20
10.1187387209
 30
0.0
 10
7.8970120939
 20
10.118776415
 30
0.0
 10
7.8956088669
 20
10.1188062624
 30
0.0
 10
7.8934999924
 20
10.118836528
 30
0.0
 10
7.8905816826
 20
10.1188519068
 30
0.0
 10
7.8867617168
 20
10.1188380311
 30
0.0
 10
7.8825453633
 20
10.1187922166
 30
0.0
 10
7.8779736001
 20
10.1187148293
 30
0.0
 10
7.8730908645
 20
10.1186065306
 30
0.0
 10
7.8679446104
 20
10.1184683276
 30
0.0
 10
7.8625848155
 20
10.1183015411
 30
0.0
 10
7.8551625176
 20
10.1180410175
 30
0.0
 10
7.8457511672
 20
10.1176571038
 30
0.0
 10
7.8363434471
 20
10.1172057095
 30
0.0
 10
7.8289291808
 20
10.1168077666
 30
0.0
 10
7.8235776363
 20
10.1164992281
 30
0.0
 10
7.8184410354
 20
10.1161811885
 30
0.0
 10
7.8135687521
 20
10.115856739
 30
0.0
 10
7.8090076098
 20
10.1155290609
 30
0.0
 10
7.8048014461
 20
10.1152013785
 30
0.0
 10
7.8009906912
 20
10.1148769945
 30
0.0
 10
7.7976120181
 20
10.1145591447
 30
0.0
 10
7.7950824932
 20
10.1142920976
 30
0.0
 10
7.7932994141
 20
10.1140813449
 30
0.0
 10
7.7921493965
 20
10.1139339303
 30
0.0
 10
7.7911288107
 20
10.1137904762
 30
0.0
 10
7.7902401235
 20
10.1136513665
 30
0.0
 10
7.7895836083
 20
10.1135346753
 30
0.0
 10
7.7891263302
 20
10.1134424026
 30
0.0
 10
7.788834023
 20
10.1133777866
 30
0.0
 10
7.7885760705
 20
10.1133145303
 30
0.0
 10
7.7883525896
 20
10.1132526947
 30
0.0
 10
7.7881636807
 20
10.1131923576
 30
0.0
 10
7.7880092375
 20
10.1131336215
 30
0.0
 10
7.7878892647
 20
10.1130765531
 30
0.0
 10
7.7878119802
 20
10.1130271307
 30
0.0
 10
7.787769401
 20
10.1129869444
 30
0.0
 10
7.7877485864
 20
10.112959277
 30
0.0
 10
7.7877364709
 20
10.1129314504
 30
0.0
 10
7.787734614
 20
10.1129124579
 30
0.0
 10
7.7877352815
 20
10.1129035579
 30
0.0
  0
LINE
  5
474
100
AcDbEntity
  8
0
100
AcDbLine
 62
9
  6
CONTINUOUS
 10
7.9035169236
 20
10.112295049
 11
8.0124504038
 21
10.1122943262
  0
SPLINE
  5
475
100
AcDbEntity
  8
0
100
AcDbSpline
 62
7
  6
CONTINUOUS
 70
0
 71
3
 72
31
 73
27
 74
0
 42
0.0000001
 43
0.0000001
 44
0.0000000001
 40
0.0
 40
0.0
 40
0.0
 40
0.0
 40
0.0007075258
 40
0.0011545254
 40
0.0016962843
 40
0.0031102852
 40
0.0050052157
 40
0.0074015114
 40
0.0103088693
 40
0.0137321263
 40
0.0176736954
 40
0.0271156899
 40
0.0386380902
 40
0.0522356149
 40
0.0678987639
 40
0.1053710178
 40
0.1509258139
 40
0.2043981363
 40
0.2655910265
 40
0.334277116
 40
0.4101995704
 40
0.4930738556
 40
0.5825893509
 40
0.6784104875
 40
0.7801773351
 40
1.0
 40
1.0
 40
1.0
 40
1.0
 10
8.1487513529
 20
10.1186421707
 30
0.0
 10
8.1487518045
 20
10.1186481931
 30
0.0
 10
8.1487479235
 20
10.1186583493
 30
0.0
 10
8.1487376971
 20
10.1186685952
 30
0.0
 10
8.1487208914
 20
10.1186805368
 30
0.0
 10
8.1486906954
 20
10.1186940324
 30
0.0
 10
8.1486442079
 20
10.1187086225
 30
0.0
 10
8.1485843061
 20
10.1187225456
 30
0.0
 10
8.1485109943
 20
10.118735828
 30
0.0
 10
8.1484242048
 20
10.1187484102
 30
0.0
 10
8.1482817261
 20
10.1187652549
 30
0.0
 10
8.1480698813
 20
10.1187835965
 30
0.0
 10
8.1477754079
 20
10.1188016989
 30
0.0
 10
8.1474276052
 20
10.1188168371
 30
0.0
 10
8.1468582338
 20
10.1188340338
 30
0.0
 10
8.1460158739
 20
10.1188460979
 30
0.0
 10
8.1448507267
 20
10.1188479608
 30
0.0
 10
8.143483143
 20
10.1188375301
 30
0.0
 10
8.1419182476
 20
10.1188148022
 30
0.0
 10
8.1401619081
 20
10.1187797721
 30
0.0
 10
8.1382207277
 20
10.1187325397
 30
0.0
 10
8.1361020072
 20
10.118673255
 30
0.0
 10
8.1338137122
 20
10.118602124
 30
0.0
 10
8.1313644455
 20
10.1185194048
 30
0.0
 10
8.1278038308
 20
10.1183907058
 30
0.0
 10
8.125060921
 20
10.1182826893
 30
0.0
 10
8.1231861346
 20
10.1182057564
 30
0.0
  0
LINE
  5
476
100
AcDbEntity
  8
0
100
AcDbLine
 62
7
  6
CONTINUOUS
 10
8.1231861346
 20
10.1182057564
 11
8.122627303
 21
10.1181827316
  0
LINE
  5
477
100
AcDbEntity
  8
0
100
AcDbLine
 62
7
  6
CONTINUOUS
 10
8.2338000936
 20
10.1188466508
 11
8.1483756395
 21
10.1139006742
  0
SPLINE
  5
478
100
AcDbEntity
  8
0
100
AcDbSpline
 62
9
  6
CONTINUOUS
 70
0
 71
3
 72
10
 73
6
 74
0
 42
0.0000001
 43
0.0000001
 44
0.0000000001
 40
0.0
 40
0.0
 40
0.0
 40
0.0
 40
0.5012859786
 40
0.7509565246
 40
1.0
 40
1.0
 40
1.0
 40
1.0
 10
15.0214215462
 20
2.0498117694
 30
0.0
 10
15.018466222
 20
2.0515299698
 30
0.0
 10
15.0142272222
 20
2.0544423908
 30
0.0
 10
15.009002123
 20
2.0588276316
 30
0.0
 10
15.0065295108
 20
2.0611664415
 30
0.0
 10
15.0053286124
 20
2.0623673628
 30
0.0
  0
LINE
  5
479
100
AcDbEntity
  8
0
100
AcDbLine
 62
7
  6
CONTINUOUS
 10
4.8744528746
 20
10.1480337111
 11
4.8671866255
 21
10.1485834405
  0
SPLINE
  5
47A
100
AcDbEntity
  8
0
100
AcDbSpline
 62
7
  6
CONTINUOUS
 70
0
 71
3
 72
36
 73
32
 74
0
 42
0.0000001
 43
0.0000001
 44
0.0000000001
 40
0.0
 40
0.0
 40
0.0
 40
0.0
 40
0.0005566829
 40
0.001008169
 40
0.0015982439
 40
0.0023334477
 40
0.0032170555
 40
0.0042508755
 40
0.0054358826
 40
0.0082612159
 40
0.011695048
 40
0.0203858482
 40
0.0314927337
 40
0.044988491
 40
0.0608375438
 40
0.078996671
 40
0.0994162564
 40
0.1220402213
 40
0.1468061234
 40
0.173645982
 40
0.2024860782
 40
0.2332471393
 40
0.300190656
 40
0.3737454517
 40
0.4531109938
 40
0.537425778
 40
0.6257765049
 40
0.7172077111
 40
0.8107312155
 40
0.9053363114
 40
1.0
 40
1.0
 40
1.0
 40
1.0
 10
5.0458301868
 20
10.1399614985
 30
0.0
 10
5.0458310745
 20
10.1399733347
 30
0.0
 10
5.045814607
 20
10.1399929344
 30
0.0
 10
5.0457868823
 20
10.1400108431
 30
0.0
 10
5.0457526855
 20
10.140028155
 30
0.0
 10
5.0457091238
 20
10.1400457726
 30
0.0
 10
5.0456556267
 20
10.14006433
 30
0.0
 10
5.0455923426
 20
10.1400835754
 30
0.0
 10
5.0454885786
 20
10.1401119293
 30
0.0
 10
5.045334086
 20
10.1401484903
 30
0.0
 10
5.0450219413
 20
10.1402132163
 30
0.0
 10
5.044533946
 20
10.1402987403
 30
0.0
 10
5.0438322602
 20
10.1404063901
 30
0.0
 10
5.0429778803
 20
10.1405246961
 30
0.0
 10
5.0419731982
 20
10.14065332
 30
0.0
 10
5.0408209755
 20
10.1407917624
 30
0.0
 10
5.0395244173
 20
10.1409396051
 30
0.0
 10
5.0380871172
 20
10.1410964016
 30
0.0
 10
5.0365130548
 20
10.1412617023
 30
0.0
 10
5.0348065784
 20
10.1414350361
 30
0.0
 10
5.0329723919
 20
10.1416159204
 30
0.0
 10
5.0302865798
 20
10.1418738454
 30
0.0
 10
5.0266505379
 20
10.1422103197
 30
0.0
 10
5.0219810359
 20
10.1426253613
 30
0.0
 10
5.016941247
 20
10.1430576814
 30
0.0
 10
5.0115859211
 20
10.1435025596
 30
0.0
 10
5.0059731043
 20
10.1439551456
 30
0.0
 10
5.0001635438
 20
10.1444105249
 30
0.0
 10
4.994220065
 20
10.1448637596
 30
0.0
 10
4.9882069387
 20
10.1453099399
 30
0.0
 10
4.9841818442
 20
10.1456004261
 30
0.0
 10
4.9821685276
 20
10.1457436481
 30
0.0
  0
SPLINE
  5
47B
100
AcDbEntity
  8
0
100
AcDbSpline
 62
9
  6
CONTINUOUS
 70
0
 71
3
 72
11
 73
7
 74
0
 42
0.0000001
 43
0.0000001
 44
0.0000000001
 40
0.0
 40
0.0
 40
0.0
 40
0.0
 40
0.2499968989
 40
0.499994783
 40
0.7499968653
 40
1.0
 40
1.0
 40
1.0
 40
1.0
 10
15.0034834891
 20
2.0147184905
 30
0.0
 10
15.0010422881
 20
2.0159659036
 30
0.0
 10
14.9962618354
 20
2.0186657996
 30
0.0
 10
14.9894430141
 20
2.0232788534
 30
0.0
 10
14.9830047534
 20
2.0284091043
 30
0.0
 10
14.9789827208
 20
2.0321443906
 30
0.0
 10
14.9770442675
 20
2.0340830179
 30
0.0
  0
SPLINE
  5
47C
100
AcDbEntity
  8
0
100
AcDbSpline
 62
7
  6
CONTINUOUS
 70
0
 71
3
 72
36
 73
32
 74
0
 42
0.0000001
 43
0.0000001
 44
0.0000000001
 40
0.0
 40
0.0
 40
0.0
 40
0.0
 40
0.170175373
 40
0.2583898557
 40
0.3469268309
 40
0.4344500472
 40
0.5196342151
 40
0.6011860526
 40
0.6778637036
 40
0.7484968517
 40
0.8120069507
 40
0.8674243215
 40
0.8918299673
 40
0.913907652
 40
0.9335747325
 40
0.9507589644
 40
0.958400558
 40
0.9653993825
 40
0.9717498104
 40
0.9774472834
 40
0.9824879885
 40
0.9868700286
 40
0.9905932442
 40
0.9936606105
 40
0.996081441
 40
0.9970560991
 40
0.9978798668
 40
0.998562037
 40
0.9991191223
 40
0.9995813242
 40
1.0
 40
1.0
 40
1.0
 40
1.0
 10
5.1942347575
 20
10.1447429117
 30
0.0
 10
5.1896713433
 20
10.1451146413
 30
0.0
 10
5.1827392016
 20
10.1456406987
 30
0.0
 10
5.1734273141
 20
10.1462828662
 30
0.0
 10
5.1663316966
 20
10.1467392351
 30
0.0
 10
5.1593154236
 20
10.1471577675
 30
0.0
 10
5.1524848574
 20
10.1475320818
 30
0.0
 10
5.1459438773
 20
10.1478565178
 30
0.0
 10
5.1397922504
 20
10.1481261796
 30
0.0
 10
5.1341240336
 20
10.1483371027
 30
0.0
 10
5.129026071
 20
10.1484861883
 30
0.0
 10
5.1251703369
 20
10.1485604786
 30
0.0
 10
5.1224287978
 20
10.1485839734
 30
0.0
 10
5.1206490094
 20
10.1485843022
 30
0.0
 10
5.119063589
 20
10.148568213
 30
0.0
 10
5.1178667867
 20
10.1485403593
 30
0.0
 10
5.1170111269
 20
10.1485086299
 30
0.0
 10
5.1164470023
 20
10.1484817116
 30
0.0
 10
5.1159354716
 20
10.1484507889
 30
0.0
 10
5.1154770091
 20
10.1484159131
 30
0.0
 10
5.1150720192
 20
10.1483771494
 30
0.0
 10
5.1147208591
 20
10.1483345825
 30
0.0
 10
5.1144237375
 20
10.148288376
 30
0.0
 10
5.1141808747
 20
10.1482386003
 30
0.0
 10
5.1140130818
 20
10.1481917568
 30
0.0
 10
5.1139071523
 20
10.1481506745
 30
0.0
 10
5.1138471447
 20
10.1481212076
 30
0.0
 10
5.1138005027
 20
10.1480907637
 30
0.0
 10
5.1137670223
 20
10.1480590185
 30
0.0
 10
5.1137468871
 20
10.1480251416
 30
0.0
 10
5.1137435756
 20
10.1480008664
 30
0.0
 10
5.113744418
 20
10.1479896336
 30
0.0
  0
SPLINE
  5
47D
100
AcDbEntity
  8
0
100
AcDbSpline
 62
9
  6
CONTINUOUS
 70
0
 71
3
 72
18
 73
14
 74
0
 42
0.0000001
 43
0.0000001
 44
0.0000000001
 40
0.0
 40
0.0
 40
0.0
 40
0.0
 40
0.1422049773
 40
0.2119268873
 40
0.2805815112
 40
0.4141306227
 40
0.5424156194
 40
0.6045635719
 40
0.6653537353
 40
0.7827429082
 40
0.8392642946
 40
0.8942994792
 40
1.0
 40
1.0
 40
1.0
 40
1.0
 10
15.0214215197
 20
2.0498117177
 30
0.0
 10
15.0226235437
 20
2.0491111614
 30
0.0
 10
15.024437329
 20
2.0481048545
 30
0.0
 10
15.0268792542
 20
2.0468505712
 30
0.0
 10
15.0292686545
 20
2.0456804141
 30
0.0
 10
15.0322058144
 20
2.0443273794
 30
0.0
 10
15.0351163853
 20
2.0430715388
 30
0.0
 10
15.037387386
 20
2.0421314433
 30
0.0
 10
15.0395683185
 20
2.0412527402
 30
0.0
 10
15.0417091928
 20
2.040422283
 30
0.0
 10
15.0438037454
 20
2.0396285379
 30
0.0
 10
15.0457938354
 20
2.0388818592
 30
0.0
 10
15.0472683657
 20
2.0383352782
 30
0.0
 10
15.0482383782
 20
2.0379768112
 30
0.0
  0
SPLINE
  5
47E
100
AcDbEntity
  8
0
100
AcDbSpline
 62
9
  6
CONTINUOUS
 70
0
 71
3
 72
31
 73
27
 74
0
 42
0.0000001
 43
0.0000001
 44
0.0000000001
 40
0.0
 40
0.0
 40
0.0
 40
0.0
 40
0.0462476313
 40
0.0703969382
 40
0.0951564404
 40
0.1205490763
 40
0.1465967049
 40
0.2006620741
 40
0.2573322039
 40
0.3165265362
 40
0.3781110204
 40
0.4419044946
 40
0.5076883528
 40
0.5752116166
 40
0.6441977978
 40
0.7143491917
 40
0.7497662396
 40
0.7853557201
 40
0.8210750957
 40
0.8568810147
 40
0.8748023205
 40
0.892727405
 40
0.9106495619
 40
0.9285613084
 40
0.9643255244
 40
1.0
 40
1.0
 40
1.0
 40
1.0
 10
15.0482383782
 20
2.0379768112
 30
0.0
 10
15.0475937406
 20
2.0376918498
 30
0.0
 10
15.0466336143
 20
2.0372080298
 30
0.0
 10
15.0453896394
 20
2.0364618967
 30
0.0
 10
15.0444483975
 20
2.0358315143
 30
0.0
 10
15.0435142728
 20
2.0351409396
 30
0.0
 10
15.0422641246
 20
2.0341290757
 30
0.0
 10
15.0407277714
 20
2.0327165567
 30
0.0
 10
15.0389579495
 20
2.0308229829
 30
0.0
 10
15.037250575
 20
2.0287232362
 30
0.0
 10
15.0356167182
 20
2.0264313931
 30
0.0
 10
15.0340669728
 20
2.0239626431
 30
0.0
 10
15.0326112486
 20
2.0213335295
 30
0.0
 10
15.0312587858
 20
2.0185616237
 30
0.0
 10
15.0300176504
 20
2.0156657008
 30
0.0
 10
15.0290846511
 20
2.0131733991
 30
0.0
 10
15.0283982618
 20
2.0111344556
 30
0.0
 10
15.0279119926
 20
2.0095822172
 30
0.0
 10
15.0274555248
 20
2.0080148043
 30
0.0
 10
15.0270982157
 20
2.0066992394
 30
0.0
 10
15.0268225874
 20
2.0056426146
 30
0.0
 10
15.0266203381
 20
2.004848531
 30
0.0
 10
15.0264215311
 20
2.0040537298
 30
0.0
 10
15.0261619459
 20
2.002993901
 30
0.0
 10
15.0258585808
 20
2.0016662676
 30
0.0
 10
15.0256590377
 20
2.0005954012
 30
0.0
 10
15.0255756762
 20
2.0000581522
 30
0.0
  0
SPLINE
  5
47F
100
AcDbEntity
  8
0
100
AcDbSpline
 62
7
  6
CONTINUOUS
 70
0
 71
3
 72
58
 73
54
 74
0
 42
0.0000001
 43
0.0000001
 44
0.0000000001
 40
0.0
 40
0.0
 40
0.0
 40
0.0
 40
0.0006664244
 40
0.001451573
 40
0.0024357996
 40
0.003660602
 40
0.0051469291
 40
0.0069058822
 40
0.0089436883
 40
0.0112636729
 40
0.0167551197
 40
0.0233831039
 40
0.0311398761
 40
0.0400117055
 40
0.0499805955
 40
0.0610246248
 40
0.0731188561
 40
0.0862354224
 40
0.1154102543
 40
0.1482749277
 40
0.1845181729
 40
0.2237956341
 40
0.2657335871
 40
0.309932151
 40
0.355969092
 40
0.4034040094
 40
0.5006371037
 40
0.5978962786
 40
0.6914268028
 40
0.7356523532
 40
0.7776051164
 40
0.8168770541
 40
0.8530869875
 40
0.8858844917
 40
0.9149542449
 40
0.9280034151
 40
0.9400205085
 40
0.9509777266
 40
0.9608507029
 40
0.9696181725
 40
0.9772629294
 40
0.9837725167
 40
0.9865995032
 40
0.9891411369
 40
0.9913983541
 40
0.9933731447
 40
0.9950695234
 40
0.995815577
 40
0.9964951535
 40
0.9976621284
 40
0.9985954944
 40
0.9993441486
 40
1.0
 40
1.0
 40
1.0
 40
1.0
 10
5.5221415281
 20
10.1410854759
 30
0.0
 10
5.5221434678
 20
10.141111339
 30
0.0
 10
5.5221332654
 20
10.1411691327
 30
0.0
 10
5.5220809096
 20
10.1412499446
 30
0.0
 10
5.5219955324
 20
10.141330195
 30
0.0
 10
5.5218765072
 20
10.1414115797
 30
0.0
 10
5.5217234304
 20
10.1414946508
 30
0.0
 10
5.5215359951
 20
10.1415794733
 30
0.0
 10
5.5213141442
 20
10.1416660148
 30
0.0
 10
5.5209515959
 20
10.1417907017
 30
0.0
 10
5.5204115616
 20
10.1419471686
 30
0.0
 10
5.5196603592
 20
10.1421321909
 30
0.0
 10
5.5187754269
 20
10.142322677
 30
0.0
 10
5.517758863
 20
10.1425180923
 30
0.0
 10
5.5166130437
 20
10.1427178158
 30
0.0
 10
5.5153407235
 20
10.1429213082
 30
0.0
 10
5.5139449657
 20
10.1431280354
 30
0.0
 10
5.5118482787
 20
10.1434176534
 30
0.0
 10
5.5089458567
 20
10.1437806037
 30
0.0
 10
5.5051446973
 20
10.1442071745
 30
0.0
 10
5.5009482048
 20
10.1446343956
 30
0.0
 10
5.4963966005
 20
10.145058052
 30
0.0
 10
5.4915334768
 20
10.1454739427
 30
0.0
 10
5.4864054381
 20
10.1458779924
 30
0.0
 10
5.4810616658
 20
10.1462662667
 30
0.0
 10
5.473656388
 20
10.1467619015
 30
0.0
 10
5.4642571291
 20
10.1473140746
 30
0.0
 10
5.4530608347
 20
10.1478558488
 30
0.0
 10
5.4439208138
 20
10.1481999761
 30
0.0
 10
5.4369297122
 20
10.1483982168
 30
0.0
 10
5.4320485646
 20
10.1485037295
 30
0.0
 10
5.4274786722
 20
10.1485679734
 30
0.0
 10
5.4232646732
 20
10.1485904327
 30
0.0
 10
5.4194477013
 20
10.148571008
 30
0.0
 10
5.4165324646
 20
10.1485187742
 30
0.0
 10
5.4144265953
 20
10.1484534659
 30
0.0
 10
5.4130257905
 20
10.148396042
 30
0.0
 10
5.4117491908
 20
10.1483286081
 30
0.0
 10
5.4105998612
 20
10.1482513741
 30
0.0
 10
5.4095805105
 20
10.148164629
 30
0.0
 10
5.4086935381
 20
10.1480686518
 30
0.0
 10
5.4080387761
 20
10.1479776844
 30
0.0
 10
5.4075832886
 20
10.1478985068
 30
0.0
 10
5.4072923318
 20
10.1478397829
 30
0.0
 10
5.4070357582
 20
10.1477789766
 30
0.0
 10
5.4068136795
 20
10.1477161277
 30
0.0
 10
5.4066510436
 20
10.1476599761
 30
0.0
 10
5.4065388137
 20
10.1476133016
 30
0.0
 10
5.4064476215
 20
10.1475700832
 30
0.0
 10
5.406353599
 20
10.1475158458
 30
0.0
 10
5.4062677817
 20
10.1474444517
 30
0.0
 10
5.4062150203
 20
10.1473680682
 30
0.0
 10
5.4062055125
 20
10.1473119159
 30
0.0
 10
5.4062074214
 20
10.1472864631
 30
0.0
  0
SPLINE
  5
480
100
AcDbEntity
  8
0
100
AcDbSpline
 62
7
  6
CONTINUOUS
 70
0
 71
3
 72
55
 73
51
 74
0
 42
0.0000001
 43
0.0000001
 44
0.0000000001
 40
0.0
 40
0.0
 40
0.0
 40
0.0
 40
0.0008070942
 40
0.00170893
 40
0.0027831374
 40
0.0040764206
 40
0.0056151799
 40
0.0074145562
 40
0.0094835723
 40
0.0118274973
 40
0.0173500355
 40
0.0239927304
 40
0.0317521812
 40
0.0406174885
 40
0.0505726747
 40
0.0615973259
 40
0.073667711
 40
0.0867569648
 40
0.115869745
 40
0.1486667444
 40
0.1848405277
 40
0.2240494929
 40
0.2659214741
 40
0.3100574988
 40
0.4034138042
 40
0.500538888
 40
0.5976865665
 40
0.6910939936
 40
0.7352532575
 40
0.7771378152
 40
0.8163416043
 40
0.8524860478
 40
0.885224417
 40
0.9142458887
 40
0.9272767024
 40
0.9392803153
 40
0.9502299315
 40
0.9601023467
 40
0.9688777643
 40
0.9765409407
 40
0.9830822167
 40
0.9884996331
 40
0.9907903962
 40
0.9928063713
 40
0.9945535804
 40
0.9960421372
 40
0.9972890413
 40
0.9983240618
 40
0.9991995414
 40
1.0
 40
1.0
 40
1.0
 40
1.0
 10
5.9032856415
 20
10.1419872897
 30
0.0
 10
5.9032879946
 20
10.1420186645
 30
0.0
 10
5.9032795935
 20
10.1420865832
 30
0.0
 10
5.9032295586
 20
10.1421845487
 30
0.0
 10
5.9031453136
 20
10.1422812966
 30
0.0
 10
5.903027261
 20
10.1423782264
 30
0.0
 10
5.9028751648
 20
10.1424760304
 30
0.0
 10
5.9026887951
 20
10.142574888
 30
0.0
 10
5.9024680684
 20
10.1426748203
 30
0.0
 10
5.9021077927
 20
10.1428173109
 30
0.0
 10
5.9015700381
 20
10.1429940144
 30
0.0
 10
5.9008209246
 20
10.1431999249
 30
0.0
 10
5.8999381025
 20
10.1434087963
 30
0.0
 10
5.8989236055
 20
10.1436200452
 30
0.0
 10
5.8977797344
 20
10.1438330001
 30
0.0
 10
5.8965091959
 20
10.1440470826
 30
0.0
 10
5.8951150089
 20
10.1442617278
 30
0.0
 10
5.8930201891
 20
10.1445585487
 30
0.0
 10
5.8901191211
 20
10.1449229944
 30
0.0
 10
5.8863182881
 20
10.1453405885
 30
0.0
 10
5.8821207512
 20
10.1457480932
 30
0.0
 10
5.8775666901
 20
10.1461414362
 30
0.0
 10
5.8726997348
 20
10.1465166786
 30
0.0
 10
5.8657240135
 20
10.1469968432
 30
0.0
 10
5.8565926326
 20
10.1475213088
 30
0.0
 10
5.8453906568
 20
10.1480172263
 30
0.0
 10
5.8341812929
 20
10.1483708698
 30
0.0
 10
5.8250326267
 20
10.1485390593
 30
0.0
 10
5.81803718
 20
10.1485879008
 30
0.0
 10
5.8131545893
 20
10.1485816225
 30
0.0
 10
5.8085846819
 20
10.1485333672
 30
0.0
 10
5.8043719929
 20
10.1484437609
 30
0.0
 10
5.8005574871
 20
10.1483138418
 30
0.0
 10
5.7976453463
 20
10.1481687806
 30
0.0
 10
5.7955426021
 20
10.148030219
 30
0.0
 10
5.7941440592
 20
10.1479209091
 30
0.0
 10
5.7928698276
 20
10.1478027827
 30
0.0
 10
5.7917229209
 20
10.1476761903
 30
0.0
 10
5.7907060226
 20
10.1475415177
 30
0.0
 10
5.789821394
 20
10.1473992719
 30
0.0
 10
5.7890710162
 20
10.147249902
 30
0.0
 10
5.7885320146
 20
10.1471136826
 30
0.0
 10
5.788170826
 20
10.1469981999
 30
0.0
 10
5.7879498737
 20
10.1469149051
 30
0.0
 10
5.787763326
 20
10.1468300901
 30
0.0
 10
5.7876110549
 20
10.1467437203
 30
0.0
 10
5.7874927873
 20
10.1466555644
 30
0.0
 10
5.7874082301
 20
10.1465648155
 30
0.0
 10
5.7873581085
 20
10.1464698444
 30
0.0
 10
5.7873501488
 20
10.1464031297
 30
0.0
 10
5.7873524826
 20
10.1463720128
 30
0.0
  0
SPLINE
  5
481
100
AcDbEntity
  8
0
100
AcDbSpline
 62
7
  6
CONTINUOUS
 70
0
 71
3
 72
55
 73
51
 74
0
 42
0.0000001
 43
0.0000001
 44
0.0000000001
 40
0.0
 40
0.0
 40
0.0
 40
0.0
 40
0.0008951206
 40
0.001870148
 40
0.0030006297
 40
0.0043357676
 40
0.0059051964
 40
0.0077266938
 40
0.0098112178
 40
0.0121654439
 40
0.0176966211
 40
0.0243365573
 40
0.032085175
 40
0.0409338201
 40
0.0508681003
 40
0.0618687737
 40
0.0739130896
 40
0.0869748731
 40
0.1160308749
 40
0.1487715688
 40
0.1848918472
 40
0.2240514058
 40
0.2658784101
 40
0.3099734582
 40
0.4032552779
 40
0.5003064276
 40
0.5973706379
 40
0.6906819691
 40
0.7347903966
 40
0.7766245922
 40
0.8157810586
 40
0.8518842687
 40
0.8845909558
 40
0.9135940892
 40
0.9266220828
 40
0.9386278434
 40
0.9495852424
 40
0.9594718431
 40
0.9682688029
 40
0.9759621498
 40
0.9825440164
 40
0.988015218
 40
0.9903392508
 40
0.9923937747
 40
0.9941859614
 40
0.9957274565
 40
0.9970371674
 40
0.9981466549
 40
0.9991080321
 40
1.0
 40
1.0
 40
1.0
 40
1.0
 10
6.3471375655
 20
10.1430401832
 30
0.0
 10
6.3471401783
 20
10.14307502
 30
0.0
 10
6.347132746
 20
10.1431492702
 30
0.0
 10
6.3470841345
 20
10.1432574506
 30
0.0
 10
6.3470007557
 20
10.1433638927
 30
0.0
 10
6.3468833786
 20
10.1434696841
 30
0.0
 10
6.3467319301
 20
10.1435755525
 30
0.0
 10
6.346546235
 20
10.1436817351
 30
0.0
 10
6.346326208
 20
10.1437882905
 30
0.0
 10
6.3459673211
 20
10.1439389996
 30
0.0
 10
6.3454309047
 20
10.1441240137
 30
0.0
 10
6.3446829623
 20
10.1443368804
 30
0.0
 10
6.3438012592
 20
10.1445500138
 30
0.0
 10
6.3427877734
 20
10.1447628161
 30
0.0
 10
6.3416447472
 20
10.144974606
 30
0.0
 10
6.3403748491
 20
10.145184803
 30
0.0
 10
6.3389810666
 20
10.1453928443
 30
0.0
 10
6.3368863376
 20
10.1456767951
 30
0.0
 10
6.3339845334
 20
10.1460180345
 30
0.0
 10
6.3301818596
 20
10.1463982711
 30
0.0
 10
6.3259813181
 20
10.1467582902
 30
0.0
 10
6.3214231658
 20
10.1470944352
 30
0.0
 10
6.3165511874
 20
10.1474032768
 30
0.0
 10
6.3095673837
 20
10.1477815252
 30
0.0
 10
6.3004255659
 20
10.1481603003
 30
0.0
 10
6.28921268
 20
10.1484600821
 30
0.0
 10
6.2779955164
 20
10.1486006691
 30
0.0
 10
6.2688436911
 20
10.1485808606
 30
0.0
 10
6.2618484725
 20
10.1484766708
 30
0.0
 10
6.2569674526
 20
10.148358912
 30
0.0
 10
6.2524001422
 20
10.1482014254
 30
0.0
 10
6.2481908508
 20
10.14800593
 30
0.0
 10
6.2443802894
 20
10.1477745198
 30
0.0
 10
6.2414721042
 20
10.1475467198
 30
0.0
 10
6.2393728148
 20
10.1473445598
 30
0.0
 10
6.2379765262
 20
10.1471909572
 30
0.0
 10
6.2367045031
 20
10.1470303403
 30
0.0
 10
6.2355597289
 20
10.1468631629
 30
0.0
 10
6.2345448578
 20
10.14668991
 30
0.0
 10
6.2336621074
 20
10.1465111774
 30
0.0
 10
6.2329134246
 20
10.1463274996
 30
0.0
 10
6.2323762866
 20
10.146163346
 30
0.0
 10
6.2320168859
 20
10.1460265257
 30
0.0
 10
6.2317967215
 20
10.1459285407
 30
0.0
 10
6.2316109135
 20
10.1458295848
 30
0.0
 10
6.2314593543
 20
10.145729587
 30
0.0
 10
6.2313418511
 20
10.145628277
 30
0.0
 10
6.2312583283
 20
10.1455248655
 30
0.0
 10
6.2312097186
 20
10.145418208
 30
0.0
 10
6.2312024968
 20
10.145344583
 30
0.0
 10
6.2312051004
 20
10.1453098688
 30
0.0
  0
SPLINE
  5
482
100
AcDbEntity
  8
0
100
AcDbSpline
 62
7
  6
CONTINUOUS
 70
0
 71
3
 72
55
 73
51
 74
0
 42
0.0000001
 43
0.0000001
 44
0.0000000001
 40
0.0
 40
0.0
 40
0.0
 40
0.0
 40
0.0009241463
 40
0.0019198595
 40
0.0030628751
 40
0.0044040234
 40
0.0059746152
 40
0.0077937073
 40
0.0098731754
 40
0.0122203758
 40
0.0177332541
 40
0.0243513904
 40
0.0320762315
 40
0.0409002468
 40
0.0508097665
 40
0.0617861289
 40
0.0738070657
 40
0.0868466604
 40
0.1158629355
 40
0.1485709313
 40
0.1846657046
 40
0.2238063354
 40
0.2656197698
 40
0.3097049525
 40
0.4029707398
 40
0.4999999985
 40
0.597029257
 40
0.6902950459
 40
0.7343802299
 40
0.7761936642
 40
0.8153342949
 40
0.8514290681
 40
0.8841370639
 40
0.9131533392
 40
0.926192934
 40
0.9382138709
 40
0.9491902334
 40
0.9590997532
 40
0.9679237686
 40
0.9756486096
 40
0.9822667459
 40
0.9877796242
 40
0.9901268246
 40
0.9922062927
 40
0.9940253848
 40
0.9955959766
 40
0.9969371249
 40
0.9980801405
 40
0.9990758537
 40
1.0
 40
1.0
 40
1.0
 40
1.0
 10
6.8234495947
 20
10.1441733331
 30
0.0
 10
6.8234522933
 20
10.1442093143
 30
0.0
 10
6.8234452349
 20
10.1442855279
 30
0.0
 10
6.8233971053
 20
10.1443966484
 30
0.0
 10
6.8233140006
 20
10.1445053669
 30
0.0
 10
6.8231968253
 20
10.1446126707
 30
0.0
 10
6.8230455665
 20
10.1447193073
 30
0.0
 10
6.8228600646
 20
10.1448255419
 30
0.0
 10
6.8226402292
 20
10.1449314501
 30
0.0
 10
6.822281644
 20
10.1450802461
 30
0.0
 10
6.8217454318
 20
10.1452610131
 30
0.0
 10
6.8209976191
 20
10.1454663302
 30
0.0
 10
6.8201159177
 20
10.1456692192
 30
0.0
 10
6.8191022744
 20
10.1458690969
 30
0.0
 10
6.8179589015
 20
10.1460653096
 30
0.0
 10
6.816688448
 20
10.1462573077
 30
0.0
 10
6.8152938887
 20
10.1464445655
 30
0.0
 10
6.8131975221
 20
10.1466962859
 30
0.0
 10
6.8102931163
 20
10.1469909803
 30
0.0
 10
6.8064868901
 20
10.1473077711
 30
0.0
 10
6.8022820611
 20
10.1475955221
 30
0.0
 10
6.79771908
 20
10.1478512471
 30
0.0
 10
6.79284198
 20
10.1480722705
 30
0.0
 10
6.7858510838
 20
10.1483222521
 30
0.0
 10
6.7767018468
 20
10.1485287999
 30
0.0
 10
6.7654834893
 20
10.1486113003
 30
0.0
 10
6.7542651317
 20
10.1485287999
 30
0.0
 10
6.7451158947
 20
10.1483222521
 30
0.0
 10
6.7381249983
 20
10.1480722705
 30
0.0
 10
6.7332478983
 20
10.1478512471
 30
0.0
 10
6.7286849173
 20
10.1475955221
 30
0.0
 10
6.7244800883
 20
10.1473077711
 30
0.0
 10
6.720673862
 20
10.1469909803
 30
0.0
 10
6.7177694562
 20
10.1466962859
 30
0.0
 10
6.7156730896
 20
10.1464445655
 30
0.0
 10
6.7142785303
 20
10.1462573077
 30
0.0
 10
6.7130080768
 20
10.1460653096
 30
0.0
 10
6.7118647039
 20
10.1458690969
 30
0.0
 10
6.7108510605
 20
10.1456692192
 30
0.0
 10
6.7099693592
 20
10.1454663302
 30
0.0
 10
6.7092215464
 20
10.1452610131
 30
0.0
 10
6.7086853342
 20
10.1450802461
 30
0.0
 10
6.7083267491
 20
10.1449314501
 30
0.0
 10
6.7081069137
 20
10.1448255419
 30
0.0
 10
6.7079214118
 20
10.1447193073
 30
0.0
 10
6.7077701529
 20
10.1446126707
 30
0.0
 10
6.7076529777
 20
10.1445053669
 30
0.0
 10
6.707569873
 20
10.1443966484
 30
0.0
 10
6.7075217433
 20
10.1442855279
 30
0.0
 10
6.707514685
 20
10.1442093143
 30
0.0
 10
6.7075173835
 20
10.1441733331
 30
0.0
  0
SPLINE
  5
483
100
AcDbEntity
  8
0
100
AcDbSpline
 62
7
  6
CONTINUOUS
 70
0
 71
3
 72
55
 73
51
 74
0
 42
0.0000001
 43
0.0000001
 44
0.0000000001
 40
0.0
 40
0.0
 40
0.0
 40
0.0
 40
0.0008919679
 40
0.0018533451
 40
0.0029628326
 40
0.0042725435
 40
0.0058140386
 40
0.0076062252
 40
0.0096607492
 40
0.011984782
 40
0.0174559836
 40
0.0240378502
 40
0.0317311971
 40
0.0405281569
 40
0.0504147574
 40
0.0613721564
 40
0.0733779169
 40
0.0864059105
 40
0.1154090435
 40
0.1481157308
 40
0.1842189405
 40
0.2233754075
 40
0.2652096028
 40
0.3093180303
 40
0.4026293614
 40
0.4996935723
 40
0.5967447222
 40
0.690026544
 40
0.7341215938
 40
0.7759485975
 40
0.815108156
 40
0.8512284337
 40
0.8839691272
 40
0.9130251284
 40
0.9260869116
 40
0.9381312272
 40
0.9491319004
 40
0.9590661804
 40
0.9679148254
 40
0.9756634431
 40
0.9823033791
 40
0.9878345563
 40
0.9901887823
 40
0.9922733063
 40
0.9940948037
 40
0.9956642324
 40
0.9969993703
 40
0.9981298521
 40
0.9991048794
 40
1.0
 40
1.0
 40
1.0
 40
1.0
 10
7.2997618779
 20
10.1453098688
 30
0.0
 10
7.2997644815
 20
10.145344583
 30
0.0
 10
7.2997572597
 20
10.145418208
 30
0.0
 10
7.29970865
 20
10.1455248655
 30
0.0
 10
7.2996251271
 20
10.145628277
 30
0.0
 10
7.299507624
 20
10.145729587
 30
0.0
 10
7.2993560647
 20
10.1458295848
 30
0.0
 10
7.2991702568
 20
10.1459285407
 30
0.0
 10
7.2989500923
 20
10.1460265257
 30
0.0
 10
7.2985906916
 20
10.146163346
 30
0.0
 10
7.2980535537
 20
10.1463274996
 30
0.0
 10
7.2973048708
 20
10.1465111774
 30
0.0
 10
7.2964221205
 20
10.14668991
 30
0.0
 10
7.2954072494
 20
10.1468631629
 30
0.0
 10
7.2942624752
 20
10.1470303403
 30
0.0
 10
7.2929904521
 20
10.1471909572
 30
0.0
 10
7.2915941635
 20
10.1473445598
 30
0.0
 10
7.2894948741
 20
10.1475467198
 30
0.0
 10
7.286586689
 20
10.1477745198
 30
0.0
 10
7.2827761276
 20
10.14800593
 30
0.0
 10
7.2785668361
 20
10.1482014254
 30
0.0
 10
7.2739995258
 20
10.148358912
 30
0.0
 10
7.2691185058
 20
10.1484766708
 30
0.0
 10
7.2621232873
 20
10.1485808606
 30
0.0
 10
7.2529714619
 20
10.1486006691
 30
0.0
 10
7.2417542983
 20
10.1484600821
 30
0.0
 10
7.2305414123
 20
10.1481603003
 30
0.0
 10
7.2213995943
 20
10.1477815252
 30
0.0
 10
7.2144157905
 20
10.1474032768
 30
0.0
 10
7.2095438121
 20
10.1470944352
 30
0.0
 10
7.2049856598
 20
10.1467582902
 30
0.0
 10
7.2007851184
 20
10.1463982711
 30
0.0
 10
7.1969824446
 20
10.1460180345
 30
0.0
 10
7.1940806405
 20
10.145676795
 30
0.0
 10
7.1919859115
 20
10.1453928443
 30
0.0
 10
7.190592129
 20
10.1451848029
 30
0.0
 10
7.189322231
 20
10.144974606
 30
0.0
 10
7.1881792048
 20
10.1447628161
 30
0.0
 10
7.1871657191
 20
10.1445500138
 30
0.0
 10
7.1862840159
 20
10.1443368804
 30
0.0
 10
7.1855360735
 20
10.1441240137
 30
0.0
 10
7.1849996571
 20
10.1439389996
 30
0.0
 10
7.1846407702
 20
10.1437882905
 30
0.0
 10
7.1844207433
 20
10.1436817351
 30
0.0
 10
7.1842350481
 20
10.1435755524
 30
0.0
 10
7.1840835997
 20
10.1434696841
 30
0.0
 10
7.1839662226
 20
10.1433638927
 30
0.0
 10
7.1838828438
 20
10.1432574506
 30
0.0
 10
7.1838342323
 20
10.1431492702
 30
0.0
 10
7.1838268
 20
10.14307502
 30
0.0
 10
7.1838294128
 20
10.1430401832
 30
0.0
  0
SPLINE
  5
484
100
AcDbEntity
  8
0
100
AcDbSpline
 62
7
  6
CONTINUOUS
 70
0
 71
3
 72
55
 73
51
 74
0
 42
0.0000001
 43
0.0000001
 44
0.0000000001
 40
0.0
 40
0.0
 40
0.0
 40
0.0
 40
0.0008004586
 40
0.0016759382
 40
0.0027109587
 40
0.0039578628
 40
0.0054464196
 40
0.0071936287
 40
0.0092096038
 40
0.011500367
 40
0.0169177834
 40
0.0234590595
 40
0.031122236
 40
0.0398976535
 40
0.0497700686
 40
0.0607196847
 40
0.0727232976
 40
0.0857541112
 40
0.1147755824
 40
0.1475139519
 40
0.1836583951
 40
0.2228621849
 40
0.2647467424
 40
0.3089060063
 40
0.4023134331
 40
0.4994611122
 40
0.5965861964
 40
0.6899425025
 40
0.7340785276
 40
0.7759505087
 40
0.8151594737
 40
0.851333257
 40
0.884130256
 40
0.913243036
 40
0.9263322898
 40
0.9384026747
 40
0.9494273258
 40
0.959382512
 40
0.9682478191
 40
0.9760072699
 40
0.9826499647
 40
0.9881725029
 40
0.9905164278
 40
0.9925854438
 40
0.9943848201
 40
0.9959235795
 40
0.9972168626
 40
0.99829107
 40
0.9991929058
 40
1.0
 40
1.0
 40
1.0
 40
1.0
 10
7.7436144957
 20
10.1463720128
 30
0.0
 10
7.7436168295
 20
10.1464031297
 30
0.0
 10
7.7436088697
 20
10.1464698444
 30
0.0
 10
7.7435587482
 20
10.1465648155
 30
0.0
 10
7.743474191
 20
10.1466555644
 30
0.0
 10
7.7433559233
 20
10.1467437203
 30
0.0
 10
7.7432036523
 20
10.1468300901
 30
0.0
 10
7.7430171045
 20
10.1469149051
 30
0.0
 10
7.7427961522
 20
10.1469981999
 30
0.0
 10
7.7424349636
 20
10.1471136826
 30
0.0
 10
7.7418959621
 20
10.147249902
 30
0.0
 10
7.7411455842
 20
10.1473992719
 30
0.0
 10
7.7402609557
 20
10.1475415177
 30
0.0
 10
7.7392440573
 20
10.1476761903
 30
0.0
 10
7.7380971506
 20
10.1478027827
 30
0.0
 10
7.7368229191
 20
10.1479209091
 30
0.0
 10
7.7354243762
 20
10.148030219
 30
0.0
 10
7.733321632
 20
10.1481687806
 30
0.0
 10
7.7304094912
 20
10.1483138418
 30
0.0
 10
7.7265949854
 20
10.1484437609
 30
0.0
 10
7.7223822964
 20
10.1485333672
 30
0.0
 10
7.717812389
 20
10.1485816225
 30
0.0
 10
7.7129297983
 20
10.1485879008
 30
0.0
 10
7.7059343516
 20
10.1485390593
 30
0.0
 10
7.6967856854
 20
10.1483708698
 30
0.0
 10
7.6855763215
 20
10.1480172263
 30
0.0
 10
7.6743743456
 20
10.1475213088
 30
0.0
 10
7.6652429646
 20
10.1469968432
 30
0.0
 10
7.6582672433
 20
10.1465166786
 30
0.0
 10
7.653400288
 20
10.1461414362
 30
0.0
 10
7.6488462269
 20
10.1457480931
 30
0.0
 10
7.64464869
 20
10.1453405885
 30
0.0
 10
7.6408478571
 20
10.1449229944
 30
0.0
 10
7.6379467891
 20
10.1445585487
 30
0.0
 10
7.6358519692
 20
10.1442617277
 30
0.0
 10
7.6344577823
 20
10.1440470825
 30
0.0
 10
7.6331872439
 20
10.1438330001
 30
0.0
 10
7.6320433727
 20
10.1436200452
 30
0.0
 10
7.6310288757
 20
10.1434087963
 30
0.0
 10
7.6301460536
 20
10.1431999248
 30
0.0
 10
7.6293969401
 20
10.1429940144
 30
0.0
 10
7.6288591856
 20
10.1428173109
 30
0.0
 10
7.6284989099
 20
10.1426748203
 30
0.0
 10
7.6282781831
 20
10.142574888
 30
0.0
 10
7.6280918135
 20
10.1424760304
 30
0.0
 10
7.6279397172
 20
10.1423782264
 30
0.0
 10
7.6278216647
 20
10.1422812966
 30
0.0
 10
7.6277374197
 20
10.1421845487
 30
0.0
 10
7.6276873848
 20
10.1420865832
 30
0.0
 10
7.6276789837
 20
10.1420186645
 30
0.0
 10
7.6276813368
 20
10.1419872897
 30
0.0
  0
SPLINE
  5
485
100
AcDbEntity
  8
0
100
AcDbSpline
 62
7
  6
CONTINUOUS
 70
0
 71
3
 72
58
 73
54
 74
0
 42
0.0000001
 43
0.0000001
 44
0.0000000001
 40
0.0
 40
0.0
 40
0.0
 40
0.0
 40
0.0006558517
 40
0.0014045069
 40
0.0023378739
 40
0.003504849
 40
0.0041844257
 40
0.0049304794
 40
0.0066268573
 40
0.0086016449
 40
0.0108588576
 40
0.013400488
 40
0.0162274748
 40
0.0227370718
 40
0.0303818374
 40
0.0391493106
 40
0.0490222843
 40
0.0599794921
 40
0.0719965673
 40
0.0850457417
 40
0.1141155315
 40
0.1469130171
 40
0.1831229214
 40
0.2223949082
 40
0.2643476583
 40
0.3085731612
 40
0.4021037411
 40
0.4993628782
 40
0.59659596
 40
0.64403087
 40
0.6900678705
 40
0.7342664276
 40
0.7762043961
 40
0.8154819437
 40
0.851725175
 40
0.8845898076
 40
0.9137646371
 40
0.9268812077
 40
0.9389754181
 40
0.9500194293
 40
0.9599883107
 40
0.9688601373
 40
0.9766169121
 40
0.9832448988
 40
0.9887363409
 40
0.9910563198
 40
0.9930941219
 40
0.9948530725
 40
0.996339398
 40
0.9975641996
 40
0.9985484264
 40
0.9993335755
 40
1.0
 40
1.0
 40
1.0
 40
1.0
 10
8.1247595569
 20
10.1472864631
 30
0.0
 10
8.1247614658
 20
10.1473119159
 30
0.0
 10
8.1247519579
 20
10.1473680683
 30
0.0
 10
8.1246991963
 20
10.1474444517
 30
0.0
 10
8.124613379
 20
10.1475158459
 30
0.0
 10
8.1245193565
 20
10.1475700834
 30
0.0
 10
8.1244281642
 20
10.1476133018
 30
0.0
 10
8.1243159343
 20
10.1476599763
 30
0.0
 10
8.1241532986
 20
10.1477161278
 30
0.0
 10
8.1239312202
 20
10.1477789766
 30
0.0
 10
8.123674647
 20
10.1478397828
 30
0.0
 10
8.1233836905
 20
10.1478985067
 30
0.0
 10
8.1229282027
 20
10.1479776843
 30
0.0
 10
8.12227344
 20
10.1480686518
 30
0.0
 10
8.1213864668
 20
10.1481646291
 30
0.0
 10
8.1203671156
 20
10.1482513742
 30
0.0
 10
8.1192177865
 20
10.1483286082
 30
0.0
 10
8.1179411879
 20
10.148396042
 30
0.0
 10
8.1165403841
 20
10.1484534659
 30
0.0
 10
8.1144345139
 20
10.1485187742
 30
0.0
 10
8.1115192764
 20
10.1485710081
 30
0.0
 10
8.1077023049
 20
10.1485904327
 30
0.0
 10
8.1034883058
 20
10.1485679734
 30
0.0
 10
8.0989184131
 20
10.1485037295
 30
0.0
 10
8.094037266
 20
10.1483982168
 30
0.0
 10
8.0870461646
 20
10.1481999761
 30
0.0
 10
8.0779061449
 20
10.1478558489
 30
0.0
 10
8.0667098503
 20
10.1473140746
 30
0.0
 10
8.0573105936
 20
10.1467619017
 30
0.0
 10
8.0499053142
 20
10.1462662669
 30
0.0
 10
8.0445615402
 20
10.1458779924
 30
0.0
 10
8.0394334988
 20
10.1454739425
 30
0.0
 10
8.0345703715
 20
10.1450580515
 30
0.0
 10
8.0300187638
 20
10.1446343946
 30
0.0
 10
8.0258222701
 20
10.1442071733
 30
0.0
 10
8.0220211129
 20
10.1437806027
 30
0.0
 10
8.0191186925
 20
10.1434176524
 30
0.0
 10
8.0170220062
 20
10.1431280345
 30
0.0
 10
8.0156262497
 20
10.1429213075
 30
0.0
 10
8.0143539313
 20
10.1427178153
 30
0.0
 10
8.0132081132
 20
10.1425180919
 30
0.0
 10
8.0121915497
 20
10.1423226766
 30
0.0
 10
8.0113066173
 20
10.1421321905
 30
0.0
 10
8.0105554148
 20
10.1419471681
 30
0.0
 10
8.0100153808
 20
10.1417907013
 30
0.0
 10
8.0096528331
 20
10.1416660144
 30
0.0
 10
8.0094309827
 20
10.1415794731
 30
0.0
 10
8.0092435477
 20
10.1414946507
 30
0.0
 10
8.0090904711
 20
10.1414115797
 30
0.0
 10
8.0089714459
 20
10.141330195
 30
0.0
 10
8.0088860688
 20
10.1412499447
 30
0.0
 10
8.0088337129
 20
10.1411691328
 30
0.0
 10
8.0088235105
 20
10.141111339
 30
0.0
 10
8.0088254502
 20
10.1410854759
 30
0.0
  0
SPLINE
  5
486
100
AcDbEntity
  8
0
100
AcDbSpline
 62
7
  6
CONTINUOUS
 70
0
 71
3
 72
36
 73
32
 74
0
 42
0.0000001
 43
0.0000001
 44
0.0000000001
 40
0.0
 40
0.0
 40
0.0
 40
0.0
 40
0.000418676
 40
0.0008808786
 40
0.0014379647
 40
0.0021201353
 40
0.0029439029
 40
0.00391856
 40
0.0063393879
 40
0.0094067487
 40
0.0131299536
 40
0.0175119814
 40
0.0225526801
 40
0.0282501531
 40
0.0346005823
 40
0.0415994067
 40
0.0492409977
 40
0.0664252124
 40
0.086092256
 40
0.1081698901
 40
0.1325755428
 40
0.1879928906
 40
0.25150288
 40
0.3221360592
 40
0.398813624
 40
0.4803653996
 40
0.5655496464
 40
0.6530727771
 40
0.7416098145
 40
0.8298243078
 40
1.0
 40
1.0
 40
1.0
 40
1.0
 10
8.4172225602
 20
10.1479896336
 30
0.0
 10
8.4172234027
 20
10.1480008664
 30
0.0
 10
8.4172200911
 20
10.1480251416
 30
0.0
 10
8.417199956
 20
10.1480590184
 30
0.0
 10
8.4171664755
 20
10.1480907636
 30
0.0
 10
8.4171198335
 20
10.1481212075
 30
0.0
 10
8.4170598261
 20
10.1481506744
 30
0.0
 10
8.4169538969
 20
10.1481917567
 30
0.0
 10
8.4167861046
 20
10.1482386001
 30
0.0
 10
8.4165432426
 20
10.1482883756
 30
0.0
 10
8.4162461223
 20
10.1483345821
 30
0.0
 10
8.4158949636
 20
10.1483771489
 30
0.0
 10
8.4154899749
 20
10.1484159126
 30
0.0
 10
8.4150315133
 20
10.1484507884
 30
0.0
 10
8.4145199833
 20
10.1484817112
 30
0.0
 10
8.4139558597
 20
10.1485086295
 30
0.0
 10
8.4131002019
 20
10.148540359
 30
0.0
 10
8.411903403
 20
10.1485682127
 30
0.0
 10
8.4103179881
 20
10.1485843021
 30
0.0
 10
8.4085382047
 20
10.1485839735
 30
0.0
 10
8.4057966719
 20
10.148560479
 30
0.0
 10
8.4019409475
 20
10.1484861893
 30
0.0
 10
8.3968429959
 20
10.1483371045
 30
0.0
 10
8.3911747928
 20
10.1481261823
 30
0.0
 10
8.3850231791
 20
10.1478565214
 30
0.0
 10
8.3784822115
 20
10.1475320865
 30
0.0
 10
8.3716516582
 20
10.1471577735
 30
0.0
 10
8.3646353952
 20
10.1467392421
 30
0.0
 10
8.3575397896
 20
10.1462828745
 30
0.0
 10
8.3482279067
 20
10.1456407082
 30
0.0
 10
8.3412957674
 20
10.1451146516
 30
0.0
 10
8.336732352
 20
10.1447429224
 30
0.0
  0
SPLINE
  5
487
100
AcDbEntity
  8
0
100
AcDbSpline
 62
7
  6
CONTINUOUS
 70
0
 71
3
 72
36
 73
32
 74
0
 42
0.0000001
 43
0.0000001
 44
0.0000000001
 40
0.0
 40
0.0
 40
0.0
 40
0.0
 40
0.0946636893
 40
0.1892687857
 40
0.2827922893
 40
0.3742234955
 40
0.4625742221
 40
0.5468890077
 40
0.6262545486
 40
0.6998093445
 40
0.766752861
 40
0.7975139221
 40
0.8263540181
 40
0.8531938769
 40
0.8779597793
 40
0.9005837442
 40
0.9210033295
 40
0.9391624569
 40
0.9550115098
 40
0.9685072666
 40
0.9796141519
 40
0.9883049523
 40
0.9917387843
 40
0.9945641175
 40
0.9957491245
 40
0.9967829445
 40
0.9976665523
 40
0.9984017561
 40
0.998991831
 40
0.9994433171
 40
1.0
 40
1.0
 40
1.0
 40
1.0
 10
8.5487984502
 20
10.1457436481
 30
0.0
 10
8.5467851335
 20
10.145600426
 30
0.0
 10
8.5427600391
 20
10.1453099399
 30
0.0
 10
8.5367469128
 20
10.1448637596
 30
0.0
 10
8.5308034341
 20
10.1444105248
 30
0.0
 10
8.5249938736
 20
10.1439551456
 30
0.0
 10
8.5193810568
 20
10.1435025596
 30
0.0
 10
8.514025731
 20
10.1430576814
 30
0.0
 10
8.5089859421
 20
10.1426253613
 30
0.0
 10
8.5043164402
 20
10.1422103197
 30
0.0
 10
8.5006803983
 20
10.1418738454
 30
0.0
 10
8.4979945863
 20
10.1416159204
 30
0.0
 10
8.4961603997
 20
10.1414350361
 30
0.0
 10
8.4944539234
 20
10.1412617023
 30
0.0
 10
8.492879861
 20
10.1410964016
 30
0.0
 10
8.4914425609
 20
10.1409396051
 30
0.0
 10
8.4901460027
 20
10.1407917624
 30
0.0
 10
8.48899378
 20
10.14065332
 30
0.0
 10
8.4879890979
 20
10.140524696
 30
0.0
 10
8.487134718
 20
10.1404063901
 30
0.0
 10
8.4864330323
 20
10.1402987403
 30
0.0
 10
8.485945037
 20
10.1402132163
 30
0.0
 10
8.4856328923
 20
10.1401484903
 30
0.0
 10
8.4854783996
 20
10.1401119293
 30
0.0
 10
8.4853746357
 20
10.1400835754
 30
0.0
 10
8.4853113515
 20
10.14006433
 30
0.0
 10
8.4852578545
 20
10.1400457726
 30
0.0
 10
8.4852142928
 20
10.140028155
 30
0.0
 10
8.485180096
 20
10.1400108431
 30
0.0
 10
8.4851523713
 20
10.1399929344
 30
0.0
 10
8.4851359038
 20
10.1399733347
 30
0.0
 10
8.4851367915
 20
10.1399614985
 30
0.0
  0
LINE
  5
488
100
AcDbEntity
  8
0
100
AcDbLine
 62
7
  6
CONTINUOUS
 10
8.6637803528
 20
10.1485834405
 11
8.6565142935
 21
10.1480337255
  0
SPLINE
  5
489
100
AcDbEntity
  8
0
100
AcDbSpline
 62
9
  6
CONTINUOUS
 70
0
 71
3
 72
18
 73
14
 74
0
 42
0.0000001
 43
0.0000001
 44
0.0000000001
 40
0.0
 40
0.0
 40
0.0
 40
0.0
 40
0.1141991464
 40
0.1731668551
 40
0.2332341842
 40
0.3561540631
 40
0.4187829383
 40
0.4820424567
 40
0.5458288123
 40
0.6100509002
 40
0.7394238978
 40
0.8695606743
 40
1.0
 40
1.0
 40
1.0
 40
1.0
 10
15.0255751447
 20
2.0000517515
 30
0.0
 10
15.0246443557
 20
2.0004592678
 30
0.0
 10
15.0232345678
 20
2.0010814899
 30
0.0
 10
15.021362611
 20
2.0019776198
 30
0.0
 10
15.0194412545
 20
2.0029489204
 30
0.0
 10
15.0175222249
 20
2.0039961319
 30
0.0
 10
15.0156142864
 20
2.0051191652
 30
0.0
 10
15.0141800378
 20
2.006008907
 30
0.0
 10
15.0127580116
 20
2.0069442192
 30
0.0
 10
15.0108822522
 20
2.0082584312
 30
0.0
 10
15.0085969088
 20
2.0100146632
 30
0.0
 10
15.00596953
 20
2.012283166
 30
0.0
 10
15.0042975282
 20
2.013891265
 30
0.0
 10
15.0034834891
 20
2.0147184905
 30
0.0
  0
SPLINE
  5
48A
100
AcDbEntity
  8
0
100
AcDbSpline
 62
9
  6
CONTINUOUS
 70
0
 71
3
 72
34
 73
30
 74
0
 42
0.0000001
 43
0.0000001
 44
0.0000000001
 40
0.0
 40
0.0
 40
0.0
 40
0.0
 40
0.0604840961
 40
0.1211649047
 40
0.1820798486
 40
0.2126486995
 40
0.2432938363
 40
0.2740208707
 40
0.3048405195
 40
0.3357532972
 40
0.3667640228
 40
0.3978825708
 40
0.4291118519
 40
0.460450922
 40
0.4919058435
 40
0.5550835543
 40
0.6186441686
 40
0.650576428
 40
0.6825574215
 40
0.7145612675
 40
0.7465629026
 40
0.7785349801
 40
0.8104543631
 40
0.8422996797
 40
0.8740552131
 40
0.9057074888
 40
0.9372507334
 40
0.9686854829
 40
1.0
 40
1.0
 40
1.0
 40
1.0
 10
14.2922066106
 20
2.7754889977
 30
0.0
 10
14.2906945279
 20
2.7770011063
 30
0.0
 10
14.2877704827
 20
2.7801378819
 30
0.0
 10
14.2837474645
 20
2.7851715112
 30
0.0
 10
14.2807494831
 20
2.7896480866
 30
0.0
 10
14.2786034454
 20
2.7933965569
 30
0.0
 10
14.2771288832
 20
2.7962950805
 30
0.0
 10
14.2758051953
 20
2.7992753978
 30
0.0
 10
14.2746469343
 20
2.8023341759
 30
0.0
 10
14.2736687717
 20
2.8054659497
 30
0.0
 10
14.2728867478
 20
2.808663552
 30
0.0
 10
14.2723203529
 20
2.8119180309
 30
0.0
 10
14.2719871197
 20
2.8152164789
 30
0.0
 10
14.2719042222
 20
2.8185432974
 30
0.0
 10
14.2721553703
 20
2.8229940213
 30
0.0
 10
14.2731890691
 20
2.8285229612
 30
0.0
 10
14.2752629633
 20
2.8337788146
 30
0.0
 10
14.2775456605
 20
2.8376730087
 30
0.0
 10
14.2795625958
 20
2.8404074413
 30
0.0
 10
14.28186276
 20
2.8429114881
 30
0.0
 10
14.2844185425
 20
2.8451535874
 30
0.0
 10
14.2871966011
 20
2.8471080951
 30
0.0
 10
14.2901595667
 20
2.8487569747
 30
0.0
 10
14.2932675824
 20
2.850092537
 30
0.0
 10
14.2964827616
 20
2.8511120053
 30
0.0
 10
14.2997685122
 20
2.8518225942
 30
0.0
 10
14.3030929561
 20
2.8522351968
 30
0.0
 10
14.3064277981
 20
2.8523643707
 30
0.0
 10
14.3086470265
 20
2.852272911
 30
0.0
 10
14.3097507211
 20
2.852185756
 30
0.0
  0
SPLINE
  5
48B
100
AcDbEntity
  8
0
100
AcDbSpline
 62
9
  6
CONTINUOUS
 70
0
 71
3
 72
41
 73
37
 74
0
 42
0.0000001
 43
0.0000001
 44
0.0000000001
 40
0.0
 40
0.0
 40
0.0
 40
0.0
 40
0.0624812519
 40
0.1249589272
 40
0.1562112353
 40
0.1874633169
 40
0.2187154478
 40
0.2499673232
 40
0.2812189285
 40
0.312470443
 40
0.3437220444
 40
0.3749729538
 40
0.4062240592
 40
0.4374748338
 40
0.4687254009
 40
0.4999758944
 40
0.5312260691
 40
0.5624761078
 40
0.5937260416
 40
0.6249758745
 40
0.656225616
 40
0.6874753112
 40
0.7187249656
 40
0.7499746812
 40
0.78122436
 40
0.8124742672
 40
0.8281026129
 40
0.8437308332
 40
0.8749806653
 40
0.890609269
 40
0.906237728
 40
0.9218655595
 40
0.9374927317
 40
0.9531208592
 40
0.968750671
 40
1.0
 40
1.0
 40
1.0
 40
1.0
 10
14.2639224492
 20
2.7472048363
 30
0.0
 10
14.2610633889
 20
2.750063852
 30
0.0
 10
14.2556523919
 20
2.75609845
 30
0.0
 10
14.249783384
 20
2.7643582612
 30
0.0
 10
14.2457011998
 20
2.771345229
 30
0.0
 10
14.2429632056
 20
2.7767639075
 30
0.0
 10
14.2405676289
 20
2.7823424364
 30
0.0
 10
14.2385339065
 20
2.7880630822
 30
0.0
 10
14.2368810069
 20
2.7939053565
 30
0.0
 10
14.2356268305
 20
2.7998461934
 30
0.0
 10
14.234785355
 20
2.8058595816
 30
0.0
 10
14.2343740827
 20
2.8119179225
 30
0.0
 10
14.234406351
 20
2.8179902486
 30
0.0
 10
14.2348890079
 20
2.824043698
 30
0.0
 10
14.2358331771
 20
2.830042773
 30
0.0
 10
14.2372409176
 20
2.8359504282
 30
0.0
 10
14.2391119391
 20
2.8417283093
 30
0.0
 10
14.241442385
 20
2.8473368526
 30
0.0
 10
14.2442231388
 20
2.8527364566
 30
0.0
 10
14.2474398106
 20
2.8578884238
 30
0.0
 10
14.2510743483
 20
2.8627547332
 30
0.0
 10
14.255103308
 20
2.867299922
 30
0.0
 10
14.2594990962
 20
2.8714913687
 30
0.0
 10
14.2642305297
 20
2.8752999067
 30
0.0
 10
14.269263181
 20
2.8787000385
 30
0.0
 10
14.2736781222
 20
2.881176422
 30
0.0
 10
14.2773217169
 20
2.8829352635
 30
0.0
 10
14.281033973
 20
2.884543964
 30
0.0
 10
14.2848418149
 20
2.8859238914
 30
0.0
 10
14.2887208103
 20
2.8870733296
 30
0.0
 10
14.2916622529
 20
2.8878204935
 30
0.0
 10
14.2946306536
 20
2.8884513734
 30
0.0
 10
14.2976215439
 20
2.8889649399
 30
0.0
 10
14.3006301584
 20
2.8893629379
 30
0.0
 10
14.3046578804
 20
2.8897426717
 30
0.0
 10
14.307693091
 20
2.8898585893
 30
0.0
 10
14.3097152993
 20
2.8898589247
 30
0.0
  0
LINE
  5
48C
100
AcDbEntity
  8
0
100
AcDbLine
 62
7
  6
CONTINUOUS
 10
5.8436661036
 20
10.0920601179
 11
5.8383913676
 21
10.0922571471
  0
SPLINE
  5
48D
100
AcDbEntity
  8
0
100
AcDbSpline
 62
9
  6
CONTINUOUS
 70
0
 71
3
 72
31
 73
27
 74
0
 42
0.0000001
 43
0.0000001
 44
0.0000000001
 40
0.0
 40
0.0
 40
0.0
 40
0.0
 40
0.0292867909
 40
0.0454332258
 40
0.0627303053
 40
0.0812686482
 40
0.1010901046
 40
0.1222017232
 40
0.1446036977
 40
0.1682978691
 40
0.1932750923
 40
0.2469547975
 40
0.3054270542
 40
0.3684777424
 40
0.4358483462
 40
0.5072955895
 40
0.5444682962
 40
0.5825507548
 40
0.6214963849
 40
0.6612567831
 40
0.7429754985
 40
0.8271617258
 40
0.8699686388
 40
0.9131187042
 40
0.9565075742
 40
1.0
 40
1.0
 40
1.0
 40
1.0
 10
15.0434834891
 20
2.9106948088
 30
0.0
 10
15.0434834971
 20
2.9102276334
 30
0.0
 10
15.0433706636
 20
2.9095010558
 30
0.0
 10
15.0430582548
 20
2.9085499145
 30
0.0
 10
15.0427244092
 20
2.9077893661
 30
0.0
 10
15.0423013294
 20
2.9070079483
 30
0.0
 10
15.0417908281
 20
2.9062074704
 30
0.0
 10
15.0411943934
 20
2.9053912709
 30
0.0
 10
15.0405137359
 20
2.9045623292
 30
0.0
 10
15.0397509692
 20
2.9037229606
 30
0.0
 10
15.038599345
 20
2.9025649891
 30
0.0
 10
15.0369583948
 20
2.9011146527
 30
0.0
 10
15.0347309261
 20
2.8994231143
 30
0.0
 10
15.032212764
 20
2.8977643101
 30
0.0
 10
15.0294105373
 20
2.8961733126
 30
0.0
 10
15.0268837116
 20
2.8949453105
 30
0.0
 10
15.0247326515
 20
2.8940229239
 30
0.0
 10
15.0230356452
 20
2.8933595817
 30
0.0
 10
15.0212783242
 20
2.892739978
 30
0.0
 10
15.0188367042
 20
2.8919722392
 30
0.0
 10
15.0156580242
 20
2.8911495157
 30
0.0
 10
15.012381844
 20
2.890540179
 30
0.0
 10
15.0096897629
 20
2.8901911229
 30
0.0
 10
15.0076347007
 20
2.8900017162
 30
0.0
 10
15.0055633162
 20
2.889885451
 30
0.0
 10
15.0041772693
 20
2.8898588176
 30
0.0
 10
15.0034834891
 20
2.8898589247
 30
0.0
  0
SPLINE
  5
48E
100
AcDbEntity
  8
0
100
AcDbSpline
 62
9
  6
CONTINUOUS
 70
0
 71
3
 72
23
 73
19
 74
0
 42
0.0000001
 43
0.0000001
 44
0.0000000001
 40
0.0
 40
0.0
 40
0.0
 40
0.0
 40
0.0620635489
 40
0.1241476248
 40
0.1862612125
 40
0.2484241613
 40
0.3106473383
 40
0.3729420901
 40
0.4353160538
 40
0.4977740493
 40
0.5603175869
 40
0.622944888
 40
0.6856510376
 40
0.7484278595
 40
0.811265439
 40
0.8741486838
 40
0.9370679427
 40
1.0
 40
1.0
 40
1.0
 40
1.0
 10
15.0434834891
 20
2.9106948088
 30
0.0
 10
15.0434834891
 20
2.9094044684
 30
0.0
 10
15.043612167
 20
2.9068215198
 30
0.0
 10
15.0441891793
 20
2.9029861054
 30
0.0
 10
15.0451448053
 20
2.899224575
 30
0.0
 10
15.0464696304
 20
2.8955737256
 30
0.0
 10
15.048151003
 20
2.8920685587
 30
0.0
 10
15.05017263
 20
2.8887428819
 30
0.0
 10
15.052515045
 20
2.8856287128
 30
0.0
 10
15.0551556525
 20
2.8827560344
 30
0.0
 10
15.0580690051
 20
2.8801524995
 30
0.0
 10
15.061227022
 20
2.8778431502
 30
0.0
 10
15.0645992777
 20
2.8758502068
 30
0.0
 10
15.0681533032
 20
2.8741927992
 30
0.0
 10
15.0718548351
 20
2.8728869306
 30
0.0
 10
15.0756684114
 20
2.8719450196
 30
0.0
 10
15.0795567969
 20
2.8713763061
 30
0.0
 10
15.0821750919
 20
2.8712494922
 30
0.0
 10
15.0834834891
 20
2.8712494922
 30
0.0
  0
SPLINE
  5
48F
100
AcDbEntity
  8
0
100
AcDbSpline
 62
9
  6
CONTINUOUS
 70
0
 71
3
 72
32
 73
28
 74
0
 42
0.0000001
 43
0.0000001
 44
0.0000000001
 40
0.0
 40
0.0
 40
0.0
 40
0.0
 40
0.0038180668
 40
0.0078314013
 40
0.012120552
 40
0.0167500774
 40
0.0217696156
 40
0.0272164252
 40
0.0394890435
 40
0.053706579
 40
0.0699167282
 40
0.0881255624
 40
0.1083130236
 40
0.1304355509
 40
0.1544359777
 40
0.1802463167
 40
0.207795076
 40
0.267808815
 40
0.3338498889
 40
0.4052692565
 40
0.4814037153
 40
0.5615861745
 40
0.6451712684
 40
0.7314820078
 40
0.8198388481
 40
0.9095768516
 40
1.0
 40
1.0
 40
1.0
 40
1.0
 10
15.0834834891
 20
2.8712494922
 30
0.0
 10
15.083483493
 20
2.8711422163
 30
0.0
 10
15.0834645823
 20
2.8709218368
 30
0.0
 10
15.0833830539
 20
2.8705900199
 30
0.0
 10
15.0832487572
 20
2.870251332
 30
0.0
 10
15.0830623566
 20
2.8699060596
 30
0.0
 10
15.0828243843
 20
2.8695542392
 30
0.0
 10
15.082422584
 20
2.869056709
 30
0.0
 10
15.0817833882
 20
2.8684232309
 30
0.0
 10
15.0808482578
 20
2.8676694702
 30
0.0
 10
15.0797201408
 20
2.8668962808
 30
0.0
 10
15.0784035039
 20
2.8661071561
 30
0.0
 10
15.0769031226
 20
2.8653058199
 30
0.0
 10
15.0752246966
 20
2.8644960473
 30
0.0
 10
15.0733744608
 20
2.8636818478
 30
0.0
 10
15.0713590553
 20
2.8628670911
 30
0.0
 10
15.0683743036
 20
2.8617534206
 30
0.0
 10
15.0642754158
 20
2.8603971783
 30
0.0
 10
15.0589389834
 20
2.8588733234
 30
0.0
 10
15.0531094439
 20
2.8574420161
 30
0.0
 10
15.0468449081
 20
2.8561327308
 30
0.0
 10
15.0402039195
 20
2.8549717597
 30
0.0
 10
15.0332457339
 20
2.8539861571
 30
0.0
 10
15.0260315678
 20
2.853196327
 30
0.0
 10
15.0186239738
 20
2.8526167856
 30
0.0
 10
15.0110863984
 20
2.8522670332
 30
0.0
 10
15.0060241019
 20
2.8521866042
 30
0.0
 10
15.0034834891
 20
2.8521868749
 30
0.0
  0
SPLINE
  5
490
100
AcDbEntity
  8
0
100
AcDbSpline
 62
9
  6
CONTINUOUS
 70
0
 71
3
 72
23
 73
19
 74
0
 42
0.0000001
 43
0.0000001
 44
0.0000000001
 40
0.0
 40
0.0
 40
0.0
 40
0.0
 40
0.0620635475
 40
0.1241476222
 40
0.1862612089
 40
0.248424157
 40
0.3106473335
 40
0.3729420851
 40
0.4353160488
 40
0.4977740446
 40
0.5603175826
 40
0.6229448842
 40
0.6856510345
 40
0.7484278571
 40
0.8112654373
 40
0.8741486828
 40
0.9370679423
 40
1.0
 40
1.0
 40
1.0
 40
1.0
 10
15.0434834891
 20
1.9837298688
 30
0.0
 10
15.0434834891
 20
1.9850202092
 30
0.0
 10
15.043612167
 20
1.9876031578
 30
0.0
 10
15.0441891793
 20
1.9914385721
 30
0.0
 10
15.0451448053
 20
1.9952001023
 30
0.0
 10
15.0464696304
 20
1.9988509516
 30
0.0
 10
15.048151003
 20
2.0023561186
 30
0.0
 10
15.05017263
 20
2.0056817953
 30
0.0
 10
15.052515045
 20
2.0087959644
 30
0.0
 10
15.0551556525
 20
2.0116686428
 30
0.0
 10
15.0580690051
 20
2.0142721777
 30
0.0
 10
15.061227022
 20
2.016581527
 30
0.0
 10
15.0645992777
 20
2.0185744704
 30
0.0
 10
15.0681533032
 20
2.0202318781
 30
0.0
 10
15.0718548351
 20
2.0215377468
 30
0.0
 10
15.0756684114
 20
2.0224796578
 30
0.0
 10
15.0795567969
 20
2.0230483714
 30
0.0
 10
15.0821750919
 20
2.0231751854
 30
0.0
 10
15.0834834891
 20
2.0231751854
 30
0.0
  0
SPLINE
  5
491
100
AcDbEntity
  8
0
100
AcDbSpline
 62
9
  6
CONTINUOUS
 70
0
 71
3
 72
24
 73
20
 74
0
 42
0.0000001
 43
0.0000001
 44
0.0000000001
 40
0.0
 40
0.0
 40
0.0
 40
0.0
 40
0.0891063618
 40
0.132551088
 40
0.1752044079
 40
0.2580520085
 40
0.3375721397
 40
0.4136723353
 40
0.4862151227
 40
0.555078906
 40
0.6201577688
 40
0.6813405692
 40
0.7385320861
 40
0.7916889735
 40
0.840806944
 40
0.8859182275
 40
0.92720384
 40
0.9650581992
 40
1.0
 40
1.0
 40
1.0
 40
1.0
 10
15.0255751447
 20
2.0000517515
 30
0.0
 10
15.0262620431
 20
1.9997572792
 30
0.0
 10
15.0272733715
 20
1.9992943429
 30
0.0
 10
15.0285894938
 20
1.9986406132
 30
0.0
 10
15.0298465655
 20
1.9979865298
 30
0.0
 10
15.0313500292
 20
1.9971510028
 30
0.0
 10
15.0330570753
 20
1.9961075518
 30
0.0
 10
15.0346454714
 20
1.9950391882
 30
0.0
 10
15.0361141337
 20
1.9939560456
 30
0.0
 10
15.037460197
 20
1.9928653491
 30
0.0
 10
15.0386804526
 20
1.9917737344
 30
0.0
 10
15.0397719915
 20
1.9906881753
 30
0.0
 10
15.0407320072
 20
1.9896154264
 30
0.0
 10
15.0415565364
 20
1.9885608924
 30
0.0
 10
15.0422416461
 20
1.9875302468
 30
0.0
 10
15.0427842029
 20
1.9865294754
 30
0.0
 10
15.043180133
 20
1.9855627449
 30
0.0
 10
15.0434238288
 20
1.9846342958
 30
0.0
 10
15.0434835094
 20
1.9840229345
 30
0.0
 10
15.0434834891
 20
1.9837298688
 30
0.0
  0
SPLINE
  5
492
100
AcDbEntity
  8
0
100
AcDbSpline
 62
9
  6
CONTINUOUS
 70
0
 71
3
 72
28
 73
24
 74
0
 42
0.0000001
 43
0.0000001
 44
0.0000000001
 40
0.0
 40
0.0
 40
0.0
 40
0.0
 40
0.1000278581
 40
0.1963961471
 40
0.288778794
 40
0.37681048
 40
0.4601660665
 40
0.5385328277
 40
0.6116012285
 40
0.6790747621
 40
0.7406674029
 40
0.7961198854
 40
0.845250927
 40
0.8674125217
 40
0.8879608891
 40
0.9069022005
 40
0.9242586635
 40
0.9400706024
 40
0.9544077414
 40
0.9673792341
 40
0.9791418473
 40
0.9899164096
 40
1.0
 40
1.0
 40
1.0
 40
1.0
 10
15.0482039097
 20
2.037992475
 30
0.0
 10
15.0494890789
 20
2.0377365159
 30
0.0
 10
15.0520071856
 20
2.0372073526
 30
0.0
 10
15.0556926269
 20
2.036352022
 30
0.0
 10
15.059206698
 20
2.0354569124
 30
0.0
 10
15.0625348453
 20
2.0345261933
 30
0.0
 10
15.0656635392
 20
2.0335676241
 30
0.0
 10
15.0685799191
 20
2.0325887993
 30
0.0
 10
15.0712712507
 20
2.0315970014
 30
0.0
 10
15.0737249718
 20
2.0305998653
 30
0.0
 10
15.0759287995
 20
2.0296049502
 30
0.0
 10
15.0778707073
 20
2.0286191365
 30
0.0
 10
15.079308116
 20
2.0277853565
 30
0.0
 10
15.0803135773
 20
2.0271240382
 30
0.0
 10
15.0809691636
 20
2.0266518323
 30
0.0
 10
15.0815514211
 20
2.0261869662
 30
0.0
 10
15.0820593339
 20
2.0257301427
 30
0.0
 10
15.0824919808
 20
2.0252819229
 30
0.0
 10
15.0828485783
 20
2.0248427215
 30
0.0
 10
15.0831285025
 20
2.0244128504
 30
0.0
 10
15.0833309148
 20
2.0239922501
 30
0.0
 10
15.0834544808
 20
2.0235811189
 30
0.0
 10
15.0834835183
 20
2.023307285
 30
0.0
 10
15.0834834891
 20
2.0231751854
 30
0.0
  0
SPLINE
  5
493
100
AcDbEntity
  8
0
100
AcDbSpline
 62
7
  6
CONTINUOUS
 70
0
 71
3
 72
25
 73
21
 74
0
 42
0.0000001
 43
0.0000001
 44
0.0000000001
 40
0.0
 40
0.0
 40
0.0
 40
0.0
 40
0.2275354618
 40
0.4260588185
 40
0.5143067407
 40
0.5951540927
 40
0.6685633719
 40
0.7345066009
 40
0.7929658634
 40
0.8439366958
 40
0.8874343566
 40
0.9235059577
 40
0.9387904101
 40
0.9522679801
 40
0.9639745304
 40
0.9739665861
 40
0.9823363767
 40
0.9892424787
 40
0.9949678678
 40
1.0
 40
1.0
 40
1.0
 40
1.0
 10
7.1058875794
 20
13.1032123388
 30
0.0
 10
7.1079920225
 20
13.103384784
 30
0.0
 10
7.1119311746
 20
13.1037252774
 30
0.0
 10
7.1166809082
 20
13.1041948411
 30
0.0
 10
7.1200711305
 20
13.1045752349
 30
0.0
 10
7.1223048694
 20
13.1048490182
 30
0.0
 10
7.1243299653
 20
13.1051225443
 30
0.0
 10
7.1261452765
 20
13.1053957433
 30
0.0
 10
7.1277498119
 20
13.1056685089
 30
0.0
 10
7.1291428421
 20
13.105940606
 30
0.0
 10
7.1303236965
 20
13.1062119105
 30
0.0
 10
7.1311722783
 20
13.1064479889
 30
0.0
 10
7.1317422969
 20
13.1066409796
 30
0.0
 10
7.1320923325
 20
13.1067774688
 30
0.0
 10
7.1323892109
 20
13.1069137734
 30
0.0
 10
7.1326331795
 20
13.1070499797
 30
0.0
 10
7.132824729
 20
13.1071863497
 30
0.0
 10
7.1329644426
 20
13.1073238878
 30
0.0
 10
7.1330523164
 20
13.1074648364
 30
0.0
 10
7.133073481
 20
13.1075653032
 30
0.0
 10
7.1330734812
 20
13.1076120007
 30
0.0
  0
SPLINE
  5
494
100
AcDbEntity
  8
0
100
AcDbSpline
 62
7
  6
CONTINUOUS
 70
0
 71
3
 72
38
 73
34
 74
0
 42
0.0000001
 43
0.0000001
 44
0.0000000001
 40
0.0
 40
0.0
 40
0.0
 40
0.0
 40
0.0817729645
 40
0.1662658513
 40
0.2522840576
 40
0.3386114963
 40
0.4240276517
 40
0.5073249462
 40
0.5873258758
 40
0.6628997553
 40
0.7329788458
 40
0.765645181
 40
0.7965736553
 40
0.8256551421
 40
0.8527871487
 40
0.8778741925
 40
0.9008281962
 40
0.9215688595
 40
0.9400240759
 40
0.9561303947
 40
0.9632854544
 40
0.9698337967
 40
0.9757702579
 40
0.9810904797
 40
0.9857910059
 40
0.9898694478
 40
0.9933250205
 40
0.9948196614
 40
0.9961594818
 40
0.9973453996
 40
0.9983788827
 40
0.9992623788
 40
1.0
 40
1.0
 40
1.0
 40
1.0
 10
6.6266733021
 20
13.1032123388
 30
0.0
 10
6.6404735873
 20
13.1036732668
 30
0.0
 10
6.6685339483
 20
13.1045875075
 30
0.0
 10
6.7111128302
 20
13.1059307684
 30
0.0
 10
6.7544611326
 20
13.1072743637
 30
0.0
 10
6.7979654072
 20
13.1086180289
 30
0.0
 10
6.8410100226
 20
13.109961491
 30
0.0
 10
6.8829858461
 20
13.1113044685
 30
0.0
 10
6.9232988816
 20
13.1126465812
 30
0.0
 10
6.9613786681
 20
13.1139874733
 30
0.0
 10
6.991467668
 20
13.115128272
 30
0.0
 10
7.0140207273
 20
13.1160493413
 30
0.0
 10
7.0296552996
 20
13.1167236395
 30
0.0
 10
7.0443544549
 20
13.1173976191
 30
0.0
 10
7.0580661559
 20
13.1180712206
 30
0.0
 10
7.0707418742
 20
13.1187443174
 30
0.0
 10
7.0823367559
 20
13.1194167604
 30
0.0
 10
7.0928098138
 20
13.1200882526
 30
0.0
 10
7.1021240214
 20
13.1207585762
 30
0.0
 10
7.1091446815
 20
13.1213359836
 30
0.0
 10
7.1141565246
 20
13.1218039729
 30
0.0
 10
7.1174557719
 20
13.1221407112
 30
0.0
 10
7.1204434746
 20
13.122477096
 30
0.0
 10
7.1231170323
 20
13.1228130533
 30
0.0
 10
7.1254742053
 20
13.1231483508
 30
0.0
 10
7.1275130069
 20
13.1234828656
 30
0.0
 10
7.1290101351
 20
13.1237727092
 30
0.0
 10
7.1300458108
 20
13.1240086588
 30
0.0
 10
7.1307036385
 20
13.1241767737
 30
0.0
 10
7.1312808549
 20
13.1243446336
 30
0.0
 10
7.131777523
 20
13.1245122079
 30
0.0
 10
7.1321936878
 20
13.1246794033
 30
0.0
 10
7.1324394064
 20
13.1248012686
 30
0.0
 10
7.1325472342
 20
13.1248636111
 30
0.0
  0
SPLINE
  5
495
100
AcDbEntity
  8
0
100
AcDbSpline
 62
7
  6
CONTINUOUS
 70
0
 71
3
 72
38
 73
34
 74
0
 42
0.0000001
 43
0.0000001
 44
0.0000000001
 40
0.0
 40
0.0
 40
0.0
 40
0.0
 40
0.0004941015
 40
0.0010234753
 40
0.0016172633
 40
0.0022963286
 40
0.0030746649
 40
0.0039615153
 40
0.0060826837
 40
0.0086912446
 40
0.011802352
 40
0.0154241522
 40
0.0195611814
 40
0.024215981
 40
0.0293896662
 40
0.0350824281
 40
0.0412939434
 40
0.0552691844
 40
0.0713045547
 40
0.0893846401
 40
0.1094908532
 40
0.1316016122
 40
0.1556930479
 40
0.2097109372
 40
0.2713108634
 40
0.340228499
 40
0.4161716903
 40
0.4988225395
 40
0.5878393303
 40
0.6828582711
 40
0.7834956911
 40
0.8893486125
 40
1.0
 40
1.0
 40
1.0
 40
1.0
 10
6.3795602424
 20
13.1617657697
 30
0.0
 10
6.379560243
 20
13.1617966226
 30
0.0
 10
6.3795694124
 20
13.1618608199
 30
0.0
 10
6.3796094494
 20
13.1619545077
 30
0.0
 10
6.3796747593
 20
13.1620469482
 30
0.0
 10
6.3797648441
 20
13.1621385701
 30
0.0
 10
6.3798796447
 20
13.1622298326
 30
0.0
 10
6.3800779219
 20
13.1623590917
 30
0.0
 10
6.3803922039
 20
13.1625168291
 30
0.0
 10
6.3808478219
 20
13.1626969111
 30
0.0
 10
6.3814028296
 20
13.1628773576
 30
0.0
 10
6.3820572184
 20
13.1630581259
 30
0.0
 10
6.3828110585
 20
13.1632390817
 30
0.0
 10
6.3836641748
 20
13.1634201428
 30
0.0
 10
6.3846163474
 20
13.1636012451
 30
0.0
 10
6.3856672876
 20
13.163782362
 30
0.0
 10
6.3872636317
 20
13.1640337951
 30
0.0
 10
6.3895042615
 20
13.1643438836
 30
0.0
 10
6.3924856835
 20
13.1647032335
 30
0.0
 10
6.3958523753
 20
13.1650625923
 30
0.0
 10
6.3996003452
 20
13.165421849
 30
0.0
 10
6.4037252475
 20
13.1657808943
 30
0.0
 10
6.4099634659
 20
13.1662783897
 30
0.0
 10
6.418665894
 20
13.1668909255
 30
0.0
 10
6.4301669505
 20
13.1676005372
 30
0.0
 10
6.4430394393
 20
13.1683091639
 30
0.0
 10
6.4572282351
 20
13.1690165904
 30
0.0
 10
6.4726735578
 20
13.1697225286
 30
0.0
 10
6.4893112288
 20
13.1704268385
 30
0.0
 10
6.5070730285
 20
13.1711294136
 30
0.0
 10
6.525886955
 20
13.1718301837
 30
0.0
 10
6.5456777136
 20
13.1725291056
 30
0.0
 10
6.5591890989
 20
13.1729843167
 30
0.0
 10
6.5660946719
 20
13.1732123388
 30
0.0
  0
SPLINE
  5
496
100
AcDbEntity
  8
0
100
AcDbSpline
 62
7
  6
CONTINUOUS
 70
0
 71
3
 72
32
 73
28
 74
0
 42
0.0000001
 43
0.0000001
 44
0.0000000001
 40
0.0
 40
0.0
 40
0.0
 40
0.0
 40
0.003487818
 40
0.0073694701
 40
0.0116533593
 40
0.0163454887
 40
0.0214500865
 40
0.0269700222
 40
0.039262653
 40
0.0460378369
 40
0.0532324834
 40
0.0688790764
 40
0.0861977164
 40
0.1051795953
 40
0.1258126063
 40
0.1480821093
 40
0.1719712064
 40
0.1974608047
 40
0.2531560471
 40
0.3149803266
 40
0.382720048
 40
0.4561380097
 40
0.5349749922
 40
0.6189511359
 40
0.7077671873
 40
0.801106091
 40
1.0
 40
1.0
 40
1.0
 40
1.0
 10
6.3611289381
 20
13.1334988386
 30
0.0
 10
6.361336633
 20
13.1336193143
 30
0.0
 10
6.3617844597
 20
13.1338584897
 30
0.0
 10
6.3625113674
 20
13.1341985177
 30
0.0
 10
6.3633287846
 20
13.1345387024
 30
0.0
 10
6.3642365952
 20
13.1348790134
 30
0.0
 10
6.3652346884
 20
13.1352194673
 30
0.0
 10
6.3667404877
 20
13.1356906257
 30
0.0
 10
6.3683724329
 20
13.1361417918
 30
0.0
 10
6.3701259393
 20
13.1365822416
 30
0.0
 10
6.3721104966
 20
13.1370499214
 30
0.0
 10
6.3748137346
 20
13.1376308127
 30
0.0
 10
6.3783248793
 20
13.1383104504
 30
0.0
 10
6.3821849789
 20
13.1389905693
 30
0.0
 10
6.3863906171
 20
13.1396711026
 30
0.0
 10
6.3909380709
 20
13.1403519489
 30
0.0
 10
6.3958232734
 20
13.1410330739
 30
0.0
 10
6.4029959599
 20
13.1419694179
 30
0.0
 10
6.4127725916
 20
13.1431304227
 30
0.0
 10
6.4254539412
 20
13.1444876027
 30
0.0
 10
6.4393615413
 20
13.1458460991
 30
0.0
 10
6.4544453143
 20
13.1472056834
 30
0.0
 10
6.4706509533
 20
13.1485660722
 30
0.0
 10
6.4879200496
 20
13.1499270897
 30
0.0
 10
6.5061903558
 20
13.1512886365
 30
0.0
 10
6.5323567546
 20
13.1531440498
 30
0.0
 10
6.5524306367
 20
13.154474604
 30
0.0
 10
6.5660946719
 20
13.155352339
 30
0.0
  0
SPLINE
  5
497
100
AcDbEntity
  8
0
100
AcDbSpline
 62
7
  6
CONTINUOUS
 70
0
 71
3
 72
27
 73
23
 74
0
 42
0.0000001
 43
0.0000001
 44
0.0000000001
 40
0.0
 40
0.0
 40
0.0
 40
0.0
 40
0.0625061022
 40
0.1250124978
 40
0.1875183066
 40
0.2500238667
 40
0.3125287534
 40
0.3750327147
 40
0.4375353372
 40
0.5000360646
 40
0.5625338524
 40
0.6250272016
 40
0.6875145138
 40
0.7499924761
 40
0.7812459482
 40
0.8124987466
 40
0.8437507973
 40
0.8750020262
 40
0.9062524188
 40
0.9375021774
 40
0.9687509262
 40
1.0
 40
1.0
 40
1.0
 40
1.0
 10
6.7654834892
 20
12.7018774813
 30
0.0
 10
6.7621017775
 20
12.7018774813
 30
0.0
 10
6.7553370995
 20
12.7020471252
 30
0.0
 10
6.7452167639
 20
12.7028134971
 30
0.0
 10
6.7351489307
 20
12.7041008357
 30
0.0
 10
6.7251640156
 20
12.7059243561
 30
0.0
 10
6.7152967359
 20
12.7083057753
 30
0.0
 10
6.7055889681
 20
12.7112735473
 30
0.0
 10
6.6960925014
 20
12.7148631421
 30
0.0
 10
6.6868729699
 20
12.7191170602
 30
0.0
 10
6.6780152007
 20
12.7240841014
 30
0.0
 10
6.6696298155
 20
12.7298177878
 30
0.0
 10
6.6618633762
 20
12.7363693935
 30
0.0
 10
6.6560624153
 20
12.7425499066
 30
0.0
 10
6.6519516125
 20
12.7479248667
 30
0.0
 10
6.6491662462
 20
12.7521700431
 30
0.0
 10
6.6467173042
 20
12.7566182422
 30
0.0
 10
6.6446431611
 20
12.7612537666
 30
0.0
 10
6.6429814599
 20
12.7660531618
 30
0.0
 10
6.6417663027
 20
12.7709852006
 30
0.0
 10
6.6410251403
 20
12.7760102613
 30
0.0
 10
6.6408590533
 20
12.7793938479
 30
0.0
 10
6.6408590533
 20
12.7810844886
 30
0.0
  0
SPLINE
  5
498
100
AcDbEntity
  8
0
100
AcDbSpline
 62
7
  6
CONTINUOUS
 70
0
 71
3
 72
30
 73
26
 74
0
 42
0.0000001
 43
0.0000001
 44
0.0000000001
 40
0.0
 40
0.0
 40
0.0
 40
0.0
 40
0.0020728951
 40
0.0045900446
 40
0.0075640644
 40
0.0110019474
 40
0.0149077017
 40
0.0192836493
 40
0.0294493644
 40
0.0415004286
 40
0.0554304578
 40
0.0712287213
 40
0.0888810442
 40
0.1083708897
 40
0.1296792882
 40
0.1776663092
 40
0.2326539814
 40
0.294427647
 40
0.3627486875
 40
0.4373563105
 40
0.5179690574
 40
0.6042863477
 40
0.6959898325
 40
0.7927452243
 40
1.0
 40
1.0
 40
1.0
 40
1.0
 10
6.3800534998
 20
13.1444786372
 30
0.0
 10
6.3801649801
 20
13.1445433314
 30
0.0
 10
6.380421855
 20
13.1446692237
 30
0.0
 10
6.3808600935
 20
13.1448407156
 30
0.0
 10
6.3813883107
 20
13.1450125534
 30
0.0
 10
6.382006496
 20
13.1451846213
 30
0.0
 10
6.3827146782
 20
13.1453568627
 30
0.0
 10
6.3838360154
 20
13.1455988691
 30
0.0
 10
6.3854631239
 20
13.1458954442
 30
0.0
 10
6.3876848
 20
13.1462369429
 30
0.0
 10
6.3902601909
 20
13.1465787961
 30
0.0
 10
6.3931864717
 20
13.1469208517
 30
0.0
 10
6.3964605492
 20
13.1472628595
 30
0.0
 10
6.400078927
 20
13.1476047304
 30
0.0
 10
6.405579196
 20
13.1480792293
 30
0.0
 10
6.4132852021
 20
13.1486631185
 30
0.0
 10
6.4235070033
 20
13.1493389749
 30
0.0
 10
6.4349956544
 20
13.1500140581
 30
0.0
 10
6.4477061936
 20
13.1506881497
 30
0.0
 10
6.4615896994
 20
13.1513609496
 30
0.0
 10
6.4765934764
 20
13.1520323159
 30
0.0
 10
6.4926613213
 20
13.1527021322
 30
0.0
 10
6.5097337909
 20
13.1533703489
 30
0.0
 10
6.5343223762
 20
13.1542800489
 30
0.0
 10
6.5532146322
 20
13.15492704
 30
0.0
 10
6.5660946719
 20
13.155352339
 30
0.0
  0
SPLINE
  5
499
100
AcDbEntity
  8
0
100
AcDbSpline
 62
7
  6
CONTINUOUS
 70
0
 71
3
 72
27
 73
23
 74
0
 42
0.0000001
 43
0.0000001
 44
0.0000000001
 40
0.0
 40
0.0
 40
0.0
 40
0.0
 40
0.0312491475
 40
0.062497983
 40
0.0937477981
 40
0.1249982289
 40
0.1562495424
 40
0.1875016185
 40
0.2187544436
 40
0.2500079455
 40
0.3124858853
 40
0.3749731242
 40
0.4374663991
 40
0.4999641568
 40
0.5624648439
 40
0.6249674405
 40
0.6874713703
 40
0.7499762413
 40
0.8124817654
 40
0.8749875229
 40
0.9374938944
 40
1.0
 40
1.0
 40
1.0
 40
1.0
 10
6.8901079249
 20
12.7810844886
 30
0.0
 10
6.8901079249
 20
12.7793938439
 30
0.0
 10
6.8899418375
 20
12.7760102486
 30
0.0
 10
6.8892006709
 20
12.7709851766
 30
0.0
 10
6.8879855092
 20
12.7660531288
 30
0.0
 10
6.8863238004
 20
12.7612537259
 30
0.0
 10
6.8842496502
 20
12.756618196
 30
0.0
 10
6.8818007013
 20
12.7521699923
 30
0.0
 10
6.8790153284
 20
12.7479248148
 30
0.0
 10
6.8749045203
 20
12.7425498565
 30
0.0
 10
6.8691035565
 20
12.736369351
 30
0.0
 10
6.8613371202
 20
12.7298177562
 30
0.0
 10
6.8529517402
 20
12.7240840794
 30
0.0
 10
6.8440939773
 20
12.7191170433
 30
0.0
 10
6.834874449
 20
12.7148631303
 30
0.0
 10
6.8253779864
 20
12.71127354
 30
0.0
 10
6.815670222
 20
12.7083057703
 30
0.0
 10
6.8058029465
 20
12.7059243533
 30
0.0
 10
6.7958180368
 20
12.7041008345
 30
0.0
 10
6.7857502096
 20
12.7028134968
 30
0.0
 10
6.7756298779
 20
12.7020471251
 30
0.0
 10
6.7688652011
 20
12.7018774813
 30
0.0
 10
6.7654834892
 20
12.7018774813
 30
0.0
  0
SPLINE
  5
49A
100
AcDbEntity
  8
0
100
AcDbSpline
 62
7
  6
CONTINUOUS
 70
0
 71
3
 72
73
 73
69
 74
0
 42
0.0000001
 43
0.0000001
 44
0.0000000001
 40
0.0
 40
0.0
 40
0.0
 40
0.0
 40
0.0003693889
 40
0.0008047752
 40
0.0013079691
 40
0.0018801124
 40
0.002521954
 40
0.0032339768
 40
0.0048696375
 40
0.0067885704
 40
0.0089910373
 40
0.011476695
 40
0.0142447166
 40
0.0172939608
 40
0.0206229834
 40
0.028113401
 40
0.0367000576
 40
0.0463638974
 40
0.0570830484
 40
0.0688329866
 40
0.0815866572
 40
0.0953145765
 40
0.109984926
 40
0.125563642
 40
0.1592992255
 40
0.1962074415
 40
0.235944507
 40
0.2781400691
 40
0.3224007157
 40
0.3683136835
 40
0.4154507341
 40
0.4633721697
 40
0.5116309509
 40
0.5597768816
 40
0.6073608217
 40
0.6539388912
 40
0.6990766252
 40
0.7423530456
 40
0.7833646101
 40
0.8217290085
 40
0.8570887739
 40
0.8891146901
 40
0.9037831046
 40
0.9175090197
 40
0.9302606214
 40
0.9420084312
 40
0.9527253996
 40
0.9623870079
 40
0.97097139
 40
0.9784594963
 40
0.9817873556
 40
0.9848354219
 40
0.9876022719
 40
0.9900867387
 40
0.9922880305
 40
0.9942057666
 40
0.9958402574
 40
0.9965516816
 40
0.9971929351
 40
0.9977645087
 40
0.9982671352
 40
0.9987019515
 40
0.9990707923
 40
0.9993767181
 40
0.9996251651
 40
0.9998263371
 40
0.9999150812
 40
1.0
 40
1.0
 40
1.0
 40
1.0
 10
7.1712571266
 20
13.1472417714
 30
0.0
 10
7.1711704092
 20
13.1471916445
 30
0.0
 10
7.1709752311
 20
13.1470932396
 30
0.0
 10
7.1706474898
 20
13.1469572063
 30
0.0
 10
7.1702609975
 20
13.1468209386
 30
0.0
 10
7.1698157088
 20
13.1466844884
 30
0.0
 10
7.169311562
 20
13.146547873
 30
0.0
 10
7.1685237387
 20
13.1463566069
 30
0.0
 10
7.1673906905
 20
13.1461212933
 30
0.0
 10
7.165853328
 20
13.1458494228
 30
0.0
 10
7.1640824834
 20
13.1455769696
 30
0.0
 10
7.1620791173
 20
13.1453040379
 30
0.0
 10
7.1598442956
 20
13.1450307825
 30
0.0
 10
7.1573792887
 20
13.1447572615
 30
0.0
 10
7.1536378882
 20
13.1443772066
 30
0.0
 10
7.1483965345
 20
13.1439080791
 30
0.0
 10
7.1414378516
 20
13.1433634764
 30
0.0
 10
7.1336013717
 20
13.1428179628
 30
0.0
 10
7.1249053455
 20
13.1422717039
 30
0.0
 10
7.1153700214
 20
13.1417249292
 30
0.0
 10
7.1050176415
 20
13.1411777539
 30
0.0
 10
7.0938723623
 20
13.140630277
 30
0.0
 10
7.0819602006
 20
13.140082542
 30
0.0
 10
7.064626451
 20
13.1393319068
 30
0.0
 10
7.041264926
 20
13.1384017875
 30
0.0
 10
7.0113540481
 20
13.13731151
 30
0.0
 10
6.9791478074
 20
13.1362201392
 30
0.0
 10
6.9449468546
 20
13.1351279124
 30
0.0
 10
6.9090704641
 20
13.1340350941
 30
0.0
 10
6.8718535652
 20
13.1329418512
 30
0.0
 10
6.8336436062
 20
13.1318483235
 30
0.0
 10
6.7947973104
 20
13.1307546239
 30
0.0
 10
6.7556773433
 20
13.129660853
 30
0.0
 10
6.7166489258
 20
13.1285671057
 30
0.0
 10
6.6780764241
 20
13.1274734789
 30
0.0
 10
6.6403199465
 20
13.1263800786
 30
0.0
 10
6.6037319806
 20
13.1252870281
 30
0.0
 10
6.5686541004
 20
13.1241944845
 30
0.0
 10
6.5354137769
 20
13.1231026392
 30
0.0
 10
6.5043213082
 20
13.1220118084
 30
0.0
 10
6.4756669397
 20
13.1209222702
 30
0.0
 10
6.4534366923
 20
13.1199908527
 30
0.0
 10
6.4370705019
 20
13.1192383292
 30
0.0
 10
6.4259268544
 20
13.1186908329
 30
0.0
 10
6.4155761582
 20
13.1181436627
 30
0.0
 10
6.4060425669
 20
13.1175968876
 30
0.0
 10
6.3973483181
 20
13.1170506299
 30
0.0
 10
6.3895136562
 20
13.1165051176
 30
0.0
 10
6.3825568272
 20
13.1159605173
 30
0.0
 10
6.3773170388
 20
13.1154913865
 30
0.0
 10
6.3735769067
 20
13.1151113278
 30
0.0
 10
6.3711128582
 20
13.1148378059
 30
0.0
 10
6.3688790032
 20
13.1145645541
 30
0.0
 10
6.3668766054
 20
13.1142916203
 30
0.0
 10
6.365106737
 20
13.1140191736
 30
0.0
 10
6.36357035
 20
13.1137473001
 30
0.0
 10
6.3624381216
 20
13.1135119919
 30
0.0
 10
6.3616509575
 20
13.1133207155
 30
0.0
 10
6.3611473058
 20
13.1131840998
 30
0.0
 10
6.3607025006
 20
13.1130476493
 30
0.0
 10
6.3603165127
 20
13.1129113913
 30
0.0
 10
6.3599892205
 20
13.1127753358
 30
0.0
 10
6.3597203478
 20
13.1126395263
 30
0.0
 10
6.3595093239
 20
13.1125035674
 30
0.0
 10
6.3593552734
 20
13.1123670051
 30
0.0
 10
6.3592708628
 20
13.1122447146
 30
0.0
 10
6.3592387073
 20
13.1121476268
 30
0.0
 10
6.3592334958
 20
13.112100394
 30
0.0
 10
6.3592334959
 20
13.1120773676
 30
0.0
  0
ELLIPSE
  5
49B
100
AcDbEntity
  8
0
100
AcDbEllipse
 62
7
  6
CONTINUOUS
 10
6.7654834891
 20
12.5432123388
 30
0.0
 11
0.4525
 21
0.0
 31
0.0
 40
1.0
 41
1.2917769134
 42
1.8498157402
  0
ENDSEC
  0
SECTION
  2
OBJECTS
  0
DICTIONARY
  5
C
100
AcDbDictionary
280
0
281
1
  3
ACAD_GROUP
350
D
  3
ACAD_MLINESTYLE
350
17
  3
ACAD_LAYOUT
350
1A
  3
ACAD_PLOTSETTINGS
350
19
  3
ACAD_PLOTSTYLENAME
350
E
  0
DICTIONARY
  5
D
102
{ACAD_REACTORS
330
C
102
}
100
AcDbDictionary
280
0
281
1
  0
ACDBDICTIONARYWDFLT
  5
E
102
{ACAD_REACTORS
330
C
102
}
100
AcDbDictionary
281
1
  3
Normal
350
F
100
AcDbDictionaryWithDefault
340
F
  0
DICTIONARY
  5
17
102
{ACAD_REACTORS
330
C
102
}
100
AcDbDictionary
280
0
281
1
  3
Standard
350
18
  0
DICTIONARY
  5
19
102
{ACAD_REACTORS
330
C
102
}
100
AcDbDictionary
281
1
  0
DICTIONARY
  5
1A
102
{ACAD_REACTORS
330
C
102
}
100
AcDbDictionary
281
1
  3
Model
350
49C
  3
Layout1
350
49D
  0
ACDBPLACEHOLDER
  5
F
102
{ACAD_REACTORS
330
E
102
}
  0
MLINESTYLE
  5
18
102
{ACAD_REACTORS
330
17
102
}
100
AcDbMlineStyle
  2
STANDARD
 70
0
  3

 62
256
 51
90.0
 52
90.0
 71
2
 49
0.5
 62
256
  6
BYLAYER
 49
-0.5
 62
256
  6
BYLAYER
  0
LAYOUT
  5
49C
102
{ACAD_REACTORS
330
1A
102
}
100
AcDbPlotSettings
  1

  2
none_device
  4
ANSI_C_(22.00_x_17.00_Inches)
  6

 40
0.0
 41
0.0
 42
0.0
 43
0.0
 44
558.8
 45
431.8
 46
0.0
 47
0.0
 48
0.0
 49
0.0
140
0.0
141
0.0
142
1.0
143
1.0
 70
1024
 72
0
 73
0
 74
0
  7

 75
0
147
1.0
148
0.0
149
0.0
100
AcDbLayout
  1
Model
 70
0
 71
0
 10
0.0
 20
0.0
 11
22.0
 21
17.0
 12
0.0
 22
0.0
 32
0.0
 14
0.0
 24
0.0
 34
0.0
 15
0.0
 25
0.0
 35
0.0
146
0.0
 13
0.0
 23
0.0
 33
0.0
 16
1.0
 26
0.0
 36
0.0
 17
0.0
 27
1.0
 37
0.0
 76
0
330
205
345
0
346
0
  0
LAYOUT
  5
49D
102
{ACAD_REACTORS
330
1A
102
}
100
AcDbPlotSettings
  1

  2
none_device
  4
ANSI_C_(22.00_x_17.00_Inches)
  6

 40
0.0
 41
0.0
 42
0.0
 43
0.0
 44
558.8
 45
431.8
 46
0.0
 47
0.0
 48
0.0
 49
0.0
140
0.0
141
0.0
142
1.0
143
1.0
 70
0
 72
0
 73
0
 74
0
  7

 75
0
147
1.0
148
0.0
149
0.0
100
AcDbLayout
  1
Layout1
 70
0
 71
1
 10
0.0
 20
0.0
 11
22.0
 21
17.0
 12
0.0
 22
0.0
 32
0.0
 14
0.0
 24
0.0
 34
0.0
 15
0.0
 25
0.0
 35
0.0
146
0.0
 13
0.0
 23
0.0
 33
0.0
 16
1.0
 26
0.0
 36
0.0
 17
0.0
 27
1.0
 37
0.0
 76
0
330
206
345
0
346
0
  0
ENDSEC
  0
EOF
