999
DXF file: 3-2484tr_RIGHT.dxf
999
Pro/ENGINEER 2018400 by Parametric Technology Corporation
  0
SECTION
  2
HEADER
  9
$ACADVER
  1
AC1027
  9
$DWGCODEPAGE
  3
ANSI_1252
  9
$EXTMAX
 10
11.0
 20
8.5
 30
0.0
  9
$EXTMIN
 10
0.0
 20
0.0
 30
0.0
  9
$LIMMIN
 10
0.0
 20
0.0
  9
$LIMMAX
 10
11.0
 20
8.5
  9
$VIEWCTR
 10
5.5
 20
4.25
  9
$VIEWSIZE
 40
8.5
  9
$CLAYER
  8
0
  9
$LTSCALE
 40
0.605
  9
$CELTYPE
  6
BYLAYER
  9
$DIMSCALE
 40
1.0
  9
$DIMASZ
 40
0.1
  9
$DIMEXO
 40
0.0625
  9
$DIMDLI
 40
0.418
  9
$DIMEXE
 40
0.125
  9
$DIMCEN
 40
0.099
  9
$DIMLFAC
 40
1.0
  9
$DIMBLK
  1
_FILLED
  9
$DIMALT
 70
1
  9
$DIMALTD
 70
2
  9
$DIMALTTD
 70
2
  9
$DIMALTF
 40
25.4
  9
$DIMTXT
 40
0.08
  9
$DIMTOL
 70
1
  9
$DIMLIM
 70
0
  9
$DIMTFAC
 40
1.0
  9
$DIMTP
 40
0.001
  9
$DIMTM
 40
0.001
  9
$DIMGAP
 40
0.09
  9
$DIMDSEP
 70
46
  9
$AUNITS
 70
0
  9
$PDMODE
 70
3
  9
$PDSIZE
 40
0.3125
  9
$HANDSEED
  5
293
  9
$TILEMODE
 70
1
  9
$MEASUREMENT
 70
0
  9
$INSUNITS
 70
1
  0
ENDSEC
  0
SECTION
  2
CLASSES
  0
CLASS
  1
ACDBDICTIONARYWDFLT
  2
AcDbDictionaryWithDefault
  3
AutoCAD 2000
 90
0
 91
1
280
0
281
0
  0
CLASS
  1
ACDBPLACEHOLDER
  2
AcDbPlaceHolder
  3
AutoCAD 2000
 90
0
 91
1
280
0
281
0
  0
CLASS
  1
LAYOUT
  2
AcDbLayout
  3
AutoCAD 2000
 90
0
 91
0
280
0
281
0
  0
ENDSEC
  0
SECTION
  2
TABLES
  0
TABLE
  2
VPORT
  5
8
100
AcDbSymbolTable
 70
2
  0
VPORT
  5
1F4
100
AcDbSymbolTableRecord
100
AcDbViewportTableRecord
  2
*ACTIVE
 70
0
 10
0.0
 20
0.0
 11
1.0
 21
1.0
 12
5.5
 22
4.25
 13
0.0
 23
0.0
 14
1.0
 24
1.0
 15
0.0
 25
0.0
 16
0.0
 26
0.0
 36
1.0
 17
0.0
 27
0.0
 37
0.0
 40
8.5
 41
1.2941176471
 42
50.0
 43
0.0
 44
0.0
 50
0.0
 51
0.0
 71
0
 72
100
 73
1
 74
1
 75
0
 76
0
 77
0
 78
0
  0
ENDTAB
  0
TABLE
  2
LTYPE
  5
5
100
AcDbSymbolTable
 70
6
  0
LTYPE
  5
14
100
AcDbSymbolTableRecord
100
AcDbLinetypeTableRecord
  2
BYBLOCK
 70
0
  3

 72
65
 73
0
 40
0.0
  0
LTYPE
  5
15
100
AcDbSymbolTableRecord
100
AcDbLinetypeTableRecord
  2
BYLAYER
 70
0
  3

 72
65
 73
0
 40
0.0
  0
LTYPE
  5
16
100
AcDbSymbolTableRecord
100
AcDbLinetypeTableRecord
  2
CONTINUOUS
 70
64
  3
Solid line
 72
65
 73
0
 40
0.0
  0
LTYPE
  5
1F5
100
AcDbSymbolTableRecord
100
AcDbLinetypeTableRecord
  2
CENTER
 70
64
  3
____ _ ____ _ ____ _ ____ _ ____ _ ____ _ ____
 72
65
 73
4
 40
0.6
 49
0.375
 74
0
 49
-0.075
 74
0
 49
0.075
 74
0
 49
-0.075
 74
0
  0
LTYPE
  5
1F6
100
AcDbSymbolTableRecord
100
AcDbLinetypeTableRecord
  2
HIDDEN
 70
64
  3
- - - - - - - - - - - - - - - - - - - -
 72
65
 73
2
 40
0.2
 49
0.1
 74
0
 49
-0.1
 74
0
  0
LTYPE
  5
1F7
100
AcDbSymbolTableRecord
100
AcDbLinetypeTableRecord
  2
PHANTOM
 70
64
  3
_____ _ _ _____ _ _ _____ _ _ _____
 72
65
 73
6
 40
0.8
 49
0.45
 74
0
 49
-0.05
 74
0
 49
0.1
 74
0
 49
-0.05
 74
0
 49
0.1
 74
0
 49
-0.05
 74
0
  0
LTYPE
  5
1F8
100
AcDbSymbolTableRecord
100
AcDbLinetypeTableRecord
  2
DOT
 70
64
  3
. . . . . . . . . . . . . . . . . . . .
 72
65
 73
2
 40
0.2
 49
0.1
 74
0
 49
-0.1
 74
0
  0
LTYPE
  5
1F9
100
AcDbSymbolTableRecord
100
AcDbLinetypeTableRecord
  2
DASHED
 70
64
  3
- - - - - - - - - - - - - - - - - - - -
 72
65
 73
2
 40
0.2
 49
0.1
 74
0
 49
-0.1
 74
0
  0
ENDTAB
  0
TABLE
  2
LAYER
  5
2
100
AcDbSymbolTable
 70
36
  0
LAYER
  5
10
100
AcDbSymbolTableRecord
100
AcDbLayerTableRecord
  2
0
 70
0
 62
7
  6
CONTINUOUS
370
-3
390
F
  0
LAYER
  5
1FA
100
AcDbSymbolTableRecord
100
AcDbLayerTableRecord
  2
DEFAULT_1
 70
0
 62
7
  6
CENTER
370
-3
390
F
  0
LAYER
  5
1FB
100
AcDbSymbolTableRecord
100
AcDbLayerTableRecord
  2
DEFAULT_2
 70
0
 62
8
  6
HIDDEN
370
-3
390
F
  0
LAYER
  5
1FC
100
AcDbSymbolTableRecord
100
AcDbLayerTableRecord
  2
DEFAULT_3
 70
0
 62
7
  6
PHANTOM
370
-3
390
F
  0
LAYER
  5
1FD
100
AcDbSymbolTableRecord
100
AcDbLayerTableRecord
  2
ALL_ASSEMBLY_MEMBERS
 70
0
 62
7
  6
CONTINUOUS
370
-3
390
F
  0
LAYER
  5
1FE
100
AcDbSymbolTableRecord
100
AcDbLayerTableRecord
  2
ALL_FEATURES
 70
0
 62
7
  6
CONTINUOUS
370
-3
390
F
  0
LAYER
  5
1FF
100
AcDbSymbolTableRecord
100
AcDbLayerTableRecord
  2
AXES_FEATURES
 70
0
 62
7
  6
CONTINUOUS
370
-3
390
F
  0
LAYER
  5
200
100
AcDbSymbolTableRecord
100
AcDbLayerTableRecord
  2
CHAMFER_FEATURES
 70
0
 62
7
  6
CONTINUOUS
370
-3
390
F
  0
LAYER
  5
201
100
AcDbSymbolTableRecord
100
AcDbLayerTableRecord
  2
COLOR1
 70
0
 62
7
  6
CONTINUOUS
370
-3
390
F
  0
LAYER
  5
202
100
AcDbSymbolTableRecord
100
AcDbLayerTableRecord
  2
COSMETIC_SKETCHES
 70
0
 62
7
  6
CONTINUOUS
370
-3
390
F
  0
LAYER
  5
203
100
AcDbSymbolTableRecord
100
AcDbLayerTableRecord
  2
CUT_FEATURES
 70
0
 62
7
  6
CONTINUOUS
370
-3
390
F
  0
LAYER
  5
204
100
AcDbSymbolTableRecord
100
AcDbLayerTableRecord
  2
DATUM_CURVES
 70
0
 62
7
  6
CONTINUOUS
370
-3
390
F
  0
LAYER
  5
205
100
AcDbSymbolTableRecord
100
AcDbLayerTableRecord
  2
DATUM_PLANES
 70
0
 62
7
  6
CONTINUOUS
370
-3
390
F
  0
LAYER
  5
206
100
AcDbSymbolTableRecord
100
AcDbLayerTableRecord
  2
DATUM_POINTS
 70
0
 62
7
  6
CONTINUOUS
370
-3
390
F
  0
LAYER
  5
207
100
AcDbSymbolTableRecord
100
AcDbLayerTableRecord
  2
DEFAULT_COORDINATE_SYSTEM
 70
0
 62
7
  6
CONTINUOUS
370
-3
390
F
  0
LAYER
  5
208
100
AcDbSymbolTableRecord
100
AcDbLayerTableRecord
  2
DEFAULT_DATUM_AXES
 70
0
 62
7
  6
CONTINUOUS
370
-3
390
F
  0
LAYER
  5
209
100
AcDbSymbolTableRecord
100
AcDbLayerTableRecord
  2
DEFAULT_DATUM_CURVES
 70
0
 62
7
  6
CONTINUOUS
370
-3
390
F
  0
LAYER
  5
20A
100
AcDbSymbolTableRecord
100
AcDbLayerTableRecord
  2
DEFAULT_DATUM_PLANES
 70
0
 62
7
  6
CONTINUOUS
370
-3
390
F
  0
LAYER
  5
20B
100
AcDbSymbolTableRecord
100
AcDbLayerTableRecord
  2
DEFAULT_SURFACES
 70
0
 62
7
  6
CONTINUOUS
370
-3
390
F
  0
LAYER
  5
20C
100
AcDbSymbolTableRecord
100
AcDbLayerTableRecord
  2
DIMENSIONS
 70
0
 62
7
  6
CONTINUOUS
370
-3
390
F
  0
LAYER
  5
20D
100
AcDbSymbolTableRecord
100
AcDbLayerTableRecord
  2
HOLE_FEATURES
 70
0
 62
7
  6
CONTINUOUS
370
-3
390
F
  0
LAYER
  5
20E
100
AcDbSymbolTableRecord
100
AcDbLayerTableRecord
  2
IMPORTED_FEATURE
 70
0
 62
7
  6
CONTINUOUS
370
-3
390
F
  0
LAYER
  5
20F
100
AcDbSymbolTableRecord
100
AcDbLayerTableRecord
  2
INTF_1
 70
0
 62
7
  6
CONTINUOUS
370
-3
390
F
  0
LAYER
  5
210
100
AcDbSymbolTableRecord
100
AcDbLayerTableRecord
  2
INTF_12
 70
0
 62
7
  6
CONTINUOUS
370
-3
390
F
  0
LAYER
  5
211
100
AcDbSymbolTableRecord
100
AcDbLayerTableRecord
  2
INTF_13
 70
0
 62
7
  6
CONTINUOUS
370
-3
390
F
  0
LAYER
  5
212
100
AcDbSymbolTableRecord
100
AcDbLayerTableRecord
  2
INTF_BLANK
 70
0
 62
7
  6
CONTINUOUS
370
-3
390
F
  0
LAYER
  5
213
100
AcDbSymbolTableRecord
100
AcDbLayerTableRecord
  2
INTF_CYAN
 70
0
 62
7
  6
CONTINUOUS
370
-3
390
F
  0
LAYER
  5
214
100
AcDbSymbolTableRecord
100
AcDbLayerTableRecord
  2
INTF_YELLOW
 70
0
 62
7
  6
CONTINUOUS
370
-3
390
F
  0
LAYER
  5
215
100
AcDbSymbolTableRecord
100
AcDbLayerTableRecord
  2
PART_REFERENCE_DIMENSIONS
 70
0
 62
7
  6
CONTINUOUS
370
-3
390
F
  0
LAYER
  5
216
100
AcDbSymbolTableRecord
100
AcDbLayerTableRecord
  2
PLATED_SURFACE_AREA
 70
0
 62
7
  6
CONTINUOUS
370
-3
390
F
  0
LAYER
  5
217
100
AcDbSymbolTableRecord
100
AcDbLayerTableRecord
  2
POINTS
 70
0
 62
7
  6
CONTINUOUS
370
-3
390
F
  0
LAYER
  5
218
100
AcDbSymbolTableRecord
100
AcDbLayerTableRecord
  2
PROTRUSION
 70
0
 62
7
  6
CONTINUOUS
370
-3
390
F
  0
LAYER
  5
219
100
AcDbSymbolTableRecord
100
AcDbLayerTableRecord
  2
PROTRUSION_FEATURES
 70
0
 62
7
  6
CONTINUOUS
370
-3
390
F
  0
LAYER
  5
21A
100
AcDbSymbolTableRecord
100
AcDbLayerTableRecord
  2
QUILT
 70
0
 62
7
  6
CONTINUOUS
370
-3
390
F
  0
LAYER
  5
21B
100
AcDbSymbolTableRecord
100
AcDbLayerTableRecord
  2
QUILTS
 70
0
 62
7
  6
CONTINUOUS
370
-3
390
F
  0
LAYER
  5
21C
100
AcDbSymbolTableRecord
100
AcDbLayerTableRecord
  2
REFERENCE_DIMENSIONS
 70
0
 62
7
  6
CONTINUOUS
370
-3
390
F
  0
LAYER
  5
21D
100
AcDbSymbolTableRecord
100
AcDbLayerTableRecord
  2
ROUND_FEATURES
 70
0
 62
7
  6
CONTINUOUS
370
-3
390
F
  0
LAYER
  5
21E
100
AcDbSymbolTableRecord
100
AcDbLayerTableRecord
  2
SURFACE_FEATURES
 70
0
 62
7
  6
CONTINUOUS
370
-3
390
F
  0
LAYER
  5
21F
100
AcDbSymbolTableRecord
100
AcDbLayerTableRecord
  2
TEXT
 70
0
 62
7
  6
CONTINUOUS
370
-3
390
F
  0
LAYER
  5
220
100
AcDbSymbolTableRecord
100
AcDbLayerTableRecord
  2
XSEC_DATUMS
 70
0
 62
7
  6
CONTINUOUS
370
-3
390
F
  0
LAYER
  5
221
100
AcDbSymbolTableRecord
100
AcDbLayerTableRecord
  2
_BLACK_HOLE
 70
0
 62
7
  6
CONTINUOUS
370
-3
390
F
  0
ENDTAB
  0
TABLE
  2
STYLE
  5
3
100
AcDbSymbolTable
 70
1
  0
STYLE
  5
11
100
AcDbSymbolTableRecord
100
AcDbTextStyleTableRecord
  2
STANDARD
 70
0
 40
0.0
 41
0.8
 50
0.0
 71
0
 42
0.2
  3
txt
  4

  0
STYLE
  5
222
100
AcDbSymbolTableRecord
100
AcDbTextStyleTableRecord
  2
TEXTSTYLE_1
 70
0
 40
0.0
 41
0.8
 50
0.0
 71
0
 42
0.2
  3
gdt
  4

  0
ENDTAB
  0
TABLE
  2
VIEW
  5
6
100
AcDbSymbolTable
 70
0
  0
ENDTAB
  0
TABLE
  2
UCS
  5
7
100
AcDbSymbolTable
 70
0
  0
ENDTAB
  0
TABLE
  2
APPID
  5
9
100
AcDbSymbolTable
 70
1
  0
APPID
  5
223
100
AcDbSymbolTableRecord
100
AcDbRegAppTableRecord
  2
ACAD
 70
0
  0
ENDTAB
  0
TABLE
  2
BLOCK_RECORD
  5
1
100
AcDbSymbolTable
 70
0
  0
BLOCK_RECORD
  5
224
100
AcDbSymbolTableRecord
100
AcDbBlockTableRecord
  2
*Model_Space
  0
BLOCK_RECORD
  5
225
100
AcDbSymbolTableRecord
100
AcDbBlockTableRecord
  2
*Paper_Space
  0
BLOCK_RECORD
  5
226
100
AcDbSymbolTableRecord
100
AcDbBlockTableRecord
  2
_FILLED
  0
ENDTAB
  0
TABLE
  2
DIMSTYLE
  5
A
100
AcDbSymbolTable
 70
1
100
AcDbDimStyleTable
 71
0
  0
DIMSTYLE
105
227
100
AcDbSymbolTableRecord
100
AcDbDimStyleTableRecord
  2
STANDARD
 70
0
  3

  4

 40
1.0
 41
0.1
 42
0.0625
 43
0.38
 44
0.125
 45
0.0
 46
0.0
 47
0.001
 48
0.001
140
0.08
141
0.09
142
0.0
143
25.4
144
1.0
145
0.0
146
1.0
147
0.09
 71
1.0
 72
0.0
 73
1
 74
1
 75
0
 76
0
 77
0
 78
4
 79
1
170
1
171
2
172
0
173
0
174
0
175
0
176
0
177
0
178
0
270
2
179
3
271
3
272
3
273
2
274
2
275
0
280
0
281
0
282
0
283
1
284
4
285
0
286
0
287
3
288
0
340
11
278
46
341
226
342
226
343
226
344
226
  0
ENDTAB
  0
ENDSEC
  0
SECTION
  2
BLOCKS
  0
BLOCK
  5
20
100
AcDbEntity
  8
0
100
AcDbBlockBegin
  2
*Model_Space
 70
0
 10
0.0
 20
0.0
 30
0.0
  3
*Model_Space
  1

  0
ENDBLK
  5
21
100
AcDbEntity
  8
0
100
AcDbBlockEnd
  0
BLOCK
  5
1C
100
AcDbEntity
  8
0
100
AcDbBlockBegin
  2
*Paper_Space
 70
0
 10
0.0
 20
0.0
 30
0.0
  3
*Paper_Space
  1

  0
ENDBLK
  5
1D
100
AcDbEntity
  8
0
100
AcDbBlockEnd
  0
BLOCK
  5
228
100
AcDbEntity
  8
0
100
AcDbBlockBegin
  2
_FILLED
 70
64
 10
0.0
 20
0.0
  3
_FILLED
  1

  0
SOLID
  5
229
100
AcDbEntity
  8
0
  6
BYBLOCK
 62
0
100
AcDbTrace
 10
0.0
 20
0.0
 11
-1.0
 21
0.2
 12
-1.0
 22
-0.2
 13
-1.0
 23
-0.2
  0
ENDBLK
  5
22A
100
AcDbEntity
  8
0
  6
BYBLOCK
 62
0
100
AcDbBlockEnd
  0
ENDSEC
  0
SECTION
  2
ENTITIES
  0
MTEXT
  5
22B
100
AcDbEntity
  8
0
100
AcDbMText
 62
2
  6
CONTINUOUS
  7
STANDARD
 71
3
 72
1
 10
4.9927018634
 20
2.8699497382
 30
0.0
 11
1.0
 21
0.0
 31
0.0
 73
2
 44
0.9
  1
SCALE  .500
 40
0.08
 41
0.704
  0
LINE
  5
22C
100
AcDbEntity
  8
0
100
AcDbLine
 62
7
  6
CONTINUOUS
 10
0.0
 20
0.0
 11
0.0
 21
8.5
  0
LINE
  5
22D
100
AcDbEntity
  8
0
100
AcDbLine
 62
7
  6
CONTINUOUS
 10
0.0
 20
0.0
 11
11.0
 21
0.0
  0
LINE
  5
22E
100
AcDbEntity
  8
0
100
AcDbLine
 62
7
  6
CONTINUOUS
 10
0.0
 20
8.5
 11
11.0
 21
8.5
  0
LINE
  5
22F
100
AcDbEntity
  8
0
100
AcDbLine
 62
7
  6
CONTINUOUS
 10
11.0
 20
0.0
 11
11.0
 21
8.5
  0
LINE
  5
230
100
AcDbEntity
  8
0
100
AcDbLine
 62
7
  6
CONTINUOUS
 10
5.8274518634
 20
2.9663128153
 11
5.6990803059
 21
2.9775438713
  0
LINE
  5
231
100
AcDbEntity
  8
ALL_ASSEMBLY_MEMBERS
100
AcDbLine
 62
7
  6
CONTINUOUS
 10
3.9989518634
 20
3.4974383821
 11
3.9989518634
 21
4.9139383821
  0
LINE
  5
232
100
AcDbEntity
  8
ALL_ASSEMBLY_MEMBERS
100
AcDbLine
 62
7
  6
CONTINUOUS
 10
4.0189518634
 20
3.4774383821
 11
4.0189518634
 21
4.9339383821
  0
LINE
  5
233
100
AcDbEntity
  8
ALL_ASSEMBLY_MEMBERS
100
AcDbLine
 62
7
  6
CONTINUOUS
 10
4.6539518634
 20
3.4774383821
 11
4.0189518634
 21
3.4774383821
  0
LINE
  5
234
100
AcDbEntity
  8
ALL_ASSEMBLY_MEMBERS
100
AcDbLine
 62
7
  6
CONTINUOUS
 10
3.9989518634
 20
3.4974383821
 11
4.6739518634
 21
3.4974383821
  0
LINE
  5
235
100
AcDbEntity
  8
ALL_ASSEMBLY_MEMBERS
100
AcDbLine
 62
7
  6
CONTINUOUS
 10
4.1396672512
 20
4.8417414624
 11
4.1396672156
 21
4.8611563229
  0
LINE
  5
236
100
AcDbEntity
  8
ALL_ASSEMBLY_MEMBERS
100
AcDbLine
 62
7
  6
CONTINUOUS
 10
4.125573429
 20
4.8077921018
 11
4.1095898182
 21
4.7957702805
  0
LINE
  5
237
100
AcDbEntity
  8
ALL_ASSEMBLY_MEMBERS
100
AcDbLine
 62
7
  6
CONTINUOUS
 10
4.3124518634
 20
4.9339383821
 11
4.3124518634
 21
4.8689703219
  0
LINE
  5
238
100
AcDbEntity
  8
ALL_ASSEMBLY_MEMBERS
100
AcDbLine
 62
7
  6
CONTINUOUS
 10
4.3324518634
 20
4.9139383821
 11
4.3324518634
 21
4.8689703172
  0
LINE
  5
239
100
AcDbEntity
  8
ALL_ASSEMBLY_MEMBERS
100
AcDbLine
 62
7
  6
CONTINUOUS
 10
4.3479518634
 20
4.8531513015
 11
4.3479518634
 21
4.8537012068
  0
LINE
  5
23A
100
AcDbEntity
  8
ALL_ASSEMBLY_MEMBERS
100
AcDbLine
 62
7
  6
CONTINUOUS
 10
4.3524518634
 20
4.8417415112
 11
4.3524518634
 21
4.850691348
  0
LINE
  5
23B
100
AcDbEntity
  8
ALL_ASSEMBLY_MEMBERS
100
AcDbLine
 62
7
  6
CONTINUOUS
 10
4.3529518634
 20
4.8830613901
 11
4.3529518634
 21
4.8505580335
  0
LINE
  5
23C
100
AcDbEntity
  8
ALL_ASSEMBLY_MEMBERS
100
AcDbLine
 62
7
  6
CONTINUOUS
 10
4.4109518634
 20
4.9030613901
 11
4.4109518634
 21
4.8441196218
  0
LINE
  5
23D
100
AcDbEntity
  8
ALL_FEATURES
100
AcDbLine
 62
7
  6
CONTINUOUS
 10
5.6899518634
 20
3.9694383821
 11
5.2784518634
 21
3.9694383821
  0
LINE
  5
23E
100
AcDbEntity
  8
ALL_ASSEMBLY_MEMBERS
100
AcDbLine
 62
7
  6
CONTINUOUS
 10
5.1659518634
 20
3.9719383821
 11
5.2784518634
 21
3.9719383821
  0
LINE
  5
23F
100
AcDbEntity
  8
ALL_ASSEMBLY_MEMBERS
100
AcDbLine
 62
7
  6
CONTINUOUS
 10
4.6755764478
 20
4.0630601639
 11
4.6572006062
 21
4.0708686619
  0
LINE
  5
240
100
AcDbEntity
  8
ALL_ASSEMBLY_MEMBERS
100
AcDbLine
 62
7
  6
CONTINUOUS
 10
4.6479307211
 20
4.0800192163
 11
4.1095898182
 21
4.7957702805
  0
LINE
  5
241
100
AcDbEntity
  8
ALL_ASSEMBLY_MEMBERS
100
AcDbLine
 62
7
  6
CONTINUOUS
 10
4.1255734352
 20
4.8077920935
 11
4.6639143238
 21
4.0920410483
  0
LINE
  5
242
100
AcDbEntity
  8
ALL_ASSEMBLY_MEMBERS
100
AcDbLine
 62
7
  6
CONTINUOUS
 10
4.4464894453
 20
4.4118098346
 11
4.4606517957
 21
4.391998867
  0
LWPOLYLINE
  5
243
100
AcDbEntity
  8
ALL_ASSEMBLY_MEMBERS
100
AcDbPolyline
 62
7
  6
CONTINUOUS
 90
6
 70
0
 10
4.3607987003
 20
4.5318842062
 10
4.3749610224
 20
4.512073276
 10
4.3892021233
 20
4.4920992132
 10
4.4035245946
 20
4.4720135193
 10
4.4179258447
 20
4.4518696286
 10
4.4464894453
 20
4.4118098346
  0
LWPOLYLINE
  5
244
100
AcDbEntity
  8
ALL_ASSEMBLY_MEMBERS
100
AcDbPolyline
 62
7
  6
CONTINUOUS
 90
3
 70
0
 10
4.2814366883
 20
4.6430937383
 10
4.2938339987
 20
4.6257438443
 10
4.3065846485
 20
4.6078606739
  0
LWPOLYLINE
  5
245
100
AcDbEntity
  8
ALL_ASSEMBLY_MEMBERS
100
AcDbPolyline
 62
7
  6
CONTINUOUS
 90
3
 70
0
 10
4.3196996654
 20
4.5894760342
 10
4.3331680218
 20
4.5706324695
 10
4.3607987003
 20
4.5318842062
  0
LWPOLYLINE
  5
246
100
AcDbEntity
  8
ALL_ASSEMBLY_MEMBERS
100
AcDbPolyline
 62
7
  6
CONTINUOUS
 90
3
 70
0
 10
4.2469394997
 20
4.6914337906
 10
4.2579894388
 20
4.6759641451
 10
4.2814366883
 20
4.6430937383
  0
LWPOLYLINE
  5
247
100
AcDbEntity
  8
ALL_ASSEMBLY_MEMBERS
100
AcDbPolyline
 62
7
  6
CONTINUOUS
 90
3
 70
0
 10
4.1646580347
 20
4.8067253059
 10
4.176963136
 20
4.7894844351
 10
4.1913374085
 20
4.7693449077
  0
LINE
  5
248
100
AcDbEntity
  8
ALL_ASSEMBLY_MEMBERS
100
AcDbLine
 62
7
  6
CONTINUOUS
 10
4.139667235
 20
4.8417414624
 11
4.6817877657
 21
4.0821352988
  0
LWPOLYLINE
  5
249
100
AcDbEntity
  8
ALL_ASSEMBLY_MEMBERS
100
AcDbPolyline
 62
7
  6
CONTINUOUS
 90
3
 70
0
 10
4.5148665044
 20
4.3160214804
 10
4.5276173415
 20
4.2981380521
 10
4.5400148469
 20
4.2807878893
  0
LWPOLYLINE
  5
24A
100
AcDbEntity
  8
ALL_ASSEMBLY_MEMBERS
100
AcDbPolyline
 62
7
  6
CONTINUOUS
 90
3
 70
0
 10
4.5519673736
 20
4.2640367641
 10
4.5634627411
 20
4.2479165609
 10
4.5745131298
 20
4.2324462902
  0
LWPOLYLINE
  5
24B
100
AcDbEntity
  8
ALL_ASSEMBLY_MEMBERS
100
AcDbPolyline
 62
7
  6
CONTINUOUS
 90
3
 70
0
 10
4.4606517957
 20
4.391998867
 10
4.4882827095
 20
4.3532502721
 10
4.5017512728
 20
4.3344064202
  0
LINE
  5
24C
100
AcDbEntity
  8
ALL_ASSEMBLY_MEMBERS
100
AcDbLine
 62
7
  6
CONTINUOUS
 10
4.6314518634
 20
4.9030613901
 11
4.6314518634
 21
4.8441196218
  0
LINE
  5
24D
100
AcDbEntity
  8
ALL_ASSEMBLY_MEMBERS
100
AcDbLine
 62
7
  6
CONTINUOUS
 10
4.6739518634
 20
4.0549064423
 11
4.6539518634
 21
4.0549064423
  0
LINE
  5
24E
100
AcDbEntity
  8
ALL_ASSEMBLY_MEMBERS
100
AcDbLine
 62
7
  6
CONTINUOUS
 10
5.0672018634
 20
4.0706883821
 11
4.8408268634
 21
4.0706883821
  0
LINE
  5
24F
100
AcDbEntity
  8
ALL_ASSEMBLY_MEMBERS
100
AcDbLine
 62
7
  6
CONTINUOUS
 10
4.7360768634
 20
4.0706883821
 11
4.6939518634
 21
4.0706883821
  0
LINE
  5
250
100
AcDbEntity
  8
ALL_ASSEMBLY_MEMBERS
100
AcDbLine
 62
7
  6
CONTINUOUS
 10
4.6939518634
 20
4.082135253
 11
4.6817877657
 21
4.0821352988
  0
LINE
  5
251
100
AcDbEntity
  8
ALL_ASSEMBLY_MEMBERS
100
AcDbLine
 62
7
  6
CONTINUOUS
 10
4.6539518634
 20
3.4774383821
 11
4.6539518634
 21
4.0549064423
  0
LINE
  5
252
100
AcDbEntity
  8
ALL_ASSEMBLY_MEMBERS
100
AcDbLine
 62
7
  6
CONTINUOUS
 10
4.6739518634
 20
4.0549064412
 11
4.6739518634
 21
3.4974383821
  0
LINE
  5
253
100
AcDbEntity
  8
ALL_ASSEMBLY_MEMBERS
100
AcDbLine
 62
7
  6
CONTINUOUS
 10
4.6817877252
 20
4.0821352988
 11
4.6817877336
 21
4.079912148
  0
LINE
  5
254
100
AcDbEntity
  8
ALL_ASSEMBLY_MEMBERS
100
AcDbLine
 62
7
  6
CONTINUOUS
 10
4.6894518634
 20
4.8830613901
 11
4.6894518634
 21
4.8505585035
  0
LINE
  5
255
100
AcDbEntity
  8
ALL_ASSEMBLY_MEMBERS
100
AcDbLine
 62
7
  6
CONTINUOUS
 10
4.6939518634
 20
4.082135253
 11
4.6939518634
 21
4.0706883821
  0
LINE
  5
256
100
AcDbEntity
  8
ALL_ASSEMBLY_MEMBERS
100
AcDbLine
 62
7
  6
CONTINUOUS
 10
4.6944518634
 20
4.852637755
 11
4.6944518634
 21
4.8531883821
  0
LINE
  5
257
100
AcDbEntity
  8
ALL_ASSEMBLY_MEMBERS
100
AcDbLine
 62
7
  6
CONTINUOUS
 10
5.1044364886
 20
4.8904004967
 11
5.10408002
 21
4.8900665387
  0
LINE
  5
258
100
AcDbEntity
  8
ALL_ASSEMBLY_MEMBERS
100
AcDbLine
 62
7
  6
CONTINUOUS
 10
5.1659518634
 20
3.9719383821
 11
5.0672018634
 21
4.0706883821
  0
LINE
  5
259
100
AcDbEntity
  8
ALL_ASSEMBLY_MEMBERS
100
AcDbLine
 62
7
  6
CONTINUOUS
 10
5.10408002
 20
4.8900665387
 11
5.0672018634
 21
4.8531883821
  0
LINE
  5
25A
100
AcDbEntity
  8
ALL_ASSEMBLY_MEMBERS
100
AcDbLine
 62
7
  6
CONTINUOUS
 10
5.0672018634
 20
4.0706883821
 11
5.0672018634
 21
4.8531883821
  0
LINE
  5
25B
100
AcDbEntity
  8
ALL_ASSEMBLY_MEMBERS
100
AcDbLine
 62
7
  6
CONTINUOUS
 10
4.6639143319
 20
4.0920410376
 11
4.6479307211
 21
4.0800192163
  0
LINE
  5
25C
100
AcDbEntity
  8
ALL_ASSEMBLY_MEMBERS
100
AcDbLine
 62
7
  6
CONTINUOUS
 10
5.1659518634
 20
3.9719383821
 11
5.1659518634
 21
4.9515302188
  0
LINE
  5
25D
100
AcDbEntity
  8
ALL_FEATURES
100
AcDbLine
 62
7
  6
CONTINUOUS
 10
5.2784518634
 20
3.9694383821
 11
5.2784518634
 21
4.9544383821
  0
LINE
  5
25E
100
AcDbEntity
  8
ALL_ASSEMBLY_MEMBERS
100
AcDbLine
 62
7
  6
CONTINUOUS
 10
4.3524518571
 20
4.8417415112
 11
4.1396672512
 21
4.8417414624
  0
LINE
  5
25F
100
AcDbEntity
  8
ALL_ASSEMBLY_MEMBERS
100
AcDbLine
 62
7
  6
CONTINUOUS
 10
4.6314518634
 20
4.8441196218
 11
4.4109518634
 21
4.8441196218
  0
LINE
  5
260
100
AcDbEntity
  8
ALL_ASSEMBLY_MEMBERS
100
AcDbLine
 62
7
  6
CONTINUOUS
 10
5.0672018634
 20
4.8531883821
 11
4.6944518634
 21
4.8531883821
  0
LINE
  5
261
100
AcDbEntity
  8
ALL_ASSEMBLY_MEMBERS
100
AcDbLine
 62
7
  6
CONTINUOUS
 10
4.3132063276
 20
4.8611563676
 11
4.1396672158
 21
4.8611563229
  0
LINE
  5
262
100
AcDbEntity
  8
ALL_ASSEMBLY_MEMBERS
100
AcDbLine
 62
7
  6
CONTINUOUS
 10
4.3324518634
 20
4.8689703219
 11
4.3124518634
 21
4.8689703218
  0
LINE
  5
263
100
AcDbEntity
  8
ALL_ASSEMBLY_MEMBERS
100
AcDbLine
 62
7
  6
CONTINUOUS
 10
4.3529518634
 20
4.8830613901
 11
4.6894518634
 21
4.8830613901
  0
LINE
  5
264
100
AcDbEntity
  8
ALL_ASSEMBLY_MEMBERS
100
AcDbLine
 62
7
  6
CONTINUOUS
 10
4.3729518634
 20
4.9030613901
 11
4.6694518634
 21
4.9030613901
  0
LINE
  5
265
100
AcDbEntity
  8
ALL_ASSEMBLY_MEMBERS
100
AcDbLine
 62
7
  6
CONTINUOUS
 10
3.9989518634
 20
4.9139383821
 11
4.3324518634
 21
4.9139383821
  0
LINE
  5
266
100
AcDbEntity
  8
ALL_ASSEMBLY_MEMBERS
100
AcDbLine
 62
7
  6
CONTINUOUS
 10
4.0189518634
 20
4.9339383821
 11
4.3124518634
 21
4.9339383821
  0
LINE
  5
267
100
AcDbEntity
  8
ALL_ASSEMBLY_MEMBERS
100
AcDbLine
 62
7
  6
CONTINUOUS
 10
5.1659518634
 20
4.9515302188
 11
5.2784518634
 21
4.9515302188
  0
LINE
  5
268
100
AcDbEntity
  8
ALL_FEATURES
100
AcDbLine
 62
7
  6
CONTINUOUS
 10
5.6899518634
 20
4.9544383821
 11
5.2784518634
 21
4.9544383821
  0
LINE
  5
269
100
AcDbEntity
  8
ALL_ASSEMBLY_MEMBERS
100
AcDbLine
 62
7
  6
CONTINUOUS
 10
4.3328290956
 20
4.8649813039
 11
4.3132063276
 21
4.8611563676
  0
LINE
  5
26A
100
AcDbEntity
  8
0
100
AcDbLine
 62
7
  6
CONTINUOUS
 10
5.6899518634
 20
2.9875059046
 11
5.6899518634
 21
5.9363708595
  0
LINE
  5
26B
100
AcDbEntity
  8
0
100
AcDbLine
 62
7
  6
CONTINUOUS
 10
5.6990803059
 20
2.9775438713
 11
5.6990803059
 21
5.9463328929
  0
LINE
  5
26C
100
AcDbEntity
  8
0
100
AcDbLine
 62
7
  6
CONTINUOUS
 10
5.8274518634
 20
2.9663128153
 11
5.8274518634
 21
2.9693329968
  0
LINE
  5
26D
100
AcDbEntity
  8
0
100
AcDbLine
 62
7
  6
CONTINUOUS
 10
5.8774518634
 20
2.9649497382
 11
5.8774518634
 21
5.9619382942
  0
LINE
  5
26E
100
AcDbEntity
  8
0
100
AcDbLine
 62
7
  6
CONTINUOUS
 10
5.8774518634
 20
5.9619383821
 11
5.6990803059
 21
5.9463328929
  0
ARC
  5
26F
100
AcDbEntity
  8
ALL_ASSEMBLY_MEMBERS
100
AcDbCircle
 62
7
  6
CONTINUOUS
 10
4.6934915672
 20
5.3283616102
 40
0.6005711159
100
AcDbArc
 50
313.1771934059
 51
315.0389681662
  0
ARC
  5
270
100
AcDbEntity
  8
ALL_ASSEMBLY_MEMBERS
100
AcDbCircle
 62
7
  6
CONTINUOUS
 10
4.6833419083
 20
4.1066215023
 40
0.0442903353
100
AcDbArc
 50
216.9153258438
 51
233.8269577856
  0
ARC
  5
271
100
AcDbEntity
  8
ALL_ASSEMBLY_MEMBERS
100
AcDbCircle
 62
7
  6
CONTINUOUS
 10
4.6947878445
 20
4.0549069293
 40
0.0408359811
100
AcDbArc
 50
156.9911015479
 51
180.0006832343
  0
ARC
  5
272
100
AcDbEntity
  8
ALL_ASSEMBLY_MEMBERS
100
AcDbCircle
 62
7
  6
CONTINUOUS
 10
4.3532801919
 20
4.8689690376
 40
0.0408283286
100
AcDbArc
 50
179.9981977251
 51
191.0318211326
  0
ARC
  5
273
100
AcDbEntity
  8
ALL_ASSEMBLY_MEMBERS
100
AcDbCircle
 62
7
  6
CONTINUOUS
 10
4.3537539795
 20
4.8689732219
 40
0.0213022577
100
AcDbArc
 50
185.3516725494
 51
190.8007472421
  0
ARC
  5
274
100
AcDbEntity
  8
ALL_ASSEMBLY_MEMBERS
100
AcDbCircle
 62
7
  6
CONTINUOUS
 10
4.3537380766
 20
4.8689714099
 40
0.0212862551
100
AcDbArc
 50
184.1955326775
 51
185.3508090362
  0
ARC
  5
275
100
AcDbEntity
  8
ALL_ASSEMBLY_MEMBERS
100
AcDbCircle
 62
7
  6
CONTINUOUS
 10
4.6952189948
 20
4.054907808
 40
0.0212671315
100
AcDbArc
 50
157.4598106823
 51
180.003679237
  0
ARC
  5
276
100
AcDbEntity
  8
ALL_ASSEMBLY_MEMBERS
100
AcDbCircle
 62
7
  6
CONTINUOUS
 10
4.3537147981
 20
4.8689699856
 40
0.0212629347
100
AcDbArc
 50
179.9990937753
 51
184.1962939886
  0
ARC
  5
277
100
AcDbEntity
  8
ALL_ASSEMBLY_MEMBERS
100
AcDbCircle
 62
7
  6
CONTINUOUS
 10
4.6694518634
 20
4.8830613901
 40
0.02
100
AcDbArc
 50
0.0
 51
90.0
  0
ARC
  5
278
100
AcDbEntity
  8
ALL_ASSEMBLY_MEMBERS
100
AcDbCircle
 62
7
  6
CONTINUOUS
 10
4.3729518634
 20
4.8830613901
 40
0.02
100
AcDbArc
 50
90.0
 51
180.0
  0
ARC
  5
279
100
AcDbEntity
  8
ALL_ASSEMBLY_MEMBERS
100
AcDbCircle
 62
7
  6
CONTINUOUS
 10
4.6539518634
 20
3.4974383821
 40
0.02
100
AcDbArc
 50
270.0
 51
360.0
  0
ARC
  5
27A
100
AcDbEntity
  8
ALL_ASSEMBLY_MEMBERS
100
AcDbCircle
 62
7
  6
CONTINUOUS
 10
4.0189518634
 20
3.4974383821
 40
0.02
100
AcDbArc
 50
180.0
 51
270.0
  0
ARC
  5
27B
100
AcDbEntity
  8
ALL_ASSEMBLY_MEMBERS
100
AcDbCircle
 62
7
  6
CONTINUOUS
 10
4.0189518634
 20
4.9139383821
 40
0.02
100
AcDbArc
 50
90.0
 51
180.0
  0
ARC
  5
27C
100
AcDbEntity
  8
ALL_ASSEMBLY_MEMBERS
100
AcDbCircle
 62
7
  6
CONTINUOUS
 10
4.3124518634
 20
4.9139383821
 40
0.02
100
AcDbArc
 50
0.0
 51
90.0
  0
ARC
  5
27D
100
AcDbEntity
  8
ALL_ASSEMBLY_MEMBERS
100
AcDbCircle
 62
7
  6
CONTINUOUS
 10
4.3524518634
 20
4.8731883821
 40
0.02
100
AcDbArc
 50
186.0
 51
256.9971218371
  0
ARC
  5
27E
100
AcDbEntity
  8
ALL_ASSEMBLY_MEMBERS
100
AcDbCircle
 62
7
  6
CONTINUOUS
 10
4.6939518634
 20
4.0506883821
 40
0.02
100
AcDbArc
 50
90.0
 51
162.0
  0
ARC
  5
27F
100
AcDbEntity
  8
0
100
AcDbCircle
 62
7
  6
CONTINUOUS
 10
5.6999518634
 20
5.9363709459
 40
0.01
100
AcDbArc
 50
95.0
 51
180.0
  0
ARC
  5
280
100
AcDbEntity
  8
0
100
AcDbCircle
 62
7
  6
CONTINUOUS
 10
5.6999518634
 20
2.9875058182
 40
0.01
100
AcDbArc
 50
180.0
 51
265.0
  0
LINE
  5
281
100
AcDbEntity
  8
0
100
AcDbLine
 62
7
  6
CONTINUOUS
 10
5.8774518634
 20
2.9649497382
 11
5.8274518634
 21
2.9693329968
  0
SPLINE
  5
282
100
AcDbEntity
  8
ALL_ASSEMBLY_MEMBERS
100
AcDbSpline
 62
7
  6
CONTINUOUS
 70
0
 71
3
 72
15
 73
11
 74
0
 42
0.0000001
 43
0.0000001
 44
0.0000000001
 40
0.0
 40
0.0
 40
0.0
 40
0.0
 40
0.0405432371
 40
0.1525089408
 40
0.3139229152
 40
0.5000156708
 40
0.6861066259
 40
0.8475121254
 40
0.9594656107
 40
1.0
 40
1.0
 40
1.0
 40
1.0
 10
4.7360768634
 20
4.0706883821
 30
0.0
 10
4.7374859407
 20
4.0708547615
 30
0.0
 10
4.7427892929
 20
4.0714563563
 30
0.0
 10
4.7537265747
 20
4.072505052
 30
0.0
 10
4.7697777684
 20
4.0735298171
 30
0.0
 10
4.7884534466
 20
4.073947583
 30
0.0
 10
4.8071288253
 20
4.0735297037
 30
0.0
 10
4.8231792276
 20
4.0725048951
 30
0.0
 10
4.8341154724
 20
4.0714562234
 30
0.0
 10
4.8394180928
 20
4.0708547187
 30
0.0
 10
4.8408268634
 20
4.0706883821
 30
0.0
  0
SPLINE
  5
283
100
AcDbEntity
  8
ALL_ASSEMBLY_MEMBERS
100
AcDbSpline
 62
7
  6
CONTINUOUS
 70
0
 71
3
 72
16
 73
12
 74
0
 42
0.0000001
 43
0.0000001
 44
0.0000000001
 40
0.0
 40
0.0
 40
0.0
 40
0.0
 40
0.0332540718
 40
0.071767227
 40
0.1635625895
 40
0.2732845545
 40
0.3986644606
 40
0.537046333
 40
0.6855432824
 40
0.8410915234
 40
1.0
 40
1.0
 40
1.0
 40
1.0
 10
4.3524518634
 20
4.850691348
 30
0.0
 10
4.3530811393
 20
4.8505126214
 30
0.0
 10
4.3544454219
 20
4.8501486888
 30
0.0
 10
4.3575730998
 20
4.849392631
 30
0.0
 10
4.3621961959
 20
4.8484263883
 30
0.0
 10
4.3685311032
 20
4.8473153797
 30
0.0
 10
4.3758048378
 20
4.8462714616
 30
0.0
 10
4.3838651654
 20
4.8453652293
 30
0.0
 10
4.3925416679
 20
4.8446639436
 30
0.0
 10
4.4016394943
 20
4.8442213438
 30
0.0
 10
4.4078258607
 20
4.8441196218
 30
0.0
 10
4.4109518634
 20
4.8441196218
 30
0.0
  0
SPLINE
  5
284
100
AcDbEntity
  8
ALL_ASSEMBLY_MEMBERS
100
AcDbSpline
 62
7
  6
CONTINUOUS
 70
0
 71
3
 72
27
 73
23
 74
0
 42
0.0000001
 43
0.0000001
 44
0.0000000001
 40
0.0
 40
0.0
 40
0.0
 40
0.0
 40
0.1928066231
 40
0.3782290813
 40
0.4659262032
 40
0.5492149558
 40
0.6273314508
 40
0.699546677
 40
0.7652185132
 40
0.8237270021
 40
0.8745334345
 40
0.9171343466
 40
0.9352257273
 40
0.9511227945
 40
0.9647882846
 40
0.9761907146
 40
0.9853232135
 40
0.9890473905
 40
0.9922201493
 40
0.9948575422
 40
0.9969897934
 40
1.0
 40
1.0
 40
1.0
 40
1.0
 10
4.6314518634
 20
4.8441196218
 30
0.0
 10
4.6355653444
 20
4.8441196218
 30
0.0
 10
4.6436357859
 20
4.8442927635
 30
0.0
 10
4.6535590072
 20
4.8449273241
 30
0.0
 10
4.6611286503
 20
4.8456530853
 30
0.0
 10
4.6664077049
 20
4.8462694952
 30
0.0
 10
4.6713459194
 20
4.8469477461
 30
0.0
 10
4.6758979487
 20
4.8476683315
 30
0.0
 10
4.680022302
 20
4.8484091286
 30
0.0
 10
4.6836819381
 20
4.8491487802
 30
0.0
 10
4.6868427791
 20
4.8498669094
 30
0.0
 10
4.6891474338
 20
4.8504581245
 30
0.0
 10
4.690717749
 20
4.8509103308
 30
0.0
 10
4.6916880747
 20
4.8512141848
 30
0.0
 10
4.6925143714
 20
4.8514994611
 30
0.0
 10
4.6931944347
 20
4.8517644118
 30
0.0
 10
4.6936661174
 20
4.8519786493
 30
0.0
 10
4.6939665643
 20
4.8521425673
 30
0.0
 10
4.6941386668
 20
4.8522508618
 30
0.0
 10
4.694274236
 20
4.8523542634
 30
0.0
 10
4.6943915888
 20
4.8524688984
 30
0.0
 10
4.6944518634
 20
4.852573533
 30
0.0
 10
4.6944518634
 20
4.852637755
 30
0.0
  0
SPLINE
  5
285
100
AcDbEntity
  8
ALL_ASSEMBLY_MEMBERS
100
AcDbSpline
 62
7
  6
CONTINUOUS
 70
0
 71
3
 72
16
 73
12
 74
0
 42
0.0000001
 43
0.0000001
 44
0.0000000001
 40
0.0
 40
0.0
 40
0.0
 40
0.0
 40
0.3961183112
 40
0.5594621461
 40
0.6984007423
 40
0.8120008026
 40
0.8995732211
 40
0.9336028311
 40
0.9612861099
 40
0.9830733703
 40
1.0
 40
1.0
 40
1.0
 40
1.0
 10
4.3524518634
 20
4.850691348
 30
0.0
 10
4.3517870032
 20
4.8508801812
 30
0.0
 10
4.3508627897
 20
4.8512064997
 30
0.0
 10
4.3497599841
 20
4.8517261682
 30
0.0
 10
4.3491243221
 20
4.8520775161
 30
0.0
 10
4.3486266138
 20
4.8524014214
 30
0.0
 10
4.3483028652
 20
4.8526555219
 30
0.0
 10
4.3481182126
 20
4.8528396719
 30
0.0
 10
4.3480264635
 20
4.8529534341
 30
0.0
 10
4.3479686815
 20
4.8530544884
 30
0.0
 10
4.3479518634
 20
4.8531217676
 30
0.0
 10
4.3479518634
 20
4.8531513015
 30
0.0
  0
LINE
  5
286
100
AcDbEntity
  8
ALL_ASSEMBLY_MEMBERS
100
AcDbLine
 62
7
  6
CONTINUOUS
 10
5.1660706817
 20
4.9516490545
 11
5.1184482039
 21
4.903982626
  0
SPLINE
  5
287
100
AcDbEntity
  8
ALL_ASSEMBLY_MEMBERS
100
AcDbSpline
 62
7
  6
CONTINUOUS
 70
0
 71
3
 72
9
 73
5
 74
0
 42
0.0000001
 43
0.0000001
 44
0.0000000001
 40
0.0
 40
0.0
 40
0.0
 40
0.0
 40
0.4871012897
 40
1.0
 40
1.0
 40
1.0
 40
1.0
 10
4.6939518634
 20
4.0821352528
 30
0.0
 10
4.6929122066
 20
4.0816351843
 30
0.0
 10
4.690826587
 20
4.0805048989
 30
0.0
 10
4.6888511416
 20
4.07919189
 30
0.0
 10
4.6878700876
 20
4.0784755113
 30
0.0
  0
SPLINE
  5
288
100
AcDbEntity
  8
ALL_ASSEMBLY_MEMBERS
100
AcDbSpline
 62
7
  6
CONTINUOUS
 70
0
 71
3
 72
11
 73
7
 74
0
 42
0.0000001
 43
0.0000001
 44
0.0000000001
 40
0.0
 40
0.0
 40
0.0
 40
0.0
 40
0.229995797
 40
0.4722344069
 40
0.7285983706
 40
1.0
 40
1.0
 40
1.0
 40
1.0
 10
4.6878700875
 20
4.0784755117
 30
0.0
 10
4.6873866601
 20
4.0784426316
 30
0.0
 10
4.6863869989
 20
4.0784590684
 30
0.0
 10
4.6848684296
 20
4.0787140552
 30
0.0
 10
4.6833148595
 20
4.0791955458
 30
0.0
 10
4.6822970314
 20
4.0796498007
 30
0.0
 10
4.6817876814
 20
4.0799095899
 30
0.0
  0
SPLINE
  5
289
100
AcDbEntity
  8
ALL_ASSEMBLY_MEMBERS
100
AcDbSpline
 62
7
  6
CONTINUOUS
 70
0
 71
3
 72
21
 73
17
 74
0
 42
0.0000001
 43
0.0000001
 44
0.0000000001
 40
0.0
 40
0.0
 40
0.0
 40
0.0
 40
0.0249736528
 40
0.0475132382
 40
0.069155939
 40
0.0908226113
 40
0.1126547095
 40
0.134733619
 40
0.179949187
 40
0.2270486109
 40
0.276573649
 40
0.3846360642
 40
0.5075670047
 40
0.6494335763
 40
0.8139510698
 40
1.0
 40
1.0
 40
1.0
 40
1.0
 10
4.6878700876
 20
4.0784755113
 30
0.0
 10
4.6877366956
 20
4.0783777528
 30
0.0
 10
4.6874900393
 20
4.0781817566
 30
0.0
 10
4.6871527807
 20
4.0778716648
 30
0.0
 10
4.6868415399
 20
4.0775662455
 30
0.0
 10
4.6865337562
 20
4.0772639975
 30
0.0
 10
4.6862253862
 20
4.0769582285
 30
0.0
 10
4.685807497
 20
4.0765414377
 30
0.0
 10
4.6852731474
 20
4.076004475
 30
0.0
 10
4.6846133211
 20
4.0753359782
 30
0.0
 10
4.6836638409
 20
4.0743686338
 30
0.0
 10
4.682375301
 20
4.0730303676
 30
0.0
 10
4.6807202216
 20
4.0711971542
 30
0.0
 10
4.6789334092
 20
4.0689828397
 30
0.0
 10
4.6771075604
 20
4.0662749437
 30
0.0
 10
4.6760490512
 20
4.0641979558
 30
0.0
 10
4.6755764408
 20
4.0630601668
 30
0.0
  0
SPLINE
  5
28A
100
AcDbEntity
  8
ALL_ASSEMBLY_MEMBERS
100
AcDbSpline
 62
7
  6
CONTINUOUS
 70
0
 71
3
 72
24
 73
20
 74
0
 42
0.0000001
 43
0.0000001
 44
0.0000000001
 40
0.0
 40
0.0
 40
0.0
 40
0.0
 40
0.0610354773
 40
0.1222420001
 40
0.1836236867
 40
0.2452362671
 40
0.3071032294
 40
0.369238729
 40
0.4316652887
 40
0.4943715225
 40
0.5573384397
 40
0.6205325049
 40
0.6838751978
 40
0.715611541
 40
0.7473528119
 40
0.8107301524
 40
0.8740258068
 40
0.9371828023
 40
1.0
 40
1.0
 40
1.0
 40
1.0
 10
4.125573429
 20
4.8077921018
 30
0.0
 10
4.1250060031
 20
4.8085464849
 30
0.0
 10
4.123946869
 20
4.8101174138
 30
0.0
 10
4.1226145757
 20
4.8126313333
 30
0.0
 10
4.1215623516
 20
4.8152851962
 30
0.0
 10
4.120817949
 20
4.8180524166
 30
0.0
 10
4.1204103039
 20
4.8209014385
 30
0.0
 10
4.1203674068
 20
4.8237926291
 30
0.0
 10
4.1207149289
 20
4.826677329
 30
0.0
 10
4.1214720481
 20
4.8294968712
 30
0.0
 10
4.1226459346
 20
4.8321842383
 30
0.0
 10
4.1242311213
 20
4.8346637691
 30
0.0
 10
4.1258714416
 20
4.8364967421
 30
0.0
 10
4.127352182
 20
4.8377859334
 30
0.0
 10
4.128933462
 20
4.8389505
 30
0.0
 10
4.1310817706
 20
4.8401531574
 30
0.0
 10
4.1338541305
 20
4.841157051
 30
0.0
 10
4.1367410111
 20
4.8417061833
 30
0.0
 10
4.1386964389
 20
4.8417774753
 30
0.0
 10
4.1396672848
 20
4.8417413268
 30
0.0
  0
SPLINE
  5
28B
100
AcDbEntity
  8
ALL_ASSEMBLY_MEMBERS
100
AcDbSpline
 62
7
  6
CONTINUOUS
 70
0
 71
3
 72
12
 73
8
 74
0
 42
0.0000001
 43
0.0000001
 44
0.0000000001
 40
0.0
 40
0.0
 40
0.0
 40
0.0
 40
0.1267137826
 40
0.2529799806
 40
0.503544786
 40
0.7524316854
 40
1.0
 40
1.0
 40
1.0
 40
1.0
 10
4.6817874766
 20
4.0821357743
 30
0.0
 10
4.6808975459
 20
4.0821686547
 30
0.0
 10
4.6791230047
 20
4.0823532609
 30
0.0
 10
4.6756705859
 20
4.0831636137
 30
0.0
 10
4.6716004397
 20
4.0849402261
 30
0.0
 10
4.667330054
 20
4.0880543296
 30
0.0
 10
4.664960125
 20
4.0906505129
 30
0.0
 10
4.6639143319
 20
4.0920410376
 30
0.0
  0
SPLINE
  5
28C
100
AcDbEntity
  8
ALL_ASSEMBLY_MEMBERS
100
AcDbSpline
 62
7
  6
CONTINUOUS
 70
0
 71
3
 72
19
 73
15
 74
0
 42
0.0000001
 43
0.0000001
 44
0.0000000001
 40
0.0
 40
0.0
 40
0.0
 40
0.0
 40
0.0660644892
 40
0.0989163995
 40
0.1315749061
 40
0.1962846291
 40
0.2603092975
 40
0.3237555934
 40
0.3867208506
 40
0.5114567516
 40
0.6349772124
 40
0.7575052203
 40
0.879161577
 40
1.0
 40
1.0
 40
1.0
 40
1.0
 10
4.3132063276
 20
4.8611563676
 30
0.0
 10
4.313572553
 20
4.8602245085
 30
0.0
 10
4.3142853199
 20
4.8588890809
 30
0.0
 10
4.3154641657
 20
4.8572794533
 30
0.0
 10
4.3167510347
 20
4.8557807058
 30
0.0
 10
4.3185263879
 20
4.8540890738
 30
0.0
 10
4.3208332747
 20
4.8523049322
 30
0.0
 10
4.3232547941
 20
4.850729611
 30
0.0
 10
4.3265794131
 20
4.8488718885
 30
0.0
 10
4.3308843223
 20
4.8469232112
 30
0.0
 10
4.3361896836
 20
4.8450551586
 30
0.0
 10
4.3415700364
 20
4.8435868834
 30
0.0
 10
4.3469921822
 20
4.8424731494
 30
0.0
 10
4.3506322749
 20
4.8419489369
 30
0.0
 10
4.3524518571
 20
4.8417415112
 30
0.0
  0
SPLINE
  5
28D
100
AcDbEntity
  8
ALL_ASSEMBLY_MEMBERS
100
AcDbSpline
 62
7
  6
CONTINUOUS
 70
0
 71
3
 72
29
 73
25
 74
0
 42
0.0000001
 43
0.0000001
 44
0.0000000001
 40
0.0
 40
0.0
 40
0.0
 40
0.0
 40
0.0661615658
 40
0.132329923
 40
0.1973972845
 40
0.2604133822
 40
0.2913585046
 40
0.322129365
 40
0.3528819733
 40
0.383718375
 40
0.4448589786
 40
0.4747319286
 40
0.5040471889
 40
0.5619175072
 40
0.5909458336
 40
0.6201310654
 40
0.6494959419
 40
0.6791907438
 40
0.7093589408
 40
0.7400509906
 40
0.8029331291
 40
0.8676475588
 40
0.933559119
 40
1.0
 40
1.0
 40
1.0
 40
1.0
 10
4.6817877336
 20
4.0799123144
 30
0.0
 10
4.6811372334
 20
4.0798610026
 30
0.0
 10
4.6798296966
 20
4.0798395799
 30
0.0
 10
4.6778854677
 20
4.0799437422
 30
0.0
 10
4.675974701
 20
4.0800850074
 30
0.0
 10
4.6744072293
 20
4.0801454597
 30
0.0
 10
4.6731777846
 20
4.0801871914
 30
0.0
 10
4.6722665569
 20
4.080224327
 30
0.0
 10
4.6713569917
 20
4.0802755549
 30
0.0
 10
4.6701505714
 20
4.0803730982
 30
0.0
 10
4.6689521573
 20
4.0804713138
 30
0.0
 10
4.6677644503
 20
4.0804790635
 30
0.0
 10
4.6666118879
 20
4.0803947331
 30
0.0
 10
4.6654817667
 20
4.0801804122
 30
0.0
 10
4.6643795231
 20
4.079869632
 30
0.0
 10
4.6635641681
 20
4.0795821067
 30
0.0
 10
4.6627697621
 20
4.0792232981
 30
0.0
 10
4.6620087832
 20
4.0787779687
 30
0.0
 10
4.6612879702
 20
4.0782480456
 30
0.0
 10
4.6603771943
 20
4.0774335036
 30
0.0
 10
4.6593600938
 20
4.0762372648
 30
0.0
 10
4.6583863512
 20
4.0745865815
 30
0.0
 10
4.6576541281
 20
4.0727795414
 30
0.0
 10
4.6573276319
 20
4.071511729
 30
0.0
 10
4.6572001944
 20
4.0708689648
 30
0.0
  0
SPLINE
  5
28E
100
AcDbEntity
  8
ALL_ASSEMBLY_MEMBERS
100
AcDbSpline
 62
7
  6
CONTINUOUS
 70
0
 71
3
 72
9
 73
5
 74
0
 42
0.0000001
 43
0.0000001
 44
0.0000000001
 40
0.0
 40
0.0
 40
0.0
 40
0.0
 40
0.4980935012
 40
1.0
 40
1.0
 40
1.0
 40
1.0
 10
4.6939518626
 20
4.082135253
 30
0.0
 10
4.6919108303
 20
4.0819025103
 30
0.0
 10
4.6878275179
 20
4.0812998155
 30
0.0
 10
4.6837933065
 20
4.0804245117
 30
0.0
 10
4.6817877336
 20
4.079912148
 30
0.0
  0
SPLINE
  5
28F
100
AcDbEntity
  8
ALL_ASSEMBLY_MEMBERS
100
AcDbSpline
 62
7
  6
CONTINUOUS
 70
0
 71
3
 72
14
 73
10
 74
0
 42
0.0000001
 43
0.0000001
 44
0.0000000001
 40
0.0
 40
0.0
 40
0.0
 40
0.0
 40
0.1770791443
 40
0.3290772339
 40
0.4627503416
 40
0.5841274077
 40
0.6967906005
 40
0.802876536
 40
1.0
 40
1.0
 40
1.0
 40
1.0
 10
4.3328290955
 20
4.8649813039
 30
0.0
 10
4.3331768605
 20
4.8631588104
 30
0.0
 10
4.3342440613
 20
4.8598432878
 30
0.0
 10
4.336564814
 20
4.8555670376
 30
0.0
 10
4.3391000674
 20
4.852123925
 30
0.0
 10
4.3417151461
 20
4.849286224
 30
0.0
 10
4.3443672228
 20
4.8468983263
 30
0.0
 10
4.3478402831
 20
4.8442620844
 30
0.0
 10
4.3505908885
 20
4.8426374075
 30
0.0
 10
4.3524518634
 20
4.8417415128
 30
0.0
  0
SPLINE
  5
290
100
AcDbEntity
  8
ALL_ASSEMBLY_MEMBERS
100
AcDbSpline
 62
7
  6
CONTINUOUS
 70
0
 71
3
 72
26
 73
22
 74
0
 42
0.0000001
 43
0.0000001
 44
0.0000000001
 40
0.0
 40
0.0
 40
0.0
 40
0.0
 40
0.0624281026
 40
0.1248803455
 40
0.1873235504
 40
0.2497797082
 40
0.3122441709
 40
0.3747141807
 40
0.4371931899
 40
0.4996822606
 40
0.5621793053
 40
0.6246896071
 40
0.6559679464
 40
0.687249974
 40
0.7185350565
 40
0.7498192785
 40
0.8123361878
 40
0.843621608
 40
0.8749194356
 40
0.9375106027
 40
1.0
 40
1.0
 40
1.0
 40
1.0
 10
4.1095898182
 20
4.7957702805
 30
0.0
 10
4.1084706401
 20
4.7972581376
 30
0.0
 10
4.1064156963
 20
4.8003780067
 30
0.0
 10
4.1039462609
 20
4.8054050237
 30
0.0
 10
4.1021358082
 20
4.8107074244
 30
0.0
 10
4.1010251579
 20
4.8161999078
 30
0.0
 10
4.1006476958
 20
4.8217923489
 30
0.0
 10
4.1010242237
 20
4.8273861399
 30
0.0
 10
4.1021627207
 20
4.8328772766
 30
0.0
 10
4.1040574859
 20
4.8381570208
 30
0.0
 10
4.1066801317
 20
4.8431167052
 30
0.0
 10
4.1094400094
 20
4.8468947242
 30
0.0
 10
4.1119557917
 20
4.8496522606
 30
0.0
 10
4.1139905564
 20
4.8515776872
 30
0.0
 10
4.116160448
 20
4.8533497172
 30
0.0
 10
4.1192154757
 20
4.8554949013
 30
0.0
 10
4.1224991438
 20
4.8572983571
 30
0.0
 10
4.1259476718
 20
4.8587286982
 30
0.0
 10
4.1294929613
 20
4.8599074592
 30
0.0
 10
4.1340683844
 20
4.8608924988
 30
0.0
 10
4.1378035934
 20
4.8611566418
 30
0.0
 10
4.1396672158
 20
4.8611563229
 30
0.0
  0
ENDSEC
  0
SECTION
  2
OBJECTS
  0
DICTIONARY
  5
C
100
AcDbDictionary
280
0
281
1
  3
ACAD_GROUP
350
D
  3
ACAD_MLINESTYLE
350
17
  3
ACAD_LAYOUT
350
1A
  3
ACAD_PLOTSETTINGS
350
19
  3
ACAD_PLOTSTYLENAME
350
E
  0
DICTIONARY
  5
D
102
{ACAD_REACTORS
330
C
102
}
100
AcDbDictionary
280
0
281
1
  0
ACDBDICTIONARYWDFLT
  5
E
102
{ACAD_REACTORS
330
C
102
}
100
AcDbDictionary
281
1
  3
Normal
350
F
100
AcDbDictionaryWithDefault
340
F
  0
DICTIONARY
  5
17
102
{ACAD_REACTORS
330
C
102
}
100
AcDbDictionary
280
0
281
1
  3
Standard
350
18
  0
DICTIONARY
  5
19
102
{ACAD_REACTORS
330
C
102
}
100
AcDbDictionary
281
1
  0
DICTIONARY
  5
1A
102
{ACAD_REACTORS
330
C
102
}
100
AcDbDictionary
281
1
  3
Model
350
291
  3
Layout1
350
292
  0
ACDBPLACEHOLDER
  5
F
102
{ACAD_REACTORS
330
E
102
}
  0
MLINESTYLE
  5
18
102
{ACAD_REACTORS
330
17
102
}
100
AcDbMlineStyle
  2
STANDARD
 70
0
  3

 62
256
 51
90.0
 52
90.0
 71
2
 49
0.5
 62
256
  6
BYLAYER
 49
-0.5
 62
256
  6
BYLAYER
  0
LAYOUT
  5
291
102
{ACAD_REACTORS
330
1A
102
}
100
AcDbPlotSettings
  1

  2
none_device
  4
ANSI_A_(11.00_x_8.50_Inches)
  6

 40
0.0
 41
0.0
 42
0.0
 43
0.0
 44
279.4
 45
215.9
 46
0.0
 47
0.0
 48
0.0
 49
0.0
140
0.0
141
0.0
142
1.0
143
1.0
 70
1024
 72
0
 73
0
 74
0
  7

 75
0
147
1.0
148
0.0
149
0.0
100
AcDbLayout
  1
Model
 70
0
 71
0
 10
0.0
 20
0.0
 11
11.0
 21
8.5
 12
0.0
 22
0.0
 32
0.0
 14
0.0
 24
0.0
 34
0.0
 15
0.0
 25
0.0
 35
0.0
146
0.0
 13
0.0
 23
0.0
 33
0.0
 16
1.0
 26
0.0
 36
0.0
 17
0.0
 27
1.0
 37
0.0
 76
0
330
224
345
0
346
0
  0
LAYOUT
  5
292
102
{ACAD_REACTORS
330
1A
102
}
100
AcDbPlotSettings
  1

  2
none_device
  4
ANSI_A_(11.00_x_8.50_Inches)
  6

 40
0.0
 41
0.0
 42
0.0
 43
0.0
 44
279.4
 45
215.9
 46
0.0
 47
0.0
 48
0.0
 49
0.0
140
0.0
141
0.0
142
1.0
143
1.0
 70
0
 72
0
 73
0
 74
0
  7

 75
0
147
1.0
148
0.0
149
0.0
100
AcDbLayout
  1
Layout1
 70
0
 71
1
 10
0.0
 20
0.0
 11
11.0
 21
8.5
 12
0.0
 22
0.0
 32
0.0
 14
0.0
 24
0.0
 34
0.0
 15
0.0
 25
0.0
 35
0.0
146
0.0
 13
0.0
 23
0.0
 33
0.0
 16
1.0
 26
0.0
 36
0.0
 17
0.0
 27
1.0
 37
0.0
 76
0
330
225
345
0
346
0
  0
ENDSEC
  0
EOF
