999
DXF file: 3-2484tr_TOP.dxf
999
Pro/ENGINEER 2018400 by Parametric Technology Corporation
  0
SECTION
  2
HEADER
  9
$ACADVER
  1
AC1027
  9
$DWGCODEPAGE
  3
ANSI_1252
  9
$EXTMAX
 10
11.0
 20
8.5
 30
0.0
  9
$EXTMIN
 10
0.0
 20
0.0
 30
0.0
  9
$LIMMIN
 10
0.0
 20
0.0
  9
$LIMMAX
 10
11.0
 20
8.5
  9
$VIEWCTR
 10
5.5
 20
4.25
  9
$VIEWSIZE
 40
8.5
  9
$CLAYER
  8
0
  9
$LTSCALE
 40
0.605
  9
$CELTYPE
  6
BYLAYER
  9
$DIMSCALE
 40
1.0
  9
$DIMASZ
 40
0.1
  9
$DIMEXO
 40
0.0625
  9
$DIMDLI
 40
0.418
  9
$DIMEXE
 40
0.125
  9
$DIMCEN
 40
0.099
  9
$DIMLFAC
 40
1.0
  9
$DIMBLK
  1
_FILLED
  9
$DIMALT
 70
1
  9
$DIMALTD
 70
2
  9
$DIMALTTD
 70
2
  9
$DIMALTF
 40
25.4
  9
$DIMTXT
 40
0.08
  9
$DIMTOL
 70
1
  9
$DIMLIM
 70
0
  9
$DIMTFAC
 40
1.0
  9
$DIMTP
 40
0.001
  9
$DIMTM
 40
0.001
  9
$DIMGAP
 40
0.09
  9
$DIMDSEP
 70
46
  9
$AUNITS
 70
0
  9
$PDMODE
 70
3
  9
$PDSIZE
 40
0.3125
  9
$HANDSEED
  5
29F
  9
$TILEMODE
 70
1
  9
$MEASUREMENT
 70
0
  9
$INSUNITS
 70
1
  0
ENDSEC
  0
SECTION
  2
CLASSES
  0
CLASS
  1
ACDBDICTIONARYWDFLT
  2
AcDbDictionaryWithDefault
  3
AutoCAD 2000
 90
0
 91
1
280
0
281
0
  0
CLASS
  1
ACDBPLACEHOLDER
  2
AcDbPlaceHolder
  3
AutoCAD 2000
 90
0
 91
1
280
0
281
0
  0
CLASS
  1
LAYOUT
  2
AcDbLayout
  3
AutoCAD 2000
 90
0
 91
0
280
0
281
0
  0
ENDSEC
  0
SECTION
  2
TABLES
  0
TABLE
  2
VPORT
  5
8
100
AcDbSymbolTable
 70
2
  0
VPORT
  5
1F4
100
AcDbSymbolTableRecord
100
AcDbViewportTableRecord
  2
*ACTIVE
 70
0
 10
0.0
 20
0.0
 11
1.0
 21
1.0
 12
5.5
 22
4.25
 13
0.0
 23
0.0
 14
1.0
 24
1.0
 15
0.0
 25
0.0
 16
0.0
 26
0.0
 36
1.0
 17
0.0
 27
0.0
 37
0.0
 40
8.5
 41
1.2941176471
 42
50.0
 43
0.0
 44
0.0
 50
0.0
 51
0.0
 71
0
 72
100
 73
1
 74
1
 75
0
 76
0
 77
0
 78
0
  0
ENDTAB
  0
TABLE
  2
LTYPE
  5
5
100
AcDbSymbolTable
 70
6
  0
LTYPE
  5
14
100
AcDbSymbolTableRecord
100
AcDbLinetypeTableRecord
  2
BYBLOCK
 70
0
  3

 72
65
 73
0
 40
0.0
  0
LTYPE
  5
15
100
AcDbSymbolTableRecord
100
AcDbLinetypeTableRecord
  2
BYLAYER
 70
0
  3

 72
65
 73
0
 40
0.0
  0
LTYPE
  5
16
100
AcDbSymbolTableRecord
100
AcDbLinetypeTableRecord
  2
CONTINUOUS
 70
64
  3
Solid line
 72
65
 73
0
 40
0.0
  0
LTYPE
  5
1F5
100
AcDbSymbolTableRecord
100
AcDbLinetypeTableRecord
  2
CENTER
 70
64
  3
____ _ ____ _ ____ _ ____ _ ____ _ ____ _ ____
 72
65
 73
4
 40
0.6
 49
0.375
 74
0
 49
-0.075
 74
0
 49
0.075
 74
0
 49
-0.075
 74
0
  0
LTYPE
  5
1F6
100
AcDbSymbolTableRecord
100
AcDbLinetypeTableRecord
  2
HIDDEN
 70
64
  3
- - - - - - - - - - - - - - - - - - - -
 72
65
 73
2
 40
0.2
 49
0.1
 74
0
 49
-0.1
 74
0
  0
LTYPE
  5
1F7
100
AcDbSymbolTableRecord
100
AcDbLinetypeTableRecord
  2
PHANTOM
 70
64
  3
_____ _ _ _____ _ _ _____ _ _ _____
 72
65
 73
6
 40
0.8
 49
0.45
 74
0
 49
-0.05
 74
0
 49
0.1
 74
0
 49
-0.05
 74
0
 49
0.1
 74
0
 49
-0.05
 74
0
  0
LTYPE
  5
1F8
100
AcDbSymbolTableRecord
100
AcDbLinetypeTableRecord
  2
DOT
 70
64
  3
. . . . . . . . . . . . . . . . . . . .
 72
65
 73
2
 40
0.2
 49
0.1
 74
0
 49
-0.1
 74
0
  0
LTYPE
  5
1F9
100
AcDbSymbolTableRecord
100
AcDbLinetypeTableRecord
  2
DASHED
 70
64
  3
- - - - - - - - - - - - - - - - - - - -
 72
65
 73
2
 40
0.2
 49
0.1
 74
0
 49
-0.1
 74
0
  0
ENDTAB
  0
TABLE
  2
LAYER
  5
2
100
AcDbSymbolTable
 70
36
  0
LAYER
  5
10
100
AcDbSymbolTableRecord
100
AcDbLayerTableRecord
  2
0
 70
0
 62
7
  6
CONTINUOUS
370
-3
390
F
  0
LAYER
  5
1FA
100
AcDbSymbolTableRecord
100
AcDbLayerTableRecord
  2
DEFAULT_1
 70
0
 62
7
  6
CENTER
370
-3
390
F
  0
LAYER
  5
1FB
100
AcDbSymbolTableRecord
100
AcDbLayerTableRecord
  2
DEFAULT_2
 70
0
 62
8
  6
HIDDEN
370
-3
390
F
  0
LAYER
  5
1FC
100
AcDbSymbolTableRecord
100
AcDbLayerTableRecord
  2
DEFAULT_3
 70
0
 62
7
  6
PHANTOM
370
-3
390
F
  0
LAYER
  5
1FD
100
AcDbSymbolTableRecord
100
AcDbLayerTableRecord
  2
ALL_ASSEMBLY_MEMBERS
 70
0
 62
7
  6
CONTINUOUS
370
-3
390
F
  0
LAYER
  5
1FE
100
AcDbSymbolTableRecord
100
AcDbLayerTableRecord
  2
ALL_FEATURES
 70
0
 62
7
  6
CONTINUOUS
370
-3
390
F
  0
LAYER
  5
1FF
100
AcDbSymbolTableRecord
100
AcDbLayerTableRecord
  2
AXES_FEATURES
 70
0
 62
7
  6
CONTINUOUS
370
-3
390
F
  0
LAYER
  5
200
100
AcDbSymbolTableRecord
100
AcDbLayerTableRecord
  2
CHAMFER_FEATURES
 70
0
 62
7
  6
CONTINUOUS
370
-3
390
F
  0
LAYER
  5
201
100
AcDbSymbolTableRecord
100
AcDbLayerTableRecord
  2
COLOR1
 70
0
 62
7
  6
CONTINUOUS
370
-3
390
F
  0
LAYER
  5
202
100
AcDbSymbolTableRecord
100
AcDbLayerTableRecord
  2
COSMETIC_SKETCHES
 70
0
 62
7
  6
CONTINUOUS
370
-3
390
F
  0
LAYER
  5
203
100
AcDbSymbolTableRecord
100
AcDbLayerTableRecord
  2
CUT_FEATURES
 70
0
 62
7
  6
CONTINUOUS
370
-3
390
F
  0
LAYER
  5
204
100
AcDbSymbolTableRecord
100
AcDbLayerTableRecord
  2
DATUM_CURVES
 70
0
 62
7
  6
CONTINUOUS
370
-3
390
F
  0
LAYER
  5
205
100
AcDbSymbolTableRecord
100
AcDbLayerTableRecord
  2
DATUM_PLANES
 70
0
 62
7
  6
CONTINUOUS
370
-3
390
F
  0
LAYER
  5
206
100
AcDbSymbolTableRecord
100
AcDbLayerTableRecord
  2
DATUM_POINTS
 70
0
 62
7
  6
CONTINUOUS
370
-3
390
F
  0
LAYER
  5
207
100
AcDbSymbolTableRecord
100
AcDbLayerTableRecord
  2
DEFAULT_COORDINATE_SYSTEM
 70
0
 62
7
  6
CONTINUOUS
370
-3
390
F
  0
LAYER
  5
208
100
AcDbSymbolTableRecord
100
AcDbLayerTableRecord
  2
DEFAULT_DATUM_AXES
 70
0
 62
7
  6
CONTINUOUS
370
-3
390
F
  0
LAYER
  5
209
100
AcDbSymbolTableRecord
100
AcDbLayerTableRecord
  2
DEFAULT_DATUM_CURVES
 70
0
 62
7
  6
CONTINUOUS
370
-3
390
F
  0
LAYER
  5
20A
100
AcDbSymbolTableRecord
100
AcDbLayerTableRecord
  2
DEFAULT_DATUM_PLANES
 70
0
 62
7
  6
CONTINUOUS
370
-3
390
F
  0
LAYER
  5
20B
100
AcDbSymbolTableRecord
100
AcDbLayerTableRecord
  2
DEFAULT_SURFACES
 70
0
 62
7
  6
CONTINUOUS
370
-3
390
F
  0
LAYER
  5
20C
100
AcDbSymbolTableRecord
100
AcDbLayerTableRecord
  2
DIMENSIONS
 70
0
 62
7
  6
CONTINUOUS
370
-3
390
F
  0
LAYER
  5
20D
100
AcDbSymbolTableRecord
100
AcDbLayerTableRecord
  2
HOLE_FEATURES
 70
0
 62
7
  6
CONTINUOUS
370
-3
390
F
  0
LAYER
  5
20E
100
AcDbSymbolTableRecord
100
AcDbLayerTableRecord
  2
IMPORTED_FEATURE
 70
0
 62
7
  6
CONTINUOUS
370
-3
390
F
  0
LAYER
  5
20F
100
AcDbSymbolTableRecord
100
AcDbLayerTableRecord
  2
INTF_1
 70
0
 62
7
  6
CONTINUOUS
370
-3
390
F
  0
LAYER
  5
210
100
AcDbSymbolTableRecord
100
AcDbLayerTableRecord
  2
INTF_12
 70
0
 62
7
  6
CONTINUOUS
370
-3
390
F
  0
LAYER
  5
211
100
AcDbSymbolTableRecord
100
AcDbLayerTableRecord
  2
INTF_13
 70
0
 62
7
  6
CONTINUOUS
370
-3
390
F
  0
LAYER
  5
212
100
AcDbSymbolTableRecord
100
AcDbLayerTableRecord
  2
INTF_BLANK
 70
0
 62
7
  6
CONTINUOUS
370
-3
390
F
  0
LAYER
  5
213
100
AcDbSymbolTableRecord
100
AcDbLayerTableRecord
  2
INTF_CYAN
 70
0
 62
7
  6
CONTINUOUS
370
-3
390
F
  0
LAYER
  5
214
100
AcDbSymbolTableRecord
100
AcDbLayerTableRecord
  2
INTF_YELLOW
 70
0
 62
7
  6
CONTINUOUS
370
-3
390
F
  0
LAYER
  5
215
100
AcDbSymbolTableRecord
100
AcDbLayerTableRecord
  2
PART_REFERENCE_DIMENSIONS
 70
0
 62
7
  6
CONTINUOUS
370
-3
390
F
  0
LAYER
  5
216
100
AcDbSymbolTableRecord
100
AcDbLayerTableRecord
  2
PLATED_SURFACE_AREA
 70
0
 62
7
  6
CONTINUOUS
370
-3
390
F
  0
LAYER
  5
217
100
AcDbSymbolTableRecord
100
AcDbLayerTableRecord
  2
POINTS
 70
0
 62
7
  6
CONTINUOUS
370
-3
390
F
  0
LAYER
  5
218
100
AcDbSymbolTableRecord
100
AcDbLayerTableRecord
  2
PROTRUSION
 70
0
 62
7
  6
CONTINUOUS
370
-3
390
F
  0
LAYER
  5
219
100
AcDbSymbolTableRecord
100
AcDbLayerTableRecord
  2
PROTRUSION_FEATURES
 70
0
 62
7
  6
CONTINUOUS
370
-3
390
F
  0
LAYER
  5
21A
100
AcDbSymbolTableRecord
100
AcDbLayerTableRecord
  2
QUILT
 70
0
 62
7
  6
CONTINUOUS
370
-3
390
F
  0
LAYER
  5
21B
100
AcDbSymbolTableRecord
100
AcDbLayerTableRecord
  2
QUILTS
 70
0
 62
7
  6
CONTINUOUS
370
-3
390
F
  0
LAYER
  5
21C
100
AcDbSymbolTableRecord
100
AcDbLayerTableRecord
  2
REFERENCE_DIMENSIONS
 70
0
 62
7
  6
CONTINUOUS
370
-3
390
F
  0
LAYER
  5
21D
100
AcDbSymbolTableRecord
100
AcDbLayerTableRecord
  2
ROUND_FEATURES
 70
0
 62
7
  6
CONTINUOUS
370
-3
390
F
  0
LAYER
  5
21E
100
AcDbSymbolTableRecord
100
AcDbLayerTableRecord
  2
SURFACE_FEATURES
 70
0
 62
7
  6
CONTINUOUS
370
-3
390
F
  0
LAYER
  5
21F
100
AcDbSymbolTableRecord
100
AcDbLayerTableRecord
  2
TEXT
 70
0
 62
7
  6
CONTINUOUS
370
-3
390
F
  0
LAYER
  5
220
100
AcDbSymbolTableRecord
100
AcDbLayerTableRecord
  2
XSEC_DATUMS
 70
0
 62
7
  6
CONTINUOUS
370
-3
390
F
  0
LAYER
  5
221
100
AcDbSymbolTableRecord
100
AcDbLayerTableRecord
  2
_BLACK_HOLE
 70
0
 62
7
  6
CONTINUOUS
370
-3
390
F
  0
ENDTAB
  0
TABLE
  2
STYLE
  5
3
100
AcDbSymbolTable
 70
1
  0
STYLE
  5
11
100
AcDbSymbolTableRecord
100
AcDbTextStyleTableRecord
  2
STANDARD
 70
0
 40
0.0
 41
0.8
 50
0.0
 71
0
 42
0.2
  3
txt
  4

  0
STYLE
  5
222
100
AcDbSymbolTableRecord
100
AcDbTextStyleTableRecord
  2
TEXTSTYLE_1
 70
0
 40
0.0
 41
0.8
 50
0.0
 71
0
 42
0.2
  3
gdt
  4

  0
ENDTAB
  0
TABLE
  2
VIEW
  5
6
100
AcDbSymbolTable
 70
0
  0
ENDTAB
  0
TABLE
  2
UCS
  5
7
100
AcDbSymbolTable
 70
0
  0
ENDTAB
  0
TABLE
  2
APPID
  5
9
100
AcDbSymbolTable
 70
1
  0
APPID
  5
223
100
AcDbSymbolTableRecord
100
AcDbRegAppTableRecord
  2
ACAD
 70
0
  0
ENDTAB
  0
TABLE
  2
BLOCK_RECORD
  5
1
100
AcDbSymbolTable
 70
0
  0
BLOCK_RECORD
  5
224
100
AcDbSymbolTableRecord
100
AcDbBlockTableRecord
  2
*Model_Space
  0
BLOCK_RECORD
  5
225
100
AcDbSymbolTableRecord
100
AcDbBlockTableRecord
  2
*Paper_Space
  0
BLOCK_RECORD
  5
226
100
AcDbSymbolTableRecord
100
AcDbBlockTableRecord
  2
_FILLED
  0
ENDTAB
  0
TABLE
  2
DIMSTYLE
  5
A
100
AcDbSymbolTable
 70
1
100
AcDbDimStyleTable
 71
0
  0
DIMSTYLE
105
227
100
AcDbSymbolTableRecord
100
AcDbDimStyleTableRecord
  2
STANDARD
 70
0
  3

  4

 40
1.0
 41
0.1
 42
0.0625
 43
0.38
 44
0.125
 45
0.0
 46
0.0
 47
0.001
 48
0.001
140
0.08
141
0.09
142
0.0
143
25.4
144
1.0
145
0.0
146
1.0
147
0.09
 71
1.0
 72
0.0
 73
1
 74
1
 75
0
 76
0
 77
0
 78
4
 79
1
170
1
171
2
172
0
173
0
174
0
175
0
176
0
177
0
178
0
270
2
179
3
271
3
272
3
273
2
274
2
275
0
280
0
281
0
282
0
283
1
284
4
285
0
286
0
287
3
288
0
340
11
278
46
341
226
342
226
343
226
344
226
  0
ENDTAB
  0
ENDSEC
  0
SECTION
  2
BLOCKS
  0
BLOCK
  5
20
100
AcDbEntity
  8
0
100
AcDbBlockBegin
  2
*Model_Space
 70
0
 10
0.0
 20
0.0
 30
0.0
  3
*Model_Space
  1

  0
ENDBLK
  5
21
100
AcDbEntity
  8
0
100
AcDbBlockEnd
  0
BLOCK
  5
1C
100
AcDbEntity
  8
0
100
AcDbBlockBegin
  2
*Paper_Space
 70
0
 10
0.0
 20
0.0
 30
0.0
  3
*Paper_Space
  1

  0
ENDBLK
  5
1D
100
AcDbEntity
  8
0
100
AcDbBlockEnd
  0
BLOCK
  5
228
100
AcDbEntity
  8
0
100
AcDbBlockBegin
  2
_FILLED
 70
64
 10
0.0
 20
0.0
  3
_FILLED
  1

  0
SOLID
  5
229
100
AcDbEntity
  8
0
  6
BYBLOCK
 62
0
100
AcDbTrace
 10
0.0
 20
0.0
 11
-1.0
 21
0.2
 12
-1.0
 22
-0.2
 13
-1.0
 23
-0.2
  0
ENDBLK
  5
22A
100
AcDbEntity
  8
0
  6
BYBLOCK
 62
0
100
AcDbBlockEnd
  0
ENDSEC
  0
SECTION
  2
ENTITIES
  0
MTEXT
  5
22B
100
AcDbEntity
  8
0
100
AcDbMText
 62
2
  6
CONTINUOUS
  7
STANDARD
 71
3
 72
1
 10
4.9927018634
 20
3.3745458075
 30
0.0
 11
1.0
 21
0.0
 31
0.0
 73
2
 44
0.9
  1
SCALE  .500
 40
0.08
 41
0.704
  0
LINE
  5
22C
100
AcDbEntity
  8
0
100
AcDbLine
 62
7
  6
CONTINUOUS
 10
0.0
 20
0.0
 11
0.0
 21
8.5
  0
LINE
  5
22D
100
AcDbEntity
  8
0
100
AcDbLine
 62
7
  6
CONTINUOUS
 10
0.0
 20
0.0
 11
11.0
 21
0.0
  0
LINE
  5
22E
100
AcDbEntity
  8
0
100
AcDbLine
 62
7
  6
CONTINUOUS
 10
0.0
 20
8.5
 11
11.0
 21
8.5
  0
LINE
  5
22F
100
AcDbEntity
  8
0
100
AcDbLine
 62
7
  6
CONTINUOUS
 10
11.0
 20
0.0
 11
11.0
 21
8.5
  0
LINE
  5
230
100
AcDbEntity
  8
0
100
AcDbLine
 62
7
  6
CONTINUOUS
 10
3.4927018634
 20
5.3480458075
 11
3.5083073525
 21
5.16967425
  0
LINE
  5
231
100
AcDbEntity
  8
ALL_ASSEMBLY_MEMBERS
100
AcDbLine
 62
7
  6
CONTINUOUS
 10
4.9339518634
 20
3.4695458075
 11
5.0514518634
 21
3.4695458075
  0
LINE
  5
232
100
AcDbEntity
  8
ALL_ASSEMBLY_MEMBERS
100
AcDbLine
 62
7
  6
CONTINUOUS
 10
4.9139518634
 20
3.4895458075
 11
5.0714518634
 21
3.4895458075
  0
LWPOLYLINE
  5
233
100
AcDbEntity
  8
ALL_ASSEMBLY_MEMBERS
100
AcDbPolyline
 62
7
  6
CONTINUOUS
 90
28
 70
0
 10
5.0877050385
 20
3.5910129203
 10
5.0971120368
 20
3.592902332
 10
5.1142375156
 20
3.5968401158
 10
5.1313361394
 20
3.6014353936
 10
5.1483502286
 20
3.6067006542
 10
5.1652037497
 20
3.6126386105
 10
5.181807778
 20
3.6192384905
 10
5.1980995502
 20
3.626494904
 10
5.2140233662
 20
3.6344014844
 10
5.229505976
 20
3.6429369489
 10
5.2444787886
 20
3.6520761012
 10
5.2589142261
 20
3.6618148126
 10
5.2727986464
 20
3.6721610687
 10
5.2860722125
 20
3.683090507
 10
5.2987008109
 20
3.6945973291
 10
5.3106925494
 20
3.7067227017
 10
5.3219941631
 20
3.7194584086
 10
5.3325436055
 20
3.7327858977
 10
5.3423134743
 20
3.7467360556
 10
5.3512622964
 20
3.7613395273
 10
5.3592876977
 20
3.7765338758
 10
5.3662798033
 20
3.7922047792
 10
5.3721961368
 20
3.8083502741
 10
5.376972394
 20
3.8249154379
 10
5.3805230976
 20
3.8416932707
 10
5.3828310817
 20
3.8586310345
 10
5.3838837066
 20
3.875704903
 10
5.3839523277
 20
3.8812944939
  0
LINE
  5
234
100
AcDbEntity
  8
ALL_ASSEMBLY_MEMBERS
100
AcDbLine
 62
7
  6
CONTINUOUS
 10
5.0866496291
 20
3.6102611953
 11
5.0714518634
 21
3.6102611597
  0
LINE
  5
235
100
AcDbEntity
  8
ALL_ASSEMBLY_MEMBERS
100
AcDbLine
 62
7
  6
CONTINUOUS
 10
4.8987544704
 20
3.6102616266
 11
4.9139518634
 21
3.6102616757
  0
LINE
  5
236
100
AcDbEntity
  8
ALL_ASSEMBLY_MEMBERS
100
AcDbLine
 62
7
  6
CONTINUOUS
 10
4.9139518634
 20
3.7830458075
 11
5.0714518634
 21
3.7830458075
  0
LINE
  5
237
100
AcDbEntity
  8
ALL_ASSEMBLY_MEMBERS
100
AcDbLine
 62
7
  6
CONTINUOUS
 10
5.0514518634
 20
3.8030458075
 11
4.9339518634
 21
3.8030458075
  0
LINE
  5
238
100
AcDbEntity
  8
ALL_ASSEMBLY_MEMBERS
100
AcDbLine
 62
7
  6
CONTINUOUS
 10
5.0134518634
 20
3.8185458075
 11
4.9719518634
 21
3.8185458075
  0
LINE
  5
239
100
AcDbEntity
  8
ALL_ASSEMBLY_MEMBERS
100
AcDbLine
 62
7
  6
CONTINUOUS
 10
5.0866494317
 20
3.8230458075
 11
5.0368345493
 21
3.8230458075
  0
LINE
  5
23A
100
AcDbEntity
  8
ALL_ASSEMBLY_MEMBERS
100
AcDbLine
 62
7
  6
CONTINUOUS
 10
4.898754295
 20
3.8230458075
 11
4.9485691775
 21
3.8230458075
  0
LINE
  5
23B
100
AcDbEntity
  8
ALL_ASSEMBLY_MEMBERS
100
AcDbLine
 62
7
  6
CONTINUOUS
 10
4.9719518634
 20
3.8235458075
 11
5.0134518634
 21
3.8235458075
  0
LINE
  5
23C
100
AcDbEntity
  8
ALL_ASSEMBLY_MEMBERS
100
AcDbLine
 62
7
  6
CONTINUOUS
 10
4.9719518634
 20
3.8435458075
 11
5.0134518634
 21
3.8435458075
  0
LINE
  5
23D
100
AcDbEntity
  8
0
100
AcDbLine
 62
7
  6
CONTINUOUS
 10
4.5002018634
 20
5.1605458075
 11
4.5002018634
 21
4.7490458075
  0
LINE
  5
23E
100
AcDbEntity
  8
ALL_ASSEMBLY_MEMBERS
100
AcDbLine
 62
7
  6
CONTINUOUS
 10
4.5027018634
 20
4.6365458075
 11
4.5027018634
 21
4.7490458075
  0
LINE
  5
23F
100
AcDbEntity
  8
ALL_ASSEMBLY_MEMBERS
100
AcDbLine
 62
7
  6
CONTINUOUS
 10
4.9339518634
 20
3.8815458075
 11
4.9139518634
 21
3.8815458075
  0
LINE
  5
240
100
AcDbEntity
  8
ALL_ASSEMBLY_MEMBERS
100
AcDbLine
 62
7
  6
CONTINUOUS
 10
5.0514518634
 20
3.8815458075
 11
5.0714518634
 21
3.8815458075
  0
LWPOLYLINE
  5
241
100
AcDbEntity
  8
ALL_ASSEMBLY_MEMBERS
100
AcDbPolyline
 62
7
  6
CONTINUOUS
 90
28
 70
0
 10
4.6014515906
 20
3.8812462972
 10
4.6015209618
 20
3.8756662311
 10
4.6025761693
 20
3.8585916168
 10
4.6048870703
 20
3.8416578182
 10
4.6084377902
 20
3.8248899023
 10
4.6132108537
 20
3.8083390252
 10
4.6191222855
 20
3.7922093303
 10
4.6261065881
 20
3.7765536356
 10
4.6341209551
 20
3.7613747045
 10
4.6430576261
 20
3.7467858675
 10
4.6528153185
 20
3.7328464025
 10
4.6633519227
 20
3.7195267836
 10
4.6746395991
 20
3.7067988834
 10
4.6866178198
 20
3.6946792912
 10
4.6992334918
 20
3.6831753992
 10
4.7124921028
 20
3.6722493139
 10
4.7263610075
 20
3.6619060515
 10
4.7407823286
 20
3.6521679275
 10
4.755738745
 20
3.6430290494
 10
4.7712046308
 20
3.6344933183
 10
4.7871149765
 20
3.6265843734
 10
4.8033910797
 20
3.6193247131
 10
4.8199790979
 20
3.6127210941
 10
4.8368207234
 20
3.6067782901
 10
4.8538205707
 20
3.6015067017
 10
4.8709047552
 20
3.5969046347
 10
4.8880205615
 20
3.5929601895
 10
4.8976995617
 20
3.5910133716
  0
LINE
  5
242
100
AcDbEntity
  8
ALL_ASSEMBLY_MEMBERS
100
AcDbLine
 62
7
  6
CONTINUOUS
 10
4.6014518634
 20
4.5377958075
 11
4.6014518759
 21
3.8812503541
  0
LINE
  5
243
100
AcDbEntity
  8
ALL_ASSEMBLY_MEMBERS
100
AcDbLine
 62
7
  6
CONTINUOUS
 10
4.9339518634
 20
4.1020458075
 11
4.9139518634
 21
4.1020458075
  0
LINE
  5
244
100
AcDbEntity
  8
ALL_ASSEMBLY_MEMBERS
100
AcDbLine
 62
7
  6
CONTINUOUS
 10
5.0514518634
 20
4.1020458075
 11
5.0714518634
 21
4.1020458075
  0
LINE
  5
245
100
AcDbEntity
  8
ALL_ASSEMBLY_MEMBERS
100
AcDbLine
 62
7
  6
CONTINUOUS
 10
5.0134518634
 20
4.1400458075
 11
4.9719518634
 21
4.1400458075
  0
LINE
  5
246
100
AcDbEntity
  8
ALL_ASSEMBLY_MEMBERS
100
AcDbLine
 62
7
  6
CONTINUOUS
 10
5.0134518634
 20
4.1600458075
 11
4.9719518634
 21
4.1600458075
  0
LINE
  5
247
100
AcDbEntity
  8
ALL_ASSEMBLY_MEMBERS
100
AcDbLine
 62
7
  6
CONTINUOUS
 10
5.0134518634
 20
4.1650458075
 11
4.9719518634
 21
4.1650458075
  0
LINE
  5
248
100
AcDbEntity
  8
ALL_ASSEMBLY_MEMBERS
100
AcDbLine
 62
7
  6
CONTINUOUS
 10
4.6014518634
 20
4.5377958075
 11
4.5027018634
 21
4.6365458075
  0
LINE
  5
249
100
AcDbEntity
  8
ALL_ASSEMBLY_MEMBERS
100
AcDbLine
 62
7
  6
CONTINUOUS
 10
4.8987544704
 20
3.6102616266
 11
4.898754295
 21
3.8230457966
  0
LINE
  5
24A
100
AcDbEntity
  8
ALL_ASSEMBLY_MEMBERS
100
AcDbLine
 62
7
  6
CONTINUOUS
 10
4.9089518634
 20
4.1020458075
 11
4.9089518634
 21
3.8815458075
  0
LINE
  5
24B
100
AcDbEntity
  8
ALL_ASSEMBLY_MEMBERS
100
AcDbLine
 62
7
  6
CONTINUOUS
 10
4.9139518634
 20
4.1020458075
 11
4.9139518634
 21
3.8815458075
  0
LINE
  5
24C
100
AcDbEntity
  8
ALL_ASSEMBLY_MEMBERS
100
AcDbLine
 62
7
  6
CONTINUOUS
 10
4.9139518634
 20
3.4895458075
 11
4.9139518634
 21
3.7838002717
  0
LINE
  5
24D
100
AcDbEntity
  8
ALL_ASSEMBLY_MEMBERS
100
AcDbLine
 62
7
  6
CONTINUOUS
 10
4.9339518634
 20
4.1020458075
 11
4.9339518634
 21
3.8815458075
  0
LINE
  5
24E
100
AcDbEntity
  8
ALL_ASSEMBLY_MEMBERS
100
AcDbLine
 62
7
  6
CONTINUOUS
 10
4.9339518634
 20
3.4695458075
 11
4.9339518634
 21
3.8030458075
  0
LINE
  5
24F
100
AcDbEntity
  8
ALL_ASSEMBLY_MEMBERS
100
AcDbLine
 62
7
  6
CONTINUOUS
 10
4.9544673383
 20
4.1573369694
 11
4.9544673383
 21
4.1625392606
  0
LINE
  5
250
100
AcDbEntity
  8
ALL_ASSEMBLY_MEMBERS
100
AcDbLine
 62
7
  6
CONTINUOUS
 10
4.9719518634
 20
3.8435458075
 11
4.9719518634
 21
3.8235458075
  0
LINE
  5
251
100
AcDbEntity
  8
ALL_ASSEMBLY_MEMBERS
100
AcDbLine
 62
7
  6
CONTINUOUS
 10
4.9719518634
 20
4.1400458075
 11
4.9719518634
 21
4.1600458075
  0
LINE
  5
252
100
AcDbEntity
  8
ALL_ASSEMBLY_MEMBERS
100
AcDbLine
 62
7
  6
CONTINUOUS
 10
4.9727060287
 20
4.6365458075
 11
4.9727060287
 21
4.7490458075
  0
LINE
  5
253
100
AcDbEntity
  8
ALL_ASSEMBLY_MEMBERS
100
AcDbLine
 62
7
  6
CONTINUOUS
 10
5.012697698
 20
4.6365458075
 11
5.012697698
 21
4.7490458075
  0
LINE
  5
254
100
AcDbEntity
  8
ALL_ASSEMBLY_MEMBERS
100
AcDbLine
 62
7
  6
CONTINUOUS
 10
5.0134518634
 20
3.8435458075
 11
5.0134518634
 21
3.8235458075
  0
LINE
  5
255
100
AcDbEntity
  8
ALL_ASSEMBLY_MEMBERS
100
AcDbLine
 62
7
  6
CONTINUOUS
 10
5.0134518634
 20
4.1400458075
 11
5.0134518634
 21
4.1600458075
  0
LINE
  5
256
100
AcDbEntity
  8
ALL_ASSEMBLY_MEMBERS
100
AcDbLine
 62
7
  6
CONTINUOUS
 10
5.0317643634
 20
4.1570691486
 11
5.0317643634
 21
4.1623137409
  0
LINE
  5
257
100
AcDbEntity
  8
ALL_ASSEMBLY_MEMBERS
100
AcDbLine
 62
7
  6
CONTINUOUS
 10
5.0514518634
 20
3.4695458075
 11
5.0514518634
 21
3.8030458075
  0
LINE
  5
258
100
AcDbEntity
  8
ALL_ASSEMBLY_MEMBERS
100
AcDbLine
 62
7
  6
CONTINUOUS
 10
5.0514518634
 20
3.8815458075
 11
5.0514518634
 21
4.1020458075
  0
LINE
  5
259
100
AcDbEntity
  8
ALL_ASSEMBLY_MEMBERS
100
AcDbLine
 62
7
  6
CONTINUOUS
 10
5.0714518634
 20
3.4895458075
 11
5.0714518634
 21
3.7830458075
  0
LINE
  5
25A
100
AcDbEntity
  8
ALL_ASSEMBLY_MEMBERS
100
AcDbLine
 62
7
  6
CONTINUOUS
 10
5.0714518634
 20
3.8815458075
 11
5.0714518634
 21
4.1020458075
  0
LINE
  5
25B
100
AcDbEntity
  8
ALL_ASSEMBLY_MEMBERS
100
AcDbLine
 62
7
  6
CONTINUOUS
 10
5.0764518634
 20
4.1020458075
 11
5.0764518634
 21
3.8815458075
  0
LINE
  5
25C
100
AcDbEntity
  8
ALL_ASSEMBLY_MEMBERS
100
AcDbLine
 62
7
  6
CONTINUOUS
 10
5.0866494317
 20
3.8230458012
 11
5.0866496291
 21
3.6102611953
  0
LINE
  5
25D
100
AcDbEntity
  8
ALL_ASSEMBLY_MEMBERS
100
AcDbLine
 62
7
  6
CONTINUOUS
 10
5.3839518634
 20
4.5377958075
 11
4.6014518634
 21
4.5377958075
  0
LINE
  5
25E
100
AcDbEntity
  8
ALL_ASSEMBLY_MEMBERS
100
AcDbLine
 62
7
  6
CONTINUOUS
 10
5.3839518634
 20
4.5377958075
 11
5.4827018634
 21
4.6365458075
  0
LINE
  5
25F
100
AcDbEntity
  8
ALL_ASSEMBLY_MEMBERS
100
AcDbLine
 62
7
  6
CONTINUOUS
 10
5.4827018634
 20
4.6365458075
 11
5.012697698
 21
4.6365458075
  0
LINE
  5
260
100
AcDbEntity
  8
ALL_ASSEMBLY_MEMBERS
100
AcDbLine
 62
7
  6
CONTINUOUS
 10
4.5027018634
 20
4.6365458075
 11
4.9727060287
 21
4.6365458075
  0
LINE
  5
261
100
AcDbEntity
  8
ALL_FEATURES
100
AcDbLine
 62
7
  6
CONTINUOUS
 10
5.4852018634
 20
4.7490458075
 11
4.5002018634
 21
4.7490458075
  0
LINE
  5
262
100
AcDbEntity
  8
ALL_ASSEMBLY_MEMBERS
100
AcDbLine
 62
7
  6
CONTINUOUS
 10
5.4827018634
 20
4.6365458075
 11
5.4827018634
 21
4.7490458075
  0
LINE
  5
263
100
AcDbEntity
  8
0
100
AcDbLine
 62
7
  6
CONTINUOUS
 10
5.4852018634
 20
5.1605458075
 11
5.4852018634
 21
4.7490458075
  0
LINE
  5
264
100
AcDbEntity
  8
ALL_ASSEMBLY_MEMBERS
100
AcDbLine
 62
7
  6
CONTINUOUS
 10
5.3839518615
 20
3.8812943603
 11
5.3839518634
 21
4.5377958075
  0
LINE
  5
265
100
AcDbEntity
  8
0
100
AcDbLine
 62
7
  6
CONTINUOUS
 10
6.4671344272
 20
5.1605458075
 11
3.5182692995
 21
5.1605458075
  0
LINE
  5
266
100
AcDbEntity
  8
0
100
AcDbLine
 62
7
  6
CONTINUOUS
 10
6.4770963742
 20
5.16967425
 11
3.5083073525
 21
5.16967425
  0
LINE
  5
267
100
AcDbEntity
  8
0
100
AcDbLine
 62
7
  6
CONTINUOUS
 10
6.4927018634
 20
5.3480458075
 11
3.4927018634
 21
5.3480458075
  0
LINE
  5
268
100
AcDbEntity
  8
0
100
AcDbLine
 62
7
  6
CONTINUOUS
 10
6.4927018634
 20
5.3480458075
 11
6.4770963742
 21
5.16967425
  0
ARC
  5
269
100
AcDbEntity
  8
ALL_ASSEMBLY_MEMBERS
100
AcDbCircle
 62
7
  6
CONTINUOUS
 10
4.9719518634
 20
4.1020458075
 40
0.063
100
AcDbArc
 50
90.0
 51
180.0
  0
ARC
  5
26A
100
AcDbEntity
  8
ALL_ASSEMBLY_MEMBERS
100
AcDbCircle
 62
7
  6
CONTINUOUS
 10
5.0134518634
 20
4.1020458075
 40
0.063
100
AcDbArc
 50
0.0
 51
90.0
  0
ARC
  5
26B
100
AcDbEntity
  8
ALL_ASSEMBLY_MEMBERS
100
AcDbCircle
 62
7
  6
CONTINUOUS
 10
5.0134518634
 20
3.8815458075
 40
0.063
100
AcDbArc
 50
270.0
 51
360.0
  0
ARC
  5
26C
100
AcDbEntity
  8
ALL_ASSEMBLY_MEMBERS
100
AcDbCircle
 62
7
  6
CONTINUOUS
 10
4.9719518634
 20
3.8815458075
 40
0.063
100
AcDbArc
 50
180.0
 51
270.0
  0
ARC
  5
26D
100
AcDbEntity
  8
ALL_ASSEMBLY_MEMBERS
100
AcDbCircle
 62
7
  6
CONTINUOUS
 10
4.9719518634
 20
3.8815458075
 40
0.058
100
AcDbArc
 50
180.0
 51
270.0
  0
ARC
  5
26E
100
AcDbEntity
  8
ALL_ASSEMBLY_MEMBERS
100
AcDbCircle
 62
7
  6
CONTINUOUS
 10
4.9719518634
 20
4.1020458075
 40
0.058
100
AcDbArc
 50
90.0
 51
180.0
  0
ARC
  5
26F
100
AcDbEntity
  8
ALL_ASSEMBLY_MEMBERS
100
AcDbCircle
 62
7
  6
CONTINUOUS
 10
5.0134518634
 20
4.1020458075
 40
0.058
100
AcDbArc
 50
0.0
 51
90.0
  0
ARC
  5
270
100
AcDbEntity
  8
ALL_ASSEMBLY_MEMBERS
100
AcDbCircle
 62
7
  6
CONTINUOUS
 10
5.0134518634
 20
3.8815458075
 40
0.058
100
AcDbArc
 50
270.0
 51
360.0
  0
ARC
  5
271
100
AcDbEntity
  8
ALL_ASSEMBLY_MEMBERS
100
AcDbCircle
 62
7
  6
CONTINUOUS
 10
5.0134518634
 20
4.1020458075
 40
0.0380000004
100
AcDbArc
 50
0.0
 51
90.0
  0
ARC
  5
272
100
AcDbEntity
  8
ALL_ASSEMBLY_MEMBERS
100
AcDbCircle
 62
7
  6
CONTINUOUS
 10
5.0134518634
 20
3.8815458075
 40
0.0380000004
100
AcDbArc
 50
270.0
 51
360.0
  0
ARC
  5
273
100
AcDbEntity
  8
ALL_ASSEMBLY_MEMBERS
100
AcDbCircle
 62
7
  6
CONTINUOUS
 10
4.9719518634
 20
3.8815458075
 40
0.0380000004
100
AcDbArc
 50
180.0
 51
270.0
  0
ARC
  5
274
100
AcDbEntity
  8
ALL_ASSEMBLY_MEMBERS
100
AcDbCircle
 62
7
  6
CONTINUOUS
 10
4.9719518634
 20
4.1020458075
 40
0.0380000004
100
AcDbArc
 50
90.0
 51
180.0
  0
ARC
  5
275
100
AcDbEntity
  8
ALL_ASSEMBLY_MEMBERS
100
AcDbCircle
 62
7
  6
CONTINUOUS
 10
5.072381894
 20
3.7779374326
 40
0.0327240066
100
AcDbArc
 50
124.0371155086
 51
125.0283335642
  0
ARC
  5
276
100
AcDbEntity
  8
ALL_ASSEMBLY_MEMBERS
100
AcDbCircle
 62
7
  6
CONTINUOUS
 10
4.9175457144
 20
3.784380637
 40
0.0248512427
100
AcDbArc
 50
53.9195086247
 51
55.3959153747
  0
ARC
  5
277
100
AcDbEntity
  8
ALL_ASSEMBLY_MEMBERS
100
AcDbCircle
 62
7
  6
CONTINUOUS
 10
4.9339665798
 20
3.7829875531
 40
0.0204436322
100
AcDbArc
 50
91.6190212864
 51
103.1434871754
  0
ARC
  5
278
100
AcDbEntity
  8
ALL_ASSEMBLY_MEMBERS
100
AcDbCircle
 62
7
  6
CONTINUOUS
 10
5.0514459288
 20
3.783055233
 40
0.0203757481
100
AcDbArc
 50
76.8373106882
 51
88.4002860619
  0
ARC
  5
279
100
AcDbEntity
  8
ALL_ASSEMBLY_MEMBERS
100
AcDbCircle
 62
7
  6
CONTINUOUS
 10
4.9339518634
 20
3.4895458075
 40
0.02
100
AcDbArc
 50
180.0
 51
270.0
  0
ARC
  5
27A
100
AcDbEntity
  8
ALL_ASSEMBLY_MEMBERS
100
AcDbCircle
 62
7
  6
CONTINUOUS
 10
5.0514518634
 20
3.7830458075
 40
0.02
100
AcDbArc
 50
0.0
 51
90.0
  0
ARC
  5
27B
100
AcDbEntity
  8
ALL_ASSEMBLY_MEMBERS
100
AcDbCircle
 62
7
  6
CONTINUOUS
 10
5.0514518634
 20
3.4895458075
 40
0.02
100
AcDbArc
 50
270.0
 51
360.0
  0
ARC
  5
27C
100
AcDbEntity
  8
ALL_ASSEMBLY_MEMBERS
100
AcDbCircle
 62
7
  6
CONTINUOUS
 10
4.8939518634
 20
3.5713678067
 40
0.0199999182
100
AcDbArc
 50
11.8449724329
 51
79.2009273227
  0
ARC
  5
27D
100
AcDbEntity
  8
ALL_ASSEMBLY_MEMBERS
100
AcDbCircle
 62
7
  6
CONTINUOUS
 10
5.0914518634
 20
3.5713671914
 40
0.0199999168
100
AcDbArc
 50
100.7967308533
 51
168.9156043855
  0
ARC
  5
27E
100
AcDbEntity
  8
ALL_ASSEMBLY_MEMBERS
100
AcDbCircle
 62
7
  6
CONTINUOUS
 10
4.9339518634
 20
3.7830468099
 40
0.0199994988
100
AcDbArc
 50
90.0
 51
180.002871832
  0
ARC
  5
27F
100
AcDbEntity
  8
ALL_ASSEMBLY_MEMBERS
100
AcDbCircle
 62
7
  6
CONTINUOUS
 10
5.0520775658
 20
3.7837852724
 40
0.019374302
100
AcDbArc
 50
0.044357558
 51
11.9878756982
  0
ARC
  5
280
100
AcDbEntity
  8
ALL_ASSEMBLY_MEMBERS
100
AcDbCircle
 62
7
  6
CONTINUOUS
 10
4.9332449645
 20
3.783793792
 40
0.0192931376
100
AcDbArc
 50
167.9868138964
 51
179.9807569831
  0
ARC
  5
281
100
AcDbEntity
  8
0
100
AcDbCircle
 62
7
  6
CONTINUOUS
 10
3.5182692995
 20
5.1705458075
 40
0.01
100
AcDbArc
 50
185.0
 51
270.0
  0
ARC
  5
282
100
AcDbEntity
  8
0
100
AcDbCircle
 62
7
  6
CONTINUOUS
 10
6.4671344272
 20
5.1705458075
 40
0.01
100
AcDbArc
 50
270.0
 51
355.0
  0
SPLINE
  5
283
100
AcDbEntity
  8
ALL_ASSEMBLY_MEMBERS
100
AcDbSpline
 62
7
  6
CONTINUOUS
 70
0
 71
3
 72
14
 73
10
 74
0
 42
0.0000001
 43
0.0000001
 44
0.0000000001
 40
0.0
 40
0.0
 40
0.0
 40
0.0
 40
0.1031413057
 40
0.2105678838
 40
0.3248192354
 40
0.4471145851
 40
0.5773407568
 40
0.7143365718
 40
1.0
 40
1.0
 40
1.0
 40
1.0
 10
5.0126993083
 20
4.589042148
 30
0.0
 10
5.0126992975
 20
4.5881112981
 30
0.0
 10
5.012427597
 20
4.5862017461
 30
0.0
 10
5.0112496316
 20
4.5834846446
 30
0.0
 10
5.0093609361
 20
4.5809880191
 30
0.0
 10
5.0068457448
 20
4.5788045391
 30
0.0
 10
5.0037997922
 20
4.5770128026
 30
0.0
 10
4.9991295752
 20
4.5752128109
 30
0.0
 10
4.9952799749
 20
4.5746739641
 30
0.0
 10
4.9927018634
 20
4.5746739641
 30
0.0
  0
LINE
  5
284
100
AcDbEntity
  8
ALL_ASSEMBLY_MEMBERS
100
AcDbLine
 62
7
  6
CONTINUOUS
 10
5.012699781
 20
4.6366646258
 11
5.0126993083
 21
4.589042148
  0
SPLINE
  5
285
100
AcDbEntity
  8
ALL_ASSEMBLY_MEMBERS
100
AcDbSpline
 62
7
  6
CONTINUOUS
 70
0
 71
3
 72
25
 73
21
 74
0
 42
0.0000001
 43
0.0000001
 44
0.0000000001
 40
0.0
 40
0.0
 40
0.0
 40
0.0
 40
0.0493007422
 40
0.0989798255
 40
0.1494102735
 40
0.2009516022
 40
0.2539519044
 40
0.3087343561
 40
0.3656044713
 40
0.424831446
 40
0.4554141825
 40
0.4866728179
 40
0.5512912996
 40
0.6188492517
 40
0.6894203005
 40
0.7629925538
 40
0.8394535634
 40
0.8787104471
 40
0.918603699
 40
1.0
 40
1.0
 40
1.0
 40
1.0
 10
4.6014518759
 20
3.8812506794
 30
0.0
 10
4.601454421
 20
3.8740912373
 30
0.0
 10
4.6022362118
 20
3.8597057409
 30
0.0
 10
4.6057392339
 20
3.838253287
 30
0.0
 10
4.6115764881
 20
3.8169758556
 30
0.0
 10
4.6197590317
 20
3.7959691973
 30
0.0
 10
4.6302959026
 20
3.775328429
 30
0.0
 10
4.6432018507
 20
3.7551565701
 30
0.0
 10
4.6584873508
 20
3.735565005
 30
0.0
 10
4.6730613399
 20
3.7199900559
 30
0.0
 10
4.6858709934
 20
3.7079412437
 30
0.0
 10
4.6997690223
 20
3.695929721
 30
0.0
 10
4.7186838908
 20
3.6815463988
 30
0.0
 10
4.7434834261
 20
3.6656224427
 30
0.0
 10
4.770573579
 20
3.6510252486
 30
0.0
 10
4.7998486818
 20
3.637945975
 30
0.0
 10
4.8257126998
 20
3.6285619806
 30
0.0
 10
4.8473337104
 20
3.621975976
 30
0.0
 10
4.8698642732
 20
3.6159673645
 30
0.0
 10
4.8871141881
 20
3.6123170023
 30
0.0
 10
4.8987544704
 20
3.6102616302
 30
0.0
  0
SPLINE
  5
286
100
AcDbEntity
  8
ALL_ASSEMBLY_MEMBERS
100
AcDbSpline
 62
7
  6
CONTINUOUS
 70
0
 71
3
 72
23
 73
19
 74
0
 42
0.0000001
 43
0.0000001
 44
0.0000000001
 40
0.0
 40
0.0
 40
0.0
 40
0.0
 40
0.1947709233
 40
0.3831047207
 40
0.5557840885
 40
0.6336104315
 40
0.7044938791
 40
0.7676478438
 40
0.8226442347
 40
0.8692027209
 40
0.9074335915
 40
0.9378572371
 40
0.9504864807
 40
0.9616880396
 40
0.9717922046
 40
0.98121959
 40
0.9904584668
 40
1.0
 40
1.0
 40
1.0
 40
1.0
 10
4.8987549372
 20
3.610261581
 30
0.0
 10
4.8989491684
 20
3.6089692656
 30
0.0
 10
4.8992795432
 20
3.6064192667
 30
0.0
 10
4.8996107828
 20
3.6027040212
 30
0.0
 10
4.8997416723
 20
3.5997610278
 30
0.0
 10
4.8997416432
 20
3.597604315
 30
0.0
 10
4.8996931988
 20
3.596183291
 30
0.0
 10
4.8995966314
 20
3.5949181585
 30
0.0
 10
4.8994544423
 20
3.5938216109
 30
0.0
 10
4.899268301
 20
3.5929011151
 30
0.0
 10
4.8990407774
 20
3.592161017
 30
0.0
 10
4.8988055273
 20
3.5916646478
 30
0.0
 10
4.8985907894
 20
3.5913693639
 30
0.0
 10
4.8984298767
 20
3.5912067647
 30
0.0
 10
4.89825893
 20
3.5910888959
 30
0.0
 10
4.8980781061
 20
3.5910163717
 30
0.0
 10
4.8978889536
 20
3.5909897178
 30
0.0
 10
4.8977623322
 20
3.5910014032
 30
0.0
 10
4.8976994507
 20
3.5910134212
 30
0.0
  0
LINE
  5
287
100
AcDbEntity
  8
ALL_ASSEMBLY_MEMBERS
100
AcDbLine
 62
7
  6
CONTINUOUS
 10
5.0714518634
 20
3.7838002717
 11
5.0715643
 21
3.7848526499
  0
LINE
  5
288
100
AcDbEntity
  8
ALL_ASSEMBLY_MEMBERS
100
AcDbLine
 62
7
  6
CONTINUOUS
 10
5.0715643
 20
3.7848526499
 11
5.0717721107
 21
3.7858403258
  0
LINE
  5
289
100
AcDbEntity
  8
ALL_ASSEMBLY_MEMBERS
100
AcDbLine
 62
7
  6
CONTINUOUS
 10
5.0717721107
 20
3.7858403258
 11
5.072296098
 21
3.7877661733
  0
SPLINE
  5
28A
100
AcDbEntity
  8
ALL_ASSEMBLY_MEMBERS
100
AcDbSpline
 62
7
  6
CONTINUOUS
 70
0
 71
3
 72
15
 73
11
 74
0
 42
0.0000001
 43
0.0000001
 44
0.0000000001
 40
0.0
 40
0.0
 40
0.0
 40
0.0
 40
0.0511078992
 40
0.1058530988
 40
0.2225953061
 40
0.3455811378
 40
0.4724995608
 40
0.6020685779
 40
0.733500752
 40
1.0
 40
1.0
 40
1.0
 40
1.0
 10
5.072296098
 20
3.7877661733
 30
0.0
 10
5.0724816728
 20
3.7883883074
 30
0.0
 10
5.0728885675
 20
3.7896701387
 30
0.0
 10
5.073803227
 20
3.7923458627
 30
0.0
 10
5.0750964354
 20
3.7958563794
 30
0.0
 10
5.0767878424
 20
3.8001960472
 30
0.0
 10
5.0786009786
 20
3.8046626408
 30
0.0
 10
5.0805067512
 20
3.8092070298
 30
0.0
 10
5.08316078
 20
3.8153599293
 30
0.0
 10
5.0852328349
 20
3.8199711121
 30
0.0
 10
5.0866494317
 20
3.8230458012
 30
0.0
  0
SPLINE
  5
28B
100
AcDbEntity
  8
ALL_ASSEMBLY_MEMBERS
100
AcDbSpline
 62
7
  6
CONTINUOUS
 70
0
 71
3
 72
14
 73
10
 74
0
 42
0.0000001
 43
0.0000001
 44
0.0000000001
 40
0.0
 40
0.0
 40
0.0
 40
0.0
 40
0.2856649398
 40
0.4226617171
 40
0.5528885672
 40
0.675183738
 40
0.7894343823
 40
0.8968594753
 40
1.0
 40
1.0
 40
1.0
 40
1.0
 10
4.9927018634
 20
4.5746739641
 30
0.0
 10
4.9901237381
 20
4.5746739641
 30
0.0
 10
4.9862741142
 20
4.5752128158
 30
0.0
 10
4.9816038759
 20
4.5770128326
 30
0.0
 10
4.9785579174
 20
4.5788045851
 30
0.0
 10
4.9760427346
 20
4.5809880733
 30
0.0
 10
4.9741540697
 20
4.5834846945
 30
0.0
 10
4.9729761202
 20
4.5862017728
 30
0.0
 10
4.9727044292
 20
4.5881113051
 30
0.0
 10
4.9727044184
 20
4.589042148
 30
0.0
  0
LINE
  5
28C
100
AcDbEntity
  8
ALL_ASSEMBLY_MEMBERS
100
AcDbLine
 62
7
  6
CONTINUOUS
 10
4.9727044184
 20
4.589042148
 11
4.9727039458
 21
4.6366646258
  0
LINE
  5
28D
100
AcDbEntity
  8
ALL_ASSEMBLY_MEMBERS
100
AcDbLine
 62
7
  6
CONTINUOUS
 10
4.9139518634
 20
3.7838002717
 11
4.9137669378
 21
3.7852315637
  0
LINE
  5
28E
100
AcDbEntity
  8
ALL_ASSEMBLY_MEMBERS
100
AcDbLine
 62
7
  6
CONTINUOUS
 10
4.9137669378
 20
3.7852315637
 11
4.913621081
 21
3.7858830225
  0
LINE
  5
28F
100
AcDbEntity
  8
ALL_ASSEMBLY_MEMBERS
100
AcDbLine
 62
7
  6
CONTINUOUS
 10
4.913621081
 20
3.7858830225
 11
4.9131987945
 21
3.7874543545
  0
SPLINE
  5
290
100
AcDbEntity
  8
ALL_ASSEMBLY_MEMBERS
100
AcDbSpline
 62
7
  6
CONTINUOUS
 70
0
 71
3
 72
15
 73
11
 74
0
 42
0.0000001
 43
0.0000001
 44
0.0000000001
 40
0.0
 40
0.0
 40
0.0
 40
0.0
 40
0.0504968998
 40
0.1048916484
 40
0.2213496057
 40
0.3443367166
 40
0.4714006076
 40
0.6011916777
 40
0.7328900552
 40
1.0
 40
1.0
 40
1.0
 40
1.0
 10
4.9131987945
 20
3.7874543545
 30
0.0
 10
4.9130178978
 20
3.7880754756
 30
0.0
 10
4.9126173639
 20
3.7893584528
 30
0.0
 10
4.9117082651
 20
3.7920446823
 30
0.0
 10
4.910412768
 20
3.7955797349
 30
0.0
 10
4.9087117349
 20
3.7999563688
 30
0.0
 10
4.9068839597
 20
3.8044664686
 30
0.0
 10
4.9049605743
 20
3.8090578203
 30
0.0
 10
4.9022801437
 20
3.8152768667
 30
0.0
 10
4.9001860327
 20
3.8199377007
 30
0.0
 10
4.898754295
 20
3.8230457966
 30
0.0
  0
SPLINE
  5
291
100
AcDbEntity
  8
ALL_ASSEMBLY_MEMBERS
100
AcDbSpline
 62
7
  6
CONTINUOUS
 70
0
 71
3
 72
23
 73
19
 74
0
 42
0.0000001
 43
0.0000001
 44
0.0000000001
 40
0.0
 40
0.0
 40
0.0
 40
0.0
 40
0.0095371911
 40
0.0187719455
 40
0.028195817
 40
0.0382973127
 40
0.0494971308
 40
0.0621255247
 40
0.0925495667
 40
0.1307822961
 40
0.1773434842
 40
0.23234237
 40
0.2954985091
 40
0.3663836404
 40
0.4442108186
 40
0.6168909259
 40
0.8052263241
 40
1.0
 40
1.0
 40
1.0
 40
1.0
 10
5.0877051451
 20
3.5910129688
 30
0.0
 10
5.0876422948
 20
3.5910009551
 30
0.0
 10
5.0875157331
 20
3.5909892791
 30
0.0
 10
5.0873266705
 20
3.5910159565
 30
0.0
 10
5.0871459394
 20
3.5910885098
 30
0.0
 10
5.0869750869
 20
3.5912064085
 30
0.0
 10
5.086814267
 20
3.5913690379
 30
0.0
 10
5.0865996503
 20
3.5916643748
 30
0.0
 10
5.086364547
 20
3.5921607983
 30
0.0
 10
5.086137164
 20
3.5929009434
 30
0.0
 10
5.0859511445
 20
3.5938214767
 30
0.0
 10
5.0858090467
 20
3.5949180452
 30
0.0
 10
5.0857125385
 20
3.596183179
 30
0.0
 10
5.0856641127
 20
3.5976041838
 30
0.0
 10
5.0856640651
 20
3.5997608417
 30
0.0
 10
5.0857949734
 20
3.6027037489
 30
0.0
 10
5.086125834
 20
3.6064189202
 30
0.0
 10
5.0864557002
 20
3.6089689244
 30
0.0
 10
5.0866498152
 20
3.6102612289
 30
0.0
  0
LINE
  5
292
100
AcDbEntity
  8
ALL_ASSEMBLY_MEMBERS
100
AcDbLine
 62
7
  6
CONTINUOUS
 10
5.0520147513
 20
3.8034230396
 11
5.0535989213
 21
3.8047340844
  0
SPLINE
  5
293
100
AcDbEntity
  8
ALL_ASSEMBLY_MEMBERS
100
AcDbSpline
 62
7
  6
CONTINUOUS
 70
0
 71
3
 72
15
 73
11
 74
0
 42
0.0000001
 43
0.0000001
 44
0.0000000001
 40
0.0
 40
0.0
 40
0.0
 40
0.0
 40
0.046551509
 40
0.0984194466
 40
0.2123806373
 40
0.3348100924
 40
0.4624436531
 40
0.5935825081
 40
0.7272523974
 40
1.0
 40
1.0
 40
1.0
 40
1.0
 10
5.0540652915
 20
3.805055004
 30
0.0
 10
5.0545438578
 20
3.8053787034
 30
0.0
 10
5.0555697663
 20
3.8060421508
 30
0.0
 10
5.0578142887
 20
3.8074243695
 30
0.0
 10
5.0609024721
 20
3.8092313943
 30
0.0
 10
5.0648375273
 20
3.8114513209
 30
0.0
 10
5.0689837154
 20
3.8137303393
 30
0.0
 10
5.0732708972
 20
3.8160420496
 30
0.0
 10
5.0791644031
 20
3.8191691634
 30
0.0
 10
5.0836385844
 20
3.8214985784
 30
0.0
 10
5.0866494253
 20
3.8230458075
 30
0.0
  0
LINE
  5
294
100
AcDbEntity
  8
ALL_ASSEMBLY_MEMBERS
100
AcDbLine
 62
7
  6
CONTINUOUS
 10
5.0514518634
 20
3.8030458075
 11
5.0520147513
 21
3.8034230396
  0
LINE
  5
295
100
AcDbEntity
  8
ALL_ASSEMBLY_MEMBERS
100
AcDbLine
 62
7
  6
CONTINUOUS
 10
4.9339518634
 20
3.8030458075
 11
4.9333889754
 21
3.8034230396
  0
LINE
  5
296
100
AcDbEntity
  8
ALL_ASSEMBLY_MEMBERS
100
AcDbLine
 62
7
  6
CONTINUOUS
 10
4.9333889754
 20
3.8034230396
 11
4.9321811384
 21
3.8044651741
  0
SPLINE
  5
297
100
AcDbEntity
  8
ALL_ASSEMBLY_MEMBERS
100
AcDbSpline
 62
7
  6
CONTINUOUS
 70
0
 71
3
 72
15
 73
11
 74
0
 42
0.0000001
 43
0.0000001
 44
0.0000000001
 40
0.0
 40
0.0
 40
0.0
 40
0.0
 40
0.0451865721
 40
0.096299341
 40
0.2096780796
 40
0.332149265
 40
0.4601136365
 40
0.5917327179
 40
0.7259685333
 40
1.0
 40
1.0
 40
1.0
 40
1.0
 10
4.9316587954
 20
3.8048355926
 30
0.0
 10
4.931192805
 20
3.8051580281
 30
0.0
 10
4.9301830562
 20
3.8058210436
 30
0.0
 10
4.9279496421
 20
3.8072090555
 30
0.0
 10
4.9248469289
 20
3.8090330583
 30
0.0
 10
4.9208756885
 20
3.8112793478
 30
0.0
 10
4.916678389
 20
3.8135900083
 30
0.0
 10
4.9123322473
 20
3.8159357618
 30
0.0
 10
4.906352088
 20
3.8191103208
 30
0.0
 10
4.9018109751
 20
3.8214753122
 30
0.0
 10
4.8987543061
 20
3.8230458075
 30
0.0
  0
SPLINE
  5
298
100
AcDbEntity
  8
ALL_ASSEMBLY_MEMBERS
100
AcDbSpline
 62
7
  6
CONTINUOUS
 70
0
 71
3
 72
15
 73
11
 74
0
 42
0.0000001
 43
0.0000001
 44
0.0000000001
 40
0.0
 40
0.0
 40
0.0
 40
0.0
 40
0.1241420951
 40
0.2483685447
 40
0.3728218897
 40
0.4976254907
 40
0.6227561133
 40
0.7481677995
 40
0.8739073128
 40
1.0
 40
1.0
 40
1.0
 40
1.0
 10
4.9143743519
 20
3.7878094039
 30
0.0
 10
4.9145667297
 20
3.7887158764
 30
0.0
 10
4.9150826003
 20
3.7905045401
 30
0.0
 10
4.9162346241
 20
3.7930478147
 30
0.0
 10
4.9177387941
 20
3.7954064946
 30
0.0
 10
4.9195678758
 20
3.7975317118
 30
0.0
 10
4.9216812858
 20
3.7993851753
 30
0.0
 10
4.9240408618
 20
3.8009260627
 30
0.0
 10
4.9265977243
 20
3.8021266482
 30
0.0
 10
4.9284013179
 20
3.8026816518
 30
0.0
 10
4.9293178924
 20
3.8028956369
 30
0.0
  0
SPLINE
  5
299
100
AcDbEntity
  8
ALL_ASSEMBLY_MEMBERS
100
AcDbSpline
 62
7
  6
CONTINUOUS
 70
0
 71
3
 72
23
 73
19
 74
0
 42
0.0000001
 43
0.0000001
 44
0.0000000001
 40
0.0
 40
0.0
 40
0.0
 40
0.0
 40
0.0814029454
 40
0.1605400304
 40
0.2370036198
 40
0.3105805367
 40
0.3811515771
 40
0.4487106998
 40
0.513330988
 40
0.5751578542
 40
0.6343870585
 40
0.6912562347
 40
0.7460408329
 40
0.7990407894
 40
0.8505841836
 40
0.9010153691
 40
0.9506968411
 40
1.0
 40
1.0
 40
1.0
 40
1.0
 10
5.0866496291
 20
3.6102611791
 30
0.0
 10
5.0982918524
 20
3.6123161207
 30
0.0
 10
5.1211232822
 20
3.6171474833
 30
0.0
 10
5.1542511517
 20
3.6265880022
 30
0.0
 10
5.1855654559
 20
3.637950637
 30
0.0
 10
5.2148440877
 20
3.6510317367
 30
0.0
 10
5.2419357561
 20
3.6656319396
 30
0.0
 10
5.2667377347
 20
3.6815585617
 30
0.0
 10
5.2891887329
 20
3.6986333998
 30
0.0
 10
5.3092580873
 20
3.7166915955
 30
0.0
 10
5.3269340022
 20
3.7355858188
 30
0.0
 10
5.3422198005
 20
3.7551809587
 30
0.0
 10
5.3551234432
 20
3.7753563421
 30
0.0
 10
5.365659297
 20
3.79600026
 30
0.0
 10
5.3738381515
 20
3.8170105081
 30
0.0
 10
5.3796734575
 20
3.8382909728
 30
0.0
 10
5.3831713308
 20
3.8597467236
 30
0.0
 10
5.3839511075
 20
3.8741340707
 30
0.0
 10
5.3839520797
 20
3.8812943921
 30
0.0
  0
SPLINE
  5
29A
100
AcDbEntity
  8
ALL_ASSEMBLY_MEMBERS
100
AcDbSpline
 62
7
  6
CONTINUOUS
 70
0
 71
3
 72
25
 73
21
 74
0
 42
0.0000001
 43
0.0000001
 44
0.0000000001
 40
0.0
 40
0.0
 40
0.0
 40
0.0
 40
0.0256923441
 40
0.0517297777
 40
0.0782837887
 40
0.1055110438
 40
0.1624590951
 40
0.2234294237
 40
0.3565165656
 40
0.4275854
 40
0.5
 40
0.5724146
 40
0.6434834344
 40
0.7765705763
 40
0.8375409049
 40
0.8944889562
 40
0.9217162113
 40
0.9482702223
 40
0.9743076559
 40
1.0
 40
1.0
 40
1.0
 40
1.0
 10
4.9727044184
 20
4.589042148
 30
0.0
 10
4.9727147676
 20
4.5894999225
 30
0.0
 10
4.9728002029
 20
4.5904213488
 30
0.0
 10
4.9731162515
 20
4.5917842376
 30
0.0
 10
4.9736172377
 20
4.5931200453
 30
0.0
 10
4.9745409708
 20
4.5948689835
 30
0.0
 10
4.9761568697
 20
4.5969202622
 30
0.0
 10
4.9796113326
 20
4.5998002791
 30
0.0
 10
4.9840175781
 20
4.6017688134
 30
0.0
 10
4.9888497934
 20
4.602782501
 30
0.0
 10
4.9927018634
 20
4.6030469267
 30
0.0
 10
4.9965539334
 20
4.602782501
 30
0.0
 10
5.0013861487
 20
4.6017688134
 30
0.0
 10
5.0057923941
 20
4.5998002791
 30
0.0
 10
5.009246857
 20
4.5969202622
 30
0.0
 10
5.010862756
 20
4.5948689835
 30
0.0
 10
5.011786489
 20
4.5931200453
 30
0.0
 10
5.0122874752
 20
4.5917842376
 30
0.0
 10
5.0126035238
 20
4.5904213488
 30
0.0
 10
5.0126889591
 20
4.5894999225
 30
0.0
 10
5.0126993083
 20
4.589042148
 30
0.0
  0
SPLINE
  5
29B
100
AcDbEntity
  8
ALL_ASSEMBLY_MEMBERS
100
AcDbSpline
 62
7
  6
CONTINUOUS
 70
0
 71
3
 72
31
 73
27
 74
0
 42
0.0000001
 43
0.0000001
 44
0.0000000001
 40
0.0
 40
0.0
 40
0.0
 40
0.0
 40
0.0169447838
 40
0.0347353987
 40
0.0539362134
 40
0.0750109255
 40
0.0982900017
 40
0.1239660166
 40
0.1521489213
 40
0.1828687589
 40
0.2515452069
 40
0.3288958685
 40
0.4127044847
 40
0.4999998981
 40
0.5872954439
 40
0.6711041653
 40
0.7484548004
 40
0.8171312338
 40
0.8478510689
 40
0.8760339714
 40
0.9017099859
 40
0.9249890627
 40
0.9460637767
 40
0.9652645959
 40
0.9830552148
 40
1.0
 40
1.0
 40
1.0
 40
1.0
 10
4.9727039458
 20
4.6366646258
 30
0.0
 10
4.9727148848
 20
4.6369247192
 30
0.0
 10
4.9727976932
 20
4.6374569523
 30
0.0
 10
4.9730961586
 20
4.6382355826
 30
0.0
 10
4.9735680122
 20
4.638998106
 30
0.0
 10
4.974211701
 20
4.6397370093
 30
0.0
 10
4.9750233508
 20
4.6404472821
 30
0.0
 10
4.9759979138
 20
4.6411250759
 30
0.0
 10
4.9771306594
 20
4.6417650107
 30
0.0
 10
4.978910184
 20
4.6425905154
 30
0.0
 10
4.9814877744
 20
4.6434689522
 30
0.0
 10
4.9849392813
 20
4.6442390114
 30
0.0
 10
4.9887308795
 20
4.6447209887
 30
0.0
 10
4.9927018607
 20
4.6448857354
 30
0.0
 10
4.9966728433
 20
4.644720988
 30
0.0
 10
5.000464445
 20
4.6442390124
 30
0.0
 10
5.0039159527
 20
4.6434689519
 30
0.0
 10
5.0064935425
 20
4.6425905154
 30
0.0
 10
5.0082730669
 20
4.641765011
 30
0.0
 10
5.0094058125
 20
4.6411250763
 30
0.0
 10
5.0103803754
 20
4.6404472826
 30
0.0
 10
5.0111920253
 20
4.6397370097
 30
0.0
 10
5.011835714
 20
4.6389981062
 30
0.0
 10
5.0123075678
 20
4.6382355828
 30
0.0
 10
5.0126060334
 20
4.6374569524
 30
0.0
 10
5.0126888419
 20
4.6369247192
 30
0.0
 10
5.012699781
 20
4.6366646258
 30
0.0
  0
SPLINE
  5
29C
100
AcDbEntity
  8
ALL_ASSEMBLY_MEMBERS
100
AcDbSpline
 62
7
  6
CONTINUOUS
 70
0
 71
3
 72
15
 73
11
 74
0
 42
0.0000001
 43
0.0000001
 44
0.0000000001
 40
0.0
 40
0.0
 40
0.0
 40
0.0
 40
0.1260927094
 40
0.2518322504
 40
0.377243967
 40
0.5023746151
 40
0.6271782307
 40
0.7516315679
 40
0.8758579805
 40
1.0
 40
1.0
 40
1.0
 40
1.0
 10
5.0560858296
 20
3.8028956572
 30
0.0
 10
5.0570024043
 20
3.8026816723
 30
0.0
 10
5.0588059981
 20
3.8021266685
 30
0.0
 10
5.06136286
 20
3.8009260804
 30
0.0
 10
5.0637224341
 20
3.7993851893
 30
0.0
 10
5.065835841
 20
3.7975317216
 30
0.0
 10
5.0676649183
 20
3.7954065005
 30
0.0
 10
5.0691690832
 20
3.7930478178
 30
0.0
 10
5.0703211015
 20
3.7905045419
 30
0.0
 10
5.0708369687
 20
3.7887158782
 30
0.0
 10
5.0710293448
 20
3.787809406
 30
0.0
  0
ENDSEC
  0
SECTION
  2
OBJECTS
  0
DICTIONARY
  5
C
100
AcDbDictionary
280
0
281
1
  3
ACAD_GROUP
350
D
  3
ACAD_MLINESTYLE
350
17
  3
ACAD_LAYOUT
350
1A
  3
ACAD_PLOTSETTINGS
350
19
  3
ACAD_PLOTSTYLENAME
350
E
  0
DICTIONARY
  5
D
102
{ACAD_REACTORS
330
C
102
}
100
AcDbDictionary
280
0
281
1
  0
ACDBDICTIONARYWDFLT
  5
E
102
{ACAD_REACTORS
330
C
102
}
100
AcDbDictionary
281
1
  3
Normal
350
F
100
AcDbDictionaryWithDefault
340
F
  0
DICTIONARY
  5
17
102
{ACAD_REACTORS
330
C
102
}
100
AcDbDictionary
280
0
281
1
  3
Standard
350
18
  0
DICTIONARY
  5
19
102
{ACAD_REACTORS
330
C
102
}
100
AcDbDictionary
281
1
  0
DICTIONARY
  5
1A
102
{ACAD_REACTORS
330
C
102
}
100
AcDbDictionary
281
1
  3
Model
350
29D
  3
Layout1
350
29E
  0
ACDBPLACEHOLDER
  5
F
102
{ACAD_REACTORS
330
E
102
}
  0
MLINESTYLE
  5
18
102
{ACAD_REACTORS
330
17
102
}
100
AcDbMlineStyle
  2
STANDARD
 70
0
  3

 62
256
 51
90.0
 52
90.0
 71
2
 49
0.5
 62
256
  6
BYLAYER
 49
-0.5
 62
256
  6
BYLAYER
  0
LAYOUT
  5
29D
102
{ACAD_REACTORS
330
1A
102
}
100
AcDbPlotSettings
  1

  2
none_device
  4
ANSI_A_(11.00_x_8.50_Inches)
  6

 40
0.0
 41
0.0
 42
0.0
 43
0.0
 44
279.4
 45
215.9
 46
0.0
 47
0.0
 48
0.0
 49
0.0
140
0.0
141
0.0
142
1.0
143
1.0
 70
1024
 72
0
 73
0
 74
0
  7

 75
0
147
1.0
148
0.0
149
0.0
100
AcDbLayout
  1
Model
 70
0
 71
0
 10
0.0
 20
0.0
 11
11.0
 21
8.5
 12
0.0
 22
0.0
 32
0.0
 14
0.0
 24
0.0
 34
0.0
 15
0.0
 25
0.0
 35
0.0
146
0.0
 13
0.0
 23
0.0
 33
0.0
 16
1.0
 26
0.0
 36
0.0
 17
0.0
 27
1.0
 37
0.0
 76
0
330
224
345
0
346
0
  0
LAYOUT
  5
29E
102
{ACAD_REACTORS
330
1A
102
}
100
AcDbPlotSettings
  1

  2
none_device
  4
ANSI_A_(11.00_x_8.50_Inches)
  6

 40
0.0
 41
0.0
 42
0.0
 43
0.0
 44
279.4
 45
215.9
 46
0.0
 47
0.0
 48
0.0
 49
0.0
140
0.0
141
0.0
142
1.0
143
1.0
 70
0
 72
0
 73
0
 74
0
  7

 75
0
147
1.0
148
0.0
149
0.0
100
AcDbLayout
  1
Layout1
 70
0
 71
1
 10
0.0
 20
0.0
 11
11.0
 21
8.5
 12
0.0
 22
0.0
 32
0.0
 14
0.0
 24
0.0
 34
0.0
 15
0.0
 25
0.0
 35
0.0
146
0.0
 13
0.0
 23
0.0
 33
0.0
 16
1.0
 26
0.0
 36
0.0
 17
0.0
 27
1.0
 37
0.0
 76
0
330
225
345
0
346
0
  0
ENDSEC
  0
EOF
