999
DXF file: 3-2491_RIGHT.dxf
999
Pro/ENGINEER 2018400 by Parametric Technology Corporation
  0
SECTION
  2
HEADER
  9
$ACADVER
  1
AC1027
  9
$DWGCODEPAGE
  3
ANSI_1252
  9
$EXTMAX
 10
11.0
 20
8.5
 30
0.0
  9
$EXTMIN
 10
0.0
 20
0.0
 30
0.0
  9
$LIMMIN
 10
0.0
 20
0.0
  9
$LIMMAX
 10
11.0
 20
8.5
  9
$VIEWCTR
 10
5.5
 20
4.25
  9
$VIEWSIZE
 40
8.5
  9
$CLAYER
  8
0
  9
$LTSCALE
 40
0.605
  9
$CELTYPE
  6
BYLAYER
  9
$DIMSCALE
 40
1.0
  9
$DIMASZ
 40
0.1
  9
$DIMEXO
 40
0.0625
  9
$DIMDLI
 40
0.418
  9
$DIMEXE
 40
0.125
  9
$DIMCEN
 40
0.099
  9
$DIMLFAC
 40
1.0
  9
$DIMBLK
  1
_FILLED
  9
$DIMALT
 70
1
  9
$DIMALTD
 70
2
  9
$DIMALTTD
 70
2
  9
$DIMALTF
 40
25.4
  9
$DIMTXT
 40
0.08
  9
$DIMTOL
 70
1
  9
$DIMLIM
 70
0
  9
$DIMTFAC
 40
1.0
  9
$DIMTP
 40
0.001
  9
$DIMTM
 40
0.001
  9
$DIMGAP
 40
0.09
  9
$DIMDSEP
 70
46
  9
$AUNITS
 70
0
  9
$PDMODE
 70
3
  9
$PDSIZE
 40
0.3125
  9
$HANDSEED
  5
285
  9
$TILEMODE
 70
1
  9
$MEASUREMENT
 70
0
  9
$INSUNITS
 70
1
  0
ENDSEC
  0
SECTION
  2
CLASSES
  0
CLASS
  1
ACDBDICTIONARYWDFLT
  2
AcDbDictionaryWithDefault
  3
AutoCAD 2000
 90
0
 91
1
280
0
281
0
  0
CLASS
  1
ACDBPLACEHOLDER
  2
AcDbPlaceHolder
  3
AutoCAD 2000
 90
0
 91
1
280
0
281
0
  0
CLASS
  1
LAYOUT
  2
AcDbLayout
  3
AutoCAD 2000
 90
0
 91
0
280
0
281
0
  0
ENDSEC
  0
SECTION
  2
TABLES
  0
TABLE
  2
VPORT
  5
8
100
AcDbSymbolTable
 70
2
  0
VPORT
  5
1F4
100
AcDbSymbolTableRecord
100
AcDbViewportTableRecord
  2
*ACTIVE
 70
0
 10
0.0
 20
0.0
 11
1.0
 21
1.0
 12
5.5
 22
4.25
 13
0.0
 23
0.0
 14
1.0
 24
1.0
 15
0.0
 25
0.0
 16
0.0
 26
0.0
 36
1.0
 17
0.0
 27
0.0
 37
0.0
 40
8.5
 41
1.2941176471
 42
50.0
 43
0.0
 44
0.0
 50
0.0
 51
0.0
 71
0
 72
100
 73
1
 74
1
 75
0
 76
0
 77
0
 78
0
  0
ENDTAB
  0
TABLE
  2
LTYPE
  5
5
100
AcDbSymbolTable
 70
6
  0
LTYPE
  5
14
100
AcDbSymbolTableRecord
100
AcDbLinetypeTableRecord
  2
BYBLOCK
 70
0
  3

 72
65
 73
0
 40
0.0
  0
LTYPE
  5
15
100
AcDbSymbolTableRecord
100
AcDbLinetypeTableRecord
  2
BYLAYER
 70
0
  3

 72
65
 73
0
 40
0.0
  0
LTYPE
  5
16
100
AcDbSymbolTableRecord
100
AcDbLinetypeTableRecord
  2
CONTINUOUS
 70
64
  3
Solid line
 72
65
 73
0
 40
0.0
  0
LTYPE
  5
1F5
100
AcDbSymbolTableRecord
100
AcDbLinetypeTableRecord
  2
CENTER
 70
64
  3
____ _ ____ _ ____ _ ____ _ ____ _ ____ _ ____
 72
65
 73
4
 40
0.6
 49
0.375
 74
0
 49
-0.075
 74
0
 49
0.075
 74
0
 49
-0.075
 74
0
  0
LTYPE
  5
1F6
100
AcDbSymbolTableRecord
100
AcDbLinetypeTableRecord
  2
HIDDEN
 70
64
  3
- - - - - - - - - - - - - - - - - - - -
 72
65
 73
2
 40
0.2
 49
0.1
 74
0
 49
-0.1
 74
0
  0
LTYPE
  5
1F7
100
AcDbSymbolTableRecord
100
AcDbLinetypeTableRecord
  2
PHANTOM
 70
64
  3
_____ _ _ _____ _ _ _____ _ _ _____
 72
65
 73
6
 40
0.8
 49
0.45
 74
0
 49
-0.05
 74
0
 49
0.1
 74
0
 49
-0.05
 74
0
 49
0.1
 74
0
 49
-0.05
 74
0
  0
LTYPE
  5
1F8
100
AcDbSymbolTableRecord
100
AcDbLinetypeTableRecord
  2
DOT
 70
64
  3
. . . . . . . . . . . . . . . . . . . .
 72
65
 73
2
 40
0.2
 49
0.1
 74
0
 49
-0.1
 74
0
  0
LTYPE
  5
1F9
100
AcDbSymbolTableRecord
100
AcDbLinetypeTableRecord
  2
DASHED
 70
64
  3
- - - - - - - - - - - - - - - - - - - -
 72
65
 73
2
 40
0.2
 49
0.1
 74
0
 49
-0.1
 74
0
  0
ENDTAB
  0
TABLE
  2
LAYER
  5
2
100
AcDbSymbolTable
 70
36
  0
LAYER
  5
10
100
AcDbSymbolTableRecord
100
AcDbLayerTableRecord
  2
0
 70
0
 62
7
  6
CONTINUOUS
370
-3
390
F
  0
LAYER
  5
1FA
100
AcDbSymbolTableRecord
100
AcDbLayerTableRecord
  2
DEFAULT_1
 70
0
 62
7
  6
CENTER
370
-3
390
F
  0
LAYER
  5
1FB
100
AcDbSymbolTableRecord
100
AcDbLayerTableRecord
  2
DEFAULT_2
 70
0
 62
8
  6
HIDDEN
370
-3
390
F
  0
LAYER
  5
1FC
100
AcDbSymbolTableRecord
100
AcDbLayerTableRecord
  2
DEFAULT_3
 70
0
 62
7
  6
PHANTOM
370
-3
390
F
  0
LAYER
  5
1FD
100
AcDbSymbolTableRecord
100
AcDbLayerTableRecord
  2
01___PRT_ALL_DTM_PLN
 70
0
 62
7
  6
CONTINUOUS
370
-3
390
F
  0
LAYER
  5
1FE
100
AcDbSymbolTableRecord
100
AcDbLayerTableRecord
  2
01___PRT_DEF_DTM_PLN
 70
0
 62
7
  6
CONTINUOUS
370
-3
390
F
  0
LAYER
  5
1FF
100
AcDbSymbolTableRecord
100
AcDbLayerTableRecord
  2
02___PRT_ALL_AXES
 70
0
 62
7
  6
CONTINUOUS
370
-3
390
F
  0
LAYER
  5
200
100
AcDbSymbolTableRecord
100
AcDbLayerTableRecord
  2
03___PRT_ALL_CURVES
 70
0
 62
7
  6
CONTINUOUS
370
-3
390
F
  0
LAYER
  5
201
100
AcDbSymbolTableRecord
100
AcDbLayerTableRecord
  2
04___PRT_ALL_DTM_PNT
 70
0
 62
7
  6
CONTINUOUS
370
-3
390
F
  0
LAYER
  5
202
100
AcDbSymbolTableRecord
100
AcDbLayerTableRecord
  2
05___PRT_ALL_DTM_CSYS
 70
0
 62
7
  6
CONTINUOUS
370
-3
390
F
  0
LAYER
  5
203
100
AcDbSymbolTableRecord
100
AcDbLayerTableRecord
  2
05___PRT_DEF_DTM_CSYS
 70
0
 62
7
  6
CONTINUOUS
370
-3
390
F
  0
LAYER
  5
204
100
AcDbSymbolTableRecord
100
AcDbLayerTableRecord
  2
06___PRT_ALL_SURFS
 70
0
 62
7
  6
CONTINUOUS
370
-3
390
F
  0
LAYER
  5
205
100
AcDbSymbolTableRecord
100
AcDbLayerTableRecord
  2
ALL_ASSEMBLY_MEMBERS
 70
0
 62
7
  6
CONTINUOUS
370
-3
390
F
  0
LAYER
  5
206
100
AcDbSymbolTableRecord
100
AcDbLayerTableRecord
  2
ALL_FEATURES
 70
0
 62
7
  6
CONTINUOUS
370
-3
390
F
  0
LAYER
  5
207
100
AcDbSymbolTableRecord
100
AcDbLayerTableRecord
  2
AXES_FEATURES
 70
0
 62
7
  6
CONTINUOUS
370
-3
390
F
  0
LAYER
  5
208
100
AcDbSymbolTableRecord
100
AcDbLayerTableRecord
  2
CHAMFER_FEATURES
 70
0
 62
7
  6
CONTINUOUS
370
-3
390
F
  0
LAYER
  5
209
100
AcDbSymbolTableRecord
100
AcDbLayerTableRecord
  2
COSMATIC
 70
0
 62
7
  6
CONTINUOUS
370
-3
390
F
  0
LAYER
  5
20A
100
AcDbSymbolTableRecord
100
AcDbLayerTableRecord
  2
COSMETIC
 70
0
 62
7
  6
CONTINUOUS
370
-3
390
F
  0
LAYER
  5
20B
100
AcDbSymbolTableRecord
100
AcDbLayerTableRecord
  2
COSMETIC_SKETCHES
 70
0
 62
7
  6
CONTINUOUS
370
-3
390
F
  0
LAYER
  5
20C
100
AcDbSymbolTableRecord
100
AcDbLayerTableRecord
  2
CUT_FEATURES
 70
0
 62
7
  6
CONTINUOUS
370
-3
390
F
  0
LAYER
  5
20D
100
AcDbSymbolTableRecord
100
AcDbLayerTableRecord
  2
DATUM_CURVES
 70
0
 62
7
  6
CONTINUOUS
370
-3
390
F
  0
LAYER
  5
20E
100
AcDbSymbolTableRecord
100
AcDbLayerTableRecord
  2
DATUM_PLANES
 70
0
 62
7
  6
CONTINUOUS
370
-3
390
F
  0
LAYER
  5
20F
100
AcDbSymbolTableRecord
100
AcDbLayerTableRecord
  2
DEFAULT_COORDINATE_SYSTEM
 70
0
 62
7
  6
CONTINUOUS
370
-3
390
F
  0
LAYER
  5
210
100
AcDbSymbolTableRecord
100
AcDbLayerTableRecord
  2
DEFAULT_DATUM_AXES
 70
0
 62
7
  6
CONTINUOUS
370
-3
390
F
  0
LAYER
  5
211
100
AcDbSymbolTableRecord
100
AcDbLayerTableRecord
  2
DEFAULT_DATUM_CURVES
 70
0
 62
7
  6
CONTINUOUS
370
-3
390
F
  0
LAYER
  5
212
100
AcDbSymbolTableRecord
100
AcDbLayerTableRecord
  2
DEFAULT_DATUM_PLANES
 70
0
 62
7
  6
CONTINUOUS
370
-3
390
F
  0
LAYER
  5
213
100
AcDbSymbolTableRecord
100
AcDbLayerTableRecord
  2
DEFAULT_SURFACES
 70
0
 62
7
  6
CONTINUOUS
370
-3
390
F
  0
LAYER
  5
214
100
AcDbSymbolTableRecord
100
AcDbLayerTableRecord
  2
DIMENSIONS
 70
0
 62
7
  6
CONTINUOUS
370
-3
390
F
  0
LAYER
  5
215
100
AcDbSymbolTableRecord
100
AcDbLayerTableRecord
  2
HOLE_FEATURES
 70
0
 62
7
  6
CONTINUOUS
370
-3
390
F
  0
LAYER
  5
216
100
AcDbSymbolTableRecord
100
AcDbLayerTableRecord
  2
LAY0001
 70
0
 62
7
  6
CONTINUOUS
370
-3
390
F
  0
LAYER
  5
217
100
AcDbSymbolTableRecord
100
AcDbLayerTableRecord
  2
NONE
 70
0
 62
7
  6
CONTINUOUS
370
-3
390
F
  0
LAYER
  5
218
100
AcDbSymbolTableRecord
100
AcDbLayerTableRecord
  2
PART_REFERENCE_DIMENSIONS
 70
0
 62
7
  6
CONTINUOUS
370
-3
390
F
  0
LAYER
  5
219
100
AcDbSymbolTableRecord
100
AcDbLayerTableRecord
  2
PLATED_SURFACE_AREA
 70
0
 62
7
  6
CONTINUOUS
370
-3
390
F
  0
LAYER
  5
21A
100
AcDbSymbolTableRecord
100
AcDbLayerTableRecord
  2
PROTRUSION_FEATURES
 70
0
 62
7
  6
CONTINUOUS
370
-3
390
F
  0
LAYER
  5
21B
100
AcDbSymbolTableRecord
100
AcDbLayerTableRecord
  2
QUILTS
 70
0
 62
7
  6
CONTINUOUS
370
-3
390
F
  0
LAYER
  5
21C
100
AcDbSymbolTableRecord
100
AcDbLayerTableRecord
  2
REFERENCE_DIMENSIONS
 70
0
 62
7
  6
CONTINUOUS
370
-3
390
F
  0
LAYER
  5
21D
100
AcDbSymbolTableRecord
100
AcDbLayerTableRecord
  2
ROUND_FEATURES
 70
0
 62
7
  6
CONTINUOUS
370
-3
390
F
  0
LAYER
  5
21E
100
AcDbSymbolTableRecord
100
AcDbLayerTableRecord
  2
WETTED_SURFACES
 70
0
 62
7
  6
CONTINUOUS
370
-3
390
F
  0
LAYER
  5
21F
100
AcDbSymbolTableRecord
100
AcDbLayerTableRecord
  2
WETTED_SURFACE_AREA
 70
0
 62
7
  6
CONTINUOUS
370
-3
390
F
  0
LAYER
  5
220
100
AcDbSymbolTableRecord
100
AcDbLayerTableRecord
  2
XSEC_DATUMS
 70
0
 62
7
  6
CONTINUOUS
370
-3
390
F
  0
ENDTAB
  0
TABLE
  2
STYLE
  5
3
100
AcDbSymbolTable
 70
1
  0
STYLE
  5
11
100
AcDbSymbolTableRecord
100
AcDbTextStyleTableRecord
  2
STANDARD
 70
0
 40
0.0
 41
0.8
 50
0.0
 71
0
 42
0.2
  3
txt
  4

  0
STYLE
  5
221
100
AcDbSymbolTableRecord
100
AcDbTextStyleTableRecord
  2
TEXTSTYLE_1
 70
0
 40
0.0
 41
0.8
 50
0.0
 71
0
 42
0.2
  3
gdt
  4

  0
ENDTAB
  0
TABLE
  2
VIEW
  5
6
100
AcDbSymbolTable
 70
0
  0
ENDTAB
  0
TABLE
  2
UCS
  5
7
100
AcDbSymbolTable
 70
0
  0
ENDTAB
  0
TABLE
  2
APPID
  5
9
100
AcDbSymbolTable
 70
1
  0
APPID
  5
222
100
AcDbSymbolTableRecord
100
AcDbRegAppTableRecord
  2
ACAD
 70
0
  0
ENDTAB
  0
TABLE
  2
BLOCK_RECORD
  5
1
100
AcDbSymbolTable
 70
0
  0
BLOCK_RECORD
  5
223
100
AcDbSymbolTableRecord
100
AcDbBlockTableRecord
  2
*Model_Space
  0
BLOCK_RECORD
  5
224
100
AcDbSymbolTableRecord
100
AcDbBlockTableRecord
  2
*Paper_Space
  0
BLOCK_RECORD
  5
225
100
AcDbSymbolTableRecord
100
AcDbBlockTableRecord
  2
_FILLED
  0
ENDTAB
  0
TABLE
  2
DIMSTYLE
  5
A
100
AcDbSymbolTable
 70
1
100
AcDbDimStyleTable
 71
0
  0
DIMSTYLE
105
226
100
AcDbSymbolTableRecord
100
AcDbDimStyleTableRecord
  2
STANDARD
 70
0
  3

  4

 40
1.0
 41
0.1
 42
0.0625
 43
0.38
 44
0.125
 45
0.0
 46
0.0
 47
0.001
 48
0.001
140
0.08
141
0.09
142
0.0
143
25.4
144
1.0
145
0.0
146
1.0
147
0.09
 71
1.0
 72
0.0
 73
1
 74
1
 75
0
 76
0
 77
0
 78
4
 79
1
170
1
171
2
172
0
173
0
174
0
175
0
176
0
177
0
178
0
270
2
179
3
271
3
272
3
273
2
274
2
275
0
280
0
281
0
282
0
283
1
284
4
285
0
286
0
287
3
288
0
340
11
278
46
341
225
342
225
343
225
344
225
  0
ENDTAB
  0
ENDSEC
  0
SECTION
  2
BLOCKS
  0
BLOCK
  5
20
100
AcDbEntity
  8
0
100
AcDbBlockBegin
  2
*Model_Space
 70
0
 10
0.0
 20
0.0
 30
0.0
  3
*Model_Space
  1

  0
ENDBLK
  5
21
100
AcDbEntity
  8
0
100
AcDbBlockEnd
  0
BLOCK
  5
1C
100
AcDbEntity
  8
0
100
AcDbBlockBegin
  2
*Paper_Space
 70
0
 10
0.0
 20
0.0
 30
0.0
  3
*Paper_Space
  1

  0
ENDBLK
  5
1D
100
AcDbEntity
  8
0
100
AcDbBlockEnd
  0
BLOCK
  5
227
100
AcDbEntity
  8
0
100
AcDbBlockBegin
  2
_FILLED
 70
64
 10
0.0
 20
0.0
  3
_FILLED
  1

  0
SOLID
  5
228
100
AcDbEntity
  8
0
  6
BYBLOCK
 62
0
100
AcDbTrace
 10
0.0
 20
0.0
 11
-1.0
 21
0.2
 12
-1.0
 22
-0.2
 13
-1.0
 23
-0.2
  0
ENDBLK
  5
229
100
AcDbEntity
  8
0
  6
BYBLOCK
 62
0
100
AcDbBlockEnd
  0
ENDSEC
  0
SECTION
  2
ENTITIES
  0
MTEXT
  5
22A
100
AcDbEntity
  8
0
100
AcDbMText
 62
2
  6
CONTINUOUS
  7
STANDARD
 71
3
 72
1
 10
4.5321277884
 20
3.5282295211
 30
0.0
 11
1.0
 21
0.0
 31
0.0
 73
2
 44
0.9
  1
SCALE  .500
 40
0.08
 41
0.704
  0
LINE
  5
22B
100
AcDbEntity
  8
0
100
AcDbLine
 62
7
  6
CONTINUOUS
 10
0.0
 20
0.0
 11
0.0
 21
8.5
  0
LINE
  5
22C
100
AcDbEntity
  8
0
100
AcDbLine
 62
7
  6
CONTINUOUS
 10
0.0
 20
0.0
 11
11.0
 21
0.0
  0
LINE
  5
22D
100
AcDbEntity
  8
0
100
AcDbLine
 62
7
  6
CONTINUOUS
 10
0.0
 20
8.5
 11
11.0
 21
8.5
  0
LINE
  5
22E
100
AcDbEntity
  8
0
100
AcDbLine
 62
7
  6
CONTINUOUS
 10
11.0
 20
0.0
 11
11.0
 21
8.5
  0
LINE
  5
22F
100
AcDbEntity
  8
0
100
AcDbLine
 62
7
  6
CONTINUOUS
 10
3.3273291925
 20
4.734215546
 11
3.3273291925
 21
5.277965546
  0
LINE
  5
230
100
AcDbEntity
  8
0
100
AcDbLine
 62
7
  6
CONTINUOUS
 10
3.7648291925
 20
4.734215546
 11
3.7648291925
 21
4.840465546
  0
LWPOLYLINE
  5
231
100
AcDbEntity
  8
ALL_ASSEMBLY_MEMBERS
100
AcDbPolyline
 62
7
  6
CONTINUOUS
 90
7
 70
0
 10
5.5435087231
 20
5.1215836065
 10
5.5418408573
 20
5.1207262405
 10
5.5401342921
 20
5.1200407945
 10
5.5384298571
 20
5.1195295047
 10
5.5367533227
 20
5.1191824603
 10
5.5351127396
 20
5.1189846732
 10
5.533541217
 20
5.1189228358
  0
LINE
  5
232
100
AcDbEntity
  8
ALL_ASSEMBLY_MEMBERS
100
AcDbLine
 62
7
  6
CONTINUOUS
 10
5.5523769862
 20
5.1321989288
 11
5.5523760598
 21
5.1321963253
  0
LWPOLYLINE
  5
233
100
AcDbEntity
  8
ALL_ASSEMBLY_MEMBERS
100
AcDbPolyline
 62
7
  6
CONTINUOUS
 90
8
 70
0
 10
5.5522360063
 20
5.1318163503
 10
5.5514521112
 20
5.130023519
 10
5.5504870094
 20
5.1283002804
 10
5.5493501306
 20
5.1266722316
 10
5.5480661123
 20
5.1251741321
 10
5.5466501985
 20
5.1238180574
 10
5.5451186335
 20
5.1226144529
 10
5.5435087231
 20
5.1215836065
  0
LINE
  5
234
100
AcDbEntity
  8
0
100
AcDbLine
 62
7
  6
CONTINUOUS
 10
3.3272975298
 20
5.2779972087
 11
3.7648608553
 21
4.8404338832
  0
LINE
  5
235
100
AcDbEntity
  8
0
100
AcDbLine
 62
7
  6
CONTINUOUS
 10
3.7648291952
 20
4.8411726501
 11
3.3273291898
 21
5.2786726555
  0
LINE
  5
236
100
AcDbEntity
  8
ALL_ASSEMBLY_MEMBERS
100
AcDbLine
 62
7
  6
CONTINUOUS
 10
5.4460791925
 20
5.0989226528
 11
5.4460791925
 21
5.0209226528
  0
LINE
  5
237
100
AcDbEntity
  8
ALL_ASSEMBLY_MEMBERS
100
AcDbLine
 62
7
  6
CONTINUOUS
 10
5.4660791925
 20
5.0009226528
 11
5.4660791925
 21
5.1189226528
  0
LINE
  5
238
100
AcDbEntity
  8
ALL_ASSEMBLY_MEMBERS
100
AcDbLine
 62
7
  6
CONTINUOUS
 10
5.9180791925
 20
5.0009226528
 11
5.9180791925
 21
5.1189226528
  0
LINE
  5
239
100
AcDbEntity
  8
ALL_ASSEMBLY_MEMBERS
100
AcDbLine
 62
7
  6
CONTINUOUS
 10
5.9380791925
 20
5.0209226528
 11
5.9380791925
 21
5.0989226528
  0
LINE
  5
23A
100
AcDbEntity
  8
ALL_ASSEMBLY_MEMBERS
100
AcDbLine
 62
7
  6
CONTINUOUS
 10
5.9580791925
 20
5.0956035038
 11
5.9580791925
 21
5.0242418017
  0
LWPOLYLINE
  5
23B
100
AcDbEntity
  8
ALL_ASSEMBLY_MEMBERS
100
AcDbPolyline
 62
7
  6
CONTINUOUS
 90
24
 70
0
 10
5.5523757188
 20
4.9876494111
 10
5.5540684587
 20
4.9830721681
 10
5.5588237559
 20
4.971642722
 10
5.5641200933
 20
4.9607153105
 10
5.5698903029
 20
4.9503328487
 10
5.5760993746
 20
4.9404723921
 10
5.5827535388
 20
4.931068406
 10
5.5898205023
 20
4.9221325701
 10
5.5972716342
 20
4.9136699724
 10
5.6051390088
 20
4.9056250555
 10
5.6134020826
 20
4.8980147187
 10
5.6220439938
 20
4.8908536699
 10
5.6311134752
 20
4.8841075793
 10
5.6405934806
 20
4.8778025718
 10
5.6504729515
 20
4.8719646568
 10
5.6608136349
 20
4.8665839061
 10
5.671612826
 20
4.8616945689
 10
5.6828472587
 20
4.8573414537
 10
5.6945516789
 20
4.8535540385
 10
5.7068065665
 20
4.8503621492
 10
5.7195013358
 20
4.8478502003
 10
5.7323787615
 20
4.8461003577
 10
5.7454200628
 20
4.8451295121
 10
5.7548447439
 20
4.8449226435
  0
LINE
  5
23C
100
AcDbEntity
  8
ALL_ASSEMBLY_MEMBERS
100
AcDbLine
 62
7
  6
CONTINUOUS
 10
5.5523758846
 20
4.9876489611
 11
5.552376712
 21
4.9876466367
  0
LINE
  5
23D
100
AcDbEntity
  8
0
100
AcDbLine
 62
7
  6
CONTINUOUS
 10
7.1710791925
 20
4.5974226528
 11
7.0560791925
 21
4.5974226528
  0
LINE
  5
23E
100
AcDbEntity
  8
0
100
AcDbLine
 62
7
  6
CONTINUOUS
 10
3.3273465934
 20
4.734215546
 11
3.7648117916
 21
4.734215546
  0
LINE
  5
23F
100
AcDbEntity
  8
0
100
AcDbLine
 62
7
  6
CONTINUOUS
 10
7.1785791925
 20
4.7849226528
 11
7.3710791925
 21
4.7849226528
  0
LINE
  5
240
100
AcDbEntity
  8
0
100
AcDbLine
 62
7
  6
CONTINUOUS
 10
7.0460791925
 20
4.8411726528
 11
3.7648291925
 21
4.8411726528
  0
LINE
  5
241
100
AcDbEntity
  8
ALL_ASSEMBLY_MEMBERS
100
AcDbLine
 62
7
  6
CONTINUOUS
 10
7.0460791925
 20
4.8449226528
 11
6.8580791925
 21
4.8449226528
  0
LINE
  5
242
100
AcDbEntity
  8
ALL_ASSEMBLY_MEMBERS
100
AcDbLine
 62
7
  6
CONTINUOUS
 10
5.7548404098
 20
4.8449226531
 11
6.8330791925
 21
4.8449226528
  0
LINE
  5
243
100
AcDbEntity
  8
ALL_ASSEMBLY_MEMBERS
100
AcDbLine
 62
7
  6
CONTINUOUS
 10
6.8550791925
 20
4.8899226528
 11
6.8580791925
 21
4.8899226528
  0
LINE
  5
244
100
AcDbEntity
  8
ALL_ASSEMBLY_MEMBERS
100
AcDbLine
 62
7
  6
CONTINUOUS
 10
5.5624409468
 20
4.9809226528
 11
5.9190018427
 21
4.9809226528
  0
LINE
  5
245
100
AcDbEntity
  8
ALL_ASSEMBLY_MEMBERS
100
AcDbLine
 62
7
  6
CONTINUOUS
 10
5.4660791925
 20
5.0009226528
 11
5.9180791925
 21
5.0009226528
  0
LINE
  5
246
100
AcDbEntity
  8
ALL_ASSEMBLY_MEMBERS
100
AcDbLine
 62
7
  6
CONTINUOUS
 10
6.8545574901
 20
4.8899601842
 11
6.8550791925
 21
4.8899226528
  0
LINE
  5
247
100
AcDbEntity
  8
ALL_ASSEMBLY_MEMBERS
100
AcDbLine
 62
7
  6
CONTINUOUS
 10
6.854560149
 20
4.8899600285
 11
6.8550791925
 21
4.8899226528
  0
LINE
  5
248
100
AcDbEntity
  8
ALL_ASSEMBLY_MEMBERS
100
AcDbLine
 62
7
  6
CONTINUOUS
 10
6.8550791925
 20
5.2299226528
 11
6.8545863918
 21
5.2298871277
  0
LINE
  5
249
100
AcDbEntity
  8
ALL_ASSEMBLY_MEMBERS
100
AcDbLine
 62
7
  6
CONTINUOUS
 10
5.4460791925
 20
5.0209226528
 11
5.9380791925
 21
5.0209226528
  0
LINE
  5
24A
100
AcDbEntity
  8
ALL_ASSEMBLY_MEMBERS
100
AcDbLine
 62
7
  6
CONTINUOUS
 10
5.4460791925
 20
5.0989226528
 11
5.9380791925
 21
5.0989226528
  0
LINE
  5
24B
100
AcDbEntity
  8
ALL_ASSEMBLY_MEMBERS
100
AcDbLine
 62
7
  6
CONTINUOUS
 10
5.9180791925
 20
5.1189226528
 11
5.4660791925
 21
5.1189226528
  0
LINE
  5
24C
100
AcDbEntity
  8
ALL_ASSEMBLY_MEMBERS
100
AcDbLine
 62
7
  6
CONTINUOUS
 10
5.9190017117
 20
5.1389226528
 11
5.5624408031
 21
5.1389226528
  0
LWPOLYLINE
  5
24D
100
AcDbEntity
  8
ALL_ASSEMBLY_MEMBERS
100
AcDbPolyline
 62
7
  6
CONTINUOUS
 90
14
 70
0
 10
5.5336014869
 20
5.0009225454
 10
5.5352638765
 20
5.0008482829
 10
5.5369692452
 20
5.0006266082
 10
5.5387031156
 20
5.0002449451
 10
5.5404585052
 20
4.9996882126
 10
5.5422054955
 20
4.9989483103
 10
5.5438951638
 20
4.9980337255
 10
5.5455086417
 20
4.9969467843
 10
5.5470267067
 20
4.9956919686
 10
5.5484089251
 20
4.9942995559
 10
5.5496435309
 20
4.9927845673
 10
5.5507205018
 20
4.9911628207
 10
5.5516180198
 20
4.9894793758
 10
5.5523766261
 20
4.9876468773
  0
LINE
  5
24E
100
AcDbEntity
  8
ALL_ASSEMBLY_MEMBERS
100
AcDbLine
 62
7
  6
CONTINUOUS
 10
6.8330791925
 20
4.8449226528
 11
6.8330791925
 21
5.2749226528
  0
LINE
  5
24F
100
AcDbEntity
  8
ALL_ASSEMBLY_MEMBERS
100
AcDbLine
 62
7
  6
CONTINUOUS
 10
6.8580791925
 20
4.8449226528
 11
6.8580791925
 21
5.2749226528
  0
LWPOLYLINE
  5
250
100
AcDbEntity
  8
ALL_ASSEMBLY_MEMBERS
100
AcDbPolyline
 62
7
  6
CONTINUOUS
 90
24
 70
0
 10
5.7548883094
 20
5.2749226615
 10
5.7457627596
 20
5.2747303845
 10
5.7327283896
 20
5.2737814207
 10
5.7198448899
 20
5.2720523136
 10
5.7071355803
 20
5.2695582054
 10
5.6948654962
 20
5.2663825659
 10
5.6831476418
 20
5.2626105348
 10
5.6718996963
 20
5.2582711454
 10
5.6610882002
 20
5.2533944802
 10
5.6507362626
 20
5.2480265727
 10
5.6408464241
 20
5.2422014293
 10
5.631356888
 20
5.2359088553
 10
5.6222782482
 20
5.2291751525
 10
5.6136269068
 20
5.2220267609
 10
5.6053540284
 20
5.2144288656
 10
5.5974768038
 20
5.2063959866
 10
5.5900146469
 20
5.1979447776
 10
5.582935369
 20
5.1890195347
 10
5.5762683796
 20
5.1796255868
 10
5.5700453437
 20
5.1697735555
 10
5.5642594477
 20
5.1593973637
 10
5.5589464057
 20
5.1484748219
 10
5.5541735517
 20
5.1370471044
 10
5.5522360063
 20
5.1318163503
  0
LINE
  5
251
100
AcDbEntity
  8
ALL_ASSEMBLY_MEMBERS
100
AcDbLine
 62
7
  6
CONTINUOUS
 10
6.8550791925
 20
5.2299226528
 11
6.8580791925
 21
5.2299226528
  0
LINE
  5
252
100
AcDbEntity
  8
ALL_ASSEMBLY_MEMBERS
100
AcDbLine
 62
7
  6
CONTINUOUS
 10
7.0460791925
 20
5.2749226528
 11
6.8580791925
 21
5.2749226528
  0
LINE
  5
253
100
AcDbEntity
  8
ALL_ASSEMBLY_MEMBERS
100
AcDbLine
 62
7
  6
CONTINUOUS
 10
6.8330791925
 20
5.2749226528
 11
5.7548638345
 21
5.2749226528
  0
LINE
  5
254
100
AcDbEntity
  8
0
100
AcDbLine
 62
7
  6
CONTINUOUS
 10
7.0460791925
 20
5.2786726528
 11
3.3273291925
 21
5.2786726528
  0
LINE
  5
255
100
AcDbEntity
  8
0
100
AcDbLine
 62
7
  6
CONTINUOUS
 10
7.3710791925
 20
5.3349226528
 11
7.1785791925
 21
5.3349226528
  0
LINE
  5
256
100
AcDbEntity
  8
0
100
AcDbLine
 62
7
  6
CONTINUOUS
 10
7.0460791925
 20
4.6074263376
 11
7.0460791925
 21
5.5124189679
  0
LINE
  5
257
100
AcDbEntity
  8
0
100
AcDbLine
 62
7
  6
CONTINUOUS
 10
7.0560791925
 20
4.5974226528
 11
7.0560791925
 21
5.5224226528
  0
LINE
  5
258
100
AcDbEntity
  8
0
100
AcDbLine
 62
7
  6
CONTINUOUS
 10
7.1710791925
 20
5.5224226528
 11
7.0560791925
 21
5.5224226528
  0
LINE
  5
259
100
AcDbEntity
  8
0
100
AcDbLine
 62
7
  6
CONTINUOUS
 10
7.1710791925
 20
5.5224226502
 11
7.1710791925
 21
4.5974226554
  0
LINE
  5
25A
100
AcDbEntity
  8
ALL_FEATURES
100
AcDbLine
 62
7
  6
CONTINUOUS
 10
7.1785791925
 20
5.4809226528
 11
7.1785791925
 21
4.6389226528
  0
LINE
  5
25B
100
AcDbEntity
  8
02___PRT_ALL_AXES
100
AcDbLine
 62
7
  6
CONTINUOUS
 10
7.3710791925
 20
5.3349226528
 11
7.3710791925
 21
4.7849226528
  0
ARC
  5
25C
100
AcDbEntity
  8
ALL_ASSEMBLY_MEMBERS
100
AcDbCircle
 62
7
  6
CONTINUOUS
 10
5.7407213439
 20
5.0599256929
 40
0.1949984607
100
AcDbArc
 50
23.8983815834
 51
156.1016390145
  0
ARC
  5
25D
100
AcDbEntity
  8
ALL_ASSEMBLY_MEMBERS
100
AcDbCircle
 62
7
  6
CONTINUOUS
 10
5.7407212847
 20
5.059919592
 40
0.194998451
100
AcDbArc
 50
203.8983795869
 51
336.1016466124
  0
ARC
  5
25E
100
AcDbEntity
  8
ALL_ASSEMBLY_MEMBERS
100
AcDbCircle
 62
7
  6
CONTINUOUS
 10
6.8424047073
 20
5.4025391118
 40
0.1730812841
100
AcDbArc
 50
273.3163633528
 51
273.4952904438
  0
ARC
  5
25F
100
AcDbEntity
  8
ALL_ASSEMBLY_MEMBERS
100
AcDbCircle
 62
7
  6
CONTINUOUS
 10
6.8425484305
 20
5.400055778
 40
0.1705937947
100
AcDbArc
 50
272.761568428
 51
273.3164225344
  0
ARC
  5
260
100
AcDbEntity
  8
ALL_ASSEMBLY_MEMBERS
100
AcDbCircle
 62
7
  6
CONTINUOUS
 10
6.8425720849
 20
4.7199896094
 40
0.1703926555
100
AcDbArc
 50
85.9655925803
 51
86.4646651291
  0
ARC
  5
261
100
AcDbEntity
  8
ALL_ASSEMBLY_MEMBERS
100
AcDbCircle
 62
7
  6
CONTINUOUS
 10
6.8425798623
 20
4.7205213967
 40
0.1698613888
100
AcDbArc
 50
86.4977833231
 51
93.210556182
  0
ARC
  5
262
100
AcDbEntity
  8
ALL_ASSEMBLY_MEMBERS
100
AcDbCircle
 62
7
  6
CONTINUOUS
 10
6.8425784231
 20
5.3992700099
 40
0.1698074943
100
AcDbArc
 50
266.788878864
 51
272.7642341267
  0
ARC
  5
263
100
AcDbEntity
  8
ALL_ASSEMBLY_MEMBERS
100
AcDbCircle
 62
7
  6
CONTINUOUS
 10
6.8426356461
 20
5.3989021217
 40
0.169436975
100
AcDbArc
 50
273.5387049605
 51
274.0445498275
  0
ARC
  5
264
100
AcDbEntity
  8
ALL_ASSEMBLY_MEMBERS
100
AcDbCircle
 62
7
  6
CONTINUOUS
 10
5.9180791925
 20
5.0209226528
 40
0.02
100
AcDbArc
 50
270.0
 51
360.0
  0
ARC
  5
265
100
AcDbEntity
  8
ALL_ASSEMBLY_MEMBERS
100
AcDbCircle
 62
7
  6
CONTINUOUS
 10
5.9180791925
 20
5.0989226528
 40
0.02
100
AcDbArc
 50
0.0
 51
90.0
  0
ARC
  5
266
100
AcDbEntity
  8
ALL_ASSEMBLY_MEMBERS
100
AcDbCircle
 62
7
  6
CONTINUOUS
 10
5.4660791925
 20
5.0989226528
 40
0.02
100
AcDbArc
 50
90.0
 51
180.0
  0
ARC
  5
267
100
AcDbEntity
  8
ALL_ASSEMBLY_MEMBERS
100
AcDbCircle
 62
7
  6
CONTINUOUS
 10
5.4660791925
 20
5.0209226528
 40
0.02
100
AcDbArc
 50
180.0
 51
270.0
  0
ARC
  5
268
100
AcDbEntity
  8
ALL_FEATURES
100
AcDbCircle
 62
7
  6
CONTINUOUS
 10
7.1610791925
 20
5.4809226528
 40
0.0175
100
AcDbArc
 50
0.0
 51
55.1063551026
  0
ARC
  5
269
100
AcDbEntity
  8
ALL_FEATURES
100
AcDbCircle
 62
7
  6
CONTINUOUS
 10
7.1610791925
 20
4.6389226528
 40
0.0175
100
AcDbArc
 50
304.8936448974
 51
360.0
  0
ARC
  5
26A
100
AcDbEntity
  8
ALL_ASSEMBLY_MEMBERS
100
AcDbCircle
 62
7
  6
CONTINUOUS
 10
6.8425791925
 20
5.0599226528
 40
0.0125
100
AcDbArc
 50
220.4438584186
 51
139.5537424742
  0
ARC
  5
26B
100
AcDbEntity
  8
0
100
AcDbCircle
 62
7
  6
CONTINUOUS
 10
7.0560791925
 20
5.5124226528
 40
0.01
100
AcDbArc
 50
90.0
 51
180.0
  0
ARC
  5
26C
100
AcDbEntity
  8
0
100
AcDbCircle
 62
7
  6
CONTINUOUS
 10
7.0560791925
 20
4.6074226528
 40
0.01
100
AcDbArc
 50
180.0
 51
270.0
  0
LINE
  5
26D
100
AcDbEntity
  8
ALL_ASSEMBLY_MEMBERS
100
AcDbLine
 62
7
  6
CONTINUOUS
 10
6.8529562114
 20
4.8900655585
 11
6.8530791925
 21
4.8900580008
  0
LINE
  5
26E
100
AcDbEntity
  8
ALL_ASSEMBLY_MEMBERS
100
AcDbLine
 62
7
  6
CONTINUOUS
 10
6.8530937697
 20
5.229788207
 11
6.8529568666
 21
5.2297797913
  0
SPLINE
  5
26F
100
AcDbEntity
  8
ALL_ASSEMBLY_MEMBERS
100
AcDbSpline
 62
7
  6
CONTINUOUS
 70
0
 71
3
 72
22
 73
18
 74
0
 42
0.0000001
 43
0.0000001
 44
0.0000000001
 40
0.0
 40
0.0
 40
0.0
 40
0.0
 40
0.0079150667
 40
0.0164830204
 40
0.0262003449
 40
0.0374008693
 40
0.0649787966
 40
0.1001340329
 40
0.1430204578
 40
0.1934861719
 40
0.2512602923
 40
0.315888391
 40
0.3867838407
 40
0.46333679
 40
0.6306772186
 40
0.8120056821
 40
1.0
 40
1.0
 40
1.0
 40
1.0
 10
5.9380791925
 20
5.0989226528
 30
0.0
 10
5.9380791925
 20
5.0988679328
 30
0.0
 10
5.9380970933
 20
5.098753416
 30
0.0
 10
5.9381741004
 20
5.0985875158
 30
0.0
 10
5.9382986703
 20
5.0984246054
 30
0.0
 10
5.9385441755
 20
5.0981946686
 30
0.0
 10
5.9389800032
 20
5.097920574
 30
0.0
 10
5.939646955
 20
5.0976210534
 30
0.0
 10
5.9404882741
 20
5.0973324548
 30
0.0
 10
5.9414967447
 20
5.0970575948
 30
0.0
 10
5.9426641081
 20
5.0967998005
 30
0.0
 10
5.9439792895
 20
5.0965615239
 30
0.0
 10
5.9454295819
 20
5.0963449608
 30
0.0
 10
5.9475899686
 20
5.0960809182
 30
0.0
 10
5.9505196993
 20
5.0958272452
 30
0.0
 10
5.9542260272
 20
5.0956447677
 30
0.0
 10
5.9567795137
 20
5.0956035038
 30
0.0
 10
5.9580791925
 20
5.0956035038
 30
0.0
  0
SPLINE
  5
270
100
AcDbEntity
  8
ALL_ASSEMBLY_MEMBERS
100
AcDbSpline
 62
7
  6
CONTINUOUS
 70
0
 71
3
 72
14
 73
10
 74
0
 42
0.0000001
 43
0.0000001
 44
0.0000000001
 40
0.0
 40
0.0
 40
0.0
 40
0.0
 40
0.2503406805
 40
0.3751807426
 40
0.4998268735
 40
0.6244928024
 40
0.7493170557
 40
0.8744808284
 40
1.0
 40
1.0
 40
1.0
 40
1.0
 10
5.9404394028
 20
5.1259512508
 30
0.0
 10
5.9430404791
 20
5.1243449524
 30
0.0
 10
5.9466846545
 20
5.1214776982
 30
0.0
 10
5.9507325771
 20
5.1168946552
 30
0.0
 10
5.9533175834
 20
5.1131114982
 30
0.0
 10
5.9553987164
 20
5.1090300557
 30
0.0
 10
5.9569293714
 20
5.1047039193
 30
0.0
 10
5.9578678784
 20
5.1002017136
 30
0.0
 10
5.9580792496
 20
5.0971363081
 30
0.0
 10
5.9580791925
 20
5.0956035038
 30
0.0
  0
SPLINE
  5
271
100
AcDbEntity
  8
ALL_ASSEMBLY_MEMBERS
100
AcDbSpline
 62
7
  6
CONTINUOUS
 70
0
 71
3
 72
20
 73
16
 74
0
 42
0.0000001
 43
0.0000001
 44
0.0000000001
 40
0.0
 40
0.0
 40
0.0
 40
0.0
 40
0.0192785729
 40
0.042085921
 40
0.0705488728
 40
0.1057052271
 40
0.1479412174
 40
0.1971007866
 40
0.2529101014
 40
0.3150865577
 40
0.383364668
 40
0.4574759565
 40
0.6218178712
 40
0.8045323353
 40
1.0
 40
1.0
 40
1.0
 40
1.0
 10
5.9291103899
 20
5.00424005
 30
0.0
 10
5.9291951209
 20
5.0042960641
 30
0.0
 10
5.9294120796
 20
5.0043720343
 30
0.0
 10
5.92978852
 20
5.0043553084
 30
0.0
 10
5.9302294304
 20
5.0042329874
 30
0.0
 10
5.9307410927
 20
5.0040080283
 30
0.0
 10
5.9313240362
 20
5.0036828967
 30
0.0
 10
5.9319712263
 20
5.0032543489
 30
0.0
 10
5.9326729607
 20
5.0027214081
 30
0.0
 10
5.9334189277
 20
5.0020829391
 30
0.0
 10
5.9341993945
 20
5.0013390567
 30
0.0
 10
5.935324243
 20
5.000178302
 30
0.0
 10
5.9367956324
 20
4.9985161538
 30
0.0
 10
5.9386219681
 20
4.9963169154
 30
0.0
 10
5.9398364701
 20
4.9947363973
 30
0.0
 10
5.9404459514
 20
4.9939062594
 30
0.0
  0
SPLINE
  5
272
100
AcDbEntity
  8
ALL_ASSEMBLY_MEMBERS
100
AcDbSpline
 62
7
  6
CONTINUOUS
 70
0
 71
3
 72
14
 73
10
 74
0
 42
0.0000001
 43
0.0000001
 44
0.0000000001
 40
0.0
 40
0.0
 40
0.0
 40
0.0
 40
0.2572902629
 40
0.3849590649
 40
0.5115934386
 40
0.6368246184
 40
0.7603437021
 40
0.881669625
 40
1.0
 40
1.0
 40
1.0
 40
1.0
 10
5.9404459514
 20
4.9939062594
 30
0.0
 10
5.9395073864
 20
4.9928319111
 30
0.0
 10
5.9380167483
 20
4.9912964099
 30
0.0
 10
5.9358759607
 20
4.9894337232
 30
0.0
 10
5.9342091494
 20
4.9881469152
 30
0.0
 10
5.9324838434
 20
4.9869800461
 30
0.0
 10
5.9307074893
 20
4.9859494108
 30
0.0
 10
5.9288969271
 20
4.985064498
 30
0.0
 10
5.927664518
 20
4.9845642659
 30
0.0
 10
5.9270481985
 20
4.9843392879
 30
0.0
  0
SPLINE
  5
273
100
AcDbEntity
  8
ALL_ASSEMBLY_MEMBERS
100
AcDbSpline
 62
7
  6
CONTINUOUS
 70
0
 71
3
 72
17
 73
13
 74
0
 42
0.0000001
 43
0.0000001
 44
0.0000000001
 40
0.0
 40
0.0
 40
0.0
 40
0.0
 40
0.1678778611
 40
0.3283081144
 40
0.4769994758
 40
0.6112695522
 40
0.7294826135
 40
0.7825637424
 40
0.831783763
 40
0.9200249619
 40
0.9606347608
 40
1.0
 40
1.0
 40
1.0
 40
1.0
 10
5.9270481985
 20
4.9843392879
 30
0.0
 10
5.926959165
 20
4.9854676168
 30
0.0
 10
5.9266956334
 20
4.9876683287
 30
0.0
 10
5.9260420475
 20
4.990821477
 30
0.0
 10
5.9251483319
 20
4.9936801913
 30
0.0
 10
5.9240469714
 20
4.996157879
 30
0.0
 10
5.9229404984
 20
4.9979086382
 30
0.0
 10
5.9219661554
 20
4.9990357195
 30
0.0
 10
5.9210208227
 20
4.9999074586
 30
0.0
 10
5.919978255
 20
5.0005471978
 30
0.0
 10
5.9188851464
 20
5.0008690843
 30
0.0
 10
5.9183445938
 20
5.0009226436
 30
0.0
 10
5.9180791925
 20
5.0009226414
 30
0.0
  0
SPLINE
  5
274
100
AcDbEntity
  8
ALL_ASSEMBLY_MEMBERS
100
AcDbSpline
 62
7
  6
CONTINUOUS
 70
0
 71
3
 72
9
 73
5
 74
0
 42
0.0000001
 43
0.0000001
 44
0.0000000001
 40
0.0
 40
0.0
 40
0.0
 40
0.0
 40
0.2346690707
 40
1.0
 40
1.0
 40
1.0
 40
1.0
 10
5.9190018835
 20
4.9809226528
 30
0.0
 10
5.9196145546
 20
4.9812267856
 30
0.0
 10
5.922244741
 20
4.9824835046
 30
0.0
 10
5.9249500195
 20
4.9835816499
 30
0.0
 10
5.9270481806
 20
4.9843392812
 30
0.0
  0
SPLINE
  5
275
100
AcDbEntity
  8
ALL_ASSEMBLY_MEMBERS
100
AcDbSpline
 62
7
  6
CONTINUOUS
 70
0
 71
3
 72
17
 73
13
 74
0
 42
0.0000001
 43
0.0000001
 44
0.0000000001
 40
0.0
 40
0.0
 40
0.0
 40
0.0
 40
0.1448395821
 40
0.287205435
 40
0.4241815026
 40
0.5540299098
 40
0.6757128856
 40
0.7892895148
 40
0.8436009441
 40
0.8965989709
 40
0.9486129468
 40
1.0
 40
1.0
 40
1.0
 40
1.0
 10
5.9190018481
 20
4.9809226528
 30
0.0
 10
5.9190018461
 20
4.9822253182
 30
0.0
 10
5.9188222167
 20
4.9848119418
 30
0.0
 10
5.9180290491
 20
4.9885563882
 30
0.0
 10
5.9167349894
 20
4.9920175963
 30
0.0
 10
5.914986815
 20
4.9950630464
 30
0.0
 10
5.9128491562
 20
4.9975823473
 30
0.0
 10
5.9107632684
 20
4.9991834105
 30
0.0
 10
5.9089879592
 20
5.0000854321
 30
0.0
 10
5.9076333923
 20
5.0005657877
 30
0.0
 10
5.9062530892
 20
5.0008568285
 30
0.0
 10
5.90532188
 20
5.0009226528
 30
0.0
 10
5.9048597125
 20
5.0009226528
 30
0.0
  0
SPLINE
  5
276
100
AcDbEntity
  8
ALL_ASSEMBLY_MEMBERS
100
AcDbSpline
 62
7
  6
CONTINUOUS
 70
0
 71
3
 72
16
 73
12
 74
0
 42
0.0000001
 43
0.0000001
 44
0.0000000001
 40
0.0
 40
0.0
 40
0.0
 40
0.0
 40
0.0295189127
 40
0.0639337647
 40
0.1035148662
 40
0.1482458774
 40
0.252423092
 40
0.37443924
 40
0.5121805651
 40
0.6635544875
 40
1.0
 40
1.0
 40
1.0
 40
1.0
 10
5.5523767863
 20
4.987646607
 30
0.0
 10
5.5524173
 20
4.9875331934
 30
0.0
 10
5.5525360891
 20
4.9872986317
 30
0.0
 10
5.5527850058
 20
4.9869562799
 30
0.0
 10
5.5531117808
 20
4.9865976832
 30
0.0
 10
5.5536741717
 20
4.9860723701
 30
0.0
 10
5.5545489558
 20
4.9853936309
 30
0.0
 10
5.5557815347
 20
4.9845648752
 30
0.0
 10
5.5572161731
 20
4.9836948148
 30
0.0
 10
5.559440695
 20
4.982443215
 30
0.0
 10
5.5612113597
 20
4.9815328579
 30
0.0
 10
5.5624409145
 20
4.9809226528
 30
0.0
  0
SPLINE
  5
277
100
AcDbEntity
  8
ALL_ASSEMBLY_MEMBERS
100
AcDbSpline
 62
7
  6
CONTINUOUS
 70
0
 71
3
 72
14
 73
10
 74
0
 42
0.0000001
 43
0.0000001
 44
0.0000000001
 40
0.0
 40
0.0
 40
0.0
 40
0.0
 40
0.1183285859
 40
0.2396547992
 40
0.3631733771
 40
0.4884061005
 40
0.6150413577
 40
0.742709638
 40
1.0
 40
1.0
 40
1.0
 40
1.0
 10
5.9270482078
 20
5.1355058831
 30
0.0
 10
5.9276651001
 20
5.1352806358
 30
0.0
 10
5.9288986862
 20
5.1347798816
 30
0.0
 10
5.9307109953
 20
5.1338940812
 30
0.0
 10
5.9324889732
 20
5.1328622295
 30
0.0
 10
5.9342158143
 20
5.1316939793
 30
0.0
 10
5.9358839582
 20
5.1304055062
 30
0.0
 10
5.9380260436
 20
5.1285400686
 30
0.0
 10
5.9395173596
 20
5.1270023534
 30
0.0
 10
5.9404566371
 20
5.1259267779
 30
0.0
  0
SPLINE
  5
278
100
AcDbEntity
  8
ALL_ASSEMBLY_MEMBERS
100
AcDbSpline
 62
7
  6
CONTINUOUS
 70
0
 71
3
 72
19
 73
15
 74
0
 42
0.0000001
 43
0.0000001
 44
0.0000000001
 40
0.0
 40
0.0
 40
0.0
 40
0.0
 40
0.1950771265
 40
0.3774960765
 40
0.541683925
 40
0.6836275686
 40
0.7452070645
 40
0.8001943144
 40
0.8485343155
 40
0.8903508885
 40
0.9260077394
 40
0.9416488992
 40
0.9558840855
 40
1.0
 40
1.0
 40
1.0
 40
1.0
 10
5.9404566371
 20
5.1259267779
 30
0.0
 10
5.9398493416
 20
5.1250956819
 30
0.0
 10
5.9386364849
 20
5.1235146322
 30
0.0
 10
5.9368033714
 20
5.1213207354
 30
0.0
 10
5.9350742506
 20
5.1194079257
 30
0.0
 10
5.9337070139
 20
5.1180296646
 30
0.0
 10
5.9326988594
 20
5.117110389
 30
0.0
 10
5.9320290452
 20
5.1165542651
 30
0.0
 10
5.9314081305
 20
5.1161046842
 30
0.0
 10
5.9308343089
 20
5.1157677346
 30
0.0
 10
5.9303779923
 20
5.1155803286
 30
0.0
 10
5.9300417158
 20
5.1154942808
 30
0.0
 10
5.9296587285
 20
5.1154358606
 30
0.0
 10
5.9293195089
 20
5.1154669937
 30
0.0
 10
5.9291252861
 20
5.1155953055
 30
0.0
  0
SPLINE
  5
279
100
AcDbEntity
  8
ALL_ASSEMBLY_MEMBERS
100
AcDbSpline
 62
7
  6
CONTINUOUS
 70
0
 71
3
 72
9
 73
5
 74
0
 42
0.0000001
 43
0.0000001
 44
0.0000000001
 40
0.0
 40
0.0
 40
0.0
 40
0.0
 40
0.2654325286
 40
1.0
 40
1.0
 40
1.0
 40
1.0
 10
5.9270482211
 20
5.135505878
 30
0.0
 10
5.9263205183
 20
5.1357686535
 30
0.0
 10
5.9235926867
 20
5.1367960471
 30
0.0
 10
5.9209196037
 20
5.1379706189
 30
0.0
 10
5.9190017542
 20
5.1389226528
 30
0.0
  0
SPLINE
  5
27A
100
AcDbEntity
  8
ALL_ASSEMBLY_MEMBERS
100
AcDbSpline
 62
7
  6
CONTINUOUS
 70
0
 71
3
 72
22
 73
18
 74
0
 42
0.0000001
 43
0.0000001
 44
0.0000000001
 40
0.0
 40
0.0
 40
0.0
 40
0.0
 40
0.0544803003
 40
0.1091467509
 40
0.1641839765
 40
0.2197793586
 40
0.2761279454
 40
0.3334202926
 40
0.3918588595
 40
0.4516464219
 40
0.5129835643
 40
0.576080784
 40
0.6411255581
 40
0.7083066965
 40
0.7777486589
 40
0.8495528185
 40
1.0
 40
1.0
 40
1.0
 40
1.0
 10
5.7548632812
 20
4.8449221271
 30
0.0
 10
5.7594980901
 20
4.8449219961
 30
0.0
 10
5.768787681
 20
4.8452878523
 30
0.0
 10
5.7826717164
 20
4.8469341334
 30
0.0
 10
5.7964777941
 20
4.8496837885
 30
0.0
 10
5.8101619043
 20
4.8535516293
 30
0.0
 10
5.8236802483
 20
4.8585485968
 30
0.0
 10
5.8369824293
 20
4.8646974563
 30
0.0
 10
5.8500130408
 20
4.8720206093
 30
0.0
 10
5.862710576
 20
4.8805422908
 30
0.0
 10
5.8750010923
 20
4.89029343
 30
0.0
 10
5.8868038633
 20
4.9012975181
 30
0.0
 10
5.8980195867
 20
4.9135827515
 30
0.0
 10
5.9085368953
 20
4.9271608984
 30
0.0
 10
5.9182260036
 20
4.9420369137
 30
0.0
 10
5.9300209816
 20
4.9638918874
 30
0.0
 10
5.9368570261
 20
4.9816488064
 30
0.0
 10
5.9404528028
 20
4.9939323344
 30
0.0
  0
SPLINE
  5
27B
100
AcDbEntity
  8
ALL_ASSEMBLY_MEMBERS
100
AcDbSpline
 62
7
  6
CONTINUOUS
 70
0
 71
3
 72
17
 73
13
 74
0
 42
0.0000001
 43
0.0000001
 44
0.0000000001
 40
0.0
 40
0.0
 40
0.0
 40
0.0
 40
0.1678781104
 40
0.3283084886
 40
0.4769998833
 40
0.6112699192
 40
0.7294828708
 40
0.7825639386
 40
0.8317839107
 40
0.9200250676
 40
0.9606348358
 40
1.0
 40
1.0
 40
1.0
 40
1.0
 10
5.9270482211
 20
5.135505878
 30
0.0
 10
5.9269591786
 20
5.1343775599
 30
0.0
 10
5.9266956329
 20
5.1321768704
 30
0.0
 10
5.9260420322
 20
5.1290237565
 30
0.0
 10
5.9251483055
 20
5.1261650772
 30
0.0
 10
5.924046939
 20
5.1236874238
 30
0.0
 10
5.9229404661
 20
5.1219366916
 30
0.0
 10
5.921966126
 20
5.1208096302
 30
0.0
 10
5.9210207972
 20
5.1199379079
 30
0.0
 10
5.9199782358
 20
5.1192981843
 30
0.0
 10
5.9188851372
 20
5.1189763094
 30
0.0
 10
5.9183445906
 20
5.1189227544
 30
0.0
 10
5.9180791925
 20
5.1189227584
 30
0.0
  0
SPLINE
  5
27C
100
AcDbEntity
  8
ALL_ASSEMBLY_MEMBERS
100
AcDbSpline
 62
7
  6
CONTINUOUS
 70
0
 71
3
 72
17
 73
13
 74
0
 42
0.0000001
 43
0.0000001
 44
0.0000000001
 40
0.0
 40
0.0
 40
0.0
 40
0.0
 40
0.1448395153
 40
0.2872052815
 40
0.4241812672
 40
0.5540296151
 40
0.6757125711
 40
0.7892892394
 40
0.8436007134
 40
0.8965988016
 40
0.9486128547
 40
1.0
 40
1.0
 40
1.0
 40
1.0
 10
5.562440939
 20
4.9809226528
 30
0.0
 10
5.562440939
 20
4.9822253181
 30
0.0
 10
5.5622613134
 20
4.9848119414
 30
0.0
 10
5.5614681498
 20
4.9885563879
 30
0.0
 10
5.5601740926
 20
4.9920175963
 30
0.0
 10
5.558425919
 20
4.9950630466
 30
0.0
 10
5.5562882591
 20
4.9975823477
 30
0.0
 10
5.5542023692
 20
4.9991834107
 30
0.0
 10
5.5524270577
 20
5.0000854322
 30
0.0
 10
5.5510724886
 20
5.0005657877
 30
0.0
 10
5.5496921828
 20
5.0008568285
 30
0.0
 10
5.5487609718
 20
5.0009226528
 30
0.0
 10
5.5482988034
 20
5.0009226528
 30
0.0
  0
SPLINE
  5
27D
100
AcDbEntity
  8
ALL_ASSEMBLY_MEMBERS
100
AcDbSpline
 62
7
  6
CONTINUOUS
 70
0
 71
3
 72
17
 73
13
 74
0
 42
0.0000001
 43
0.0000001
 44
0.0000000001
 40
0.0
 40
0.0
 40
0.0
 40
0.0
 40
0.1448395152
 40
0.2872052814
 40
0.4241812671
 40
0.554029615
 40
0.675712571
 40
0.7892892393
 40
0.8436007133
 40
0.8965988015
 40
0.9486128547
 40
1.0
 40
1.0
 40
1.0
 40
1.0
 10
5.9190017174
 20
5.1389226528
 30
0.0
 10
5.9190017174
 20
5.1376199875
 30
0.0
 10
5.9188220917
 20
5.1350333641
 30
0.0
 10
5.9180289282
 20
5.1312889176
 30
0.0
 10
5.916734871
 20
5.1278277093
 30
0.0
 10
5.9149866973
 20
5.124782259
 30
0.0
 10
5.9128490375
 20
5.1222629579
 30
0.0
 10
5.9107631476
 20
5.1206618948
 30
0.0
 10
5.9089878361
 20
5.1197598734
 30
0.0
 10
5.907633267
 20
5.1192795178
 30
0.0
 10
5.9062529612
 20
5.118988477
 30
0.0
 10
5.9053217502
 20
5.1189226528
 30
0.0
 10
5.9048595817
 20
5.1189226528
 30
0.0
  0
SPLINE
  5
27E
100
AcDbEntity
  8
ALL_ASSEMBLY_MEMBERS
100
AcDbSpline
 62
7
  6
CONTINUOUS
 70
0
 71
3
 72
16
 73
12
 74
0
 42
0.0000001
 43
0.0000001
 44
0.0000000001
 40
0.0
 40
0.0
 40
0.0
 40
0.0
 40
0.3364289885
 40
0.4878021146
 40
0.6255404272
 40
0.7475619024
 40
0.8517439214
 40
0.8964769936
 40
0.9360613909
 40
0.9704790603
 40
1.0
 40
1.0
 40
1.0
 40
1.0
 10
5.5624407533
 20
5.1389226528
 30
0.0
 10
5.5612112787
 20
5.138312575
 30
0.0
 10
5.5594407741
 20
5.1374022511
 30
0.0
 10
5.5572164372
 20
5.1361507229
 30
0.0
 10
5.5557818963
 20
5.1352806337
 30
0.0
 10
5.5545493574
 20
5.1344518865
 30
0.0
 10
5.553674568
 20
5.1337731534
 30
0.0
 10
5.5531121645
 20
5.1332478439
 30
0.0
 10
5.55278536
 20
5.1328892591
 30
0.0
 10
5.5525364014
 20
5.1325469206
 30
0.0
 10
5.5524175747
 20
5.13231237
 30
0.0
 10
5.5523770399
 20
5.1321989608
 30
0.0
  0
SPLINE
  5
27F
100
AcDbEntity
  8
ALL_ASSEMBLY_MEMBERS
100
AcDbSpline
 62
7
  6
CONTINUOUS
 70
0
 71
3
 72
17
 73
13
 74
0
 42
0.0000001
 43
0.0000001
 44
0.0000000001
 40
0.0
 40
0.0
 40
0.0
 40
0.0
 40
0.1448393673
 40
0.2872049524
 40
0.4241807482
 40
0.5540289474
 40
0.6757118507
 40
0.7892886001
 40
0.8436001727
 40
0.8965984003
 40
0.9486126343
 40
1.0
 40
1.0
 40
1.0
 40
1.0
 10
5.5624408082
 20
5.1389226528
 30
0.0
 10
5.5624408133
 20
5.1376199877
 30
0.0
 10
5.5622611964
 20
5.1350333644
 30
0.0
 10
5.5614680427
 20
5.1312889173
 30
0.0
 10
5.5601739913
 20
5.1278277083
 30
0.0
 10
5.5584258193
 20
5.1247822575
 30
0.0
 10
5.5562881568
 20
5.1222629562
 30
0.0
 10
5.554202262
 20
5.120661894
 30
0.0
 10
5.5524269452
 20
5.119759873
 30
0.0
 10
5.5510723707
 20
5.1192795176
 30
0.0
 10
5.5496920588
 20
5.1189884769
 30
0.0
 10
5.5487608434
 20
5.1189226528
 30
0.0
 10
5.5482986726
 20
5.1189226528
 30
0.0
  0
SPLINE
  5
280
100
AcDbEntity
  8
ALL_ASSEMBLY_MEMBERS
100
AcDbSpline
 62
7
  6
CONTINUOUS
 70
0
 71
3
 72
22
 73
18
 74
0
 42
0.0000001
 43
0.0000001
 44
0.0000000001
 40
0.0
 40
0.0
 40
0.0
 40
0.0
 40
0.1504408084
 40
0.2222429317
 40
0.2916833491
 40
0.3588633351
 40
0.423907578
 40
0.4870048884
 40
0.5483426506
 40
0.6081312449
 40
0.6665711522
 40
0.7238649857
 40
0.7802151617
 40
0.8358121238
 40
0.8908508272
 40
0.9455186135
 40
1.0
 40
1.0
 40
1.0
 40
1.0
 10
5.9404394028
 20
5.1259512508
 30
0.0
 10
5.9368448328
 20
5.1382312567
 30
0.0
 10
5.930007545
 20
5.1559820637
 30
0.0
 10
5.9182133024
 20
5.177829383
 30
0.0
 10
5.9085253436
 20
5.1927004064
 30
0.0
 10
5.8980097786
 20
5.2062741483
 30
0.0
 10
5.8867961852
 20
5.2185555428
 30
0.0
 10
5.8749958513
 20
5.2295563816
 30
0.0
 10
5.8627080154
 20
5.2393048599
 30
0.0
 10
5.8500133529
 20
5.2478244542
 30
0.0
 10
5.8369857631
 20
5.2551460653
 30
0.0
 10
5.8236867277
 20
5.2612939388
 30
0.0
 10
5.8101716029
 20
5.2662904202
 30
0.0
 10
5.7964907694
 20
5.2701583024
 30
0.0
 10
5.7826879898
 20
5.272908509
 30
0.0
 10
5.7688072431
 20
5.2745558143
 30
0.0
 10
5.7595198021
 20
5.274922711
 30
0.0
 10
5.7548860514
 20
5.2749231795
 30
0.0
  0
SPLINE
  5
281
100
AcDbEntity
  8
ALL_ASSEMBLY_MEMBERS
100
AcDbSpline
 62
7
  6
CONTINUOUS
 70
0
 71
3
 72
22
 73
18
 74
0
 42
0.0000001
 43
0.0000001
 44
0.0000000001
 40
0.0
 40
0.0
 40
0.0
 40
0.0
 40
0.0079150587
 40
0.0164830056
 40
0.0262003249
 40
0.0374008452
 40
0.0649787674
 40
0.1001340014
 40
0.1430204261
 40
0.1934861412
 40
0.2512602634
 40
0.3158883648
 40
0.3867838179
 40
0.4633367706
 40
0.6306772061
 40
0.8120056754
 40
1.0
 40
1.0
 40
1.0
 40
1.0
 10
5.9380791925
 20
5.0209226528
 30
0.0
 10
5.9380791925
 20
5.0209773727
 30
0.0
 10
5.9380970933
 20
5.0210918894
 30
0.0
 10
5.9381741005
 20
5.0212577894
 30
0.0
 10
5.9382986703
 20
5.0214206996
 30
0.0
 10
5.9385441755
 20
5.0216506363
 30
0.0
 10
5.9389800032
 20
5.0219247307
 30
0.0
 10
5.939646955
 20
5.0222242511
 30
0.0
 10
5.9404882742
 20
5.0225128495
 30
0.0
 10
5.9414967448
 20
5.0227877094
 30
0.0
 10
5.9426641082
 20
5.0230455036
 30
0.0
 10
5.9439792896
 20
5.0232837802
 30
0.0
 10
5.945429582
 20
5.0235003433
 30
0.0
 10
5.9475899687
 20
5.0237643859
 30
0.0
 10
5.9505196993
 20
5.0240180593
 30
0.0
 10
5.9542260272
 20
5.0242005372
 30
0.0
 10
5.9567795137
 20
5.0242418015
 30
0.0
 10
5.9580791925
 20
5.0242418017
 30
0.0
  0
SPLINE
  5
282
100
AcDbEntity
  8
ALL_ASSEMBLY_MEMBERS
100
AcDbSpline
 62
7
  6
CONTINUOUS
 70
0
 71
3
 72
14
 73
10
 74
0
 42
0.0000001
 43
0.0000001
 44
0.0000000001
 40
0.0
 40
0.0
 40
0.0
 40
0.0
 40
0.1255031802
 40
0.2506455267
 40
0.3754502618
 40
0.5001051725
 40
0.6247595293
 40
0.7496065013
 40
1.0
 40
1.0
 40
1.0
 40
1.0
 10
5.9580791925
 20
5.0242418017
 30
0.0
 10
5.9580792005
 20
5.0227106179
 30
0.0
 10
5.9578683152
 20
5.0196485405
 30
0.0
 10
5.9569321297
 20
5.0151509617
 30
0.0
 10
5.9554043779
 20
5.0108289552
 30
0.0
 10
5.9533262863
 20
5.006751166
 30
0.0
 10
5.9507491373
 20
5.0029680869
 30
0.0
 10
5.9467077561
 20
4.9983842266
 30
0.0
 10
5.9430524574
 20
4.9955367506
 30
0.0
 10
5.9404528028
 20
4.9939323344
 30
0.0
  0
ENDSEC
  0
SECTION
  2
OBJECTS
  0
DICTIONARY
  5
C
100
AcDbDictionary
280
0
281
1
  3
ACAD_GROUP
350
D
  3
ACAD_MLINESTYLE
350
17
  3
ACAD_LAYOUT
350
1A
  3
ACAD_PLOTSETTINGS
350
19
  3
ACAD_PLOTSTYLENAME
350
E
  0
DICTIONARY
  5
D
102
{ACAD_REACTORS
330
C
102
}
100
AcDbDictionary
280
0
281
1
  0
ACDBDICTIONARYWDFLT
  5
E
102
{ACAD_REACTORS
330
C
102
}
100
AcDbDictionary
281
1
  3
Normal
350
F
100
AcDbDictionaryWithDefault
340
F
  0
DICTIONARY
  5
17
102
{ACAD_REACTORS
330
C
102
}
100
AcDbDictionary
280
0
281
1
  3
Standard
350
18
  0
DICTIONARY
  5
19
102
{ACAD_REACTORS
330
C
102
}
100
AcDbDictionary
281
1
  0
DICTIONARY
  5
1A
102
{ACAD_REACTORS
330
C
102
}
100
AcDbDictionary
281
1
  3
Model
350
283
  3
Layout1
350
284
  0
ACDBPLACEHOLDER
  5
F
102
{ACAD_REACTORS
330
E
102
}
  0
MLINESTYLE
  5
18
102
{ACAD_REACTORS
330
17
102
}
100
AcDbMlineStyle
  2
STANDARD
 70
0
  3

 62
256
 51
90.0
 52
90.0
 71
2
 49
0.5
 62
256
  6
BYLAYER
 49
-0.5
 62
256
  6
BYLAYER
  0
LAYOUT
  5
283
102
{ACAD_REACTORS
330
1A
102
}
100
AcDbPlotSettings
  1

  2
none_device
  4
ANSI_A_(11.00_x_8.50_Inches)
  6

 40
0.0
 41
0.0
 42
0.0
 43
0.0
 44
279.4
 45
215.9
 46
0.0
 47
0.0
 48
0.0
 49
0.0
140
0.0
141
0.0
142
1.0
143
1.0
 70
1024
 72
0
 73
0
 74
0
  7

 75
0
147
1.0
148
0.0
149
0.0
100
AcDbLayout
  1
Model
 70
0
 71
0
 10
0.0
 20
0.0
 11
11.0
 21
8.5
 12
0.0
 22
0.0
 32
0.0
 14
0.0
 24
0.0
 34
0.0
 15
0.0
 25
0.0
 35
0.0
146
0.0
 13
0.0
 23
0.0
 33
0.0
 16
1.0
 26
0.0
 36
0.0
 17
0.0
 27
1.0
 37
0.0
 76
0
330
223
345
0
346
0
  0
LAYOUT
  5
284
102
{ACAD_REACTORS
330
1A
102
}
100
AcDbPlotSettings
  1

  2
none_device
  4
ANSI_A_(11.00_x_8.50_Inches)
  6

 40
0.0
 41
0.0
 42
0.0
 43
0.0
 44
279.4
 45
215.9
 46
0.0
 47
0.0
 48
0.0
 49
0.0
140
0.0
141
0.0
142
1.0
143
1.0
 70
0
 72
0
 73
0
 74
0
  7

 75
0
147
1.0
148
0.0
149
0.0
100
AcDbLayout
  1
Layout1
 70
0
 71
1
 10
0.0
 20
0.0
 11
11.0
 21
8.5
 12
0.0
 22
0.0
 32
0.0
 14
0.0
 24
0.0
 34
0.0
 15
0.0
 25
0.0
 35
0.0
146
0.0
 13
0.0
 23
0.0
 33
0.0
 16
1.0
 26
0.0
 36
0.0
 17
0.0
 27
1.0
 37
0.0
 76
0
330
224
345
0
346
0
  0
ENDSEC
  0
EOF
