999
DXF file: 3-2495_FRONT.dxf
999
Pro/ENGINEER 2018400 by Parametric Technology Corporation
  0
SECTION
  2
HEADER
  9
$ACADVER
  1
AC1027
  9
$DWGCODEPAGE
  3
ANSI_1252
  9
$EXTMAX
 10
11.0
 20
8.5
 30
0.0
  9
$EXTMIN
 10
0.0
 20
0.0
 30
0.0
  9
$LIMMIN
 10
0.0
 20
0.0
  9
$LIMMAX
 10
11.0
 20
8.5
  9
$VIEWCTR
 10
5.5
 20
4.25
  9
$VIEWSIZE
 40
8.5
  9
$CLAYER
  8
0
  9
$LTSCALE
 40
0.605
  9
$CELTYPE
  6
BYLAYER
  9
$DIMSCALE
 40
1.0
  9
$DIMASZ
 40
0.1
  9
$DIMEXO
 40
0.0625
  9
$DIMDLI
 40
0.418
  9
$DIMEXE
 40
0.125
  9
$DIMCEN
 40
0.099
  9
$DIMLFAC
 40
1.0
  9
$DIMBLK
  1
_FILLED
  9
$DIMALT
 70
1
  9
$DIMALTD
 70
2
  9
$DIMALTTD
 70
2
  9
$DIMALTF
 40
25.4
  9
$DIMTXT
 40
0.08
  9
$DIMTOL
 70
1
  9
$DIMLIM
 70
0
  9
$DIMTFAC
 40
1.0
  9
$DIMTP
 40
0.001
  9
$DIMTM
 40
0.001
  9
$DIMGAP
 40
0.09
  9
$DIMDSEP
 70
46
  9
$AUNITS
 70
0
  9
$PDMODE
 70
3
  9
$PDSIZE
 40
0.3125
  9
$HANDSEED
  5
311
  9
$TILEMODE
 70
1
  9
$MEASUREMENT
 70
0
  9
$INSUNITS
 70
1
  0
ENDSEC
  0
SECTION
  2
CLASSES
  0
CLASS
  1
ACDBDICTIONARYWDFLT
  2
AcDbDictionaryWithDefault
  3
AutoCAD 2000
 90
0
 91
1
280
0
281
0
  0
CLASS
  1
ACDBPLACEHOLDER
  2
AcDbPlaceHolder
  3
AutoCAD 2000
 90
0
 91
1
280
0
281
0
  0
CLASS
  1
LAYOUT
  2
AcDbLayout
  3
AutoCAD 2000
 90
0
 91
0
280
0
281
0
  0
ENDSEC
  0
SECTION
  2
TABLES
  0
TABLE
  2
VPORT
  5
8
100
AcDbSymbolTable
 70
2
  0
VPORT
  5
1F4
100
AcDbSymbolTableRecord
100
AcDbViewportTableRecord
  2
*ACTIVE
 70
0
 10
0.0
 20
0.0
 11
1.0
 21
1.0
 12
5.5
 22
4.25
 13
0.0
 23
0.0
 14
1.0
 24
1.0
 15
0.0
 25
0.0
 16
0.0
 26
0.0
 36
1.0
 17
0.0
 27
0.0
 37
0.0
 40
8.5
 41
1.2941176471
 42
50.0
 43
0.0
 44
0.0
 50
0.0
 51
0.0
 71
0
 72
100
 73
1
 74
1
 75
0
 76
0
 77
0
 78
0
  0
ENDTAB
  0
TABLE
  2
LTYPE
  5
5
100
AcDbSymbolTable
 70
6
  0
LTYPE
  5
14
100
AcDbSymbolTableRecord
100
AcDbLinetypeTableRecord
  2
BYBLOCK
 70
0
  3

 72
65
 73
0
 40
0.0
  0
LTYPE
  5
15
100
AcDbSymbolTableRecord
100
AcDbLinetypeTableRecord
  2
BYLAYER
 70
0
  3

 72
65
 73
0
 40
0.0
  0
LTYPE
  5
16
100
AcDbSymbolTableRecord
100
AcDbLinetypeTableRecord
  2
CONTINUOUS
 70
64
  3
Solid line
 72
65
 73
0
 40
0.0
  0
LTYPE
  5
1F5
100
AcDbSymbolTableRecord
100
AcDbLinetypeTableRecord
  2
CENTER
 70
64
  3
____ _ ____ _ ____ _ ____ _ ____ _ ____ _ ____
 72
65
 73
4
 40
0.6
 49
0.375
 74
0
 49
-0.075
 74
0
 49
0.075
 74
0
 49
-0.075
 74
0
  0
LTYPE
  5
1F6
100
AcDbSymbolTableRecord
100
AcDbLinetypeTableRecord
  2
HIDDEN
 70
64
  3
- - - - - - - - - - - - - - - - - - - -
 72
65
 73
2
 40
0.2
 49
0.1
 74
0
 49
-0.1
 74
0
  0
LTYPE
  5
1F7
100
AcDbSymbolTableRecord
100
AcDbLinetypeTableRecord
  2
PHANTOM
 70
64
  3
_____ _ _ _____ _ _ _____ _ _ _____
 72
65
 73
6
 40
0.8
 49
0.45
 74
0
 49
-0.05
 74
0
 49
0.1
 74
0
 49
-0.05
 74
0
 49
0.1
 74
0
 49
-0.05
 74
0
  0
LTYPE
  5
1F8
100
AcDbSymbolTableRecord
100
AcDbLinetypeTableRecord
  2
DOT
 70
64
  3
. . . . . . . . . . . . . . . . . . . .
 72
65
 73
2
 40
0.2
 49
0.1
 74
0
 49
-0.1
 74
0
  0
LTYPE
  5
1F9
100
AcDbSymbolTableRecord
100
AcDbLinetypeTableRecord
  2
DASHED
 70
64
  3
- - - - - - - - - - - - - - - - - - - -
 72
65
 73
2
 40
0.2
 49
0.1
 74
0
 49
-0.1
 74
0
  0
ENDTAB
  0
TABLE
  2
LAYER
  5
2
100
AcDbSymbolTable
 70
36
  0
LAYER
  5
10
100
AcDbSymbolTableRecord
100
AcDbLayerTableRecord
  2
0
 70
0
 62
7
  6
CONTINUOUS
370
-3
390
F
  0
LAYER
  5
1FA
100
AcDbSymbolTableRecord
100
AcDbLayerTableRecord
  2
DEFAULT_1
 70
0
 62
7
  6
CENTER
370
-3
390
F
  0
LAYER
  5
1FB
100
AcDbSymbolTableRecord
100
AcDbLayerTableRecord
  2
DEFAULT_2
 70
0
 62
8
  6
HIDDEN
370
-3
390
F
  0
LAYER
  5
1FC
100
AcDbSymbolTableRecord
100
AcDbLayerTableRecord
  2
DEFAULT_3
 70
0
 62
7
  6
PHANTOM
370
-3
390
F
  0
LAYER
  5
1FD
100
AcDbSymbolTableRecord
100
AcDbLayerTableRecord
  2
01___PRT_ALL_DTM_PLN
 70
0
 62
7
  6
CONTINUOUS
370
-3
390
F
  0
LAYER
  5
1FE
100
AcDbSymbolTableRecord
100
AcDbLayerTableRecord
  2
01___PRT_DEF_DTM_PLN
 70
0
 62
7
  6
CONTINUOUS
370
-3
390
F
  0
LAYER
  5
1FF
100
AcDbSymbolTableRecord
100
AcDbLayerTableRecord
  2
02___PRT_ALL_AXES
 70
0
 62
7
  6
CONTINUOUS
370
-3
390
F
  0
LAYER
  5
200
100
AcDbSymbolTableRecord
100
AcDbLayerTableRecord
  2
03___PRT_ALL_CURVES
 70
0
 62
7
  6
CONTINUOUS
370
-3
390
F
  0
LAYER
  5
201
100
AcDbSymbolTableRecord
100
AcDbLayerTableRecord
  2
04___PRT_ALL_DTM_PNT
 70
0
 62
7
  6
CONTINUOUS
370
-3
390
F
  0
LAYER
  5
202
100
AcDbSymbolTableRecord
100
AcDbLayerTableRecord
  2
05___PRT_ALL_DTM_CSYS
 70
0
 62
7
  6
CONTINUOUS
370
-3
390
F
  0
LAYER
  5
203
100
AcDbSymbolTableRecord
100
AcDbLayerTableRecord
  2
05___PRT_DEF_DTM_CSYS
 70
0
 62
7
  6
CONTINUOUS
370
-3
390
F
  0
LAYER
  5
204
100
AcDbSymbolTableRecord
100
AcDbLayerTableRecord
  2
06___PRT_ALL_SURFS
 70
0
 62
7
  6
CONTINUOUS
370
-3
390
F
  0
LAYER
  5
205
100
AcDbSymbolTableRecord
100
AcDbLayerTableRecord
  2
3-985_ASSY_PLANES
 70
0
 62
7
  6
CONTINUOUS
370
-3
390
F
  0
LAYER
  5
206
100
AcDbSymbolTableRecord
100
AcDbLayerTableRecord
  2
ALL_ASSEMBLY_MEMBERS
 70
0
 62
7
  6
CONTINUOUS
370
-3
390
F
  0
LAYER
  5
207
100
AcDbSymbolTableRecord
100
AcDbLayerTableRecord
  2
ALL_FEATURES
 70
0
 62
7
  6
CONTINUOUS
370
-3
390
F
  0
LAYER
  5
208
100
AcDbSymbolTableRecord
100
AcDbLayerTableRecord
  2
AXES_FEATURES
 70
0
 62
7
  6
CONTINUOUS
370
-3
390
F
  0
LAYER
  5
209
100
AcDbSymbolTableRecord
100
AcDbLayerTableRecord
  2
CHAMFER_FEATURES
 70
0
 62
7
  6
CONTINUOUS
370
-3
390
F
  0
LAYER
  5
20A
100
AcDbSymbolTableRecord
100
AcDbLayerTableRecord
  2
COSMETIC_SKETCHES
 70
0
 62
7
  6
CONTINUOUS
370
-3
390
F
  0
LAYER
  5
20B
100
AcDbSymbolTableRecord
100
AcDbLayerTableRecord
  2
CUT_FEATURES
 70
0
 62
7
  6
CONTINUOUS
370
-3
390
F
  0
LAYER
  5
20C
100
AcDbSymbolTableRecord
100
AcDbLayerTableRecord
  2
DATUM_CURVES
 70
0
 62
7
  6
CONTINUOUS
370
-3
390
F
  0
LAYER
  5
20D
100
AcDbSymbolTableRecord
100
AcDbLayerTableRecord
  2
DATUM_PLANES
 70
0
 62
7
  6
CONTINUOUS
370
-3
390
F
  0
LAYER
  5
20E
100
AcDbSymbolTableRecord
100
AcDbLayerTableRecord
  2
DEFAULT_COORDINATE_SYSTEM
 70
0
 62
7
  6
CONTINUOUS
370
-3
390
F
  0
LAYER
  5
20F
100
AcDbSymbolTableRecord
100
AcDbLayerTableRecord
  2
DEFAULT_DATUM_AXES
 70
0
 62
7
  6
CONTINUOUS
370
-3
390
F
  0
LAYER
  5
210
100
AcDbSymbolTableRecord
100
AcDbLayerTableRecord
  2
DEFAULT_DATUM_CURVES
 70
0
 62
7
  6
CONTINUOUS
370
-3
390
F
  0
LAYER
  5
211
100
AcDbSymbolTableRecord
100
AcDbLayerTableRecord
  2
DEFAULT_DATUM_PLANES
 70
0
 62
7
  6
CONTINUOUS
370
-3
390
F
  0
LAYER
  5
212
100
AcDbSymbolTableRecord
100
AcDbLayerTableRecord
  2
DEFAULT_SURFACES
 70
0
 62
7
  6
CONTINUOUS
370
-3
390
F
  0
LAYER
  5
213
100
AcDbSymbolTableRecord
100
AcDbLayerTableRecord
  2
DIMENSIONS
 70
0
 62
7
  6
CONTINUOUS
370
-3
390
F
  0
LAYER
  5
214
100
AcDbSymbolTableRecord
100
AcDbLayerTableRecord
  2
HOLE_FEATURES
 70
0
 62
7
  6
CONTINUOUS
370
-3
390
F
  0
LAYER
  5
215
100
AcDbSymbolTableRecord
100
AcDbLayerTableRecord
  2
NONE
 70
0
 62
7
  6
CONTINUOUS
370
-3
390
F
  0
LAYER
  5
216
100
AcDbSymbolTableRecord
100
AcDbLayerTableRecord
  2
PART_REFERENCE_DIMENSIONS
 70
0
 62
7
  6
CONTINUOUS
370
-3
390
F
  0
LAYER
  5
217
100
AcDbSymbolTableRecord
100
AcDbLayerTableRecord
  2
PLATED_SURFACE_AREA
 70
0
 62
7
  6
CONTINUOUS
370
-3
390
F
  0
LAYER
  5
218
100
AcDbSymbolTableRecord
100
AcDbLayerTableRecord
  2
PROTRUSION_FEATURES
 70
0
 62
7
  6
CONTINUOUS
370
-3
390
F
  0
LAYER
  5
219
100
AcDbSymbolTableRecord
100
AcDbLayerTableRecord
  2
QUILTS
 70
0
 62
7
  6
CONTINUOUS
370
-3
390
F
  0
LAYER
  5
21A
100
AcDbSymbolTableRecord
100
AcDbLayerTableRecord
  2
REFERENCE_DIMENSIONS
 70
0
 62
7
  6
CONTINUOUS
370
-3
390
F
  0
LAYER
  5
21B
100
AcDbSymbolTableRecord
100
AcDbLayerTableRecord
  2
ROUND_FEATURES
 70
0
 62
7
  6
CONTINUOUS
370
-3
390
F
  0
LAYER
  5
21C
100
AcDbSymbolTableRecord
100
AcDbLayerTableRecord
  2
WETTED_SURFACES
 70
0
 62
7
  6
CONTINUOUS
370
-3
390
F
  0
LAYER
  5
21D
100
AcDbSymbolTableRecord
100
AcDbLayerTableRecord
  2
WETTED_SURFACE_AREA
 70
0
 62
7
  6
CONTINUOUS
370
-3
390
F
  0
LAYER
  5
21E
100
AcDbSymbolTableRecord
100
AcDbLayerTableRecord
  2
XSEC_DATUMS
 70
0
 62
7
  6
CONTINUOUS
370
-3
390
F
  0
ENDTAB
  0
TABLE
  2
STYLE
  5
3
100
AcDbSymbolTable
 70
1
  0
STYLE
  5
11
100
AcDbSymbolTableRecord
100
AcDbTextStyleTableRecord
  2
STANDARD
 70
0
 40
0.0
 41
0.8
 50
0.0
 71
0
 42
0.2
  3
txt
  4

  0
STYLE
  5
21F
100
AcDbSymbolTableRecord
100
AcDbTextStyleTableRecord
  2
TEXTSTYLE_1
 70
0
 40
0.0
 41
0.8
 50
0.0
 71
0
 42
0.2
  3
gdt
  4

  0
ENDTAB
  0
TABLE
  2
VIEW
  5
6
100
AcDbSymbolTable
 70
0
  0
ENDTAB
  0
TABLE
  2
UCS
  5
7
100
AcDbSymbolTable
 70
0
  0
ENDTAB
  0
TABLE
  2
APPID
  5
9
100
AcDbSymbolTable
 70
1
  0
APPID
  5
220
100
AcDbSymbolTableRecord
100
AcDbRegAppTableRecord
  2
ACAD
 70
0
  0
ENDTAB
  0
TABLE
  2
BLOCK_RECORD
  5
1
100
AcDbSymbolTable
 70
0
  0
BLOCK_RECORD
  5
221
100
AcDbSymbolTableRecord
100
AcDbBlockTableRecord
  2
*Model_Space
  0
BLOCK_RECORD
  5
222
100
AcDbSymbolTableRecord
100
AcDbBlockTableRecord
  2
*Paper_Space
  0
BLOCK_RECORD
  5
223
100
AcDbSymbolTableRecord
100
AcDbBlockTableRecord
  2
_FILLED
  0
ENDTAB
  0
TABLE
  2
DIMSTYLE
  5
A
100
AcDbSymbolTable
 70
1
100
AcDbDimStyleTable
 71
0
  0
DIMSTYLE
105
224
100
AcDbSymbolTableRecord
100
AcDbDimStyleTableRecord
  2
STANDARD
 70
0
  3

  4

 40
1.0
 41
0.1
 42
0.0625
 43
0.38
 44
0.125
 45
0.0
 46
0.0
 47
0.001
 48
0.001
140
0.08
141
0.09
142
0.0
143
25.4
144
1.0
145
0.0
146
1.0
147
0.09
 71
1.0
 72
0.0
 73
1
 74
1
 75
0
 76
0
 77
0
 78
4
 79
1
170
1
171
2
172
0
173
0
174
0
175
0
176
0
177
0
178
0
270
2
179
3
271
3
272
3
273
2
274
2
275
0
280
0
281
0
282
0
283
1
284
4
285
0
286
0
287
3
288
0
340
11
278
46
341
223
342
223
343
223
344
223
  0
ENDTAB
  0
ENDSEC
  0
SECTION
  2
BLOCKS
  0
BLOCK
  5
20
100
AcDbEntity
  8
0
100
AcDbBlockBegin
  2
*Model_Space
 70
0
 10
0.0
 20
0.0
 30
0.0
  3
*Model_Space
  1

  0
ENDBLK
  5
21
100
AcDbEntity
  8
0
100
AcDbBlockEnd
  0
BLOCK
  5
1C
100
AcDbEntity
  8
0
100
AcDbBlockBegin
  2
*Paper_Space
 70
0
 10
0.0
 20
0.0
 30
0.0
  3
*Paper_Space
  1

  0
ENDBLK
  5
1D
100
AcDbEntity
  8
0
100
AcDbBlockEnd
  0
BLOCK
  5
225
100
AcDbEntity
  8
0
100
AcDbBlockBegin
  2
_FILLED
 70
64
 10
0.0
 20
0.0
  3
_FILLED
  1

  0
SOLID
  5
226
100
AcDbEntity
  8
0
  6
BYBLOCK
 62
0
100
AcDbTrace
 10
0.0
 20
0.0
 11
-1.0
 21
0.2
 12
-1.0
 22
-0.2
 13
-1.0
 23
-0.2
  0
ENDBLK
  5
227
100
AcDbEntity
  8
0
  6
BYBLOCK
 62
0
100
AcDbBlockEnd
  0
ENDSEC
  0
SECTION
  2
ENTITIES
  0
MTEXT
  5
228
100
AcDbEntity
  8
0
100
AcDbMText
 62
2
  6
CONTINUOUS
  7
STANDARD
 71
3
 72
1
 10
3.2246525621
 20
2.0790785021
 30
0.0
 11
1.0
 21
0.0
 31
0.0
 73
2
 44
0.9
  1
SCALE  .500
 40
0.08
 41
0.704
  0
LINE
  5
229
100
AcDbEntity
  8
0
100
AcDbLine
 62
7
  6
CONTINUOUS
 10
0.0
 20
0.0
 11
0.0
 21
8.5
  0
LINE
  5
22A
100
AcDbEntity
  8
0
100
AcDbLine
 62
7
  6
CONTINUOUS
 10
0.0
 20
0.0
 11
11.0
 21
0.0
  0
LINE
  5
22B
100
AcDbEntity
  8
0
100
AcDbLine
 62
7
  6
CONTINUOUS
 10
0.0
 20
8.5
 11
11.0
 21
8.5
  0
LINE
  5
22C
100
AcDbEntity
  8
0
100
AcDbLine
 62
7
  6
CONTINUOUS
 10
11.0
 20
0.0
 11
11.0
 21
8.5
  0
LINE
  5
22D
100
AcDbEntity
  8
ALL_ASSEMBLY_MEMBERS
100
AcDbLine
 62
7
  6
CONTINUOUS
 10
2.2449087733
 20
5.8497865766
 11
2.2449087733
 21
5.9277865766
  0
LINE
  5
22E
100
AcDbEntity
  8
ALL_ASSEMBLY_MEMBERS
100
AcDbLine
 62
7
  6
CONTINUOUS
 10
2.2649087733
 20
5.8297865766
 11
2.2649087733
 21
5.9477865766
  0
LINE
  5
22F
100
AcDbEntity
  8
ALL_ASSEMBLY_MEMBERS
100
AcDbLine
 62
7
  6
CONTINUOUS
 10
3.3202951849
 20
5.9548029699
 11
3.3202997533
 21
5.9548171106
  0
LWPOLYLINE
  5
230
100
AcDbEntity
  8
ALL_ASSEMBLY_MEMBERS
100
AcDbPolyline
 62
7
  6
CONTINUOUS
 90
7
 70
0
 10
3.3203607528
 20
5.9549956231
 10
3.3203688445
 20
5.9550173154
 10
3.3203437079
 20
5.9549575821
 10
3.3202361253
 20
5.9547274038
 10
3.3200130534
 20
5.9543108087
 10
3.319633633
 20
5.9537023582
 10
3.3190807174
 20
5.9529499514
  0
LWPOLYLINE
  5
231
100
AcDbEntity
  8
ALL_ASSEMBLY_MEMBERS
100
AcDbPolyline
 62
7
  6
CONTINUOUS
 90
4
 70
0
 10
3.3190807174
 20
5.9529499514
 10
3.3183558173
 20
5.9521187362
 10
3.3174108387
 20
5.9512162831
 10
3.3162640679
 20
5.9503206088
  0
LWPOLYLINE
  5
232
100
AcDbEntity
  8
ALL_ASSEMBLY_MEMBERS
100
AcDbPolyline
 62
7
  6
CONTINUOUS
 90
3
 70
0
 10
3.3162640679
 20
5.9503206088
 10
3.3150679664
 20
5.9495661276
 10
3.3138893395
 20
5.9489705877
  0
LWPOLYLINE
  5
233
100
AcDbEntity
  8
ALL_ASSEMBLY_MEMBERS
100
AcDbPolyline
 62
7
  6
CONTINUOUS
 90
7
 70
0
 10
3.3138893395
 20
5.9489705877
 10
3.3127180526
 20
5.9485060655
 10
3.311626563
 20
5.9481782987
 10
3.3106572409
 20
5.9479689865
 10
3.3098026732
 20
5.9478483993
 10
3.3090673662
 20
5.9477947501
 10
3.3086923538
 20
5.9477866172
  0
LINE
  5
234
100
AcDbEntity
  8
ALL_ASSEMBLY_MEMBERS
100
AcDbLine
 62
7
  6
CONTINUOUS
 10
5.3947664054
 20
2.5130598776
 11
5.3949901625
 21
2.5130794674
  0
LINE
  5
235
100
AcDbEntity
  8
ALL_ASSEMBLY_MEMBERS
100
AcDbLine
 62
7
  6
CONTINUOUS
 10
5.7009074636
 20
2.4905794698
 11
5.6658686931
 21
2.4905794698
  0
LINE
  5
236
100
AcDbEntity
  8
ALL_ASSEMBLY_MEMBERS
100
AcDbLine
 62
7
  6
CONTINUOUS
 10
5.6617529512
 20
2.4905794698
 11
5.593960086
 21
2.4905794698
  0
LINE
  5
237
100
AcDbEntity
  8
ALL_ASSEMBLY_MEMBERS
100
AcDbLine
 62
7
  6
CONTINUOUS
 10
5.5261409615
 20
2.4905794698
 11
5.4586763128
 21
2.4905794698
  0
LINE
  5
238
100
AcDbEntity
  8
ALL_ASSEMBLY_MEMBERS
100
AcDbLine
 62
7
  6
CONTINUOUS
 10
5.3908215859
 20
2.4905794698
 11
5.3230679296
 21
2.4905794698
  0
LINE
  5
239
100
AcDbEntity
  8
ALL_ASSEMBLY_MEMBERS
100
AcDbLine
 62
7
  6
CONTINUOUS
 10
5.3189490501
 20
2.4905794698
 11
5.2839097101
 21
2.4905794698
  0
LINE
  5
23A
100
AcDbEntity
  8
ALL_ASSEMBLY_MEMBERS
100
AcDbLine
 62
7
  6
CONTINUOUS
 10
5.2814087733
 20
2.4930794698
 11
5.393326502
 21
2.4930794698
  0
LINE
  5
23B
100
AcDbEntity
  8
ALL_ASSEMBLY_MEMBERS
100
AcDbLine
 62
7
  6
CONTINUOUS
 10
5.4561761693
 20
2.4930794698
 11
5.5286413773
 21
2.4930794698
  0
LINE
  5
23C
100
AcDbEntity
  8
ALL_ASSEMBLY_MEMBERS
100
AcDbLine
 62
7
  6
CONTINUOUS
 10
5.5914616355
 20
2.4930794698
 11
5.7034087733
 21
2.4930794698
  0
LINE
  5
23D
100
AcDbEntity
  8
ALL_ASSEMBLY_MEMBERS
100
AcDbLine
 62
7
  6
CONTINUOUS
 10
5.2841112807
 20
2.5105794698
 11
5.3210362883
 21
2.5105794698
  0
LINE
  5
23E
100
AcDbEntity
  8
ALL_ASSEMBLY_MEMBERS
100
AcDbLine
 62
7
  6
CONTINUOUS
 10
5.3689230877
 20
2.5105794698
 11
5.393326502
 21
2.5105794676
  0
LINE
  5
23F
100
AcDbEntity
  8
ALL_ASSEMBLY_MEMBERS
100
AcDbLine
 62
7
  6
CONTINUOUS
 10
5.4561761693
 20
2.5105794702
 11
5.4582717016
 21
2.5105794698
  0
LINE
  5
240
100
AcDbEntity
  8
ALL_ASSEMBLY_MEMBERS
100
AcDbLine
 62
7
  6
CONTINUOUS
 10
5.5260711346
 20
2.5105794698
 11
5.5286413773
 21
2.5105794702
  0
LINE
  5
241
100
AcDbEntity
  8
ALL_ASSEMBLY_MEMBERS
100
AcDbLine
 62
7
  6
CONTINUOUS
 10
5.5914616355
 20
2.5105794676
 11
5.6155041485
 21
2.5105794698
  0
LINE
  5
242
100
AcDbEntity
  8
ALL_ASSEMBLY_MEMBERS
100
AcDbLine
 62
7
  6
CONTINUOUS
 10
5.6635002268
 20
2.5105794698
 11
5.7006289941
 21
2.5105794698
  0
LINE
  5
243
100
AcDbEntity
  8
ALL_ASSEMBLY_MEMBERS
100
AcDbLine
 62
7
  6
CONTINUOUS
 10
5.7423837367
 20
2.5130794698
 11
5.2424338099
 21
2.5130794698
  0
LWPOLYLINE
  5
244
100
AcDbEntity
  8
ALL_ASSEMBLY_MEMBERS
100
AcDbPolyline
 62
7
  6
CONTINUOUS
 90
14
 70
0
 10
5.5898273777
 20
2.5130794652
 10
5.5900194256
 20
2.5130608694
 10
5.5902288883
 20
2.5129965809
 10
5.5904307226
 20
2.5128894754
 10
5.5906169382
 20
2.5127478978
 10
5.5907858676
 20
2.512578085
 10
5.5909438028
 20
2.5123751757
 10
5.5910879928
 20
2.5121391523
 10
5.5912113798
 20
2.5118790881
 10
5.5913132067
 20
2.511594773
 10
5.5913902882
 20
2.5112908744
 10
5.5914399399
 20
2.5109744296
 10
5.5914610286
 20
2.5106463939
 10
5.5914616475
 20
2.5105794676
  0
LINE
  5
245
100
AcDbEntity
  8
ALL_ASSEMBLY_MEMBERS
100
AcDbLine
 62
7
  6
CONTINUOUS
 10
3.8184087733
 20
5.8297865766
 11
3.8184087733
 21
5.9477865766
  0
LINE
  5
246
100
AcDbEntity
  8
ALL_ASSEMBLY_MEMBERS
100
AcDbLine
 62
7
  6
CONTINUOUS
 10
3.8384087733
 20
5.8497865766
 11
3.8384087733
 21
5.9277865766
  0
LINE
  5
247
100
AcDbEntity
  8
ALL_ASSEMBLY_MEMBERS
100
AcDbLine
 62
7
  6
CONTINUOUS
 10
3.3203010581
 20
5.8227513423
 11
3.3202910095
 21
5.8227824514
  0
LWPOLYLINE
  5
248
100
AcDbEntity
  8
ALL_ASSEMBLY_MEMBERS
100
AcDbPolyline
 62
7
  6
CONTINUOUS
 90
6
 70
0
 10
5.3199052154
 20
2.5130794698
 10
5.3199149537
 20
2.5130680496
 10
5.3199836909
 20
2.5129728542
 10
5.3200623834
 20
2.512844507
 10
5.3201474433
 20
2.5126806007
 10
5.3202340859
 20
2.5124817073
  0
LWPOLYLINE
  5
249
100
AcDbEntity
  8
ALL_ASSEMBLY_MEMBERS
100
AcDbPolyline
 62
7
  6
CONTINUOUS
 90
8
 70
0
 10
5.3202340859
 20
2.5124817073
 10
5.3203175303
 20
2.5122504341
 10
5.3203941618
 20
2.511988037
 10
5.3204601817
 20
2.5116980621
 10
5.3205119377
 20
2.5113881464
 10
5.3205473692
 20
2.5110631579
 10
5.3205649522
 20
2.5107278551
 10
5.3205667634
 20
2.5105794716
  0
LWPOLYLINE
  5
24A
100
AcDbEntity
  8
ALL_ASSEMBLY_MEMBERS
100
AcDbPolyline
 62
7
  6
CONTINUOUS
 90
7
 70
0
 10
7.6734282071
 20
5.8286025655
 10
7.674599494
 20
5.8290670877
 10
7.6756909835
 20
5.8293948544
 10
7.6766603057
 20
5.8296041667
 10
7.6775148733
 20
5.8297247539
 10
7.6782501804
 20
5.8297784031
 10
7.6786251928
 20
5.829786536
  0
LINE
  5
24B
100
AcDbEntity
  8
ALL_ASSEMBLY_MEMBERS
100
AcDbLine
 62
7
  6
CONTINUOUS
 10
5.2424087733
 20
2.5130794698
 11
5.2424090778
 21
2.8884706832
  0
LINE
  5
24C
100
AcDbEntity
  8
ALL_ASSEMBLY_MEMBERS
100
AcDbLine
 62
7
  6
CONTINUOUS
 10
5.2814087733
 20
2.5130794698
 11
5.2814087733
 21
2.4930794698
  0
LINE
  5
24D
100
AcDbEntity
  8
ALL_ASSEMBLY_MEMBERS
100
AcDbLine
 62
7
  6
CONTINUOUS
 10
5.2841112807
 20
2.5105794698
 11
5.2841112807
 21
2.4930794698
  0
LINE
  5
24E
100
AcDbEntity
  8
ALL_ASSEMBLY_MEMBERS
100
AcDbLine
 62
7
  6
CONTINUOUS
 10
5.286845245
 20
2.5105794698
 11
5.286845245
 21
2.4930794698
  0
LINE
  5
24F
100
AcDbEntity
  8
ALL_ASSEMBLY_MEMBERS
100
AcDbLine
 62
7
  6
CONTINUOUS
 10
5.3192159132
 20
2.5105794698
 11
5.3192159132
 21
2.4930794698
  0
LINE
  5
250
100
AcDbEntity
  8
ALL_ASSEMBLY_MEMBERS
100
AcDbLine
 62
7
  6
CONTINUOUS
 10
5.320566768
 20
2.5105794716
 11
5.320566768
 21
2.4930794698
  0
LINE
  5
251
100
AcDbEntity
  8
ALL_ASSEMBLY_MEMBERS
100
AcDbLine
 62
7
  6
CONTINUOUS
 10
5.3210362883
 20
2.5105794698
 11
5.3210362883
 21
2.4930794698
  0
LINE
  5
252
100
AcDbEntity
  8
ALL_ASSEMBLY_MEMBERS
100
AcDbLine
 62
7
  6
CONTINUOUS
 10
5.3689230877
 20
2.5105794698
 11
5.3689230877
 21
2.4930794698
  0
LINE
  5
253
100
AcDbEntity
  8
ALL_ASSEMBLY_MEMBERS
100
AcDbLine
 62
7
  6
CONTINUOUS
 10
5.372332001
 20
2.5105794698
 11
5.372332001
 21
2.4930794698
  0
LINE
  5
254
100
AcDbEntity
  8
ALL_ASSEMBLY_MEMBERS
100
AcDbLine
 62
7
  6
CONTINUOUS
 10
5.3927723147
 20
2.5105794698
 11
5.3927723147
 21
2.4930794698
  0
LINE
  5
255
100
AcDbEntity
  8
ALL_ASSEMBLY_MEMBERS
100
AcDbLine
 62
7
  6
CONTINUOUS
 10
5.393326502
 20
2.5105794676
 11
5.393326502
 21
2.4930794698
  0
LINE
  5
256
100
AcDbEntity
  8
ALL_ASSEMBLY_MEMBERS
100
AcDbLine
 62
7
  6
CONTINUOUS
 10
5.4561761693
 20
2.5105794702
 11
5.4561761693
 21
2.4930794698
  0
LINE
  5
257
100
AcDbEntity
  8
ALL_ASSEMBLY_MEMBERS
100
AcDbLine
 62
7
  6
CONTINUOUS
 10
5.4582717016
 20
2.5105794698
 11
5.4582717016
 21
2.4930794698
  0
LINE
  5
258
100
AcDbEntity
  8
ALL_ASSEMBLY_MEMBERS
100
AcDbLine
 62
7
  6
CONTINUOUS
 10
5.5260711346
 20
2.5105794698
 11
5.5260711346
 21
2.4930794698
  0
LWPOLYLINE
  5
259
100
AcDbEntity
  8
ALL_ASSEMBLY_MEMBERS
100
AcDbPolyline
 62
7
  6
CONTINUOUS
 90
13
 70
0
 10
5.3933558991
 20
2.5105794676
 10
5.3933561925
 20
2.510625571
 10
5.3933755451
 20
2.5109553077
 10
5.3934244733
 20
2.5112771131
 10
5.3935015404
 20
2.5115855426
 10
5.3936032106
 20
2.511871934
 10
5.3937264143
 20
2.5121333148
 10
5.3938705913
 20
2.5123706002
 10
5.3940287867
 20
2.5125747877
 10
5.3941981055
 20
2.5127456872
 10
5.3943848556
 20
2.5128882022
 10
5.3945873303
 20
2.5129960231
 10
5.3947974509
 20
2.5130607389
  0
LINE
  5
25A
100
AcDbEntity
  8
ALL_ASSEMBLY_MEMBERS
100
AcDbLine
 62
7
  6
CONTINUOUS
 10
5.2424087732
 20
2.8880794698
 11
5.2424255801
 21
2.8884706704
  0
LWPOLYLINE
  5
25B
100
AcDbEntity
  8
ALL_ASSEMBLY_MEMBERS
100
AcDbPolyline
 62
7
  6
CONTINUOUS
 90
12
 70
0
 10
5.3933264891
 20
2.5105794676
 10
5.393339954
 20
2.5108907353
 10
5.3933841158
 20
2.5112196125
 10
5.3934576813
 20
2.5115357422
 10
5.3935571342
 20
2.5118299306
 10
5.3936793351
 20
2.5120990096
 10
5.3938236772
 20
2.5123438701
 10
5.393982987
 20
2.5125548408
 10
5.3941543055
 20
2.5127317692
 10
5.3943442836
 20
2.5128798906
 10
5.3945511764
 20
2.5129922817
 10
5.3947664054
 20
2.5130598776
  0
LWPOLYLINE
  5
25C
100
AcDbEntity
  8
ALL_ASSEMBLY_MEMBERS
100
AcDbPolyline
 62
7
  6
CONTINUOUS
 90
3
 70
0
 10
7.6710534787
 20
5.8272525444
 10
7.6722495801
 20
5.8280070255
 10
7.6734282071
 20
5.8286025655
  0
LINE
  5
25D
100
AcDbEntity
  8
ALL_ASSEMBLY_MEMBERS
100
AcDbLine
 62
7
  6
CONTINUOUS
 10
5.5281722914
 20
2.5105794702
 11
5.5281722914
 21
2.4930794698
  0
LINE
  5
25E
100
AcDbEntity
  8
ALL_ASSEMBLY_MEMBERS
100
AcDbLine
 62
7
  6
CONTINUOUS
 10
5.5286233758
 20
2.5105794698
 11
5.5286233758
 21
2.4930794698
  0
LINE
  5
25F
100
AcDbEntity
  8
ALL_ASSEMBLY_MEMBERS
100
AcDbLine
 62
7
  6
CONTINUOUS
 10
5.5286413773
 20
2.5105794702
 11
5.5286413773
 21
2.4930794698
  0
LINE
  5
260
100
AcDbEntity
  8
ALL_ASSEMBLY_MEMBERS
100
AcDbLine
 62
7
  6
CONTINUOUS
 10
5.5914616355
 20
2.5105794676
 11
5.5914616355
 21
2.4930794698
  0
LINE
  5
261
100
AcDbEntity
  8
ALL_ASSEMBLY_MEMBERS
100
AcDbLine
 62
7
  6
CONTINUOUS
 10
5.5919948386
 20
2.5105794698
 11
5.5919948386
 21
2.4930794698
  0
LINE
  5
262
100
AcDbEntity
  8
ALL_ASSEMBLY_MEMBERS
100
AcDbLine
 62
7
  6
CONTINUOUS
 10
5.6120788756
 20
2.5105794698
 11
5.6120788756
 21
2.4930794698
  0
LINE
  5
263
100
AcDbEntity
  8
ALL_ASSEMBLY_MEMBERS
100
AcDbLine
 62
7
  6
CONTINUOUS
 10
5.6155041485
 20
2.5105794698
 11
5.6155041485
 21
2.4930794698
  0
LINE
  5
264
100
AcDbEntity
  8
ALL_ASSEMBLY_MEMBERS
100
AcDbLine
 62
7
  6
CONTINUOUS
 10
5.6635002268
 20
2.5105794698
 11
5.6635002268
 21
2.4930794698
  0
LINE
  5
265
100
AcDbEntity
  8
ALL_ASSEMBLY_MEMBERS
100
AcDbLine
 62
7
  6
CONTINUOUS
 10
5.6639730768
 20
2.5105794716
 11
5.6639730768
 21
2.4930794698
  0
LINE
  5
266
100
AcDbEntity
  8
ALL_ASSEMBLY_MEMBERS
100
AcDbLine
 62
7
  6
CONTINUOUS
 10
5.6655620448
 20
2.5105794698
 11
5.6655620448
 21
2.4930794698
  0
LINE
  5
267
100
AcDbEntity
  8
ALL_ASSEMBLY_MEMBERS
100
AcDbLine
 62
7
  6
CONTINUOUS
 10
5.6978624575
 20
2.5105794698
 11
5.6978624575
 21
2.4930794698
  0
LINE
  5
268
100
AcDbEntity
  8
ALL_ASSEMBLY_MEMBERS
100
AcDbLine
 62
7
  6
CONTINUOUS
 10
5.7006289941
 20
2.5105794698
 11
5.7006289941
 21
2.4930794698
  0
LINE
  5
269
100
AcDbEntity
  8
ALL_ASSEMBLY_MEMBERS
100
AcDbLine
 62
7
  6
CONTINUOUS
 10
5.7034087733
 20
2.5130794698
 11
5.7034087733
 21
2.4930794698
  0
LINE
  5
26A
100
AcDbEntity
  8
ALL_ASSEMBLY_MEMBERS
100
AcDbLine
 62
7
  6
CONTINUOUS
 10
5.7424087733
 20
2.8880794698
 11
5.7424087733
 21
2.5130794698
  0
LWPOLYLINE
  5
26B
100
AcDbEntity
  8
ALL_ASSEMBLY_MEMBERS
100
AcDbPolyline
 62
7
  6
CONTINUOUS
 90
12
 70
0
 10
5.6639730782
 20
2.5105794716
 10
5.6639734123
 20
2.5106432064
 10
5.6639897252
 20
2.5110266369
 10
5.6640299055
 20
2.5114003657
 10
5.6640911689
 20
2.5117517375
 10
5.6641699594
 20
2.5120739651
 10
5.664262062
 20
2.5123617871
 10
5.664360653
 20
2.5126067781
 10
5.6644587848
 20
2.512805422
 10
5.6645512232
 20
2.5129597562
 10
5.6646310283
 20
2.5130700672
 10
5.6646391784
 20
2.5130794698
  0
LWPOLYLINE
  5
26C
100
AcDbEntity
  8
ALL_ASSEMBLY_MEMBERS
100
AcDbPolyline
 62
7
  6
CONTINUOUS
 90
3
 70
0
 10
5.5286413659
 20
2.5105794702
 10
5.5286464961
 20
2.5107410789
 10
5.5286901553
 20
2.5110768732
  0
LWPOLYLINE
  5
26D
100
AcDbEntity
  8
ALL_ASSEMBLY_MEMBERS
100
AcDbPolyline
 62
7
  6
CONTINUOUS
 90
13
 70
0
 10
5.5281722875
 20
2.5105794702
 10
5.5281824686
 20
2.5108069863
 10
5.5282341851
 20
2.5111385613
 10
5.5283289342
 20
2.5114600167
 10
5.5284651689
 20
2.5117661681
 10
5.5286403241
 20
2.5120511639
 10
5.528851362
 20
2.5123093795
 10
5.529094698
 20
2.51253672
 10
5.5293659529
 20
2.5127286056
 10
5.5296602234
 20
2.512881332
 10
5.5299729167
 20
2.5129924162
 10
5.5302988966
 20
2.5130590315
 10
5.5306091318
 20
2.513079477
  0
LWPOLYLINE
  5
26E
100
AcDbEntity
  8
ALL_ASSEMBLY_MEMBERS
100
AcDbPolyline
 62
7
  6
CONTINUOUS
 90
4
 70
0
 10
5.5286901553
 20
2.5110768732
 10
5.5287777344
 20
2.5114035563
 10
5.5289079859
 20
2.5117158443
 10
5.5290783831
 20
2.512007689
  0
LWPOLYLINE
  5
26F
100
AcDbEntity
  8
ALL_ASSEMBLY_MEMBERS
100
AcDbPolyline
 62
7
  6
CONTINUOUS
 90
11
 70
0
 10
3.3139180864
 20
5.8285895191
 10
3.3149295153
 20
5.8280840421
 10
3.3159454011
 20
5.8274697582
 10
3.3168865349
 20
5.826789938
 10
3.3177467681
 20
5.8260555866
 10
3.3185155101
 20
5.8252832459
 10
3.3191340188
 20
5.8245557345
 10
3.3196011234
 20
5.8239186258
 10
3.3199471677
 20
5.8233752855
 10
3.3201805943
 20
5.8229553319
 10
3.3202787357
 20
5.8227579566
  0
LWPOLYLINE
  5
270
100
AcDbEntity
  8
ALL_ASSEMBLY_MEMBERS
100
AcDbPolyline
 62
7
  6
CONTINUOUS
 90
4
 70
0
 10
7.6682368292
 20
5.8246232017
 10
7.6689617293
 20
5.825454417
 10
7.6699067079
 20
5.8263568701
 10
7.6710534787
 20
5.8272525444
  0
LWPOLYLINE
  5
271
100
AcDbEntity
  8
ALL_ASSEMBLY_MEMBERS
100
AcDbPolyline
 62
7
  6
CONTINUOUS
 90
7
 70
0
 10
5.5290783831
 20
2.512007689
 10
5.5292859537
 20
2.5122731193
 10
5.5295272226
 20
2.5125077677
 10
5.5297977091
 20
2.5127068555
 10
5.5300924608
 20
2.5128662728
 10
5.5304067567
 20
2.5129833713
 10
5.5307352871
 20
2.5130551195
  0
LWPOLYLINE
  5
272
100
AcDbEntity
  8
ALL_ASSEMBLY_MEMBERS
100
AcDbPolyline
 62
7
  6
CONTINUOUS
 90
7
 70
0
 10
7.6669567937
 20
5.82257753
 10
7.6669487021
 20
5.8225558378
 10
7.6669738387
 20
5.8226155711
 10
7.6670814213
 20
5.8228457494
 10
7.6673044932
 20
5.8232623445
 10
7.6676839136
 20
5.823870795
 10
7.6682368292
 20
5.8246232017
  0
LINE
  5
273
100
AcDbEntity
  8
ALL_ASSEMBLY_MEMBERS
100
AcDbLine
 62
7
  6
CONTINUOUS
 10
3.3324862542
 20
5.8097865766
 11
3.6890471627
 21
5.8097865766
  0
LINE
  5
274
100
AcDbEntity
  8
ALL_ASSEMBLY_MEMBERS
100
AcDbLine
 62
7
  6
CONTINUOUS
 10
7.2982705275
 20
5.8097865766
 11
7.6548314234
 21
5.8097865766
  0
LINE
  5
275
100
AcDbEntity
  8
ALL_ASSEMBLY_MEMBERS
100
AcDbLine
 62
7
  6
CONTINUOUS
 10
2.2649087733
 20
5.8297865766
 11
3.8184087733
 21
5.8297865766
  0
LINE
  5
276
100
AcDbEntity
  8
ALL_ASSEMBLY_MEMBERS
100
AcDbLine
 62
7
  6
CONTINUOUS
 10
7.1689087733
 20
5.8297865766
 11
8.7224087733
 21
5.8297865766
  0
LINE
  5
277
100
AcDbEntity
  8
ALL_ASSEMBLY_MEMBERS
100
AcDbLine
 62
7
  6
CONTINUOUS
 10
2.2449087733
 20
5.8497865766
 11
3.8384087733
 21
5.8497865766
  0
LINE
  5
278
100
AcDbEntity
  8
ALL_ASSEMBLY_MEMBERS
100
AcDbLine
 62
7
  6
CONTINUOUS
 10
7.1489087733
 20
5.8497865766
 11
8.7424087733
 21
5.8497865766
  0
LINE
  5
279
100
AcDbEntity
  8
ALL_ASSEMBLY_MEMBERS
100
AcDbLine
 62
7
  6
CONTINUOUS
 10
8.7424087733
 20
5.9277865766
 11
7.1489087733
 21
5.9277865766
  0
LINE
  5
27A
100
AcDbEntity
  8
ALL_ASSEMBLY_MEMBERS
100
AcDbLine
 62
7
  6
CONTINUOUS
 10
2.2449087733
 20
5.9277865766
 11
3.8384087733
 21
5.9277865766
  0
LINE
  5
27B
100
AcDbEntity
  8
ALL_ASSEMBLY_MEMBERS
100
AcDbLine
 62
7
  6
CONTINUOUS
 10
8.7224087733
 20
5.9477865766
 11
7.1689087733
 21
5.9477865766
  0
LINE
  5
27C
100
AcDbEntity
  8
ALL_ASSEMBLY_MEMBERS
100
AcDbLine
 62
7
  6
CONTINUOUS
 10
3.8184087733
 20
5.9477865766
 11
2.2649087733
 21
5.9477865766
  0
LWPOLYLINE
  5
27D
100
AcDbEntity
  8
ALL_ASSEMBLY_MEMBERS
100
AcDbPolyline
 62
7
  6
CONTINUOUS
 90
8
 70
0
 10
3.3086724157
 20
5.8297865727
 10
3.3088938744
 20
5.8297838859
 10
3.3095468107
 20
5.8297488944
 10
3.3103083648
 20
5.8296607568
 10
3.3111404095
 20
5.8295093851
 10
3.3120232359
 20
5.8292870815
 10
3.312952639
 20
5.8289835554
 10
3.3139180864
 20
5.8285895191
  0
LINE
  5
27E
100
AcDbEntity
  8
ALL_ASSEMBLY_MEMBERS
100
AcDbLine
 62
7
  6
CONTINUOUS
 10
7.1489087733
 20
5.9277865766
 11
7.1489087733
 21
5.8497865766
  0
LINE
  5
27F
100
AcDbEntity
  8
ALL_ASSEMBLY_MEMBERS
100
AcDbLine
 62
7
  6
CONTINUOUS
 10
7.1689087733
 20
5.9477865766
 11
7.1689087733
 21
5.8297865766
  0
LINE
  5
280
100
AcDbEntity
  8
ALL_ASSEMBLY_MEMBERS
100
AcDbLine
 62
7
  6
CONTINUOUS
 10
7.6670223617
 20
5.8227701833
 11
7.6670177933
 21
5.8227560426
  0
LINE
  5
281
100
AcDbEntity
  8
ALL_ASSEMBLY_MEMBERS
100
AcDbLine
 62
7
  6
CONTINUOUS
 10
7.6548312924
 20
5.9677865766
 11
7.2982703839
 21
5.9677865766
  0
LINE
  5
282
100
AcDbEntity
  8
ALL_ASSEMBLY_MEMBERS
100
AcDbLine
 62
7
  6
CONTINUOUS
 10
3.6890470191
 20
5.9677865766
 11
3.3324861232
 21
5.9677865766
  0
LWPOLYLINE
  5
283
100
AcDbEntity
  8
ALL_ASSEMBLY_MEMBERS
100
AcDbPolyline
 62
7
  6
CONTINUOUS
 90
8
 70
0
 10
7.6786451309
 20
5.9477865805
 10
7.6784236722
 20
5.9477892673
 10
7.6777707358
 20
5.9478242587
 10
7.6770091817
 20
5.9479123964
 10
7.6761771371
 20
5.9480637681
 10
7.6752943107
 20
5.9482860716
 10
7.6743649076
 20
5.9485895977
 10
7.6733994602
 20
5.9489836341
  0
LWPOLYLINE
  5
284
100
AcDbEntity
  8
ALL_ASSEMBLY_MEMBERS
100
AcDbPolyline
 62
7
  6
CONTINUOUS
 90
11
 70
0
 10
7.6733994602
 20
5.9489836341
 10
7.6723880313
 20
5.949489111
 10
7.6713721455
 20
5.950103395
 10
7.6704310117
 20
5.9507832152
 10
7.6695707785
 20
5.9515175666
 10
7.6688020365
 20
5.9522899073
 10
7.6681835278
 20
5.9530174187
 10
7.6677164232
 20
5.9536545274
 10
7.6673703789
 20
5.9541978677
 10
7.6671369523
 20
5.9546178212
 10
7.6670388109
 20
5.9548151965
  0
LINE
  5
285
100
AcDbEntity
  8
ALL_ASSEMBLY_MEMBERS
100
AcDbLine
 62
7
  6
CONTINUOUS
 10
7.6670164885
 20
5.9548218109
 11
7.6670265371
 21
5.9547907017
  0
LINE
  5
286
100
AcDbEntity
  8
ALL_ASSEMBLY_MEMBERS
100
AcDbLine
 62
7
  6
CONTINUOUS
 10
8.7224087733
 20
5.8297865766
 11
8.7224087733
 21
5.9477865766
  0
LINE
  5
287
100
AcDbEntity
  8
ALL_ASSEMBLY_MEMBERS
100
AcDbLine
 62
7
  6
CONTINUOUS
 10
8.7424087733
 20
5.9277865766
 11
8.7424087733
 21
5.8497865766
  0
ARC
  5
288
100
AcDbEntity
  8
ALL_ASSEMBLY_MEMBERS
100
AcDbCircle
 62
7
  6
CONTINUOUS
 10
5.3126425986
 20
2.5105786946
 40
0.0083936897
100
AcDbArc
 50
0.005291409
 51
3.6132639811
  0
ARC
  5
289
100
AcDbEntity
  8
ALL_ASSEMBLY_MEMBERS
100
AcDbCircle
 62
7
  6
CONTINUOUS
 10
5.3126806466
 20
2.5105820614
 40
0.0083555053
100
AcDbArc
 50
3.6066657119
 51
7.1318405545
  0
ARC
  5
28A
100
AcDbEntity
  8
ALL_ASSEMBLY_MEMBERS
100
AcDbCircle
 62
7
  6
CONTINUOUS
 10
5.3130432437
 20
2.5106268074
 40
0.0079901583
100
AcDbArc
 50
7.1362701171
 51
10.7336657002
  0
ARC
  5
28B
100
AcDbEntity
  8
ALL_ASSEMBLY_MEMBERS
100
AcDbCircle
 62
7
  6
CONTINUOUS
 10
5.3189499286
 20
2.4930794698
 40
0.0025
100
AcDbArc
 50
270.0
 51
325.5899837573
  0
ARC
  5
28C
100
AcDbEntity
  8
ALL_ASSEMBLY_MEMBERS
100
AcDbCircle
 62
7
  6
CONTINUOUS
 10
5.323066768
 20
2.4930794698
 40
0.0025
100
AcDbArc
 50
180.0
 51
270.0
  0
ARC
  5
28D
100
AcDbEntity
  8
ALL_ASSEMBLY_MEMBERS
100
AcDbCircle
 62
7
  6
CONTINUOUS
 10
5.2839087733
 20
2.4930794698
 40
0.0025
100
AcDbArc
 50
180.0
 51
270.0
  0
ARC
  5
28E
100
AcDbEntity
  8
ALL_ASSEMBLY_MEMBERS
100
AcDbCircle
 62
7
  6
CONTINUOUS
 10
5.2865747634
 20
2.493013191
 40
0.002432374
100
AcDbArc
 50
239.4714283064
 51
254.8605510321
  0
ARC
  5
28F
100
AcDbEntity
  8
ALL_ASSEMBLY_MEMBERS
100
AcDbCircle
 62
7
  6
CONTINUOUS
 10
5.453264746
 20
2.5105784008
 40
0.0050069461
100
AcDbArc
 50
0.0122328135
 51
29.9780087257
  0
ARC
  5
290
100
AcDbEntity
  8
ALL_ASSEMBLY_MEMBERS
100
AcDbCircle
 62
7
  6
CONTINUOUS
 10
5.3895842589
 20
2.4930803595
 40
0.0031880559
100
AcDbArc
 50
348.2749533858
 51
359.9840107005
  0
ARC
  5
291
100
AcDbEntity
  8
ALL_ASSEMBLY_MEMBERS
100
AcDbCircle
 62
7
  6
CONTINUOUS
 10
5.3908559111
 20
2.4930794698
 40
0.0025
100
AcDbArc
 50
270.0
 51
360.0
  0
ARC
  5
292
100
AcDbEntity
  8
ALL_ASSEMBLY_MEMBERS
100
AcDbCircle
 62
7
  6
CONTINUOUS
 10
5.390826502
 20
2.4930794698
 40
0.0025
100
AcDbArc
 50
270.0
 51
360.0
  0
ARC
  5
293
100
AcDbEntity
  8
ALL_ASSEMBLY_MEMBERS
100
AcDbCircle
 62
7
  6
CONTINUOUS
 10
5.4586761693
 20
2.4930794698
 40
0.0025
100
AcDbArc
 50
180.0
 51
270.0
  0
ARC
  5
294
100
AcDbEntity
  8
ALL_ASSEMBLY_MEMBERS
100
AcDbCircle
 62
7
  6
CONTINUOUS
 10
5.4924087733
 20
2.8887865766
 40
0.4375
100
AcDbArc
 50
239.198658023
 51
241.1571609823
  0
ARC
  5
295
100
AcDbEntity
  8
ALL_ASSEMBLY_MEMBERS
100
AcDbCircle
 62
7
  6
CONTINUOUS
 10
5.4924087733
 20
2.8887865766
 40
0.4375
100
AcDbArc
 50
245.5457358408
 51
294.4542641577
  0
ARC
  5
296
100
AcDbEntity
  8
ALL_ASSEMBLY_MEMBERS
100
AcDbCircle
 62
7
  6
CONTINUOUS
 10
5.4924087733
 20
2.8887865766
 40
0.4375
100
AcDbArc
 50
298.8428390187
 51
300.8013419778
  0
ARC
  5
297
100
AcDbEntity
  8
ALL_ASSEMBLY_MEMBERS
100
AcDbCircle
 62
7
  6
CONTINUOUS
 10
5.4924087733
 20
2.8887865766
 40
0.4375
100
AcDbArc
 50
304.8547759536
 51
235.1452240461
  0
ARC
  5
298
100
AcDbEntity
  8
ALL_ASSEMBLY_MEMBERS
100
AcDbCircle
 62
7
  6
CONTINUOUS
 10
5.4924087733
 20
2.8887865766
 40
0.4225
100
AcDbArc
 50
250.4788554861
 51
289.5211457152
  0
ARC
  5
299
100
AcDbEntity
  8
ALL_ASSEMBLY_MEMBERS
100
AcDbCircle
 62
7
  6
CONTINUOUS
 10
5.4924087733
 20
2.8887865766
 40
0.4225
100
AcDbArc
 50
306.2882186096
 51
233.711781443
  0
ARC
  5
29A
100
AcDbEntity
  8
ALL_ASSEMBLY_MEMBERS
100
AcDbCircle
 62
7
  6
CONTINUOUS
 10
5.4924087733
 20
2.8887865766
 40
0.26
100
AcDbArc
 50
344.0791277174
 51
195.9208722826
  0
ARC
  5
29B
100
AcDbEntity
  8
ALL_ASSEMBLY_MEMBERS
100
AcDbCircle
 62
7
  6
CONTINUOUS
 10
5.4924087733
 20
2.8887865766
 40
0.25
100
AcDbArc
 50
359.83976664
 51
180.1598248136
  0
ARC
  5
29C
100
AcDbEntity
  8
ALL_ASSEMBLY_MEMBERS
100
AcDbCircle
 62
7
  6
CONTINUOUS
 10
5.4924045776
 20
2.8880810522
 40
0.2499966889
100
AcDbArc
 50
359.9996377744
 51
179.91070161
  0
ARC
  5
29D
100
AcDbEntity
  8
ALL_ASSEMBLY_MEMBERS
100
AcDbCircle
 62
7
  6
CONTINUOUS
 10
3.5249087733
 20
5.8887865766
 40
0.4625
100
AcDbArc
 50
187.3300536817
 51
172.669769959
  0
ARC
  5
29E
100
AcDbEntity
  8
ALL_ASSEMBLY_MEMBERS
100
AcDbCircle
 62
7
  6
CONTINUOUS
 10
3.5249087733
 20
5.8887865766
 40
0.4525
100
AcDbArc
 50
187.4927190669
 51
172.507042648
  0
ARC
  5
29F
100
AcDbEntity
  8
ALL_ASSEMBLY_MEMBERS
100
AcDbCircle
 62
7
  6
CONTINUOUS
 10
3.5249087733
 20
5.8887865766
 40
0.215
100
AcDbArc
 50
19.6437136923
 51
162.0645476125
  0
ARC
  5
2A0
100
AcDbEntity
  8
ALL_ASSEMBLY_MEMBERS
100
AcDbCircle
 62
7
  6
CONTINUOUS
 10
3.5249087733
 20
5.8887865766
 40
0.215
100
AcDbArc
 50
197.8851371453
 51
340.4699136769
  0
ARC
  5
2A1
100
AcDbEntity
  8
ALL_ASSEMBLY_MEMBERS
100
AcDbCircle
 62
7
  6
CONTINUOUS
 10
3.5107665984
 20
5.8887835273
 40
0.1949984607
100
AcDbArc
 50
203.8983819228
 51
336.1016442765
  0
ARC
  5
2A2
100
AcDbEntity
  8
ALL_ASSEMBLY_MEMBERS
100
AcDbCircle
 62
7
  6
CONTINUOUS
 10
3.5107666541
 20
5.8887896282
 40
0.194998451
100
AcDbArc
 50
23.8983788208
 51
156.1016409261
  0
ARC
  5
2A3
100
AcDbEntity
  8
ALL_ASSEMBLY_MEMBERS
100
AcDbCircle
 62
7
  6
CONTINUOUS
 10
3.3044872284
 20
5.9677256163
 40
0.0219789989
100
AcDbArc
 50
339.1681950432
 51
351.2179388861
  0
ARC
  5
2A4
100
AcDbEntity
  8
ALL_ASSEMBLY_MEMBERS
100
AcDbCircle
 62
7
  6
CONTINUOUS
 10
3.3044874993
 20
5.8098476634
 40
0.0219786719
100
AcDbArc
 50
8.7822270854
 51
20.832004958
  0
ARC
  5
2A5
100
AcDbEntity
  8
ALL_ASSEMBLY_MEMBERS
100
AcDbCircle
 62
7
  6
CONTINUOUS
 10
2.2649087733
 20
5.8497865766
 40
0.02
100
AcDbArc
 50
180.0
 51
270.0
  0
ARC
  5
2A6
100
AcDbEntity
  8
ALL_ASSEMBLY_MEMBERS
100
AcDbCircle
 62
7
  6
CONTINUOUS
 10
2.2649087733
 20
5.9277865766
 40
0.02
100
AcDbArc
 50
90.0
 51
180.0
  0
ARC
  5
2A7
100
AcDbEntity
  8
ALL_ASSEMBLY_MEMBERS
100
AcDbCircle
 62
7
  6
CONTINUOUS
 10
3.8184087733
 20
5.8497865766
 40
0.02
100
AcDbArc
 50
270.0
 51
360.0
  0
ARC
  5
2A8
100
AcDbEntity
  8
ALL_ASSEMBLY_MEMBERS
100
AcDbCircle
 62
7
  6
CONTINUOUS
 10
3.8184087733
 20
5.9277865766
 40
0.02
100
AcDbArc
 50
0.0
 51
90.0
  0
ARC
  5
2A9
100
AcDbEntity
  8
ALL_ASSEMBLY_MEMBERS
100
AcDbCircle
 62
7
  6
CONTINUOUS
 10
3.7462309737
 20
5.8097865766
 40
0.0199998729
100
AcDbArc
 50
89.9968701744
 51
160.3552340994
  0
ARC
  5
2AA
100
AcDbEntity
  8
ALL_ASSEMBLY_MEMBERS
100
AcDbCircle
 62
7
  6
CONTINUOUS
 10
3.7462329503
 20
5.9677850331
 40
0.0199992282
100
AcDbArc
 50
199.6386977675
 51
269.9974670327
  0
ARC
  5
2AB
100
AcDbEntity
  8
ALL_ASSEMBLY_MEMBERS
100
AcDbCircle
 62
7
  6
CONTINUOUS
 10
3.3083806677
 20
5.9645667681
 40
0.0168271731
100
AcDbArc
 50
292.2955698215
 51
299.5101241455
  0
ARC
  5
2AC
100
AcDbEntity
  8
ALL_ASSEMBLY_MEMBERS
100
AcDbCircle
 62
7
  6
CONTINUOUS
 10
3.3083807681
 20
5.8130064081
 40
0.016827052
100
AcDbArc
 50
60.4901518878
 51
67.7047045474
  0
ARC
  5
2AD
100
AcDbEntity
  8
ALL_ASSEMBLY_MEMBERS
100
AcDbCircle
 62
7
  6
CONTINUOUS
 10
5.6718431274
 20
2.5105797853
 40
0.0083429007
100
AcDbArc
 50
172.8230016327
 51
180.0021669161
  0
ARC
  5
2AE
100
AcDbEntity
  8
ALL_ASSEMBLY_MEMBERS
100
AcDbCircle
 62
7
  6
CONTINUOUS
 10
5.6713750864
 20
2.5106409486
 40
0.0078708857
100
AcDbArc
 50
169.1846037168
 51
172.8390846228
  0
ARC
  5
2AF
100
AcDbEntity
  8
ALL_ASSEMBLY_MEMBERS
100
AcDbCircle
 62
7
  6
CONTINUOUS
 10
5.531076091
 20
2.5105778722
 40
0.005004964
100
AcDbArc
 50
150.0035414943
 51
179.9817108298
  0
ARC
  5
2B0
100
AcDbEntity
  8
ALL_ASSEMBLY_MEMBERS
100
AcDbCircle
 62
7
  6
CONTINUOUS
 10
5.6604362706
 20
2.4930803448
 40
0.0030639563
100
AcDbArc
 50
347.8887444476
 51
359.9836370821
  0
ARC
  5
2B1
100
AcDbEntity
  8
ALL_ASSEMBLY_MEMBERS
100
AcDbCircle
 62
7
  6
CONTINUOUS
 10
5.5261025421
 20
2.4930810339
 40
0.0025208341
100
AcDbArc
 50
345.091834113
 51
359.9644494725
  0
ARC
  5
2B2
100
AcDbEntity
  8
ALL_ASSEMBLY_MEMBERS
100
AcDbCircle
 62
7
  6
CONTINUOUS
 10
5.6617507786
 20
2.4930794698
 40
0.0025
100
AcDbArc
 50
270.0
 51
325.4577862905
  0
ARC
  5
2B3
100
AcDbEntity
  8
ALL_ASSEMBLY_MEMBERS
100
AcDbCircle
 62
7
  6
CONTINUOUS
 10
5.5261413773
 20
2.4930794698
 40
0.0025
100
AcDbArc
 50
270.0
 51
360.0
  0
ARC
  5
2B4
100
AcDbEntity
  8
ALL_ASSEMBLY_MEMBERS
100
AcDbCircle
 62
7
  6
CONTINUOUS
 10
5.5256722914
 20
2.4930794698
 40
0.0025
100
AcDbArc
 50
270.0
 51
360.0
  0
ARC
  5
2B5
100
AcDbEntity
  8
ALL_ASSEMBLY_MEMBERS
100
AcDbCircle
 62
7
  6
CONTINUOUS
 10
5.5939616355
 20
2.4930794698
 40
0.0025
100
AcDbArc
 50
180.0
 51
270.0
  0
ARC
  5
2B6
100
AcDbEntity
  8
ALL_ASSEMBLY_MEMBERS
100
AcDbCircle
 62
7
  6
CONTINUOUS
 10
5.6614730768
 20
2.4930794698
 40
0.0025
100
AcDbArc
 50
270.0
 51
360.0
  0
ARC
  5
2B7
100
AcDbEntity
  8
ALL_ASSEMBLY_MEMBERS
100
AcDbCircle
 62
7
  6
CONTINUOUS
 10
5.6658615171
 20
2.4930794698
 40
0.0025
100
AcDbArc
 50
208.4826236594
 51
270.0
  0
ARC
  5
2B8
100
AcDbEntity
  8
ALL_ASSEMBLY_MEMBERS
100
AcDbCircle
 62
7
  6
CONTINUOUS
 10
5.7009087733
 20
2.4930794698
 40
0.0025
100
AcDbArc
 50
270.0
 51
360.0
  0
ARC
  5
2B9
100
AcDbEntity
  8
ALL_ASSEMBLY_MEMBERS
100
AcDbCircle
 62
7
  6
CONTINUOUS
 10
5.5261247305
 20
2.4930714319
 40
0.0024969248
100
AcDbArc
 50
322.6793718474
 51
345.1737612598
  0
ARC
  5
2BA
100
AcDbEntity
  8
ALL_ASSEMBLY_MEMBERS
100
AcDbCircle
 62
7
  6
CONTINUOUS
 10
5.526132857
 20
2.4930627802
 40
0.0024852177
100
AcDbArc
 50
292.681995775
 51
322.7244091435
  0
ARC
  5
2BB
100
AcDbEntity
  8
ALL_ASSEMBLY_MEMBERS
100
AcDbCircle
 62
7
  6
CONTINUOUS
 10
5.6981604023
 20
2.4930190044
 40
0.0024395351
100
AcDbArc
 50
270.0358770104
 51
285.0645587714
  0
ARC
  5
2BC
100
AcDbEntity
  8
ALL_ASSEMBLY_MEMBERS
100
AcDbCircle
 62
7
  6
CONTINUOUS
 10
5.6981662581
 20
2.4930111118
 40
0.0024303944
100
AcDbArc
 50
284.9796136571
 51
299.9621025696
  0
ARC
  5
2BD
100
AcDbEntity
  8
ALL_ASSEMBLY_MEMBERS
100
AcDbCircle
 62
7
  6
CONTINUOUS
 10
7.4624087733
 20
5.8887865766
 40
0.4625
100
AcDbArc
 50
7.3300536817
 51
352.669769959
  0
ARC
  5
2BE
100
AcDbEntity
  8
ALL_ASSEMBLY_MEMBERS
100
AcDbCircle
 62
7
  6
CONTINUOUS
 10
7.4624087733
 20
5.8887865766
 40
0.4525
100
AcDbArc
 50
7.4927190669
 51
352.507042648
  0
ARC
  5
2BF
100
AcDbEntity
  8
ALL_ASSEMBLY_MEMBERS
100
AcDbCircle
 62
7
  6
CONTINUOUS
 10
7.4624087733
 20
5.8887865766
 40
0.215
100
AcDbArc
 50
199.6437136923
 51
342.0645476125
  0
ARC
  5
2C0
100
AcDbEntity
  8
ALL_ASSEMBLY_MEMBERS
100
AcDbCircle
 62
7
  6
CONTINUOUS
 10
7.4624087733
 20
5.8887865766
 40
0.215
100
AcDbArc
 50
17.8851371453
 51
160.4699136769
  0
ARC
  5
2C1
100
AcDbEntity
  8
ALL_ASSEMBLY_MEMBERS
100
AcDbCircle
 62
7
  6
CONTINUOUS
 10
7.4765509247
 20
5.8887896167
 40
0.1949984607
100
AcDbArc
 50
23.8983815834
 51
156.1016390145
  0
ARC
  5
2C2
100
AcDbEntity
  8
ALL_ASSEMBLY_MEMBERS
100
AcDbCircle
 62
7
  6
CONTINUOUS
 10
7.4765508654
 20
5.8887835158
 40
0.194998451
100
AcDbArc
 50
203.8983795869
 51
336.1016466124
  0
ARC
  5
2C3
100
AcDbEntity
  8
ALL_ASSEMBLY_MEMBERS
100
AcDbCircle
 62
7
  6
CONTINUOUS
 10
7.6828303181
 20
5.8098475369
 40
0.0219789989
100
AcDbArc
 50
159.1681950432
 51
171.2179388861
  0
ARC
  5
2C4
100
AcDbEntity
  8
ALL_ASSEMBLY_MEMBERS
100
AcDbCircle
 62
7
  6
CONTINUOUS
 10
7.6828300473
 20
5.9677254898
 40
0.0219786719
100
AcDbArc
 50
188.7822270854
 51
200.832004958
  0
ARC
  5
2C5
100
AcDbEntity
  8
ALL_ASSEMBLY_MEMBERS
100
AcDbCircle
 62
7
  6
CONTINUOUS
 10
8.7224087733
 20
5.9277865766
 40
0.02
100
AcDbArc
 50
0.0
 51
90.0
  0
ARC
  5
2C6
100
AcDbEntity
  8
ALL_ASSEMBLY_MEMBERS
100
AcDbCircle
 62
7
  6
CONTINUOUS
 10
8.7224087733
 20
5.8497865766
 40
0.02
100
AcDbArc
 50
270.0
 51
360.0
  0
ARC
  5
2C7
100
AcDbEntity
  8
ALL_ASSEMBLY_MEMBERS
100
AcDbCircle
 62
7
  6
CONTINUOUS
 10
7.1689087733
 20
5.9277865766
 40
0.02
100
AcDbArc
 50
90.0
 51
180.0
  0
ARC
  5
2C8
100
AcDbEntity
  8
ALL_ASSEMBLY_MEMBERS
100
AcDbCircle
 62
7
  6
CONTINUOUS
 10
7.1689087733
 20
5.8497865766
 40
0.02
100
AcDbArc
 50
180.0
 51
270.0
  0
ARC
  5
2C9
100
AcDbEntity
  8
ALL_ASSEMBLY_MEMBERS
100
AcDbCircle
 62
7
  6
CONTINUOUS
 10
7.2410865729
 20
5.9677865766
 40
0.0199998729
100
AcDbArc
 50
269.9968701744
 51
340.3552340994
  0
ARC
  5
2CA
100
AcDbEntity
  8
ALL_ASSEMBLY_MEMBERS
100
AcDbCircle
 62
7
  6
CONTINUOUS
 10
7.2410845962
 20
5.8097881201
 40
0.0199992282
100
AcDbArc
 50
19.6386977675
 51
89.9974670327
  0
ARC
  5
2CB
100
AcDbEntity
  8
ALL_ASSEMBLY_MEMBERS
100
AcDbCircle
 62
7
  6
CONTINUOUS
 10
7.6789368789
 20
5.8130063851
 40
0.0168271731
100
AcDbArc
 50
112.2955698214
 51
119.5101241455
  0
ARC
  5
2CC
100
AcDbEntity
  8
ALL_ASSEMBLY_MEMBERS
100
AcDbCircle
 62
7
  6
CONTINUOUS
 10
7.6789367785
 20
5.9645667451
 40
0.016827052
100
AcDbArc
 50
240.4901518878
 51
247.7047045473
  0
SPLINE
  5
2CD
100
AcDbEntity
  8
ALL_ASSEMBLY_MEMBERS
100
AcDbSpline
 62
7
  6
CONTINUOUS
 70
0
 71
3
 72
10
 73
6
 74
0
 42
0.0000001
 43
0.0000001
 44
0.0000000001
 40
0.0
 40
0.0
 40
0.0
 40
0.0
 40
0.4939834445
 40
0.7465939807
 40
1.0
 40
1.0
 40
1.0
 40
1.0
 10
5.3694745348
 20
2.5130800601
 30
0.0
 10
5.3692921686
 20
2.5126966937
 30
0.0
 10
5.3690849091
 20
2.5120817563
 30
0.0
 10
5.3689469236
 20
2.5112325689
 30
0.0
 10
5.3689231238
 20
2.5107972482
 30
0.0
 10
5.3689230877
 20
2.5105794698
 30
0.0
  0
LINE
  5
2CE
100
AcDbEntity
  8
ALL_ASSEMBLY_MEMBERS
100
AcDbLine
 62
7
  6
CONTINUOUS
 10
5.3208936024
 20
2.5121149259
 11
5.3206410477
 21
2.5130801951
  0
LINE
  5
2CF
100
AcDbEntity
  8
ALL_ASSEMBLY_MEMBERS
100
AcDbLine
 62
7
  6
CONTINUOUS
 10
5.2842207236
 20
2.5130800601
 11
5.2841112807
 21
2.5105794698
  0
LINE
  5
2D0
100
AcDbEntity
  8
ALL_ASSEMBLY_MEMBERS
100
AcDbLine
 62
7
  6
CONTINUOUS
 10
5.7006289941
 20
2.5105794698
 11
5.7005180714
 21
2.5130801951
  0
LINE
  5
2D1
100
AcDbEntity
  8
ALL_ASSEMBLY_MEMBERS
100
AcDbLine
 62
7
  6
CONTINUOUS
 10
5.6621993999
 20
2.4906876646
 11
5.6617507786
 21
2.4905794698
  0
SPLINE
  5
2D2
100
AcDbEntity
  8
ALL_ASSEMBLY_MEMBERS
100
AcDbSpline
 62
7
  6
CONTINUOUS
 70
0
 71
3
 72
19
 73
15
 74
0
 42
0.0000001
 43
0.0000001
 44
0.0000000001
 40
0.0
 40
0.0
 40
0.0
 40
0.0
 40
0.012397214
 40
0.0206086982
 40
0.0306016082
 40
0.0564720064
 40
0.0905932542
 40
0.1330226861
 40
0.1834460802
 40
0.2414200607
 40
0.3064674781
 40
0.455531216
 40
0.6252356148
 40
1.0
 40
1.0
 40
1.0
 40
1.0
 10
5.6658615171
 20
2.4905794698
 30
0.0
 10
5.6658509668
 20
2.4905794698
 30
0.0
 10
5.6658338137
 20
2.4905883426
 30
0.0
 10
5.6658163456
 20
2.4906074621
 30
0.0
 10
5.6657952556
 20
2.4906387245
 30
0.0
 10
5.6657708053
 20
2.4906933141
 30
0.0
 10
5.6657438138
 20
2.4907762629
 30
0.0
 10
5.6657179105
 20
2.4908812497
 30
0.0
 10
5.6656931663
 20
2.4910072287
 30
0.0
 10
5.6656699164
 20
2.4911530195
 30
0.0
 10
5.6656398836
 20
2.491382638
 30
0.0
 10
5.6656089502
 20
2.4917079065
 30
0.0
 10
5.6655721035
 20
2.4922970254
 30
0.0
 10
5.6655620448
 20
2.4927605348
 30
0.0
 10
5.6655620448
 20
2.4930794698
 30
0.0
  0
SPLINE
  5
2D3
100
AcDbEntity
  8
ALL_ASSEMBLY_MEMBERS
100
AcDbSpline
 62
7
  6
CONTINUOUS
 70
0
 71
3
 72
19
 73
15
 74
0
 42
0.0000001
 43
0.0000001
 44
0.0000000001
 40
0.0
 40
0.0
 40
0.0
 40
0.0
 40
0.3748326613
 40
0.5445391489
 40
0.6935721204
 40
0.7586081619
 40
0.8165724167
 40
0.866988681
 40
0.9094144733
 40
0.9435334099
 40
0.9694010057
 40
0.9793926994
 40
0.9876032834
 40
1.0
 40
1.0
 40
1.0
 40
1.0
 10
5.6978624575
 20
2.4930794698
 30
0.0
 10
5.6978624575
 20
2.4927604764
 30
0.0
 10
5.6978725252
 20
2.492296907
 30
0.0
 10
5.6979093687
 20
2.4917077535
 30
0.0
 10
5.6979403103
 20
2.4913825197
 30
0.0
 10
5.6979703402
 20
2.4911529452
 30
0.0
 10
5.6979935891
 20
2.4910071784
 30
0.0
 10
5.6980183322
 20
2.4908812168
 30
0.0
 10
5.6980442326
 20
2.4907762408
 30
0.0
 10
5.6980712203
 20
2.4906932985
 30
0.0
 10
5.6980956695
 20
2.4906387141
 30
0.0
 10
5.6981167589
 20
2.4906074563
 30
0.0
 10
5.6981342273
 20
2.4905883398
 30
0.0
 10
5.6981513799
 20
2.4905794698
 30
0.0
 10
5.6981619298
 20
2.4905794698
 30
0.0
  0
SPLINE
  5
2D4
100
AcDbEntity
  8
ALL_ASSEMBLY_MEMBERS
100
AcDbSpline
 62
7
  6
CONTINUOUS
 70
0
 71
3
 72
12
 73
8
 74
0
 42
0.0000001
 43
0.0000001
 44
0.0000000001
 40
0.0
 40
0.0
 40
0.0
 40
0.0
 40
0.2486820468
 40
0.4982149285
 40
0.6236850449
 40
0.749465529
 40
1.0
 40
1.0
 40
1.0
 40
1.0
 10
5.6993800628
 20
2.4909055252
 30
0.0
 10
5.6995682328
 20
2.4910138895
 30
0.0
 10
5.6999181595
 20
2.4912821708
 30
0.0
 10
5.7002522527
 20
2.4917204132
 30
0.0
 10
5.7004454618
 20
2.4921139872
 30
0.0
 10
5.7005852231
 20
2.4925301811
 30
0.0
 10
5.7006289941
 20
2.4928607101
 30
0.0
 10
5.7006289941
 20
2.4930794698
 30
0.0
  0
SPLINE
  5
2D5
100
AcDbEntity
  8
ALL_ASSEMBLY_MEMBERS
100
AcDbSpline
 62
7
  6
CONTINUOUS
 70
0
 71
3
 72
18
 73
14
 74
0
 42
0.0000001
 43
0.0000001
 44
0.0000000001
 40
0.0
 40
0.0
 40
0.0
 40
0.0
 40
0.1821021281
 40
0.3577847666
 40
0.5200397825
 40
0.6634386402
 40
0.7836227305
 40
0.83409237
 40
0.8780212165
 40
0.9156094884
 40
0.9474778449
 40
0.9749149206
 40
1.0
 40
1.0
 40
1.0
 40
1.0
 10
5.6655620448
 20
2.5105794698
 30
0.0
 10
5.6655620522
 20
2.5107426902
 30
0.0
 10
5.665555198
 20
2.5110634253
 30
0.0
 10
5.6655244826
 20
2.5115286866
 30
0.0
 10
5.6654737546
 20
2.5119573988
 30
0.0
 10
5.6654038552
 20
2.5123328947
 30
0.0
 10
5.6653276176
 20
2.512604666
 30
0.0
 10
5.6652547777
 20
2.5127829115
 30
0.0
 10
5.6651995748
 20
2.5128878119
 30
0.0
 10
5.6651407869
 20
2.512971189
 30
0.0
 10
5.6650782029
 20
2.513032352
 30
0.0
 10
5.6650117339
 20
2.5130705876
 30
0.0
 10
5.6649643187
 20
2.5130794698
 30
0.0
 10
5.6649418346
 20
2.5130794698
 30
0.0
  0
SPLINE
  5
2D6
100
AcDbEntity
  8
ALL_ASSEMBLY_MEMBERS
100
AcDbSpline
 62
7
  6
CONTINUOUS
 70
0
 71
3
 72
15
 73
11
 74
0
 42
0.0000001
 43
0.0000001
 44
0.0000000001
 40
0.0
 40
0.0
 40
0.0
 40
0.0
 40
0.1378772898
 40
0.2725287531
 40
0.4032609807
 40
0.5296946125
 40
0.6519395286
 40
0.7705167664
 40
0.886272872
 40
1.0
 40
1.0
 40
1.0
 40
1.0
 10
5.6634320295
 20
2.4924374942
 30
0.0
 10
5.6634038814
 20
2.4923065201
 30
0.0
 10
5.663330819
 20
2.4920509544
 30
0.0
 10
5.6631701519
 20
2.491692169
 30
0.0
 10
5.6629646607
 20
2.4913699262
 30
0.0
 10
5.6627187175
 20
2.491093119
 30
0.0
 10
5.6624390027
 20
2.4908686513
 30
0.0
 10
5.6621320924
 20
2.4907034276
 30
0.0
 10
5.6618071244
 20
2.4906026932
 30
0.0
 10
5.6615835766
 20
2.4905794698
 30
0.0
 10
5.6614730768
 20
2.4905794698
 30
0.0
  0
LINE
  5
2D7
100
AcDbEntity
  8
ALL_ASSEMBLY_MEMBERS
100
AcDbLine
 62
7
  6
CONTINUOUS
 10
5.527091197
 20
2.490769771
 11
5.5261413773
 21
2.4905794698
  0
SPLINE
  5
2D8
100
AcDbEntity
  8
ALL_ASSEMBLY_MEMBERS
100
AcDbSpline
 62
7
  6
CONTINUOUS
 70
0
 71
3
 72
11
 73
7
 74
0
 42
0.0000001
 43
0.0000001
 44
0.0000000001
 40
0.0
 40
0.0
 40
0.0
 40
0.0
 40
0.23451059
 40
0.4769257879
 40
0.7313269846
 40
1.0
 40
1.0
 40
1.0
 40
1.0
 10
5.5939616355
 20
2.4905794698
 30
0.0
 10
5.5938104902
 20
2.4905794698
 30
0.0
 10
5.5935014832
 20
2.4906261508
 30
0.0
 10
5.5930686104
 20
2.4908266674
 30
0.0
 10
5.59268672
 20
2.491146904
 30
0.0
 10
5.5924834839
 20
2.4914198387
 30
0.0
 10
5.5923947663
 20
2.4915685489
 30
0.0
  0
SPLINE
  5
2D9
100
AcDbEntity
  8
ALL_ASSEMBLY_MEMBERS
100
AcDbSpline
 62
7
  6
CONTINUOUS
 70
0
 71
3
 72
10
 73
6
 74
0
 42
0.0000001
 43
0.0000001
 44
0.0000000001
 40
0.0
 40
0.0
 40
0.0
 40
0.0
 40
0.490153537
 40
0.7443524515
 40
1.0
 40
1.0
 40
1.0
 40
1.0
 10
5.5923947663
 20
2.4915685489
 30
0.0
 10
5.5922626292
 20
2.4917900396
 30
0.0
 10
5.5921121226
 20
2.4921589112
 30
0.0
 10
5.5920122913
 20
2.4926762829
 30
0.0
 10
5.5919948386
 20
2.4929449519
 30
0.0
 10
5.5919948386
 20
2.4930794698
 30
0.0
  0
SPLINE
  5
2DA
100
AcDbEntity
  8
ALL_ASSEMBLY_MEMBERS
100
AcDbSpline
 62
7
  6
CONTINUOUS
 70
0
 71
3
 72
15
 73
11
 74
0
 42
0.0000001
 43
0.0000001
 44
0.0000000001
 40
0.0
 40
0.0
 40
0.0
 40
0.0
 40
0.1388910525
 40
0.2763357366
 40
0.4097943984
 40
0.5380221144
 40
0.6604851133
 40
0.7775050099
 40
0.8902026552
 40
1.0
 40
1.0
 40
1.0
 40
1.0
 10
5.6120788756
 20
2.4930794698
 30
0.0
 10
5.6120788756
 20
2.4929167394
 30
0.0
 10
5.6121042529
 20
2.4925924675
 30
0.0
 10
5.6122146457
 20
2.4921232209
 30
0.0
 10
5.6123958273
 20
2.4916896781
 30
0.0
 10
5.6126396189
 20
2.4913083951
 30
0.0
 10
5.6129383465
 20
2.4909940506
 30
0.0
 10
5.6132811166
 20
2.4907582232
 30
0.0
 10
5.6136553499
 20
2.4906131319
 30
0.0
 10
5.6139170294
 20
2.4905794698
 30
0.0
 10
5.6140456725
 20
2.4905794698
 30
0.0
  0
SPLINE
  5
2DB
100
AcDbEntity
  8
ALL_ASSEMBLY_MEMBERS
100
AcDbSpline
 62
7
  6
CONTINUOUS
 70
0
 71
3
 72
15
 73
11
 74
0
 42
0.0000001
 43
0.0000001
 44
0.0000000001
 40
0.0
 40
0.0
 40
0.0
 40
0.0
 40
0.0911927876
 40
0.1889716665
 40
0.2973329951
 40
0.4180648644
 40
0.5510186753
 40
0.6944651957
 40
0.8456085696
 40
1.0
 40
1.0
 40
1.0
 40
1.0
 10
5.6140456725
 20
2.4905794698
 30
0.0
 10
5.6141416623
 20
2.4905794698
 30
0.0
 10
5.6143417703
 20
2.4906149818
 30
0.0
 10
5.6146214454
 20
2.4907645555
 30
0.0
 10
5.6148741311
 20
2.4910027811
 30
0.0
 10
5.6150932575
 20
2.4913171715
 30
0.0
 10
5.6152718158
 20
2.4916969655
 30
0.0
 10
5.6154046113
 20
2.492128353
 30
0.0
 10
5.6154855465
 20
2.4925950711
 30
0.0
 10
5.6155041485
 20
2.4929169569
 30
0.0
 10
5.6155041485
 20
2.4930794698
 30
0.0
  0
SPLINE
  5
2DC
100
AcDbEntity
  8
ALL_ASSEMBLY_MEMBERS
100
AcDbSpline
 62
7
  6
CONTINUOUS
 70
0
 71
3
 72
14
 73
10
 74
0
 42
0.0000001
 43
0.0000001
 44
0.0000000001
 40
0.0
 40
0.0
 40
0.0
 40
0.0
 40
0.1160657746
 40
0.233272972
 40
0.3527247839
 40
0.4756197492
 40
0.6023916103
 40
0.7328187924
 40
1.0
 40
1.0
 40
1.0
 40
1.0
 10
5.6099435181
 20
2.5130794698
 30
0.0
 10
5.6100844146
 20
2.5130794698
 30
0.0
 10
5.6103686021
 20
2.5130471746
 30
0.0
 10
5.6107757729
 20
2.5129040132
 30
0.0
 10
5.6111486329
 20
2.5126704856
 30
0.0
 10
5.6114726488
 20
2.5123566249
 30
0.0
 10
5.6117370944
 20
2.5119749519
 30
0.0
 10
5.6119990994
 20
2.5113920675
 30
0.0
 10
5.6120788671
 20
2.510903811
 30
0.0
 10
5.6120788756
 20
2.5105794698
 30
0.0
  0
SPLINE
  5
2DD
100
AcDbEntity
  8
ALL_ASSEMBLY_MEMBERS
100
AcDbSpline
 62
7
  6
CONTINUOUS
 70
0
 71
3
 72
15
 73
11
 74
0
 42
0.0000001
 43
0.0000001
 44
0.0000000001
 40
0.0
 40
0.0
 40
0.0
 40
0.0
 40
0.133876607
 40
0.2665489927
 40
0.3963791099
 40
0.5227812098
 40
0.6456126936
 40
0.7653346353
 40
0.88312126
 40
1.0
 40
1.0
 40
1.0
 40
1.0
 10
5.5919948386
 20
2.5105794698
 30
0.0
 10
5.5919948362
 20
2.5107432098
 30
0.0
 10
5.5919673899
 20
2.5110698594
 30
0.0
 10
5.5918461912
 20
2.5115416008
 30
0.0
 10
5.5916479508
 20
2.5119768661
 30
0.0
 10
5.5913796051
 20
2.5123583676
 30
0.0
 10
5.591050788
 20
2.5126719207
 30
0.0
 10
5.59067253
 20
2.5129047746
 30
0.0
 10
5.5902596424
 20
2.513047369
 30
0.0
 10
5.5899716367
 20
2.5130794546
 30
0.0
 10
5.5898286862
 20
2.5130794698
 30
0.0
  0
LINE
  5
2DE
100
AcDbEntity
  8
ALL_ASSEMBLY_MEMBERS
100
AcDbLine
 62
7
  6
CONTINUOUS
 10
5.6638968982
 20
2.5130800601
 11
5.6636440124
 21
2.512117883
  0
SPLINE
  5
2DF
100
AcDbEntity
  8
ALL_ASSEMBLY_MEMBERS
100
AcDbSpline
 62
7
  6
CONTINUOUS
 70
0
 71
3
 72
20
 73
16
 74
0
 42
0.0000001
 43
0.0000001
 44
0.0000000001
 40
0.0
 40
0.0
 40
0.0
 40
0.0
 40
0.1882045655
 40
0.3701109608
 40
0.5379085676
 40
0.6856031256
 40
0.7502417241
 40
0.8080325741
 40
0.8585427596
 40
0.9013942107
 40
0.936374884
 40
0.9637002708
 40
0.974728277
 40
0.9842305339
 40
1.0
 40
1.0
 40
1.0
 40
1.0
 10
5.5260711346
 20
2.4930794698
 30
0.0
 10
5.5260711346
 20
2.4929172269
 30
0.0
 10
5.5260661244
 20
2.4925981505
 30
0.0
 10
5.5260443124
 20
2.4921348683
 30
0.0
 10
5.5260086086
 20
2.4917074776
 30
0.0
 10
5.5259674023
 20
2.4913822171
 30
0.0
 10
5.5259274228
 20
2.4911527722
 30
0.0
 10
5.5258964266
 20
2.4910069006
 30
0.0
 10
5.5258634276
 20
2.4908807931
 30
0.0
 10
5.5258287875
 20
2.4907755882
 30
0.0
 10
5.5257926769
 20
2.490692313
 30
0.0
 10
5.5257598061
 20
2.4906378295
 30
0.0
 10
5.5257320669
 20
2.4906070409
 30
0.0
 10
5.5257077152
 20
2.4905873839
 30
0.0
 10
5.5256858856
 20
2.4905794698
 30
0.0
 10
5.5256722914
 20
2.4905794698
 30
0.0
  0
SPLINE
  5
2E0
100
AcDbEntity
  8
ALL_ASSEMBLY_MEMBERS
100
AcDbSpline
 62
7
  6
CONTINUOUS
 70
0
 71
3
 72
10
 73
6
 74
0
 42
0.0000001
 43
0.0000001
 44
0.0000000001
 40
0.0
 40
0.0
 40
0.0
 40
0.0
 40
0.2533780872
 40
0.5059694662
 40
1.0
 40
1.0
 40
1.0
 40
1.0
 10
5.6155041485
 20
2.5105794698
 30
0.0
 10
5.6155041218
 20
2.5107972509
 30
0.0
 10
5.6154803049
 20
2.5112325866
 30
0.0
 10
5.6153421396
 20
2.512081855
 30
0.0
 10
5.6151346118
 20
2.5126968243
 30
0.0
 10
5.6149520395
 20
2.5130801951
 30
0.0
  0
SPLINE
  5
2E1
100
AcDbEntity
  8
ALL_ASSEMBLY_MEMBERS
100
AcDbSpline
 62
7
  6
CONTINUOUS
 70
0
 71
3
 72
20
 73
16
 74
0
 42
0.0000001
 43
0.0000001
 44
0.0000000001
 40
0.0
 40
0.0
 40
0.0
 40
0.0
 40
0.0159569555
 40
0.0255308838
 40
0.0366156074
 40
0.0640192583
 40
0.0990493324
 40
0.1419252044
 40
0.1924333792
 40
0.2502035257
 40
0.3148096556
 40
0.4624047221
 40
0.6301017493
 40
0.8119205914
 40
1.0
 40
1.0
 40
1.0
 40
1.0
 10
5.4586761693
 20
2.4905794698
 30
0.0
 10
5.4586624026
 20
2.4905794698
 30
0.0
 10
5.4586403167
 20
2.4905873291
 30
0.0
 10
5.4586155778
 20
2.4906069876
 30
0.0
 10
5.4585874701
 20
2.4906377263
 30
0.0
 10
5.4585541282
 20
2.4906921778
 30
0.0
 10
5.4585175153
 20
2.4907754594
 30
0.0
 10
5.4584823874
 20
2.4908806621
 30
0.0
 10
5.458448916
 20
2.4910067547
 30
0.0
 10
5.4584174747
 20
2.4911526041
 30
0.0
 10
5.4583769283
 20
2.4913820039
 30
0.0
 10
5.4583351242
 20
2.491707252
 30
0.0
 10
5.4582989147
 20
2.4921346944
 30
0.0
 10
5.458276793
 20
2.4925980609
 30
0.0
 10
5.4582717016
 20
2.4929172065
 30
0.0
 10
5.4582717016
 20
2.4930794698
 30
0.0
  0
SPLINE
  5
2E2
100
AcDbEntity
  8
ALL_ASSEMBLY_MEMBERS
100
AcDbSpline
 62
7
  6
CONTINUOUS
 70
0
 71
3
 72
11
 73
7
 74
0
 42
0.0000001
 43
0.0000001
 44
0.0000000001
 40
0.0
 40
0.0
 40
0.0
 40
0.0
 40
0.243243192
 40
0.4889848662
 40
0.7404014292
 40
1.0
 40
1.0
 40
1.0
 40
1.0
 10
5.3949628257
 20
2.5130794698
 30
0.0
 10
5.3947898743
 20
2.5130794516
 30
0.0
 10
5.3944404808
 20
2.5130334652
 30
0.0
 10
5.3939491311
 20
2.5128287977
 30
0.0
 10
5.3935171123
 20
2.5124988728
 30
0.0
 10
5.393287335
 20
2.5122124147
 30
0.0
 10
5.3931885112
 20
2.5120565178
 30
0.0
  0
SPLINE
  5
2E3
100
AcDbEntity
  8
ALL_ASSEMBLY_MEMBERS
100
AcDbSpline
 62
7
  6
CONTINUOUS
 70
0
 71
3
 72
9
 73
5
 74
0
 42
0.0000001
 43
0.0000001
 44
0.0000000001
 40
0.0
 40
0.0
 40
0.0
 40
0.0
 40
0.4935380184
 40
1.0
 40
1.0
 40
1.0
 40
1.0
 10
5.3931885112
 20
2.5120565178
 30
0.0
 10
5.393051988
 20
2.5118411493
 30
0.0
 10
5.3928418847
 20
2.5113600746
 30
0.0
 10
5.3927723029
 20
2.5108409367
 30
0.0
 10
5.3927723121
 20
2.5105792647
 30
0.0
  0
SPLINE
  5
2E4
100
AcDbEntity
  8
ALL_ASSEMBLY_MEMBERS
100
AcDbSpline
 62
7
  6
CONTINUOUS
 70
0
 71
3
 72
15
 73
11
 74
0
 42
0.0000001
 43
0.0000001
 44
0.0000000001
 40
0.0
 40
0.0
 40
0.0
 40
0.0
 40
0.1342898447
 40
0.2673173129
 40
0.3974222957
 40
0.5239811703
 40
0.6468018479
 40
0.7663194396
 40
0.8837038958
 40
1.0
 40
1.0
 40
1.0
 40
1.0
 10
5.3723320704
 20
2.510585504
 30
0.0
 10
5.3723322383
 20
2.5107489734
 30
0.0
 10
5.3723601415
 20
2.5110749843
 30
0.0
 10
5.3724816089
 20
2.5115455618
 30
0.0
 10
5.3726791416
 20
2.5119796865
 30
0.0
 10
5.3729460628
 20
2.512360101
 30
0.0
 10
5.3732726448
 20
2.5126727475
 30
0.0
 10
5.3736478924
 20
2.5129050379
 30
0.0
 10
5.3740571711
 20
2.5130473499
 30
0.0
 10
5.3743426174
 20
2.5130794571
 30
0.0
 10
5.3744841834
 20
2.5130794698
 30
0.0
  0
SPLINE
  5
2E5
100
AcDbEntity
  8
ALL_ASSEMBLY_MEMBERS
100
AcDbSpline
 62
7
  6
CONTINUOUS
 70
0
 71
3
 72
15
 73
11
 74
0
 42
0.0000001
 43
0.0000001
 44
0.0000000001
 40
0.0
 40
0.0
 40
0.0
 40
0.0
 40
0.1091247012
 40
0.2212747731
 40
0.3379622123
 40
0.4603481745
 40
0.5887511236
 40
0.7225797839
 40
0.8605218736
 40
1.0
 40
1.0
 40
1.0
 40
1.0
 10
5.3703861882
 20
2.4905794698
 30
0.0
 10
5.3705134835
 20
2.4905794698
 30
0.0
 10
5.3707726054
 20
2.4906131961
 30
0.0
 10
5.3711429934
 20
2.4907584368
 30
0.0
 10
5.3714821177
 20
2.4909944023
 30
0.0
 10
5.3717775832
 20
2.4913088339
 30
0.0
 10
5.3720186313
 20
2.4916901358
 30
0.0
 10
5.3721977902
 20
2.492123573
 30
0.0
 10
5.3723069498
 20
2.4925926553
 30
0.0
 10
5.372332001
 20
2.4929167669
 30
0.0
 10
5.372332001
 20
2.4930794698
 30
0.0
  0
SPLINE
  5
2E6
100
AcDbEntity
  8
ALL_ASSEMBLY_MEMBERS
100
AcDbSpline
 62
7
  6
CONTINUOUS
 70
0
 71
3
 72
15
 73
11
 74
0
 42
0.0000001
 43
0.0000001
 44
0.0000000001
 40
0.0
 40
0.0
 40
0.0
 40
0.0
 40
0.1542236709
 40
0.3051927255
 40
0.4485266857
 40
0.5814389919
 40
0.7021904745
 40
0.8106452044
 40
0.9086013162
 40
1.0
 40
1.0
 40
1.0
 40
1.0
 10
5.3689230877
 20
2.4930794698
 30
0.0
 10
5.3689230877
 20
2.4929169754
 30
0.0
 10
5.3689417121
 20
2.4925951334
 30
0.0
 10
5.3690229085
 20
2.4921284711
 30
0.0
 10
5.369156128
 20
2.4916971121
 30
0.0
 10
5.3693352256
 20
2.4913172732
 30
0.0
 10
5.369555036
 20
2.4910028042
 30
0.0
 10
5.3698085928
 20
2.4907645502
 30
0.0
 10
5.370089194
 20
2.490615025
 30
0.0
 10
5.370289888
 20
2.4905794698
 30
0.0
 10
5.3703861882
 20
2.4905794698
 30
0.0
  0
SPLINE
  5
2E7
100
AcDbEntity
  8
ALL_ASSEMBLY_MEMBERS
100
AcDbSpline
 62
7
  6
CONTINUOUS
 70
0
 71
3
 72
15
 73
11
 74
0
 42
0.0000001
 43
0.0000001
 44
0.0000000001
 40
0.0
 40
0.0
 40
0.0
 40
0.0
 40
0.1403554699
 40
0.2768952951
 40
0.4087914634
 40
0.5355743809
 40
0.6573259351
 40
0.7746220234
 40
0.8884855698
 40
1.0
 40
1.0
 40
1.0
 40
1.0
 10
5.3927057931
 20
2.4924324976
 30
0.0
 10
5.3926786382
 20
2.492301946
 30
0.0
 10
5.3926084505
 20
2.4920474488
 30
0.0
 10
5.3924541901
 20
2.4916896965
 30
0.0
 10
5.3922571096
 20
2.4913684377
 30
0.0
 10
5.3920213674
 20
2.4910923845
 30
0.0
 10
5.3917532618
 20
2.4908684155
 30
0.0
 10
5.3914589671
 20
2.4907033939
 30
0.0
 10
5.3911471644
 20
2.490602702
 30
0.0
 10
5.3909324472
 20
2.4905794698
 30
0.0
 10
5.390826502
 20
2.4905794698
 30
0.0
  0
SPLINE
  5
2E8
100
AcDbEntity
  8
ALL_ASSEMBLY_MEMBERS
100
AcDbSpline
 62
7
  6
CONTINUOUS
 70
0
 71
3
 72
11
 73
7
 74
0
 42
0.0000001
 43
0.0000001
 44
0.0000000001
 40
0.0
 40
0.0
 40
0.0
 40
0.0
 40
0.2368881702
 40
0.480493444
 40
0.7341790035
 40
1.0
 40
1.0
 40
1.0
 40
1.0
 10
5.323066768
 20
2.4905794698
 30
0.0
 10
5.3229123104
 20
2.4905794698
 30
0.0
 10
5.3225974594
 20
2.4906249139
 30
0.0
 10
5.322154792
 20
2.4908210563
 30
0.0
 10
5.3217625687
 20
2.4911351476
 30
0.0
 10
5.3215519242
 20
2.4914045025
 30
0.0
 10
5.3214598409
 20
2.4915513405
 30
0.0
  0
SPLINE
  5
2E9
100
AcDbEntity
  8
ALL_ASSEMBLY_MEMBERS
100
AcDbSpline
 62
7
  6
CONTINUOUS
 70
0
 71
3
 72
10
 73
6
 74
0
 42
0.0000001
 43
0.0000001
 44
0.0000000001
 40
0.0
 40
0.0
 40
0.0
 40
0.0
 40
0.4909190135
 40
0.744863044
 40
1.0
 40
1.0
 40
1.0
 40
1.0
 10
5.3214598409
 20
2.4915513405
 30
0.0
 10
5.3213204825
 20
2.4917735647
 30
0.0
 10
5.3211608122
 20
2.4921461555
 30
0.0
 10
5.3210548461
 20
2.4926707047
 30
0.0
 10
5.3210362883
 20
2.4929431461
 30
0.0
 10
5.3210362883
 20
2.4930794698
 30
0.0
  0
SPLINE
  5
2EA
100
AcDbEntity
  8
ALL_ASSEMBLY_MEMBERS
100
AcDbSpline
 62
7
  6
CONTINUOUS
 70
0
 71
3
 72
20
 73
16
 74
0
 42
0.0000001
 43
0.0000001
 44
0.0000000001
 40
0.0
 40
0.0
 40
0.0
 40
0.0
 40
0.1913777742
 40
0.3762640364
 40
0.546545314
 40
0.6959964208
 40
0.7611623912
 40
0.8191916987
 40
0.8695952769
 40
0.9119113276
 40
0.9457920965
 40
0.9712404875
 40
0.9809226275
 40
0.9887326071
 40
1.0
 40
1.0
 40
1.0
 40
1.0
 10
5.3192159132
 20
2.4930794698
 30
0.0
 10
5.3192159132
 20
2.4929172216
 30
0.0
 10
5.3192125683
 20
2.49259822
 30
0.0
 10
5.3191980325
 20
2.4921350531
 30
0.0
 10
5.3191742425
 20
2.4917078627
 30
0.0
 10
5.3191467793
 20
2.4913826319
 30
0.0
 10
5.3191201021
 20
2.4911530116
 30
0.0
 10
5.31909946
 20
2.4910072697
 30
0.0
 10
5.3190774904
 20
2.4908813453
 30
0.0
 10
5.3190545199
 20
2.490776441
 30
0.0
 10
5.3190305717
 20
2.4906935977
 30
0.0
 10
5.3190089571
 20
2.4906390294
 30
0.0
 10
5.318990135
 20
2.4906076097
 30
0.0
 10
5.3189749917
 20
2.4905888034
 30
0.0
 10
5.318959481
 20
2.4905794698
 30
0.0
 10
5.3189499286
 20
2.4905794698
 30
0.0
  0
SPLINE
  5
2EB
100
AcDbEntity
  8
ALL_ASSEMBLY_MEMBERS
100
AcDbSpline
 62
7
  6
CONTINUOUS
 70
0
 71
3
 72
18
 73
14
 74
0
 42
0.0000001
 43
0.0000001
 44
0.0000000001
 40
0.0
 40
0.0
 40
0.0
 40
0.0
 40
0.1831477582
 40
0.3597253658
 40
0.5227255661
 40
0.6666509293
 40
0.7870407098
 40
0.8374473741
 40
0.8811667952
 40
0.9183523678
 40
0.9495742747
 40
0.9760839247
 40
1.0
 40
1.0
 40
1.0
 40
1.0
 10
5.2868453467
 20
2.510585504
 30
0.0
 10
5.2868453744
 20
2.5107484166
 30
0.0
 10
5.2868521135
 20
2.5110684415
 30
0.0
 10
5.2868820176
 20
2.5115325972
 30
0.0
 10
5.2869311293
 20
2.5119601228
 30
0.0
 10
5.2869984621
 20
2.5123344578
 30
0.0
 10
5.2870715453
 20
2.512605428
 30
0.0
 10
5.2871411523
 20
2.5127833102
 30
0.0
 10
5.2871936937
 20
2.5128878725
 30
0.0
 10
5.2872494896
 20
2.512970981
 30
0.0
 10
5.2873087192
 20
2.5130320212
 30
0.0
 10
5.2873715951
 20
2.5130704081
 30
0.0
 10
5.2874167769
 20
2.5130794634
 30
0.0
 10
5.2874380506
 20
2.5130794698
 30
0.0
  0
SPLINE
  5
2EC
100
AcDbEntity
  8
ALL_ASSEMBLY_MEMBERS
100
AcDbSpline
 62
7
  6
CONTINUOUS
 70
0
 71
3
 72
20
 73
16
 74
0
 42
0.0000001
 43
0.0000001
 44
0.0000000001
 40
0.0
 40
0.0
 40
0.0
 40
0.0
 40
0.0112679819
 40
0.0190789704
 40
0.0287624293
 40
0.0542137002
 40
0.0880965351
 40
0.1304155722
 40
0.1808252204
 40
0.238862758
 40
0.3040381516
 40
0.4535143926
 40
0.6237931538
 40
0.8086414758
 40
1.0
 40
1.0
 40
1.0
 40
1.0
 10
5.2865792604
 20
2.4905794698
 30
0.0
 10
5.2865888133
 20
2.4905794698
 30
0.0
 10
5.2866043245
 20
2.4905888066
 30
0.0
 10
5.2866194674
 20
2.4906076159
 30
0.0
 10
5.2866382901
 20
2.4906390405
 30
0.0
 10
5.2866599056
 20
2.4906936139
 30
0.0
 10
5.2866838571
 20
2.4907764633
 30
0.0
 10
5.28670683
 20
2.4908813766
 30
0.0
 10
5.2867288002
 20
2.4910073157
 30
0.0
 10
5.2867494428
 20
2.4911530776
 30
0.0
 10
5.2867761217
 20
2.4913827341
 30
0.0
 10
5.2868035789
 20
2.4917079924
 30
0.0
 10
5.28682737
 20
2.4921351692
 30
0.0
 10
5.2868419056
 20
2.4925982851
 30
0.0
 10
5.286845245
 20
2.4929172381
 30
0.0
 10
5.286845245
 20
2.4930794698
 30
0.0
  0
SPLINE
  5
2ED
100
AcDbEntity
  8
ALL_ASSEMBLY_MEMBERS
100
AcDbSpline
 62
7
  6
CONTINUOUS
 70
0
 71
3
 72
12
 73
8
 74
0
 42
0.0000001
 43
0.0000001
 44
0.0000000001
 40
0.0
 40
0.0
 40
0.0
 40
0.0
 40
0.2504750916
 40
0.3762180332
 40
0.5016780436
 40
0.7512555353
 40
1.0
 40
1.0
 40
1.0
 40
1.0
 10
5.2841112807
 20
2.4930794698
 30
0.0
 10
5.2841112807
 20
2.4928627975
 30
0.0
 10
5.2841541737
 20
2.4925354553
 30
0.0
 10
5.2842914026
 20
2.4921228355
 30
0.0
 10
5.2844811819
 20
2.4917321572
 30
0.0
 10
5.2848094655
 20
2.491296002
 30
0.0
 10
5.2851538023
 20
2.4910272261
 30
0.0
 10
5.2853391953
 20
2.4909180025
 30
0.0
  0
LINE
  5
2EE
100
AcDbEntity
  8
ALL_ASSEMBLY_MEMBERS
100
AcDbLine
 62
7
  6
CONTINUOUS
 10
5.2859395022
 20
2.4906652373
 11
5.2865792604
 21
2.4905794698
  0
SPLINE
  5
2EF
100
AcDbEntity
  8
ALL_ASSEMBLY_MEMBERS
100
AcDbSpline
 62
7
  6
CONTINUOUS
 70
0
 71
3
 72
17
 73
13
 74
0
 42
0.0000001
 43
0.0000001
 44
0.0000000001
 40
0.0
 40
0.0
 40
0.0
 40
0.0
 40
0.1448394545
 40
0.2872051468
 40
0.4241810545
 40
0.5540293409
 40
0.6757122752
 40
0.7892889767
 40
0.843600491
 40
0.8965986363
 40
0.9486127639
 40
1.0
 40
1.0
 40
1.0
 40
1.0
 10
3.3324861177
 20
5.9677865766
 30
0.0
 10
3.3324861198
 20
5.9664839114
 30
0.0
 10
3.3323064978
 20
5.963897288
 30
0.0
 10
3.3315133383
 20
5.9601528412
 30
0.0
 10
3.3302192835
 20
5.9566916326
 30
0.0
 10
3.3284711105
 20
5.9536461821
 30
0.0
 10
3.3263334496
 20
5.951126881
 30
0.0
 10
3.3242475576
 20
5.9495258183
 30
0.0
 10
3.3224722439
 20
5.948623797
 30
0.0
 10
3.3211176726
 20
5.9481434415
 30
0.0
 10
3.3197373643
 20
5.9478524008
 30
0.0
 10
3.3188061515
 20
5.9477865766
 30
0.0
 10
3.3183439821
 20
5.9477865766
 30
0.0
  0
LINE
  5
2F0
100
AcDbEntity
  8
ALL_ASSEMBLY_MEMBERS
100
AcDbLine
 62
7
  6
CONTINUOUS
 10
3.3202997061
 20
5.9548169677
 11
3.3209386925
 21
5.9566649478
  0
SPLINE
  5
2F1
100
AcDbEntity
  8
ALL_ASSEMBLY_MEMBERS
100
AcDbSpline
 62
7
  6
CONTINUOUS
 70
0
 71
3
 72
14
 73
10
 74
0
 42
0.0000001
 43
0.0000001
 44
0.0000000001
 40
0.0
 40
0.0
 40
0.0
 40
0.0
 40
0.2795366185
 40
0.4111240186
 40
0.5372342982
 40
0.6581404589
 40
0.7745478132
 40
0.8878833448
 40
1.0
 40
1.0
 40
1.0
 40
1.0
 10
3.3209386925
 20
5.9566649478
 30
0.0
 10
3.321247108
 20
5.9574949076
 30
0.0
 10
3.3217427915
 20
5.9587016116
 30
0.0
 10
3.3225146914
 20
5.9602191007
 30
0.0
 10
3.3231285463
 20
5.96125054
 30
0.0
 10
3.3237963039
 20
5.9621900542
 30
0.0
 10
3.3245268121
 20
5.9630294297
 30
0.0
 10
3.3253256552
 20
5.9637638378
 30
0.0
 10
3.3259075952
 20
5.9641814293
 30
0.0
 10
3.3262085507
 20
5.9643699414
 30
0.0
  0
SPLINE
  5
2F2
100
AcDbEntity
  8
ALL_ASSEMBLY_MEMBERS
100
AcDbSpline
 62
7
  6
CONTINUOUS
 70
0
 71
3
 72
17
 73
13
 74
0
 42
0.0000001
 43
0.0000001
 44
0.0000000001
 40
0.0
 40
0.0
 40
0.0
 40
0.0
 40
0.1448395153
 40
0.2872052815
 40
0.4241812672
 40
0.5540296151
 40
0.6757125712
 40
0.7892892396
 40
0.8436007136
 40
0.8965988018
 40
0.9486128549
 40
1.0
 40
1.0
 40
1.0
 40
1.0
 10
3.6890470269
 20
5.9677865766
 30
0.0
 10
3.6890470269
 20
5.9664839113
 30
0.0
 10
3.6888674012
 20
5.9638972879
 30
0.0
 10
3.6880742377
 20
5.9601528414
 30
0.0
 10
3.6867801805
 20
5.9566916331
 30
0.0
 10
3.6850320068
 20
5.9536461828
 30
0.0
 10
3.682894347
 20
5.9511268817
 30
0.0
 10
3.6808084571
 20
5.9495258187
 30
0.0
 10
3.6790331456
 20
5.9486237972
 30
0.0
 10
3.6776785764
 20
5.9481434417
 30
0.0
 10
3.6762982707
 20
5.9478524008
 30
0.0
 10
3.6753670597
 20
5.9477865766
 30
0.0
 10
3.6749048912
 20
5.9477865766
 30
0.0
  0
SPLINE
  5
2F3
100
AcDbEntity
  8
ALL_ASSEMBLY_MEMBERS
100
AcDbSpline
 62
7
  6
CONTINUOUS
 70
0
 71
3
 72
27
 73
23
 74
0
 42
0.0000001
 43
0.0000001
 44
0.0000000001
 40
0.0
 40
0.0
 40
0.0
 40
0.0
 40
0.0088037664
 40
0.0128759934
 40
0.0169282846
 40
0.0256743882
 40
0.0364239463
 40
0.0500330998
 40
0.0669955986
 40
0.0875070714
 40
0.1116049977
 40
0.13915444
 40
0.169910931
 40
0.2395575368
 40
0.3171357642
 40
0.3991186359
 40
0.4825499912
 40
0.5652743642
 40
0.6458930633
 40
0.7236051443
 40
0.8688166337
 40
1.0
 40
1.0
 40
1.0
 40
1.0
 10
3.7273955821
 20
5.9610619826
 30
0.0
 10
3.7274356821
 20
5.9609496045
 30
0.0
 10
3.7274739017
 20
5.9607746186
 30
0.0
 10
3.7274526987
 20
5.9605446443
 30
0.0
 10
3.7273827111
 20
5.9603249754
 30
0.0
 10
3.7271840391
 20
5.9600636136
 30
0.0
 10
3.726805703
 20
5.9598134265
 30
0.0
 10
3.7262828809
 20
5.9596059455
 30
0.0
 10
3.7256087255
 20
5.9594419092
 30
0.0
 10
3.724782136
 20
5.9593214122
 30
0.0
 10
3.7238063826
 20
5.9592474025
 30
0.0
 10
3.7226894853
 20
5.9592207585
 30
0.0
 10
3.7209552197
 20
5.9592514282
 30
0.0
 10
3.7185472974
 20
5.9594190115
 30
0.0
 10
3.7154616527
 20
5.9597857476
 30
0.0
 10
3.7122092793
 20
5.9603087783
 30
0.0
 10
3.708910221
 20
5.9609653545
 30
0.0
 10
3.7056543173
 20
5.9617332117
 30
0.0
 10
3.7025015552
 20
5.9625923216
 30
0.0
 10
3.6985711385
 20
5.9638095637
 30
0.0
 10
3.6940606345
 20
5.9654607532
 30
0.0
 10
3.690639594
 20
5.9669961824
 30
0.0
 10
3.6890470023
 20
5.9677865766
 30
0.0
  0
SPLINE
  5
2F4
100
AcDbEntity
  8
ALL_ASSEMBLY_MEMBERS
100
AcDbSpline
 62
7
  6
CONTINUOUS
 70
0
 71
3
 72
14
 73
10
 74
0
 42
0.0000001
 43
0.0000001
 44
0.0000000001
 40
0.0
 40
0.0
 40
0.0
 40
0.0
 40
0.1120815854
 40
0.2253740665
 40
0.3417506551
 40
0.4626458837
 40
0.5887622884
 40
0.7203733628
 40
1.0
 40
1.0
 40
1.0
 40
1.0
 10
3.3262084627
 20
5.8132033462
 30
0.0
 10
3.3259069644
 20
5.8133922346
 30
0.0
 10
3.3253240245
 20
5.8138106837
 30
0.0
 10
3.324523952
 20
5.8145467357
 30
0.0
 10
3.3237924629
 20
5.8153881069
 30
0.0
 10
3.3231238009
 20
5.8163299086
 30
0.0
 10
3.3225091072
 20
5.8173639513
 30
0.0
 10
3.3217361793
 20
5.818885495
 30
0.0
 10
3.3212400765
 20
5.82009548
 30
0.0
 10
3.3209313494
 20
5.8209276795
 30
0.0
  0
LINE
  5
2F5
100
AcDbEntity
  8
ALL_ASSEMBLY_MEMBERS
100
AcDbLine
 62
7
  6
CONTINUOUS
 10
3.3209313494
 20
5.8209276795
 11
3.3203009547
 21
5.8227516656
  0
LINE
  5
2F6
100
AcDbEntity
  8
ALL_ASSEMBLY_MEMBERS
100
AcDbLine
 62
7
  6
CONTINUOUS
 10
3.3262084886
 20
5.8132033513
 11
3.3324862853
 21
5.8097865766
  0
SPLINE
  5
2F7
100
AcDbEntity
  8
ALL_ASSEMBLY_MEMBERS
100
AcDbSpline
 62
7
  6
CONTINUOUS
 70
0
 71
3
 72
11
 73
7
 74
0
 42
0.0000001
 43
0.0000001
 44
0.0000000001
 40
0.0
 40
0.0
 40
0.0
 40
0.0
 40
0.2573979918
 40
0.5099514784
 40
0.7573746026
 40
1.0
 40
1.0
 40
1.0
 40
1.0
 10
3.3250293632
 20
5.8176639186
 30
0.0
 10
3.3246239054
 20
5.8187278453
 30
0.0
 10
3.3236506876
 20
5.8207759708
 30
0.0
 10
3.3217205893
 20
5.8235332485
 30
0.0
 10
3.3193939964
 20
5.8258749711
 30
0.0
 10
3.3176034416
 20
5.8271220838
 30
0.0
 10
3.3166693221
 20
5.8276505042
 30
0.0
  0
SPLINE
  5
2F8
100
AcDbEntity
  8
ALL_ASSEMBLY_MEMBERS
100
AcDbSpline
 62
7
  6
CONTINUOUS
 70
0
 71
3
 72
9
 73
5
 74
0
 42
0.0000001
 43
0.0000001
 44
0.0000000001
 40
0.0
 40
0.0
 40
0.0
 40
0.0
 40
0.5026996626
 40
1.0
 40
1.0
 40
1.0
 40
1.0
 10
3.3147646183
 20
5.8285754843
 30
0.0
 10
3.3137951682
 20
5.8289721608
 30
0.0
 10
3.3117863493
 20
5.8295776793
 30
0.0
 10
3.309698065
 20
5.8297864789
 30
0.0
 10
3.3086618491
 20
5.829786471
 30
0.0
  0
SPLINE
  5
2F9
100
AcDbEntity
  8
ALL_ASSEMBLY_MEMBERS
100
AcDbSpline
 62
7
  6
CONTINUOUS
 70
0
 71
3
 72
17
 73
13
 74
0
 42
0.0000001
 43
0.0000001
 44
0.0000000001
 40
0.0
 40
0.0
 40
0.0
 40
0.0
 40
0.1448395153
 40
0.2872052815
 40
0.4241812673
 40
0.5540296152
 40
0.6757125713
 40
0.7892892397
 40
0.8436007137
 40
0.8965988019
 40
0.9486128549
 40
1.0
 40
1.0
 40
1.0
 40
1.0
 10
3.3324862485
 20
5.8097865766
 30
0.0
 10
3.3324862485
 20
5.8110892419
 30
0.0
 10
3.3323066228
 20
5.8136758653
 30
0.0
 10
3.3315134593
 20
5.8174203118
 30
0.0
 10
3.3302194021
 20
5.8208815201
 30
0.0
 10
3.3284712285
 20
5.8239269704
 30
0.0
 10
3.3263335686
 20
5.8264462715
 30
0.0
 10
3.3242476787
 20
5.8280473345
 30
0.0
 10
3.3224723672
 20
5.828949356
 30
0.0
 10
3.3211177981
 20
5.8294297115
 30
0.0
 10
3.3197374923
 20
5.8297207523
 30
0.0
 10
3.3188062813
 20
5.8297865766
 30
0.0
 10
3.3183441129
 20
5.8297865766
 30
0.0
  0
SPLINE
  5
2FA
100
AcDbEntity
  8
ALL_ASSEMBLY_MEMBERS
100
AcDbSpline
 62
7
  6
CONTINUOUS
 70
0
 71
3
 72
27
 73
23
 74
0
 42
0.0000001
 43
0.0000001
 44
0.0000000001
 40
0.0
 40
0.0
 40
0.0
 40
0.0
 40
0.1311792582
 40
0.2763880636
 40
0.3541016753
 40
0.4347224048
 40
0.5174484592
 40
0.6008811889
 40
0.6828641392
 40
0.7604418327
 40
0.8300881147
 40
0.8608446836
 40
0.8883945925
 40
0.9124927401
 40
0.9330044773
 40
0.9499670734
 40
0.9635764108
 40
0.9743265321
 40
0.9830739516
 40
0.9871269519
 40
0.9911993752
 40
1.0
 40
1.0
 40
1.0
 40
1.0
 10
3.6890471027
 20
5.8097865766
 30
0.0
 10
3.6906396964
 20
5.8105768242
 30
0.0
 10
3.6940605671
 20
5.8121123409
 30
0.0
 10
3.6985709489
 20
5.8137636157
 30
0.0
 10
3.7025013462
 20
5.8149809004
 30
0.0
 10
3.7056541678
 20
5.8158400107
 30
0.0
 10
3.7089101332
 20
5.816607845
 30
0.0
 10
3.7122092321
 20
5.8172643613
 30
0.0
 10
3.7154616101
 20
5.8177873492
 30
0.0
 10
3.7185472302
 20
5.8181540847
 30
0.0
 10
3.720955129
 20
5.8183216946
 30
0.0
 10
3.7226893891
 20
5.8183524042
 30
0.0
 10
3.7238062929
 20
5.8183258049
 30
0.0
 10
3.7247820574
 20
5.8182518193
 30
0.0
 10
3.7256086511
 20
5.8181313179
 30
0.0
 10
3.7262828061
 20
5.817967255
 30
0.0
 10
3.7268056216
 20
5.8177597344
 30
0.0
 10
3.7271839537
 20
5.8175094792
 30
0.0
 10
3.7273825696
 20
5.817248032
 30
0.0
 10
3.7274525332
 20
5.8170283275
 30
0.0
 10
3.7274737352
 20
5.8167983872
 30
0.0
 10
3.7274355591
 20
5.8166234366
 30
0.0
 10
3.7273954819
 20
5.8165110961
 30
0.0
  0
SPLINE
  5
2FB
100
AcDbEntity
  8
ALL_ASSEMBLY_MEMBERS
100
AcDbSpline
 62
7
  6
CONTINUOUS
 70
0
 71
3
 72
17
 73
13
 74
0
 42
0.0000001
 43
0.0000001
 44
0.0000000001
 40
0.0
 40
0.0
 40
0.0
 40
0.0
 40
0.1448396761
 40
0.2872056495
 40
0.4241818323
 40
0.5540303236
 40
0.6757133275
 40
0.7892899026
 40
0.8436012694
 40
0.8965992102
 40
0.9486130771
 40
1.0
 40
1.0
 40
1.0
 40
1.0
 10
3.6890471576
 20
5.8097865766
 30
0.0
 10
3.6890471526
 20
5.8110892423
 30
0.0
 10
3.6888675179
 20
5.8136758661
 30
0.0
 10
3.6880743447
 20
5.8174203123
 30
0.0
 10
3.6867802813
 20
5.8208815201
 30
0.0
 10
3.6850321058
 20
5.8239269699
 30
0.0
 10
3.6828944486
 20
5.8264462705
 30
0.0
 10
3.6808085638
 20
5.828047334
 30
0.0
 10
3.6790332578
 20
5.8289493559
 30
0.0
 10
3.6776786941
 20
5.8294297114
 30
0.0
 10
3.6762983947
 20
5.8297207523
 30
0.0
 10
3.6753671881
 20
5.8297865766
 30
0.0
 10
3.674905022
 20
5.8297865766
 30
0.0
  0
SPLINE
  5
2FC
100
AcDbEntity
  8
ALL_ASSEMBLY_MEMBERS
100
AcDbSpline
 62
7
  6
CONTINUOUS
 70
0
 71
3
 72
11
 73
7
 74
0
 42
0.0000001
 43
0.0000001
 44
0.0000000001
 40
0.0
 40
0.0
 40
0.0
 40
0.0
 40
0.25739798
 40
0.509951507
 40
0.7573746548
 40
1.0
 40
1.0
 40
1.0
 40
1.0
 10
3.3250294253
 20
5.9599093166
 30
0.0
 10
3.3246239675
 20
5.9588453791
 30
0.0
 10
3.3236507486
 20
5.9567972319
 30
0.0
 10
3.3217206441
 20
5.954039922
 30
0.0
 10
3.3193940413
 20
5.9516981683
 30
0.0
 10
3.3176034769
 20
5.9504510359
 30
0.0
 10
3.3166693519
 20
5.9499226065
 30
0.0
  0
SPLINE
  5
2FD
100
AcDbEntity
  8
ALL_ASSEMBLY_MEMBERS
100
AcDbSpline
 62
7
  6
CONTINUOUS
 70
0
 71
3
 72
9
 73
5
 74
0
 42
0.0000001
 43
0.0000001
 44
0.0000000001
 40
0.0
 40
0.0
 40
0.0
 40
0.0
 40
0.5026882934
 40
1.0
 40
1.0
 40
1.0
 40
1.0
 10
3.3147646383
 20
5.9489976104
 30
0.0
 10
3.313799916
 20
5.948602863
 30
0.0
 10
3.3118012606
 20
5.9479993878
 30
0.0
 10
3.3097235633
 20
5.947788638
 30
0.0
 10
3.3086923538
 20
5.9477866178
 30
0.0
  0
LINE
  5
2FE
100
AcDbEntity
  8
ALL_ASSEMBLY_MEMBERS
100
AcDbLine
 62
7
  6
CONTINUOUS
 10
3.332486153
 20
5.9677865766
 11
3.3262085157
 21
5.9643699482
  0
SPLINE
  5
2FF
100
AcDbEntity
  8
ALL_ASSEMBLY_MEMBERS
100
AcDbSpline
 62
7
  6
CONTINUOUS
 70
0
 71
3
 72
17
 73
13
 74
0
 42
0.0000001
 43
0.0000001
 44
0.0000000001
 40
0.0
 40
0.0
 40
0.0
 40
0.0
 40
0.1448394545
 40
0.2872051468
 40
0.4241810545
 40
0.5540293409
 40
0.6757122752
 40
0.7892889767
 40
0.843600491
 40
0.8965986363
 40
0.9486127639
 40
1.0
 40
1.0
 40
1.0
 40
1.0
 10
7.6548314289
 20
5.8097865766
 30
0.0
 10
7.6548314268
 20
5.8110892418
 30
0.0
 10
7.6550110488
 20
5.8136758651
 30
0.0
 10
7.6558042083
 20
5.8174203119
 30
0.0
 10
7.6570982631
 20
5.8208815205
 30
0.0
 10
7.6588464361
 20
5.8239269711
 30
0.0
 10
7.660984097
 20
5.8264462722
 30
0.0
 10
7.6630699889
 20
5.8280473349
 30
0.0
 10
7.6648453026
 20
5.8289493562
 30
0.0
 10
7.666199874
 20
5.8294297116
 30
0.0
 10
7.6675801822
 20
5.8297207524
 30
0.0
 10
7.6685113951
 20
5.8297865766
 30
0.0
 10
7.6689735645
 20
5.8297865766
 30
0.0
  0
LINE
  5
300
100
AcDbEntity
  8
ALL_ASSEMBLY_MEMBERS
100
AcDbLine
 62
7
  6
CONTINUOUS
 10
7.6670178405
 20
5.8227561854
 11
7.6663788541
 21
5.8209082053
  0
SPLINE
  5
301
100
AcDbEntity
  8
ALL_ASSEMBLY_MEMBERS
100
AcDbSpline
 62
7
  6
CONTINUOUS
 70
0
 71
3
 72
14
 73
10
 74
0
 42
0.0000001
 43
0.0000001
 44
0.0000000001
 40
0.0
 40
0.0
 40
0.0
 40
0.0
 40
0.2795366185
 40
0.4111240186
 40
0.5372342982
 40
0.6581404589
 40
0.7745478132
 40
0.8878833448
 40
1.0
 40
1.0
 40
1.0
 40
1.0
 10
7.6663788541
 20
5.8209082053
 30
0.0
 10
7.6660704385
 20
5.8200782456
 30
0.0
 10
7.6655747551
 20
5.8188715415
 30
0.0
 10
7.6648028551
 20
5.8173540524
 30
0.0
 10
7.6641890003
 20
5.8163226132
 30
0.0
 10
7.6635212427
 20
5.815383099
 30
0.0
 10
7.6627907345
 20
5.8145437235
 30
0.0
 10
7.6619918914
 20
5.8138093153
 30
0.0
 10
7.6614099514
 20
5.8133917239
 30
0.0
 10
7.6611089959
 20
5.8132032118
 30
0.0
  0
SPLINE
  5
302
100
AcDbEntity
  8
ALL_ASSEMBLY_MEMBERS
100
AcDbSpline
 62
7
  6
CONTINUOUS
 70
0
 71
3
 72
17
 73
13
 74
0
 42
0.0000001
 43
0.0000001
 44
0.0000000001
 40
0.0
 40
0.0
 40
0.0
 40
0.0
 40
0.1448395153
 40
0.2872052815
 40
0.4241812672
 40
0.5540296151
 40
0.6757125712
 40
0.7892892396
 40
0.8436007136
 40
0.8965988018
 40
0.9486128549
 40
1.0
 40
1.0
 40
1.0
 40
1.0
 10
7.2982705197
 20
5.8097865766
 30
0.0
 10
7.2982705197
 20
5.8110892419
 30
0.0
 10
7.2984501454
 20
5.8136758653
 30
0.0
 10
7.2992433089
 20
5.8174203118
 30
0.0
 10
7.3005373661
 20
5.8208815201
 30
0.0
 10
7.3022855397
 20
5.8239269704
 30
0.0
 10
7.3044231996
 20
5.8264462715
 30
0.0
 10
7.3065090895
 20
5.8280473345
 30
0.0
 10
7.308284401
 20
5.828949356
 30
0.0
 10
7.3096389701
 20
5.8294297115
 30
0.0
 10
7.3110192759
 20
5.8297207523
 30
0.0
 10
7.3119504869
 20
5.8297865766
 30
0.0
 10
7.3124126553
 20
5.8297865766
 30
0.0
  0
SPLINE
  5
303
100
AcDbEntity
  8
ALL_ASSEMBLY_MEMBERS
100
AcDbSpline
 62
7
  6
CONTINUOUS
 70
0
 71
3
 72
27
 73
23
 74
0
 42
0.0000001
 43
0.0000001
 44
0.0000000001
 40
0.0
 40
0.0
 40
0.0
 40
0.0
 40
0.0088037664
 40
0.0128759934
 40
0.0169282846
 40
0.0256743882
 40
0.0364239463
 40
0.0500330998
 40
0.0669955986
 40
0.0875070714
 40
0.1116049977
 40
0.13915444
 40
0.169910931
 40
0.2395575368
 40
0.3171357642
 40
0.3991186359
 40
0.4825499912
 40
0.5652743642
 40
0.6458930633
 40
0.7236051443
 40
0.8688166337
 40
1.0
 40
1.0
 40
1.0
 40
1.0
 10
7.2599219645
 20
5.8165111706
 30
0.0
 10
7.2598818644
 20
5.8166235487
 30
0.0
 10
7.2598436449
 20
5.8167985346
 30
0.0
 10
7.2598648479
 20
5.8170285089
 30
0.0
 10
7.2599348355
 20
5.8172481778
 30
0.0
 10
7.2601335074
 20
5.8175095396
 30
0.0
 10
7.2605118436
 20
5.8177597267
 30
0.0
 10
7.2610346657
 20
5.8179672077
 30
0.0
 10
7.2617088211
 20
5.818131244
 30
0.0
 10
7.2625354106
 20
5.818251741
 30
0.0
 10
7.263511164
 20
5.8183257507
 30
0.0
 10
7.2646280612
 20
5.8183523947
 30
0.0
 10
7.2663623269
 20
5.8183217249
 30
0.0
 10
7.2687702492
 20
5.8181541417
 30
0.0
 10
7.2718558939
 20
5.8177874056
 30
0.0
 10
7.2751082673
 20
5.8172643749
 30
0.0
 10
7.2784073256
 20
5.8166077987
 30
0.0
 10
7.2816632293
 20
5.8158399415
 30
0.0
 10
7.2848159914
 20
5.8149808315
 30
0.0
 10
7.2887464081
 20
5.8137635894
 30
0.0
 10
7.2932569121
 20
5.8121124
 30
0.0
 10
7.2966779526
 20
5.8105769708
 30
0.0
 10
7.2982705442
 20
5.8097865766
 30
0.0
  0
SPLINE
  5
304
100
AcDbEntity
  8
ALL_ASSEMBLY_MEMBERS
100
AcDbSpline
 62
7
  6
CONTINUOUS
 70
0
 71
3
 72
14
 73
10
 74
0
 42
0.0000001
 43
0.0000001
 44
0.0000000001
 40
0.0
 40
0.0
 40
0.0
 40
0.0
 40
0.1120815854
 40
0.2253740665
 40
0.3417506551
 40
0.4626458837
 40
0.5887622884
 40
0.7203733628
 40
1.0
 40
1.0
 40
1.0
 40
1.0
 10
7.6611090839
 20
5.9643698069
 30
0.0
 10
7.6614105822
 20
5.9641809186
 30
0.0
 10
7.661993522
 20
5.9637624695
 30
0.0
 10
7.6627935946
 20
5.9630264175
 30
0.0
 10
7.6635250837
 20
5.9621850463
 30
0.0
 10
7.6641937457
 20
5.9612432445
 30
0.0
 10
7.6648084394
 20
5.9602092018
 30
0.0
 10
7.6655813673
 20
5.9586876582
 30
0.0
 10
7.6660774701
 20
5.9574776732
 30
0.0
 10
7.6663861972
 20
5.9566454737
 30
0.0
  0
LINE
  5
305
100
AcDbEntity
  8
ALL_ASSEMBLY_MEMBERS
100
AcDbLine
 62
7
  6
CONTINUOUS
 10
7.6663861972
 20
5.9566454737
 11
7.6670165918
 21
5.9548214876
  0
LINE
  5
306
100
AcDbEntity
  8
ALL_ASSEMBLY_MEMBERS
100
AcDbLine
 62
7
  6
CONTINUOUS
 10
7.661109058
 20
5.9643698019
 11
7.6548312613
 21
5.9677865766
  0
SPLINE
  5
307
100
AcDbEntity
  8
ALL_ASSEMBLY_MEMBERS
100
AcDbSpline
 62
7
  6
CONTINUOUS
 70
0
 71
3
 72
11
 73
7
 74
0
 42
0.0000001
 43
0.0000001
 44
0.0000000001
 40
0.0
 40
0.0
 40
0.0
 40
0.0
 40
0.2573979918
 40
0.5099514784
 40
0.7573746026
 40
1.0
 40
1.0
 40
1.0
 40
1.0
 10
7.6622881834
 20
5.9599092346
 30
0.0
 10
7.6626936412
 20
5.9588453079
 30
0.0
 10
7.663666859
 20
5.9567971824
 30
0.0
 10
7.6655969573
 20
5.9540399046
 30
0.0
 10
7.6679235502
 20
5.9516981821
 30
0.0
 10
7.669714105
 20
5.9504510694
 30
0.0
 10
7.6706482245
 20
5.949922649
 30
0.0
  0
SPLINE
  5
308
100
AcDbEntity
  8
ALL_ASSEMBLY_MEMBERS
100
AcDbSpline
 62
7
  6
CONTINUOUS
 70
0
 71
3
 72
9
 73
5
 74
0
 42
0.0000001
 43
0.0000001
 44
0.0000000001
 40
0.0
 40
0.0
 40
0.0
 40
0.0
 40
0.5026996626
 40
1.0
 40
1.0
 40
1.0
 40
1.0
 10
7.6725529283
 20
5.9489976689
 30
0.0
 10
7.6735223784
 20
5.9486009923
 30
0.0
 10
7.6755311973
 20
5.9479954739
 30
0.0
 10
7.6776194816
 20
5.9477866743
 30
0.0
 10
7.6786556974
 20
5.9477866822
 30
0.0
  0
SPLINE
  5
309
100
AcDbEntity
  8
ALL_ASSEMBLY_MEMBERS
100
AcDbSpline
 62
7
  6
CONTINUOUS
 70
0
 71
3
 72
17
 73
13
 74
0
 42
0.0000001
 43
0.0000001
 44
0.0000000001
 40
0.0
 40
0.0
 40
0.0
 40
0.0
 40
0.1448395153
 40
0.2872052815
 40
0.4241812673
 40
0.5540296152
 40
0.6757125713
 40
0.7892892397
 40
0.8436007137
 40
0.8965988019
 40
0.9486128549
 40
1.0
 40
1.0
 40
1.0
 40
1.0
 10
7.6548312981
 20
5.9677865766
 30
0.0
 10
7.6548312981
 20
5.9664839113
 30
0.0
 10
7.6550109237
 20
5.9638972879
 30
0.0
 10
7.6558040873
 20
5.9601528414
 30
0.0
 10
7.6570981445
 20
5.9566916331
 30
0.0
 10
7.6588463181
 20
5.9536461828
 30
0.0
 10
7.660983978
 20
5.9511268817
 30
0.0
 10
7.6630698678
 20
5.9495258187
 30
0.0
 10
7.6648451794
 20
5.9486237972
 30
0.0
 10
7.6661997485
 20
5.9481434417
 30
0.0
 10
7.6675800542
 20
5.9478524008
 30
0.0
 10
7.6685112653
 20
5.9477865766
 30
0.0
 10
7.6689734337
 20
5.9477865766
 30
0.0
  0
SPLINE
  5
30A
100
AcDbEntity
  8
ALL_ASSEMBLY_MEMBERS
100
AcDbSpline
 62
7
  6
CONTINUOUS
 70
0
 71
3
 72
27
 73
23
 74
0
 42
0.0000001
 43
0.0000001
 44
0.0000000001
 40
0.0
 40
0.0
 40
0.0
 40
0.0
 40
0.1311792582
 40
0.2763880636
 40
0.3541016753
 40
0.4347224048
 40
0.5174484592
 40
0.6008811889
 40
0.6828641392
 40
0.7604418327
 40
0.8300881147
 40
0.8608446836
 40
0.8883945925
 40
0.9124927401
 40
0.9330044773
 40
0.9499670734
 40
0.9635764108
 40
0.9743265321
 40
0.9830739516
 40
0.9871269519
 40
0.9911993752
 40
1.0
 40
1.0
 40
1.0
 40
1.0
 10
7.2982704439
 20
5.9677865766
 30
0.0
 10
7.2966778501
 20
5.966996329
 30
0.0
 10
7.2932569795
 20
5.9654608122
 30
0.0
 10
7.2887465977
 20
5.9638095375
 30
0.0
 10
7.2848162004
 20
5.9625922528
 30
0.0
 10
7.2816633787
 20
5.9617331424
 30
0.0
 10
7.2784074134
 20
5.9609653082
 30
0.0
 10
7.2751083145
 20
5.9603087918
 30
0.0
 10
7.2718559365
 20
5.959785804
 30
0.0
 10
7.2687703164
 20
5.9594190685
 30
0.0
 10
7.2663624176
 20
5.9592514586
 30
0.0
 10
7.2646281575
 20
5.959220749
 30
0.0
 10
7.2635112537
 20
5.9592473483
 30
0.0
 10
7.2625354892
 20
5.9593213339
 30
0.0
 10
7.2617088955
 20
5.9594418353
 30
0.0
 10
7.2610347405
 20
5.9596058981
 30
0.0
 10
7.260511925
 20
5.9598134188
 30
0.0
 10
7.2601335929
 20
5.960063674
 30
0.0
 10
7.259934977
 20
5.9603251212
 30
0.0
 10
7.2598650134
 20
5.9605448257
 30
0.0
 10
7.2598438114
 20
5.960774766
 30
0.0
 10
7.2598819875
 20
5.9609497166
 30
0.0
 10
7.2599220647
 20
5.9610620571
 30
0.0
  0
SPLINE
  5
30B
100
AcDbEntity
  8
ALL_ASSEMBLY_MEMBERS
100
AcDbSpline
 62
7
  6
CONTINUOUS
 70
0
 71
3
 72
17
 73
13
 74
0
 42
0.0000001
 43
0.0000001
 44
0.0000000001
 40
0.0
 40
0.0
 40
0.0
 40
0.0
 40
0.1448396761
 40
0.2872056495
 40
0.4241818323
 40
0.5540303236
 40
0.6757133275
 40
0.7892899026
 40
0.8436012694
 40
0.8965992102
 40
0.9486130771
 40
1.0
 40
1.0
 40
1.0
 40
1.0
 10
7.2982703889
 20
5.9677865766
 30
0.0
 10
7.298270394
 20
5.9664839109
 30
0.0
 10
7.2984500286
 20
5.9638972871
 30
0.0
 10
7.2992432019
 20
5.9601528409
 30
0.0
 10
7.3005372653
 20
5.956691633
 30
0.0
 10
7.3022854407
 20
5.9536461833
 30
0.0
 10
7.304423098
 20
5.9511268827
 30
0.0
 10
7.3065089828
 20
5.9495258192
 30
0.0
 10
7.3082842888
 20
5.9486237973
 30
0.0
 10
7.3096388525
 20
5.9481434417
 30
0.0
 10
7.3110191519
 20
5.9478524009
 30
0.0
 10
7.3119503585
 20
5.9477865766
 30
0.0
 10
7.3124125246
 20
5.9477865766
 30
0.0
  0
SPLINE
  5
30C
100
AcDbEntity
  8
ALL_ASSEMBLY_MEMBERS
100
AcDbSpline
 62
7
  6
CONTINUOUS
 70
0
 71
3
 72
11
 73
7
 74
0
 42
0.0000001
 43
0.0000001
 44
0.0000000001
 40
0.0
 40
0.0
 40
0.0
 40
0.0
 40
0.25739798
 40
0.509951507
 40
0.7573746548
 40
1.0
 40
1.0
 40
1.0
 40
1.0
 10
7.6622881213
 20
5.8176638366
 30
0.0
 10
7.662693579
 20
5.818727774
 30
0.0
 10
7.663666798
 20
5.8207759213
 30
0.0
 10
7.6655969025
 20
5.8235332312
 30
0.0
 10
7.6679235053
 20
5.8258749848
 30
0.0
 10
7.6697140697
 20
5.8271221172
 30
0.0
 10
7.6706481947
 20
5.8276505466
 30
0.0
  0
SPLINE
  5
30D
100
AcDbEntity
  8
ALL_ASSEMBLY_MEMBERS
100
AcDbSpline
 62
7
  6
CONTINUOUS
 70
0
 71
3
 72
9
 73
5
 74
0
 42
0.0000001
 43
0.0000001
 44
0.0000000001
 40
0.0
 40
0.0
 40
0.0
 40
0.0
 40
0.5026882934
 40
1.0
 40
1.0
 40
1.0
 40
1.0
 10
7.6725529083
 20
5.8285755428
 30
0.0
 10
7.6735176306
 20
5.8289702902
 30
0.0
 10
7.675516286
 20
5.8295737653
 30
0.0
 10
7.6775939833
 20
5.8297845151
 30
0.0
 10
7.6786251928
 20
5.8297865354
 30
0.0
  0
LINE
  5
30E
100
AcDbEntity
  8
ALL_ASSEMBLY_MEMBERS
100
AcDbLine
 62
7
  6
CONTINUOUS
 10
7.6548313936
 20
5.8097865766
 11
7.6611090309
 21
5.813203205
  0
ENDSEC
  0
SECTION
  2
OBJECTS
  0
DICTIONARY
  5
C
100
AcDbDictionary
280
0
281
1
  3
ACAD_GROUP
350
D
  3
ACAD_MLINESTYLE
350
17
  3
ACAD_LAYOUT
350
1A
  3
ACAD_PLOTSETTINGS
350
19
  3
ACAD_PLOTSTYLENAME
350
E
  0
DICTIONARY
  5
D
102
{ACAD_REACTORS
330
C
102
}
100
AcDbDictionary
280
0
281
1
  0
ACDBDICTIONARYWDFLT
  5
E
102
{ACAD_REACTORS
330
C
102
}
100
AcDbDictionary
281
1
  3
Normal
350
F
100
AcDbDictionaryWithDefault
340
F
  0
DICTIONARY
  5
17
102
{ACAD_REACTORS
330
C
102
}
100
AcDbDictionary
280
0
281
1
  3
Standard
350
18
  0
DICTIONARY
  5
19
102
{ACAD_REACTORS
330
C
102
}
100
AcDbDictionary
281
1
  0
DICTIONARY
  5
1A
102
{ACAD_REACTORS
330
C
102
}
100
AcDbDictionary
281
1
  3
Model
350
30F
  3
Layout1
350
310
  0
ACDBPLACEHOLDER
  5
F
102
{ACAD_REACTORS
330
E
102
}
  0
MLINESTYLE
  5
18
102
{ACAD_REACTORS
330
17
102
}
100
AcDbMlineStyle
  2
STANDARD
 70
0
  3

 62
256
 51
90.0
 52
90.0
 71
2
 49
0.5
 62
256
  6
BYLAYER
 49
-0.5
 62
256
  6
BYLAYER
  0
LAYOUT
  5
30F
102
{ACAD_REACTORS
330
1A
102
}
100
AcDbPlotSettings
  1

  2
none_device
  4
ANSI_A_(11.00_x_8.50_Inches)
  6

 40
0.0
 41
0.0
 42
0.0
 43
0.0
 44
279.4
 45
215.9
 46
0.0
 47
0.0
 48
0.0
 49
0.0
140
0.0
141
0.0
142
1.0
143
1.0
 70
1024
 72
0
 73
0
 74
0
  7

 75
0
147
1.0
148
0.0
149
0.0
100
AcDbLayout
  1
Model
 70
0
 71
0
 10
0.0
 20
0.0
 11
11.0
 21
8.5
 12
0.0
 22
0.0
 32
0.0
 14
0.0
 24
0.0
 34
0.0
 15
0.0
 25
0.0
 35
0.0
146
0.0
 13
0.0
 23
0.0
 33
0.0
 16
1.0
 26
0.0
 36
0.0
 17
0.0
 27
1.0
 37
0.0
 76
0
330
221
345
0
346
0
  0
LAYOUT
  5
310
102
{ACAD_REACTORS
330
1A
102
}
100
AcDbPlotSettings
  1

  2
none_device
  4
ANSI_A_(11.00_x_8.50_Inches)
  6

 40
0.0
 41
0.0
 42
0.0
 43
0.0
 44
279.4
 45
215.9
 46
0.0
 47
0.0
 48
0.0
 49
0.0
140
0.0
141
0.0
142
1.0
143
1.0
 70
0
 72
0
 73
0
 74
0
  7

 75
0
147
1.0
148
0.0
149
0.0
100
AcDbLayout
  1
Layout1
 70
0
 71
1
 10
0.0
 20
0.0
 11
11.0
 21
8.5
 12
0.0
 22
0.0
 32
0.0
 14
0.0
 24
0.0
 34
0.0
 15
0.0
 25
0.0
 35
0.0
146
0.0
 13
0.0
 23
0.0
 33
0.0
 16
1.0
 26
0.0
 36
0.0
 17
0.0
 27
1.0
 37
0.0
 76
0
330
222
345
0
346
0
  0
ENDSEC
  0
EOF
