999
DXF file: 3-2495_RIGHT.dxf
999
Pro/ENGINEER 2018400 by Parametric Technology Corporation
  0
SECTION
  2
HEADER
  9
$ACADVER
  1
AC1027
  9
$DWGCODEPAGE
  3
ANSI_1252
  9
$EXTMAX
 10
11.0
 20
8.5
 30
0.0
  9
$EXTMIN
 10
0.0
 20
0.0
 30
0.0
  9
$LIMMIN
 10
0.0
 20
0.0
  9
$LIMMAX
 10
11.0
 20
8.5
  9
$VIEWCTR
 10
5.5
 20
4.25
  9
$VIEWSIZE
 40
8.5
  9
$CLAYER
  8
0
  9
$LTSCALE
 40
0.605
  9
$CELTYPE
  6
BYLAYER
  9
$DIMSCALE
 40
1.0
  9
$DIMASZ
 40
0.1
  9
$DIMEXO
 40
0.0625
  9
$DIMDLI
 40
0.418
  9
$DIMEXE
 40
0.125
  9
$DIMCEN
 40
0.099
  9
$DIMLFAC
 40
1.0
  9
$DIMBLK
  1
_FILLED
  9
$DIMALT
 70
1
  9
$DIMALTD
 70
2
  9
$DIMALTTD
 70
2
  9
$DIMALTF
 40
25.4
  9
$DIMTXT
 40
0.08
  9
$DIMTOL
 70
1
  9
$DIMLIM
 70
0
  9
$DIMTFAC
 40
1.0
  9
$DIMTP
 40
0.001
  9
$DIMTM
 40
0.001
  9
$DIMGAP
 40
0.09
  9
$DIMDSEP
 70
46
  9
$AUNITS
 70
0
  9
$PDMODE
 70
3
  9
$PDSIZE
 40
0.3125
  9
$HANDSEED
  5
310
  9
$TILEMODE
 70
1
  9
$MEASUREMENT
 70
0
  9
$INSUNITS
 70
1
  0
ENDSEC
  0
SECTION
  2
CLASSES
  0
CLASS
  1
ACDBDICTIONARYWDFLT
  2
AcDbDictionaryWithDefault
  3
AutoCAD 2000
 90
0
 91
1
280
0
281
0
  0
CLASS
  1
ACDBPLACEHOLDER
  2
AcDbPlaceHolder
  3
AutoCAD 2000
 90
0
 91
1
280
0
281
0
  0
CLASS
  1
LAYOUT
  2
AcDbLayout
  3
AutoCAD 2000
 90
0
 91
0
280
0
281
0
  0
ENDSEC
  0
SECTION
  2
TABLES
  0
TABLE
  2
VPORT
  5
8
100
AcDbSymbolTable
 70
2
  0
VPORT
  5
1F4
100
AcDbSymbolTableRecord
100
AcDbViewportTableRecord
  2
*ACTIVE
 70
0
 10
0.0
 20
0.0
 11
1.0
 21
1.0
 12
5.5
 22
4.25
 13
0.0
 23
0.0
 14
1.0
 24
1.0
 15
0.0
 25
0.0
 16
0.0
 26
0.0
 36
1.0
 17
0.0
 27
0.0
 37
0.0
 40
8.5
 41
1.2941176471
 42
50.0
 43
0.0
 44
0.0
 50
0.0
 51
0.0
 71
0
 72
100
 73
1
 74
1
 75
0
 76
0
 77
0
 78
0
  0
ENDTAB
  0
TABLE
  2
LTYPE
  5
5
100
AcDbSymbolTable
 70
6
  0
LTYPE
  5
14
100
AcDbSymbolTableRecord
100
AcDbLinetypeTableRecord
  2
BYBLOCK
 70
0
  3

 72
65
 73
0
 40
0.0
  0
LTYPE
  5
15
100
AcDbSymbolTableRecord
100
AcDbLinetypeTableRecord
  2
BYLAYER
 70
0
  3

 72
65
 73
0
 40
0.0
  0
LTYPE
  5
16
100
AcDbSymbolTableRecord
100
AcDbLinetypeTableRecord
  2
CONTINUOUS
 70
64
  3
Solid line
 72
65
 73
0
 40
0.0
  0
LTYPE
  5
1F5
100
AcDbSymbolTableRecord
100
AcDbLinetypeTableRecord
  2
CENTER
 70
64
  3
____ _ ____ _ ____ _ ____ _ ____ _ ____ _ ____
 72
65
 73
4
 40
0.6
 49
0.375
 74
0
 49
-0.075
 74
0
 49
0.075
 74
0
 49
-0.075
 74
0
  0
LTYPE
  5
1F6
100
AcDbSymbolTableRecord
100
AcDbLinetypeTableRecord
  2
HIDDEN
 70
64
  3
- - - - - - - - - - - - - - - - - - - -
 72
65
 73
2
 40
0.2
 49
0.1
 74
0
 49
-0.1
 74
0
  0
LTYPE
  5
1F7
100
AcDbSymbolTableRecord
100
AcDbLinetypeTableRecord
  2
PHANTOM
 70
64
  3
_____ _ _ _____ _ _ _____ _ _ _____
 72
65
 73
6
 40
0.8
 49
0.45
 74
0
 49
-0.05
 74
0
 49
0.1
 74
0
 49
-0.05
 74
0
 49
0.1
 74
0
 49
-0.05
 74
0
  0
LTYPE
  5
1F8
100
AcDbSymbolTableRecord
100
AcDbLinetypeTableRecord
  2
DOT
 70
64
  3
. . . . . . . . . . . . . . . . . . . .
 72
65
 73
2
 40
0.2
 49
0.1
 74
0
 49
-0.1
 74
0
  0
LTYPE
  5
1F9
100
AcDbSymbolTableRecord
100
AcDbLinetypeTableRecord
  2
DASHED
 70
64
  3
- - - - - - - - - - - - - - - - - - - -
 72
65
 73
2
 40
0.2
 49
0.1
 74
0
 49
-0.1
 74
0
  0
ENDTAB
  0
TABLE
  2
LAYER
  5
2
100
AcDbSymbolTable
 70
36
  0
LAYER
  5
10
100
AcDbSymbolTableRecord
100
AcDbLayerTableRecord
  2
0
 70
0
 62
7
  6
CONTINUOUS
370
-3
390
F
  0
LAYER
  5
1FA
100
AcDbSymbolTableRecord
100
AcDbLayerTableRecord
  2
DEFAULT_1
 70
0
 62
7
  6
CENTER
370
-3
390
F
  0
LAYER
  5
1FB
100
AcDbSymbolTableRecord
100
AcDbLayerTableRecord
  2
DEFAULT_2
 70
0
 62
8
  6
HIDDEN
370
-3
390
F
  0
LAYER
  5
1FC
100
AcDbSymbolTableRecord
100
AcDbLayerTableRecord
  2
DEFAULT_3
 70
0
 62
7
  6
PHANTOM
370
-3
390
F
  0
LAYER
  5
1FD
100
AcDbSymbolTableRecord
100
AcDbLayerTableRecord
  2
01___PRT_ALL_DTM_PLN
 70
0
 62
7
  6
CONTINUOUS
370
-3
390
F
  0
LAYER
  5
1FE
100
AcDbSymbolTableRecord
100
AcDbLayerTableRecord
  2
01___PRT_DEF_DTM_PLN
 70
0
 62
7
  6
CONTINUOUS
370
-3
390
F
  0
LAYER
  5
1FF
100
AcDbSymbolTableRecord
100
AcDbLayerTableRecord
  2
02___PRT_ALL_AXES
 70
0
 62
7
  6
CONTINUOUS
370
-3
390
F
  0
LAYER
  5
200
100
AcDbSymbolTableRecord
100
AcDbLayerTableRecord
  2
03___PRT_ALL_CURVES
 70
0
 62
7
  6
CONTINUOUS
370
-3
390
F
  0
LAYER
  5
201
100
AcDbSymbolTableRecord
100
AcDbLayerTableRecord
  2
04___PRT_ALL_DTM_PNT
 70
0
 62
7
  6
CONTINUOUS
370
-3
390
F
  0
LAYER
  5
202
100
AcDbSymbolTableRecord
100
AcDbLayerTableRecord
  2
05___PRT_ALL_DTM_CSYS
 70
0
 62
7
  6
CONTINUOUS
370
-3
390
F
  0
LAYER
  5
203
100
AcDbSymbolTableRecord
100
AcDbLayerTableRecord
  2
05___PRT_DEF_DTM_CSYS
 70
0
 62
7
  6
CONTINUOUS
370
-3
390
F
  0
LAYER
  5
204
100
AcDbSymbolTableRecord
100
AcDbLayerTableRecord
  2
06___PRT_ALL_SURFS
 70
0
 62
7
  6
CONTINUOUS
370
-3
390
F
  0
LAYER
  5
205
100
AcDbSymbolTableRecord
100
AcDbLayerTableRecord
  2
3-985_ASSY_PLANES
 70
0
 62
7
  6
CONTINUOUS
370
-3
390
F
  0
LAYER
  5
206
100
AcDbSymbolTableRecord
100
AcDbLayerTableRecord
  2
ALL_ASSEMBLY_MEMBERS
 70
0
 62
7
  6
CONTINUOUS
370
-3
390
F
  0
LAYER
  5
207
100
AcDbSymbolTableRecord
100
AcDbLayerTableRecord
  2
ALL_FEATURES
 70
0
 62
7
  6
CONTINUOUS
370
-3
390
F
  0
LAYER
  5
208
100
AcDbSymbolTableRecord
100
AcDbLayerTableRecord
  2
AXES_FEATURES
 70
0
 62
7
  6
CONTINUOUS
370
-3
390
F
  0
LAYER
  5
209
100
AcDbSymbolTableRecord
100
AcDbLayerTableRecord
  2
CHAMFER_FEATURES
 70
0
 62
7
  6
CONTINUOUS
370
-3
390
F
  0
LAYER
  5
20A
100
AcDbSymbolTableRecord
100
AcDbLayerTableRecord
  2
COSMETIC_SKETCHES
 70
0
 62
7
  6
CONTINUOUS
370
-3
390
F
  0
LAYER
  5
20B
100
AcDbSymbolTableRecord
100
AcDbLayerTableRecord
  2
CUT_FEATURES
 70
0
 62
7
  6
CONTINUOUS
370
-3
390
F
  0
LAYER
  5
20C
100
AcDbSymbolTableRecord
100
AcDbLayerTableRecord
  2
DATUM_CURVES
 70
0
 62
7
  6
CONTINUOUS
370
-3
390
F
  0
LAYER
  5
20D
100
AcDbSymbolTableRecord
100
AcDbLayerTableRecord
  2
DATUM_PLANES
 70
0
 62
7
  6
CONTINUOUS
370
-3
390
F
  0
LAYER
  5
20E
100
AcDbSymbolTableRecord
100
AcDbLayerTableRecord
  2
DEFAULT_COORDINATE_SYSTEM
 70
0
 62
7
  6
CONTINUOUS
370
-3
390
F
  0
LAYER
  5
20F
100
AcDbSymbolTableRecord
100
AcDbLayerTableRecord
  2
DEFAULT_DATUM_AXES
 70
0
 62
7
  6
CONTINUOUS
370
-3
390
F
  0
LAYER
  5
210
100
AcDbSymbolTableRecord
100
AcDbLayerTableRecord
  2
DEFAULT_DATUM_CURVES
 70
0
 62
7
  6
CONTINUOUS
370
-3
390
F
  0
LAYER
  5
211
100
AcDbSymbolTableRecord
100
AcDbLayerTableRecord
  2
DEFAULT_DATUM_PLANES
 70
0
 62
7
  6
CONTINUOUS
370
-3
390
F
  0
LAYER
  5
212
100
AcDbSymbolTableRecord
100
AcDbLayerTableRecord
  2
DEFAULT_SURFACES
 70
0
 62
7
  6
CONTINUOUS
370
-3
390
F
  0
LAYER
  5
213
100
AcDbSymbolTableRecord
100
AcDbLayerTableRecord
  2
DIMENSIONS
 70
0
 62
7
  6
CONTINUOUS
370
-3
390
F
  0
LAYER
  5
214
100
AcDbSymbolTableRecord
100
AcDbLayerTableRecord
  2
HOLE_FEATURES
 70
0
 62
7
  6
CONTINUOUS
370
-3
390
F
  0
LAYER
  5
215
100
AcDbSymbolTableRecord
100
AcDbLayerTableRecord
  2
NONE
 70
0
 62
7
  6
CONTINUOUS
370
-3
390
F
  0
LAYER
  5
216
100
AcDbSymbolTableRecord
100
AcDbLayerTableRecord
  2
PART_REFERENCE_DIMENSIONS
 70
0
 62
7
  6
CONTINUOUS
370
-3
390
F
  0
LAYER
  5
217
100
AcDbSymbolTableRecord
100
AcDbLayerTableRecord
  2
PLATED_SURFACE_AREA
 70
0
 62
7
  6
CONTINUOUS
370
-3
390
F
  0
LAYER
  5
218
100
AcDbSymbolTableRecord
100
AcDbLayerTableRecord
  2
PROTRUSION_FEATURES
 70
0
 62
7
  6
CONTINUOUS
370
-3
390
F
  0
LAYER
  5
219
100
AcDbSymbolTableRecord
100
AcDbLayerTableRecord
  2
QUILTS
 70
0
 62
7
  6
CONTINUOUS
370
-3
390
F
  0
LAYER
  5
21A
100
AcDbSymbolTableRecord
100
AcDbLayerTableRecord
  2
REFERENCE_DIMENSIONS
 70
0
 62
7
  6
CONTINUOUS
370
-3
390
F
  0
LAYER
  5
21B
100
AcDbSymbolTableRecord
100
AcDbLayerTableRecord
  2
ROUND_FEATURES
 70
0
 62
7
  6
CONTINUOUS
370
-3
390
F
  0
LAYER
  5
21C
100
AcDbSymbolTableRecord
100
AcDbLayerTableRecord
  2
WETTED_SURFACES
 70
0
 62
7
  6
CONTINUOUS
370
-3
390
F
  0
LAYER
  5
21D
100
AcDbSymbolTableRecord
100
AcDbLayerTableRecord
  2
WETTED_SURFACE_AREA
 70
0
 62
7
  6
CONTINUOUS
370
-3
390
F
  0
LAYER
  5
21E
100
AcDbSymbolTableRecord
100
AcDbLayerTableRecord
  2
XSEC_DATUMS
 70
0
 62
7
  6
CONTINUOUS
370
-3
390
F
  0
ENDTAB
  0
TABLE
  2
STYLE
  5
3
100
AcDbSymbolTable
 70
1
  0
STYLE
  5
11
100
AcDbSymbolTableRecord
100
AcDbTextStyleTableRecord
  2
STANDARD
 70
0
 40
0.0
 41
0.8
 50
0.0
 71
0
 42
0.2
  3
txt
  4

  0
STYLE
  5
21F
100
AcDbSymbolTableRecord
100
AcDbTextStyleTableRecord
  2
TEXTSTYLE_1
 70
0
 40
0.0
 41
0.8
 50
0.0
 71
0
 42
0.2
  3
gdt
  4

  0
ENDTAB
  0
TABLE
  2
VIEW
  5
6
100
AcDbSymbolTable
 70
0
  0
ENDTAB
  0
TABLE
  2
UCS
  5
7
100
AcDbSymbolTable
 70
0
  0
ENDTAB
  0
TABLE
  2
APPID
  5
9
100
AcDbSymbolTable
 70
1
  0
APPID
  5
220
100
AcDbSymbolTableRecord
100
AcDbRegAppTableRecord
  2
ACAD
 70
0
  0
ENDTAB
  0
TABLE
  2
BLOCK_RECORD
  5
1
100
AcDbSymbolTable
 70
0
  0
BLOCK_RECORD
  5
221
100
AcDbSymbolTableRecord
100
AcDbBlockTableRecord
  2
*Model_Space
  0
BLOCK_RECORD
  5
222
100
AcDbSymbolTableRecord
100
AcDbBlockTableRecord
  2
*Paper_Space
  0
BLOCK_RECORD
  5
223
100
AcDbSymbolTableRecord
100
AcDbBlockTableRecord
  2
_FILLED
  0
ENDTAB
  0
TABLE
  2
DIMSTYLE
  5
A
100
AcDbSymbolTable
 70
1
100
AcDbDimStyleTable
 71
0
  0
DIMSTYLE
105
224
100
AcDbSymbolTableRecord
100
AcDbDimStyleTableRecord
  2
STANDARD
 70
0
  3

  4

 40
1.0
 41
0.1
 42
0.0625
 43
0.38
 44
0.125
 45
0.0
 46
0.0
 47
0.001
 48
0.001
140
0.08
141
0.09
142
0.0
143
25.4
144
1.0
145
0.0
146
1.0
147
0.09
 71
1.0
 72
0.0
 73
1
 74
1
 75
0
 76
0
 77
0
 78
4
 79
1
170
1
171
2
172
0
173
0
174
0
175
0
176
0
177
0
178
0
270
2
179
3
271
3
272
3
273
2
274
2
275
0
280
0
281
0
282
0
283
1
284
4
285
0
286
0
287
3
288
0
340
11
278
46
341
223
342
223
343
223
344
223
  0
ENDTAB
  0
ENDSEC
  0
SECTION
  2
BLOCKS
  0
BLOCK
  5
20
100
AcDbEntity
  8
0
100
AcDbBlockBegin
  2
*Model_Space
 70
0
 10
0.0
 20
0.0
 30
0.0
  3
*Model_Space
  1

  0
ENDBLK
  5
21
100
AcDbEntity
  8
0
100
AcDbBlockEnd
  0
BLOCK
  5
1C
100
AcDbEntity
  8
0
100
AcDbBlockBegin
  2
*Paper_Space
 70
0
 10
0.0
 20
0.0
 30
0.0
  3
*Paper_Space
  1

  0
ENDBLK
  5
1D
100
AcDbEntity
  8
0
100
AcDbBlockEnd
  0
BLOCK
  5
225
100
AcDbEntity
  8
0
100
AcDbBlockBegin
  2
_FILLED
 70
64
 10
0.0
 20
0.0
  3
_FILLED
  1

  0
SOLID
  5
226
100
AcDbEntity
  8
0
  6
BYBLOCK
 62
0
100
AcDbTrace
 10
0.0
 20
0.0
 11
-1.0
 21
0.2
 12
-1.0
 22
-0.2
 13
-1.0
 23
-0.2
  0
ENDBLK
  5
227
100
AcDbEntity
  8
0
  6
BYBLOCK
 62
0
100
AcDbBlockEnd
  0
ENDSEC
  0
SECTION
  2
ENTITIES
  0
MTEXT
  5
228
100
AcDbEntity
  8
0
100
AcDbMText
 62
2
  6
CONTINUOUS
  7
STANDARD
 71
3
 72
1
 10
3.8960129972
 20
2.0790785021
 30
0.0
 11
1.0
 21
0.0
 31
0.0
 73
2
 44
0.9
  1
SCALE  .500
 40
0.08
 41
0.704
  0
LINE
  5
229
100
AcDbEntity
  8
0
100
AcDbLine
 62
7
  6
CONTINUOUS
 10
0.0
 20
0.0
 11
0.0
 21
8.5
  0
LINE
  5
22A
100
AcDbEntity
  8
0
100
AcDbLine
 62
7
  6
CONTINUOUS
 10
0.0
 20
0.0
 11
11.0
 21
0.0
  0
LINE
  5
22B
100
AcDbEntity
  8
0
100
AcDbLine
 62
7
  6
CONTINUOUS
 10
0.0
 20
8.5
 11
11.0
 21
8.5
  0
LINE
  5
22C
100
AcDbEntity
  8
0
100
AcDbLine
 62
7
  6
CONTINUOUS
 10
11.0
 20
0.0
 11
11.0
 21
8.5
  0
LWPOLYLINE
  5
22D
100
AcDbEntity
  8
ALL_ASSEMBLY_MEMBERS
100
AcDbPolyline
 62
7
  6
CONTINUOUS
 90
6
 70
0
 10
3.2836552185
 20
2.5130794698
 10
3.2836649568
 20
2.5130680496
 10
3.283733694
 20
2.5129728542
 10
3.2838123865
 20
2.512844507
 10
3.2838974464
 20
2.5126806007
 10
3.2839840889
 20
2.5124817073
  0
LWPOLYLINE
  5
22E
100
AcDbEntity
  8
ALL_ASSEMBLY_MEMBERS
100
AcDbPolyline
 62
7
  6
CONTINUOUS
 90
8
 70
0
 10
3.2839840889
 20
2.5124817073
 10
3.2840675333
 20
2.5122504341
 10
3.2841441648
 20
2.511988037
 10
3.2842101848
 20
2.5116980621
 10
3.2842619408
 20
2.5113881464
 10
3.2842973722
 20
2.5110631579
 10
3.2843149552
 20
2.5107278551
 10
3.2843167665
 20
2.5105794716
  0
LINE
  5
22F
100
AcDbEntity
  8
ALL_ASSEMBLY_MEMBERS
100
AcDbLine
 62
7
  6
CONTINUOUS
 10
3.2061587741
 20
3.1380794721
 11
3.7061587764
 21
2.6380794698
  0
LINE
  5
230
100
AcDbEntity
  8
ALL_ASSEMBLY_MEMBERS
100
AcDbLine
 62
7
  6
CONTINUOUS
 10
3.7061587794
 20
2.6387865735
 11
3.2061587733
 21
3.1387865797
  0
LINE
  5
231
100
AcDbEntity
  8
ALL_ASSEMBLY_MEMBERS
100
AcDbLine
 62
7
  6
CONTINUOUS
 10
3.2061587764
 20
3.1380794721
 11
3.2061587764
 21
2.5130794698
  0
LINE
  5
232
100
AcDbEntity
  8
ALL_ASSEMBLY_MEMBERS
100
AcDbLine
 62
7
  6
CONTINUOUS
 10
3.2451587764
 20
2.5130794698
 11
3.2451587764
 21
2.4930794698
  0
LINE
  5
233
100
AcDbEntity
  8
ALL_ASSEMBLY_MEMBERS
100
AcDbLine
 62
7
  6
CONTINUOUS
 10
3.2478612837
 20
2.5105794698
 11
3.2478612837
 21
2.4930794698
  0
LINE
  5
234
100
AcDbEntity
  8
ALL_ASSEMBLY_MEMBERS
100
AcDbLine
 62
7
  6
CONTINUOUS
 10
3.2505952481
 20
2.5105794698
 11
3.2505952481
 21
2.4930794698
  0
LINE
  5
235
100
AcDbEntity
  8
ALL_ASSEMBLY_MEMBERS
100
AcDbLine
 62
7
  6
CONTINUOUS
 10
3.2829659163
 20
2.5105794698
 11
3.2829659163
 21
2.4930794698
  0
LINE
  5
236
100
AcDbEntity
  8
ALL_ASSEMBLY_MEMBERS
100
AcDbLine
 62
7
  6
CONTINUOUS
 10
3.2843167711
 20
2.5105794716
 11
3.2843167711
 21
2.4930794698
  0
LINE
  5
237
100
AcDbEntity
  8
ALL_ASSEMBLY_MEMBERS
100
AcDbLine
 62
7
  6
CONTINUOUS
 10
3.2847862914
 20
2.5105794698
 11
3.2847862914
 21
2.4930794698
  0
LINE
  5
238
100
AcDbEntity
  8
ALL_ASSEMBLY_MEMBERS
100
AcDbLine
 62
7
  6
CONTINUOUS
 10
3.3326730908
 20
2.5105794698
 11
3.3326730908
 21
2.4930794698
  0
LINE
  5
239
100
AcDbEntity
  8
ALL_ASSEMBLY_MEMBERS
100
AcDbLine
 62
7
  6
CONTINUOUS
 10
3.336082004
 20
2.5105794698
 11
3.336082004
 21
2.4930794698
  0
LINE
  5
23A
100
AcDbEntity
  8
ALL_ASSEMBLY_MEMBERS
100
AcDbLine
 62
7
  6
CONTINUOUS
 10
3.3565223178
 20
2.5105794698
 11
3.3565223178
 21
2.4930794698
  0
LINE
  5
23B
100
AcDbEntity
  8
ALL_ASSEMBLY_MEMBERS
100
AcDbLine
 62
7
  6
CONTINUOUS
 10
3.357076505
 20
2.5105794676
 11
3.357076505
 21
2.4930794698
  0
LINE
  5
23C
100
AcDbEntity
  8
ALL_ASSEMBLY_MEMBERS
100
AcDbLine
 62
7
  6
CONTINUOUS
 10
3.4199261723
 20
2.5105794702
 11
3.4199261723
 21
2.4930794698
  0
LINE
  5
23D
100
AcDbEntity
  8
ALL_ASSEMBLY_MEMBERS
100
AcDbLine
 62
7
  6
CONTINUOUS
 10
3.4220217047
 20
2.5105794698
 11
3.4220217047
 21
2.4930794698
  0
LINE
  5
23E
100
AcDbEntity
  8
ALL_ASSEMBLY_MEMBERS
100
AcDbLine
 62
7
  6
CONTINUOUS
 10
3.4898211376
 20
2.5105794698
 11
3.4898211376
 21
2.4930794698
  0
LINE
  5
23F
100
AcDbEntity
  8
ALL_ASSEMBLY_MEMBERS
100
AcDbLine
 62
7
  6
CONTINUOUS
 10
3.4919222945
 20
2.5105794701
 11
3.4919222945
 21
2.4930794698
  0
LINE
  5
240
100
AcDbEntity
  8
ALL_ASSEMBLY_MEMBERS
100
AcDbLine
 62
7
  6
CONTINUOUS
 10
3.4923733788
 20
2.5105794698
 11
3.4923733788
 21
2.4930794698
  0
LINE
  5
241
100
AcDbEntity
  8
ALL_ASSEMBLY_MEMBERS
100
AcDbLine
 62
7
  6
CONTINUOUS
 10
3.4923913804
 20
2.5105794702
 11
3.4923913804
 21
2.4930794698
  0
LWPOLYLINE
  5
242
100
AcDbEntity
  8
ALL_ASSEMBLY_MEMBERS
100
AcDbPolyline
 62
7
  6
CONTINUOUS
 90
13
 70
0
 10
3.3571059022
 20
2.5105794676
 10
3.3571061955
 20
2.510625571
 10
3.3571255482
 20
2.5109553077
 10
3.3571744764
 20
2.5112771131
 10
3.3572515434
 20
2.5115855426
 10
3.3573532136
 20
2.511871934
 10
3.3574764173
 20
2.5121333148
 10
3.3576205944
 20
2.5123706002
 10
3.3577787898
 20
2.5125747877
 10
3.3579481085
 20
2.5127456872
 10
3.3581348587
 20
2.5128882022
 10
3.3583373333
 20
2.5129960231
 10
3.3585474539
 20
2.5130607389
  0
LWPOLYLINE
  5
243
100
AcDbEntity
  8
ALL_ASSEMBLY_MEMBERS
100
AcDbPolyline
 62
7
  6
CONTINUOUS
 90
12
 70
0
 10
3.3570764922
 20
2.5105794676
 10
3.3570899611
 20
2.5108907812
 10
3.3571341288
 20
2.5112196663
 10
3.3572077006
 20
2.5115357994
 10
3.3573071579
 20
2.511829984
 10
3.3574293618
 20
2.5120990559
 10
3.3575737094
 20
2.512343913
 10
3.3577330327
 20
2.5125548888
 10
3.3579043675
 20
2.5127318213
 10
3.3580943506
 20
2.5128799349
 10
3.3583012332
 20
2.5129923073
 10
3.3585164506
 20
2.513059884
  0
LWPOLYLINE
  5
244
100
AcDbEntity
  8
ALL_ASSEMBLY_MEMBERS
100
AcDbPolyline
 62
7
  6
CONTINUOUS
 90
14
 70
0
 10
3.5535773873
 20
2.5130794674
 10
3.5537694517
 20
2.5130608658
 10
3.5539789188
 20
2.5129965694
 10
3.5541807566
 20
2.5128894545
 10
3.5543669711
 20
2.5127478719
 10
3.5545358945
 20
2.5125780583
 10
3.5546938233
 20
2.5123751503
 10
3.5548380087
 20
2.5121391287
 10
3.5549613914
 20
2.5118790677
 10
3.5550632134
 20
2.5115947608
 10
3.5551402896
 20
2.5112908825
 10
3.5551899392
 20
2.5109744635
 10
3.5552110307
 20
2.5106464421
 10
3.5552116505
 20
2.5105794676
  0
LINE
  5
245
100
AcDbEntity
  8
ALL_ASSEMBLY_MEMBERS
100
AcDbLine
 62
7
  6
CONTINUOUS
 10
3.5552116385
 20
2.5105794676
 11
3.5552116385
 21
2.4930794698
  0
LINE
  5
246
100
AcDbEntity
  8
ALL_ASSEMBLY_MEMBERS
100
AcDbLine
 62
7
  6
CONTINUOUS
 10
3.5557448417
 20
2.5105794698
 11
3.5557448417
 21
2.4930794698
  0
LINE
  5
247
100
AcDbEntity
  8
ALL_ASSEMBLY_MEMBERS
100
AcDbLine
 62
7
  6
CONTINUOUS
 10
3.5758288787
 20
2.5105794698
 11
3.5758288787
 21
2.4930794698
  0
LINE
  5
248
100
AcDbEntity
  8
ALL_ASSEMBLY_MEMBERS
100
AcDbLine
 62
7
  6
CONTINUOUS
 10
3.5792541516
 20
2.5105794698
 11
3.5792541516
 21
2.4930794698
  0
LINE
  5
249
100
AcDbEntity
  8
ALL_ASSEMBLY_MEMBERS
100
AcDbLine
 62
7
  6
CONTINUOUS
 10
3.6272502298
 20
2.5105794698
 11
3.6272502298
 21
2.4930794698
  0
LINE
  5
24A
100
AcDbEntity
  8
ALL_ASSEMBLY_MEMBERS
100
AcDbLine
 62
7
  6
CONTINUOUS
 10
3.6277230799
 20
2.5105794716
 11
3.6277230799
 21
2.4930794698
  0
LINE
  5
24B
100
AcDbEntity
  8
ALL_ASSEMBLY_MEMBERS
100
AcDbLine
 62
7
  6
CONTINUOUS
 10
3.6293120478
 20
2.5105794698
 11
3.6293120478
 21
2.4930794698
  0
LINE
  5
24C
100
AcDbEntity
  8
ALL_ASSEMBLY_MEMBERS
100
AcDbLine
 62
7
  6
CONTINUOUS
 10
3.6616124605
 20
2.5105794698
 11
3.6616124605
 21
2.4930794698
  0
LINE
  5
24D
100
AcDbEntity
  8
ALL_ASSEMBLY_MEMBERS
100
AcDbLine
 62
7
  6
CONTINUOUS
 10
3.6643789971
 20
2.5105794698
 11
3.6643789971
 21
2.4930794698
  0
LINE
  5
24E
100
AcDbEntity
  8
ALL_ASSEMBLY_MEMBERS
100
AcDbLine
 62
7
  6
CONTINUOUS
 10
3.6671587764
 20
2.5130794698
 11
3.6671587764
 21
2.4930794698
  0
LINE
  5
24F
100
AcDbEntity
  8
ALL_ASSEMBLY_MEMBERS
100
AcDbLine
 62
7
  6
CONTINUOUS
 10
3.7061587764
 20
2.6380794698
 11
3.7061587764
 21
2.5130794698
  0
LWPOLYLINE
  5
250
100
AcDbEntity
  8
ALL_ASSEMBLY_MEMBERS
100
AcDbPolyline
 62
7
  6
CONTINUOUS
 90
12
 70
0
 10
3.6277230812
 20
2.5105794716
 10
3.6277234153
 20
2.5106432064
 10
3.6277397283
 20
2.5110266369
 10
3.6277799086
 20
2.5114003657
 10
3.627841172
 20
2.5117517375
 10
3.6279199625
 20
2.5120739651
 10
3.6280120651
 20
2.5123617871
 10
3.6281106561
 20
2.5126067781
 10
3.6282087879
 20
2.512805422
 10
3.6283012263
 20
2.5129597562
 10
3.6283810314
 20
2.5130700672
 10
3.6283891815
 20
2.5130794698
  0
LWPOLYLINE
  5
251
100
AcDbEntity
  8
ALL_ASSEMBLY_MEMBERS
100
AcDbPolyline
 62
7
  6
CONTINUOUS
 90
3
 70
0
 10
3.492391365
 20
2.5105794702
 10
3.492394259
 20
2.5107008116
 10
3.4924310824
 20
2.5110286014
  0
LWPOLYLINE
  5
252
100
AcDbEntity
  8
ALL_ASSEMBLY_MEMBERS
100
AcDbPolyline
 62
7
  6
CONTINUOUS
 90
6
 70
0
 10
3.4919222962
 20
2.5105794701
 10
3.4919299185
 20
2.5107764505
 10
3.4919760351
 20
2.5111009117
 10
3.4920632313
 20
2.5114160209
 10
3.4921902619
 20
2.5117176371
 10
3.4922558739
 20
2.5118405036
  0
LINE
  5
253
100
AcDbEntity
  8
ALL_ASSEMBLY_MEMBERS
100
AcDbLine
 62
7
  6
CONTINUOUS
 10
7.4711587764
 20
2.4512865766
 11
7.5811587764
 21
2.4512865766
  0
LINE
  5
254
100
AcDbEntity
  8
ALL_ASSEMBLY_MEMBERS
100
AcDbLine
 62
7
  6
CONTINUOUS
 10
3.6646578828
 20
2.4905794698
 11
3.6296164094
 21
2.4905794698
  0
LINE
  5
255
100
AcDbEntity
  8
ALL_ASSEMBLY_MEMBERS
100
AcDbLine
 62
7
  6
CONTINUOUS
 10
3.6254999666
 20
2.4905794698
 11
3.5577200966
 21
2.4905794698
  0
LINE
  5
256
100
AcDbEntity
  8
ALL_ASSEMBLY_MEMBERS
100
AcDbLine
 62
7
  6
CONTINUOUS
 10
3.4898915702
 20
2.4905794698
 11
3.4224252342
 21
2.4905794698
  0
LINE
  5
257
100
AcDbEntity
  8
ALL_ASSEMBLY_MEMBERS
100
AcDbLine
 62
7
  6
CONTINUOUS
 10
3.3545747735
 20
2.4905794698
 11
3.2868169384
 21
2.4905794698
  0
LINE
  5
258
100
AcDbEntity
  8
ALL_ASSEMBLY_MEMBERS
100
AcDbLine
 62
7
  6
CONTINUOUS
 10
3.2827015759
 20
2.4905794698
 11
3.2476608619
 21
2.4905794698
  0
LINE
  5
259
100
AcDbEntity
  8
ALL_ASSEMBLY_MEMBERS
100
AcDbLine
 62
7
  6
CONTINUOUS
 10
3.2451587764
 20
2.4930794698
 11
3.357076505
 21
2.4930794698
  0
LINE
  5
25A
100
AcDbEntity
  8
ALL_ASSEMBLY_MEMBERS
100
AcDbLine
 62
7
  6
CONTINUOUS
 10
3.4199261724
 20
2.4930794698
 11
3.4923913804
 21
2.4930794698
  0
LINE
  5
25B
100
AcDbEntity
  8
ALL_ASSEMBLY_MEMBERS
100
AcDbLine
 62
7
  6
CONTINUOUS
 10
3.5552116385
 20
2.4930794698
 11
3.6671587764
 21
2.4930794698
  0
LINE
  5
25C
100
AcDbEntity
  8
ALL_ASSEMBLY_MEMBERS
100
AcDbLine
 62
7
  6
CONTINUOUS
 10
3.4199261723
 20
2.5105794702
 11
3.4220217047
 21
2.5105794698
  0
LINE
  5
25D
100
AcDbEntity
  8
ALL_ASSEMBLY_MEMBERS
100
AcDbLine
 62
7
  6
CONTINUOUS
 10
3.2478612837
 20
2.5105794698
 11
3.2847862914
 21
2.5105794698
  0
LINE
  5
25E
100
AcDbEntity
  8
ALL_ASSEMBLY_MEMBERS
100
AcDbLine
 62
7
  6
CONTINUOUS
 10
3.3326730908
 20
2.5105794698
 11
3.357076505
 21
2.5105794676
  0
LINE
  5
25F
100
AcDbEntity
  8
ALL_ASSEMBLY_MEMBERS
100
AcDbLine
 62
7
  6
CONTINUOUS
 10
3.4898211376
 20
2.5105794698
 11
3.4923733788
 21
2.5105794698
  0
LINE
  5
260
100
AcDbEntity
  8
ALL_ASSEMBLY_MEMBERS
100
AcDbLine
 62
7
  6
CONTINUOUS
 10
3.6272502298
 20
2.5105794698
 11
3.6643789971
 21
2.5105794698
  0
LINE
  5
261
100
AcDbEntity
  8
ALL_ASSEMBLY_MEMBERS
100
AcDbLine
 62
7
  6
CONTINUOUS
 10
3.5552116386
 20
2.5105794676
 11
3.5792541516
 21
2.5105794698
  0
LINE
  5
262
100
AcDbEntity
  8
ALL_ASSEMBLY_MEMBERS
100
AcDbLine
 62
7
  6
CONTINUOUS
 10
3.49237338
 20
2.5105794698
 11
3.4923913804
 21
2.5105794702
  0
LINE
  5
263
100
AcDbEntity
  8
ALL_ASSEMBLY_MEMBERS
100
AcDbLine
 62
7
  6
CONTINUOUS
 10
3.7061587764
 20
2.5130794698
 11
3.2061587764
 21
2.5130794698
  0
LINE
  5
264
100
AcDbEntity
  8
ALL_ASSEMBLY_MEMBERS
100
AcDbLine
 62
7
  6
CONTINUOUS
 10
7.5811587764
 20
2.6137865766
 11
7.7811587764
 21
2.6137865766
  0
LINE
  5
265
100
AcDbEntity
  8
ALL_ASSEMBLY_MEMBERS
100
AcDbLine
 62
7
  6
CONTINUOUS
 10
3.3585164506
 20
2.513059884
 11
3.3587401655
 21
2.5130794674
  0
LINE
  5
266
100
AcDbEntity
  8
ALL_ASSEMBLY_MEMBERS
100
AcDbLine
 62
7
  6
CONTINUOUS
 10
7.4561587764
 20
2.6387865766
 11
3.7061587764
 21
2.6387865766
  0
LWPOLYLINE
  5
267
100
AcDbEntity
  8
ALL_ASSEMBLY_MEMBERS
100
AcDbPolyline
 62
7
  6
CONTINUOUS
 90
3
 70
0
 10
3.4924310824
 20
2.5110286014
 10
3.4925098389
 20
2.5113490776
 10
3.4926294024
 20
2.511656405
  0
LINE
  5
268
100
AcDbEntity
  8
ALL_ASSEMBLY_MEMBERS
100
AcDbLine
 62
7
  6
CONTINUOUS
 10
7.4561587764
 20
3.1387865766
 11
3.2061587764
 21
3.1387865766
  0
LINE
  5
269
100
AcDbEntity
  8
ALL_ASSEMBLY_MEMBERS
100
AcDbLine
 62
7
  6
CONTINUOUS
 10
7.7811587764
 20
3.1637865766
 11
7.5811587764
 21
3.1637865766
  0
LWPOLYLINE
  5
26A
100
AcDbEntity
  8
ALL_ASSEMBLY_MEMBERS
100
AcDbPolyline
 62
7
  6
CONTINUOUS
 90
7
 70
0
 10
5.9535883069
 20
5.9504475304
 10
5.9519204412
 20
5.9495901643
 10
5.9502138759
 20
5.9489047184
 10
5.9485094409
 20
5.9483934285
 10
5.9468329066
 20
5.9480463842
 10
5.9451923234
 20
5.947848597
 10
5.9436208009
 20
5.9477867596
  0
LINE
  5
26B
100
AcDbEntity
  8
ALL_ASSEMBLY_MEMBERS
100
AcDbLine
 62
7
  6
CONTINUOUS
 10
7.4711587764
 20
3.3262865766
 11
7.5811587764
 21
3.3262865766
  0
LINE
  5
26C
100
AcDbEntity
  8
ALL_ASSEMBLY_MEMBERS
100
AcDbLine
 62
7
  6
CONTINUOUS
 10
3.4926294024
 20
2.511656405
 11
3.4927249205
 21
2.5118413536
  0
LWPOLYLINE
  5
26D
100
AcDbEntity
  8
ALL_ASSEMBLY_MEMBERS
100
AcDbPolyline
 62
7
  6
CONTINUOUS
 90
3
 70
0
 10
3.4927248811
 20
2.5118413616
 10
3.4927651037
 20
2.5119094794
 10
3.4929427279
 20
2.5121629932
  0
LWPOLYLINE
  5
26E
100
AcDbEntity
  8
ALL_ASSEMBLY_MEMBERS
100
AcDbPolyline
 62
7
  6
CONTINUOUS
 90
10
 70
0
 10
3.4922558924
 20
2.5118404646
 10
3.4923603957
 20
2.5120081076
 10
3.4925602337
 20
2.5122643316
 10
3.4927916482
 20
2.5124922103
 10
3.493050861
 20
2.5126875259
 10
3.4933335569
 20
2.5128463804
 10
3.493634756
 20
2.5129659878
 10
3.4939496754
 20
2.5130437775
 10
3.4942732516
 20
2.513077908
 10
3.4943591209
 20
2.513079477
  0
LWPOLYLINE
  5
26F
100
AcDbEntity
  8
ALL_ASSEMBLY_MEMBERS
100
AcDbPolyline
 62
7
  6
CONTINUOUS
 90
8
 70
0
 10
5.9623155901
 20
5.9606802741
 10
5.961531695
 20
5.9588874429
 10
5.9605665932
 20
5.9571642042
 10
5.9594297144
 20
5.9555361555
 10
5.9581456961
 20
5.9540380559
 10
5.9567297823
 20
5.9526819812
 10
5.9551982173
 20
5.9514783767
 10
5.9535883069
 20
5.9504475304
  0
LWPOLYLINE
  5
270
100
AcDbEntity
  8
ALL_ASSEMBLY_MEMBERS
100
AcDbPolyline
 62
7
  6
CONTINUOUS
 90
4
 70
0
 10
3.4929427279
 20
2.5121629932
 10
3.4931501868
 20
2.5123921862
 10
3.4933844349
 20
2.5125936499
 10
3.4936419948
 20
2.5127636706
  0
LINE
  5
271
100
AcDbEntity
  8
ALL_ASSEMBLY_MEMBERS
100
AcDbLine
 62
7
  6
CONTINUOUS
 10
5.96245657
 20
5.9610628526
 11
5.9624556436
 21
5.9610602491
  0
LWPOLYLINE
  5
272
100
AcDbEntity
  8
ALL_ASSEMBLY_MEMBERS
100
AcDbPolyline
 62
7
  6
CONTINUOUS
 90
8
 70
0
 10
5.9624562099
 20
5.9610623521
 10
5.9616976037
 20
5.9592298536
 10
5.9608000857
 20
5.9575464087
 10
5.9597231147
 20
5.955924662
 10
5.9584885089
 20
5.9544096734
 10
5.9571062905
 20
5.9530172607
 10
5.9555882254
 20
5.951762445
 10
5.9539747475
 20
5.9506755038
  0
LINE
  5
273
100
AcDbEntity
  8
ALL_ASSEMBLY_MEMBERS
100
AcDbLine
 62
7
  6
CONTINUOUS
 10
5.9641806841
 20
5.965715516
 11
5.9641480425
 21
5.9656370612
  0
LINE
  5
274
100
AcDbEntity
  8
ALL_ASSEMBLY_MEMBERS
100
AcDbLine
 62
7
  6
CONTINUOUS
 10
5.8561587764
 20
5.9277865766
 11
5.8561587764
 21
5.8497865766
  0
LINE
  5
275
100
AcDbEntity
  8
ALL_ASSEMBLY_MEMBERS
100
AcDbLine
 62
7
  6
CONTINUOUS
 10
5.8761587764
 20
5.8297865766
 11
5.8761587764
 21
5.9477865766
  0
LWPOLYLINE
  5
276
100
AcDbEntity
  8
ALL_ASSEMBLY_MEMBERS
100
AcDbPolyline
 62
7
  6
CONTINUOUS
 90
4
 70
0
 10
3.4936419948
 20
2.5127636706
 10
3.49391881
 20
2.5128993857
 10
3.4942109597
 20
2.5129986314
 10
3.4945142108
 20
2.5130591226
  0
LINE
  5
277
100
AcDbEntity
  8
ALL_ASSEMBLY_MEMBERS
100
AcDbLine
 62
7
  6
CONTINUOUS
 10
6.3281587764
 20
5.8297865766
 11
6.3281587764
 21
5.9477865766
  0
LINE
  5
278
100
AcDbEntity
  8
ALL_ASSEMBLY_MEMBERS
100
AcDbLine
 62
7
  6
CONTINUOUS
 10
6.3481587764
 20
5.8497865766
 11
6.3481587764
 21
5.9277865766
  0
LINE
  5
279
100
AcDbEntity
  8
ALL_ASSEMBLY_MEMBERS
100
AcDbLine
 62
7
  6
CONTINUOUS
 10
6.3681587764
 20
5.9244674277
 11
6.3681587764
 21
5.8531057255
  0
LINE
  5
27A
100
AcDbEntity
  8
ALL_ASSEMBLY_MEMBERS
100
AcDbLine
 62
7
  6
CONTINUOUS
 10
7.5811587764
 20
5.4262865766
 11
7.4661587764
 21
5.4262865766
  0
LINE
  5
27B
100
AcDbEntity
  8
ALL_ASSEMBLY_MEMBERS
100
AcDbLine
 62
7
  6
CONTINUOUS
 10
5.9641806841
 20
5.8118576372
 11
5.9642531355
 21
5.811662125
  0
LWPOLYLINE
  5
27C
100
AcDbEntity
  8
ALL_ASSEMBLY_MEMBERS
100
AcDbPolyline
 62
7
  6
CONTINUOUS
 90
3
 70
0
 10
5.9624553026
 20
5.816513335
 10
5.9641480425
 20
5.8119360919
 10
5.9690259895
 20
5.8002344075
  0
LINE
  5
27D
100
AcDbEntity
  8
ALL_ASSEMBLY_MEMBERS
100
AcDbLine
 62
7
  6
CONTINUOUS
 10
5.9624554684
 20
5.8165128849
 11
5.9624562958
 21
5.8165105605
  0
LINE
  5
27E
100
AcDbEntity
  8
ALL_ASSEMBLY_MEMBERS
100
AcDbLine
 62
7
  6
CONTINUOUS
 10
5.9861789584
 20
5.769336316
 11
5.9930149528
 21
5.7596896947
  0
LINE
  5
27F
100
AcDbEntity
  8
ALL_ASSEMBLY_MEMBERS
100
AcDbLine
 62
7
  6
CONTINUOUS
 10
5.9799698867
 20
5.7791967725
 11
5.9863479634
 21
5.7690836426
  0
LINE
  5
280
100
AcDbEntity
  8
ALL_ASSEMBLY_MEMBERS
100
AcDbLine
 62
7
  6
CONTINUOUS
 10
5.9741996771
 20
5.7895792343
 11
5.9801249275
 21
5.7789356739
  0
LINE
  5
281
100
AcDbEntity
  8
ALL_ASSEMBLY_MEMBERS
100
AcDbLine
 62
7
  6
CONTINUOUS
 10
5.9689033397
 20
5.8005066458
 11
5.9743390315
 21
5.7893118657
  0
LINE
  5
282
100
AcDbEntity
  8
ALL_ASSEMBLY_MEMBERS
100
AcDbLine
 62
7
  6
CONTINUOUS
 10
7.4561587764
 20
5.6737865766
 11
7.2681587764
 21
5.6737865766
  0
LINE
  5
283
100
AcDbEntity
  8
ALL_ASSEMBLY_MEMBERS
100
AcDbLine
 62
7
  6
CONTINUOUS
 10
6.1649199936
 20
5.6737865769
 11
7.2431587764
 21
5.6737865766
  0
LINE
  5
284
100
AcDbEntity
  8
ALL_ASSEMBLY_MEMBERS
100
AcDbLine
 62
7
  6
CONTINUOUS
 10
7.2651587764
 20
5.7187865766
 11
7.2681587764
 21
5.7187865766
  0
LINE
  5
285
100
AcDbEntity
  8
ALL_ASSEMBLY_MEMBERS
100
AcDbLine
 62
7
  6
CONTINUOUS
 10
5.9725205306
 20
5.8097865766
 11
6.3290814265
 21
5.8097865766
  0
LINE
  5
286
100
AcDbEntity
  8
ALL_ASSEMBLY_MEMBERS
100
AcDbLine
 62
7
  6
CONTINUOUS
 10
5.8761587764
 20
5.8297865766
 11
6.3281587764
 21
5.8297865766
  0
LWPOLYLINE
  5
287
100
AcDbEntity
  8
ALL_ASSEMBLY_MEMBERS
100
AcDbPolyline
 62
7
  6
CONTINUOUS
 90
7
 70
0
 10
6.0819792801
 20
5.6904380839
 10
6.0932272256
 20
5.6860986946
 10
6.10494508
 20
5.6823266634
 10
6.1172151641
 20
5.679151024
 10
6.1299244737
 20
5.6766569157
 10
6.1428079734
 20
5.6749278086
 10
6.1558423434
 20
5.6739788448
  0
LWPOLYLINE
  5
288
100
AcDbEntity
  8
ALL_ASSEMBLY_MEMBERS
100
AcDbPolyline
 62
7
  6
CONTINUOUS
 90
8
 70
0
 10
6.0816924098
 20
5.6905584927
 10
6.0929268425
 20
5.6862053775
 10
6.1046312627
 20
5.6824179623
 10
6.1168861503
 20
5.679226073
 10
6.1295809196
 20
5.6767141241
 10
6.1424583453
 20
5.6749642816
 10
6.1554996466
 20
5.673993436
 10
6.1649243277
 20
5.6737865673
  0
LINE
  5
289
100
AcDbEntity
  8
ALL_ASSEMBLY_MEMBERS
100
AcDbLine
 62
7
  6
CONTINUOUS
 10
6.0708932187
 20
5.69544783
 11
6.0819792801
 21
5.6904380839
  0
LINE
  5
28A
100
AcDbEntity
  8
ALL_ASSEMBLY_MEMBERS
100
AcDbLine
 62
7
  6
CONTINUOUS
 10
6.0605525353
 20
5.7008285806
 11
6.071167784
 21
5.6953147492
  0
LINE
  5
28B
100
AcDbEntity
  8
ALL_ASSEMBLY_MEMBERS
100
AcDbLine
 62
7
  6
CONTINUOUS
 10
6.0506730644
 20
5.7066664956
 11
6.0608158465
 21
5.7006826566
  0
LINE
  5
28C
100
AcDbEntity
  8
ALL_ASSEMBLY_MEMBERS
100
AcDbLine
 62
7
  6
CONTINUOUS
 10
6.0411930591
 20
5.7129715032
 11
6.0509260079
 21
5.7065078001
  0
LINE
  5
28D
100
AcDbEntity
  8
ALL_ASSEMBLY_MEMBERS
100
AcDbLine
 62
7
  6
CONTINUOUS
 10
6.0321235777
 20
5.7197175938
 11
6.0414364718
 21
5.7128003741
  0
LINE
  5
28E
100
AcDbEntity
  8
ALL_ASSEMBLY_MEMBERS
100
AcDbLine
 62
7
  6
CONTINUOUS
 10
6.0234816664
 20
5.7268786426
 11
6.032357832
 21
5.7195340768
  0
LINE
  5
28F
100
AcDbEntity
  8
ALL_ASSEMBLY_MEMBERS
100
AcDbLine
 62
7
  6
CONTINUOUS
 10
6.0152185927
 20
5.7344889793
 11
6.0237064906
 21
5.7266824684
  0
LINE
  5
290
100
AcDbEntity
  8
ALL_ASSEMBLY_MEMBERS
100
AcDbLine
 62
7
  6
CONTINUOUS
 10
6.007351218
 20
5.7425338962
 11
6.0154336122
 21
5.7342803638
  0
LINE
  5
291
100
AcDbEntity
  8
ALL_ASSEMBLY_MEMBERS
100
AcDbLine
 62
7
  6
CONTINUOUS
 10
5.9999000861
 20
5.7509964939
 11
6.0075563876
 21
5.7423132428
  0
LINE
  5
292
100
AcDbEntity
  8
ALL_ASSEMBLY_MEMBERS
100
AcDbLine
 62
7
  6
CONTINUOUS
 10
5.9928331227
 20
5.7599323298
 11
6.0000942307
 21
5.7507644518
  0
LINE
  5
293
100
AcDbEntity
  8
ALL_ASSEMBLY_MEMBERS
100
AcDbLine
 62
7
  6
CONTINUOUS
 10
7.2651587764
 20
6.0587865766
 11
7.2646659756
 21
6.0587510515
  0
LINE
  5
294
100
AcDbEntity
  8
ALL_ASSEMBLY_MEMBERS
100
AcDbLine
 62
7
  6
CONTINUOUS
 10
5.8561587764
 20
5.8497865766
 11
6.3481587764
 21
5.8497865766
  0
LINE
  5
295
100
AcDbEntity
  8
ALL_ASSEMBLY_MEMBERS
100
AcDbLine
 62
7
  6
CONTINUOUS
 10
5.8561587764
 20
5.9277865766
 11
6.3481587764
 21
5.9277865766
  0
LINE
  5
296
100
AcDbEntity
  8
ALL_ASSEMBLY_MEMBERS
100
AcDbLine
 62
7
  6
CONTINUOUS
 10
6.3281587764
 20
5.9477865766
 11
5.8761587764
 21
5.9477865766
  0
LINE
  5
297
100
AcDbEntity
  8
ALL_ASSEMBLY_MEMBERS
100
AcDbLine
 62
7
  6
CONTINUOUS
 10
6.3290812955
 20
5.9677865766
 11
5.9725203869
 21
5.9677865766
  0
LWPOLYLINE
  5
298
100
AcDbEntity
  8
ALL_ASSEMBLY_MEMBERS
100
AcDbPolyline
 62
7
  6
CONTINUOUS
 90
7
 70
0
 10
5.9441407759
 20
5.8297659332
 10
5.9451923229
 20
5.8297245562
 10
5.9468329059
 20
5.8295267691
 10
5.9485094401
 20
5.8291797249
 10
5.9502138749
 20
5.8286684352
 10
5.95192044
 20
5.8279829894
 10
5.9535883056
 20
5.8271256236
  0
LWPOLYLINE
  5
299
100
AcDbEntity
  8
ALL_ASSEMBLY_MEMBERS
100
AcDbPolyline
 62
7
  6
CONTINUOUS
 90
14
 70
0
 10
5.9436810707
 20
5.8297864692
 10
5.9453434603
 20
5.8297122067
 10
5.947048829
 20
5.829490532
 10
5.9487826994
 20
5.8291088689
 10
5.950538089
 20
5.8285521364
 10
5.9522850793
 20
5.8278122341
 10
5.9539747476
 20
5.8268976494
 10
5.9555882255
 20
5.8258107082
 10
5.9571062906
 20
5.8245558925
 10
5.958488509
 20
5.8231634798
 10
5.9597231147
 20
5.8216484911
 10
5.9608000857
 20
5.8200267445
 10
5.9616976037
 20
5.8183432996
 10
5.9624562099
 20
5.8165108011
  0
LINE
  5
29A
100
AcDbEntity
  8
ALL_ASSEMBLY_MEMBERS
100
AcDbLine
 62
7
  6
CONTINUOUS
 10
7.2646370739
 20
5.718824108
 11
7.2651587764
 21
5.7187865766
  0
LINE
  5
29B
100
AcDbEntity
  8
ALL_ASSEMBLY_MEMBERS
100
AcDbLine
 62
7
  6
CONTINUOUS
 10
7.2646397328
 20
5.7188239523
 11
7.2651587764
 21
5.7187865766
  0
LINE
  5
29C
100
AcDbEntity
  8
ALL_ASSEMBLY_MEMBERS
100
AcDbLine
 62
7
  6
CONTINUOUS
 10
7.2431587764
 20
5.6737865766
 11
7.2431587764
 21
6.1037865766
  0
LINE
  5
29D
100
AcDbEntity
  8
ALL_ASSEMBLY_MEMBERS
100
AcDbLine
 62
7
  6
CONTINUOUS
 10
7.2681587764
 20
5.6737865766
 11
7.2681587764
 21
6.1037865766
  0
LWPOLYLINE
  5
29E
100
AcDbEntity
  8
ALL_ASSEMBLY_MEMBERS
100
AcDbPolyline
 62
7
  6
CONTINUOUS
 90
24
 70
0
 10
6.1649678932
 20
6.1037865854
 10
6.1558423434
 20
6.1035943083
 10
6.1428079734
 20
6.1026453445
 10
6.1299244737
 20
6.1009162375
 10
6.1172151641
 20
6.0984221292
 10
6.10494508
 20
6.0952464897
 10
6.0932272256
 20
6.0914744586
 10
6.0819792801
 20
6.0871350692
 10
6.071167784
 20
6.082258404
 10
6.0608158465
 20
6.0768904966
 10
6.0509260079
 20
6.0710653531
 10
6.0414364718
 20
6.0647727791
 10
6.032357832
 20
6.0580390763
 10
6.0237064906
 20
6.0508906848
 10
6.0154336122
 20
6.0432927894
 10
6.0075563876
 20
6.0352599104
 10
6.0000942307
 20
6.0268087014
 10
5.9930149528
 20
6.0178834585
 10
5.9863479634
 20
6.0084895106
 10
5.9801249275
 20
5.9986374793
 10
5.9743390315
 20
5.9882612875
 10
5.9690259895
 20
5.9773387457
 10
5.9642531355
 20
5.9659110282
 10
5.9623155901
 20
5.9606802741
  0
LINE
  5
29F
100
AcDbEntity
  8
ALL_ASSEMBLY_MEMBERS
100
AcDbLine
 62
7
  6
CONTINUOUS
 10
7.2651587764
 20
6.0587865766
 11
7.2681587764
 21
6.0587865766
  0
LINE
  5
2A0
100
AcDbEntity
  8
ALL_ASSEMBLY_MEMBERS
100
AcDbLine
 62
7
  6
CONTINUOUS
 10
7.4561587764
 20
6.1037865766
 11
7.2681587764
 21
6.1037865766
  0
LINE
  5
2A1
100
AcDbEntity
  8
ALL_ASSEMBLY_MEMBERS
100
AcDbLine
 62
7
  6
CONTINUOUS
 10
7.2431587764
 20
6.1037865766
 11
6.1649434184
 21
6.1037865766
  0
LINE
  5
2A2
100
AcDbEntity
  8
ALL_ASSEMBLY_MEMBERS
100
AcDbLine
 62
7
  6
CONTINUOUS
 10
7.4561587764
 20
3.3112865766
 11
7.4561587764
 21
2.4662865766
  0
LINE
  5
2A3
100
AcDbEntity
  8
ALL_ASSEMBLY_MEMBERS
100
AcDbLine
 62
7
  6
CONTINUOUS
 10
7.4561587764
 20
5.4362902614
 11
7.4561587764
 21
6.3412828918
  0
LINE
  5
2A4
100
AcDbEntity
  8
ALL_ASSEMBLY_MEMBERS
100
AcDbLine
 62
7
  6
CONTINUOUS
 10
7.4661587764
 20
5.4262865766
 11
7.4661587764
 21
6.3512865766
  0
LINE
  5
2A5
100
AcDbEntity
  8
ALL_ASSEMBLY_MEMBERS
100
AcDbLine
 62
7
  6
CONTINUOUS
 10
7.4711587764
 20
2.4512865766
 11
7.4711587764
 21
3.3262865766
  0
LINE
  5
2A6
100
AcDbEntity
  8
ALL_ASSEMBLY_MEMBERS
100
AcDbLine
 62
7
  6
CONTINUOUS
 10
7.5811587764
 20
6.3512865766
 11
7.4661587764
 21
6.3512865766
  0
LINE
  5
2A7
100
AcDbEntity
  8
ALL_ASSEMBLY_MEMBERS
100
AcDbLine
 62
7
  6
CONTINUOUS
 10
7.5811587764
 20
6.351286574
 11
7.5811587764
 21
5.4262865792
  0
LINE
  5
2A8
100
AcDbEntity
  8
ALL_ASSEMBLY_MEMBERS
100
AcDbLine
 62
7
  6
CONTINUOUS
 10
7.5811587764
 20
2.4512865766
 11
7.5811587764
 21
3.3262865766
  0
LINE
  5
2A9
100
AcDbEntity
  8
ALL_ASSEMBLY_MEMBERS
100
AcDbLine
 62
7
  6
CONTINUOUS
 10
7.7811587764
 20
3.1637865766
 11
7.7811587764
 21
2.6137865766
  0
ARC
  5
2AA
100
AcDbEntity
  8
ALL_ASSEMBLY_MEMBERS
100
AcDbCircle
 62
7
  6
CONTINUOUS
 10
3.353334262
 20
2.4930803595
 40
0.0031880559
100
AcDbArc
 50
348.2749533859
 51
359.9840107005
  0
ARC
  5
2AB
100
AcDbEntity
  8
ALL_ASSEMBLY_MEMBERS
100
AcDbCircle
 62
7
  6
CONTINUOUS
 10
3.3546059142
 20
2.4930794698
 40
0.0025
100
AcDbArc
 50
270.0
 51
360.0
  0
ARC
  5
2AC
100
AcDbEntity
  8
ALL_ASSEMBLY_MEMBERS
100
AcDbCircle
 62
7
  6
CONTINUOUS
 10
3.2826999317
 20
2.4930794698
 40
0.0025
100
AcDbArc
 50
270.0
 51
325.5899837573
  0
ARC
  5
2AD
100
AcDbEntity
  8
ALL_ASSEMBLY_MEMBERS
100
AcDbCircle
 62
7
  6
CONTINUOUS
 10
3.2868167711
 20
2.4930794698
 40
0.0025
100
AcDbArc
 50
180.0
 51
270.0
  0
ARC
  5
2AE
100
AcDbEntity
  8
ALL_ASSEMBLY_MEMBERS
100
AcDbCircle
 62
7
  6
CONTINUOUS
 10
3.354576505
 20
2.4930794698
 40
0.0025
100
AcDbArc
 50
270.0
 51
360.0
  0
ARC
  5
2AF
100
AcDbEntity
  8
ALL_ASSEMBLY_MEMBERS
100
AcDbCircle
 62
7
  6
CONTINUOUS
 10
3.4224261723
 20
2.4930794698
 40
0.0025
100
AcDbArc
 50
180.0
 51
270.0
  0
ARC
  5
2B0
100
AcDbEntity
  8
ALL_ASSEMBLY_MEMBERS
100
AcDbCircle
 62
7
  6
CONTINUOUS
 10
3.2476587764
 20
2.4930794698
 40
0.0025
100
AcDbArc
 50
180.0
 51
270.0
  0
ARC
  5
2B1
100
AcDbEntity
  8
ALL_ASSEMBLY_MEMBERS
100
AcDbCircle
 62
7
  6
CONTINUOUS
 10
3.2503247665
 20
2.493013191
 40
0.002432374
100
AcDbArc
 50
239.4714283063
 51
254.8605510323
  0
ARC
  5
2B2
100
AcDbEntity
  8
ALL_ASSEMBLY_MEMBERS
100
AcDbCircle
 62
7
  6
CONTINUOUS
 10
3.2763926017
 20
2.5105786946
 40
0.0083936897
100
AcDbArc
 50
0.0052914087
 51
3.6132639812
  0
ARC
  5
2B3
100
AcDbEntity
  8
ALL_ASSEMBLY_MEMBERS
100
AcDbCircle
 62
7
  6
CONTINUOUS
 10
3.2764306496
 20
2.5105820614
 40
0.0083555053
100
AcDbArc
 50
3.6066657119
 51
7.1318405547
  0
ARC
  5
2B4
100
AcDbEntity
  8
ALL_ASSEMBLY_MEMBERS
100
AcDbCircle
 62
7
  6
CONTINUOUS
 10
3.2767932467
 20
2.5106268074
 40
0.0079901583
100
AcDbArc
 50
7.1362701171
 51
10.7336657002
  0
ARC
  5
2B5
100
AcDbEntity
  8
ALL_ASSEMBLY_MEMBERS
100
AcDbCircle
 62
7
  6
CONTINUOUS
 10
3.4170147491
 20
2.5105784008
 40
0.0050069461
100
AcDbArc
 50
0.0122328193
 51
29.9780087156
  0
ARC
  5
2B6
100
AcDbEntity
  8
ALL_ASSEMBLY_MEMBERS
100
AcDbCircle
 62
7
  6
CONTINUOUS
 10
3.6241862736
 20
2.4930803448
 40
0.0030639563
100
AcDbArc
 50
347.8887444482
 51
359.9836370814
  0
ARC
  5
2B7
100
AcDbEntity
  8
ALL_ASSEMBLY_MEMBERS
100
AcDbCircle
 62
7
  6
CONTINUOUS
 10
3.4898525452
 20
2.4930810339
 40
0.0025208341
100
AcDbArc
 50
345.091834113
 51
359.9644494725
  0
ARC
  5
2B8
100
AcDbEntity
  8
ALL_ASSEMBLY_MEMBERS
100
AcDbCircle
 62
7
  6
CONTINUOUS
 10
3.5577116385
 20
2.4930794698
 40
0.0025
100
AcDbArc
 50
180.0
 51
270.0
  0
ARC
  5
2B9
100
AcDbEntity
  8
ALL_ASSEMBLY_MEMBERS
100
AcDbCircle
 62
7
  6
CONTINUOUS
 10
3.6252230799
 20
2.4930794698
 40
0.0025
100
AcDbArc
 50
270.0
 51
360.0
  0
ARC
  5
2BA
100
AcDbEntity
  8
ALL_ASSEMBLY_MEMBERS
100
AcDbCircle
 62
7
  6
CONTINUOUS
 10
3.6296115202
 20
2.4930794698
 40
0.0025
100
AcDbArc
 50
208.4826236594
 51
270.0
  0
ARC
  5
2BB
100
AcDbEntity
  8
ALL_ASSEMBLY_MEMBERS
100
AcDbCircle
 62
7
  6
CONTINUOUS
 10
3.6255007816
 20
2.4930794698
 40
0.0025
100
AcDbArc
 50
270.0
 51
325.4577862905
  0
ARC
  5
2BC
100
AcDbEntity
  8
ALL_ASSEMBLY_MEMBERS
100
AcDbCircle
 62
7
  6
CONTINUOUS
 10
3.4898913804
 20
2.4930794698
 40
0.0025
100
AcDbArc
 50
270.0
 51
360.0
  0
ARC
  5
2BD
100
AcDbEntity
  8
ALL_ASSEMBLY_MEMBERS
100
AcDbCircle
 62
7
  6
CONTINUOUS
 10
3.4894222945
 20
2.4930794698
 40
0.0025
100
AcDbArc
 50
270.0
 51
360.0
  0
ARC
  5
2BE
100
AcDbEntity
  8
ALL_ASSEMBLY_MEMBERS
100
AcDbCircle
 62
7
  6
CONTINUOUS
 10
3.6646587764
 20
2.4930794698
 40
0.0025
100
AcDbArc
 50
270.0
 51
360.0
  0
ARC
  5
2BF
100
AcDbEntity
  8
ALL_ASSEMBLY_MEMBERS
100
AcDbCircle
 62
7
  6
CONTINUOUS
 10
3.4898747336
 20
2.4930714319
 40
0.0024969248
100
AcDbArc
 50
322.6793718474
 51
345.17376126
  0
ARC
  5
2C0
100
AcDbEntity
  8
ALL_ASSEMBLY_MEMBERS
100
AcDbCircle
 62
7
  6
CONTINUOUS
 10
3.48988286
 20
2.4930627802
 40
0.0024852177
100
AcDbArc
 50
292.681995775
 51
322.7244091433
  0
ARC
  5
2C1
100
AcDbEntity
  8
ALL_ASSEMBLY_MEMBERS
100
AcDbCircle
 62
7
  6
CONTINUOUS
 10
3.6619104053
 20
2.4930190044
 40
0.0024395351
100
AcDbArc
 50
270.0358770104
 51
285.0645587714
  0
ARC
  5
2C2
100
AcDbEntity
  8
ALL_ASSEMBLY_MEMBERS
100
AcDbCircle
 62
7
  6
CONTINUOUS
 10
3.6619162612
 20
2.4930111118
 40
0.0024303944
100
AcDbArc
 50
284.9796136571
 51
299.9621025695
  0
ARC
  5
2C3
100
AcDbEntity
  8
ALL_ASSEMBLY_MEMBERS
100
AcDbCircle
 62
7
  6
CONTINUOUS
 10
3.6355931305
 20
2.5105797853
 40
0.0083429007
100
AcDbArc
 50
172.8230016326
 51
180.0021669162
  0
ARC
  5
2C4
100
AcDbEntity
  8
ALL_ASSEMBLY_MEMBERS
100
AcDbCircle
 62
7
  6
CONTINUOUS
 10
3.6351250895
 20
2.5106409486
 40
0.0078708857
100
AcDbArc
 50
169.1846037176
 51
172.8390846218
  0
ARC
  5
2C5
100
AcDbEntity
  8
ALL_ASSEMBLY_MEMBERS
100
AcDbCircle
 62
7
  6
CONTINUOUS
 10
3.4948212401
 20
2.5105791022
 40
0.0050001025
100
AcDbArc
 50
149.9958130432
 51
179.9957870326
  0
ARC
  5
2C6
100
AcDbEntity
  8
ALL_ASSEMBLY_MEMBERS
100
AcDbCircle
 62
7
  6
CONTINUOUS
 10
3.4949152752
 20
2.5105790773
 40
0.0025418964
100
AcDbArc
 50
165.2657031256
 51
179.9911528392
  0
ARC
  5
2C7
100
AcDbEntity
  8
ALL_ASSEMBLY_MEMBERS
100
AcDbCircle
 62
7
  6
CONTINUOUS
 10
3.4949063686
 20
2.5105814737
 40
0.0025328073
100
AcDbArc
 50
150.4796698753
 51
165.2391647034
  0
ARC
  5
2C8
100
AcDbEntity
  8
ALL_ASSEMBLY_MEMBERS
100
AcDbCircle
 62
7
  6
CONTINUOUS
 10
7.4711587764
 20
2.4662865766
 40
0.015
100
AcDbArc
 50
180.0
 51
270.0
  0
ARC
  5
2C9
100
AcDbEntity
  8
ALL_ASSEMBLY_MEMBERS
100
AcDbCircle
 62
7
  6
CONTINUOUS
 10
7.4711587764
 20
3.3112865766
 40
0.015
100
AcDbArc
 50
90.0
 51
180.0
  0
ARC
  5
2CA
100
AcDbEntity
  8
ALL_ASSEMBLY_MEMBERS
100
AcDbCircle
 62
7
  6
CONTINUOUS
 10
6.1508009277
 20
5.8887896167
 40
0.1949984607
100
AcDbArc
 50
23.8983815834
 51
156.1016390145
  0
ARC
  5
2CB
100
AcDbEntity
  8
ALL_ASSEMBLY_MEMBERS
100
AcDbCircle
 62
7
  6
CONTINUOUS
 10
6.1508008685
 20
5.8887835158
 40
0.194998451
100
AcDbArc
 50
203.8983795869
 51
336.1016466124
  0
ARC
  5
2CC
100
AcDbEntity
  8
ALL_ASSEMBLY_MEMBERS
100
AcDbCircle
 62
7
  6
CONTINUOUS
 10
7.2526280143
 20
6.2289197018
 40
0.1705937948
100
AcDbArc
 50
272.7615684281
 51
273.3164225343
  0
ARC
  5
2CD
100
AcDbEntity
  8
ALL_ASSEMBLY_MEMBERS
100
AcDbCircle
 62
7
  6
CONTINUOUS
 10
7.2526516687
 20
5.548853533
 40
0.1703926557
100
AcDbArc
 50
85.9655925806
 51
86.4646651289
  0
ARC
  5
2CE
100
AcDbEntity
  8
ALL_ASSEMBLY_MEMBERS
100
AcDbCircle
 62
7
  6
CONTINUOUS
 10
7.2526595574
 20
5.5493838512
 40
0.1698628621
100
AcDbArc
 50
86.4562905295
 51
93.2105659214
  0
ARC
  5
2CF
100
AcDbEntity
  8
ALL_ASSEMBLY_MEMBERS
100
AcDbCircle
 62
7
  6
CONTINUOUS
 10
7.2526866781
 20
6.2281478993
 40
0.1698198916
100
AcDbArc
 50
273.3117271908
 51
274.0450720556
  0
ARC
  5
2D0
100
AcDbEntity
  8
ALL_ASSEMBLY_MEMBERS
100
AcDbCircle
 62
7
  6
CONTINUOUS
 10
7.2526580069
 20
6.2281339337
 40
0.1698074943
100
AcDbArc
 50
266.788878864
 51
272.7642341267
  0
ARC
  5
2D1
100
AcDbEntity
  8
ALL_ASSEMBLY_MEMBERS
100
AcDbCircle
 62
7
  6
CONTINUOUS
 10
6.3281587764
 20
5.8497865766
 40
0.02
100
AcDbArc
 50
270.0
 51
360.0
  0
ARC
  5
2D2
100
AcDbEntity
  8
ALL_ASSEMBLY_MEMBERS
100
AcDbCircle
 62
7
  6
CONTINUOUS
 10
6.3281587764
 20
5.9277865766
 40
0.02
100
AcDbArc
 50
0.0
 51
90.0
  0
ARC
  5
2D3
100
AcDbEntity
  8
ALL_ASSEMBLY_MEMBERS
100
AcDbCircle
 62
7
  6
CONTINUOUS
 10
5.8761587764
 20
5.9277865766
 40
0.02
100
AcDbArc
 50
90.0
 51
180.0
  0
ARC
  5
2D4
100
AcDbEntity
  8
ALL_ASSEMBLY_MEMBERS
100
AcDbCircle
 62
7
  6
CONTINUOUS
 10
5.8761587764
 20
5.8497865766
 40
0.02
100
AcDbArc
 50
180.0
 51
270.0
  0
ARC
  5
2D5
100
AcDbEntity
  8
ALL_ASSEMBLY_MEMBERS
100
AcDbCircle
 62
7
  6
CONTINUOUS
 10
7.2526587764
 20
5.8887865766
 40
0.0125
100
AcDbArc
 50
220.4438584186
 51
139.5537424743
  0
ARC
  5
2D6
100
AcDbEntity
  8
ALL_ASSEMBLY_MEMBERS
100
AcDbCircle
 62
7
  6
CONTINUOUS
 10
7.4661587764
 20
6.3412865766
 40
0.01
100
AcDbArc
 50
90.0
 51
180.0
  0
ARC
  5
2D7
100
AcDbEntity
  8
ALL_ASSEMBLY_MEMBERS
100
AcDbCircle
 62
7
  6
CONTINUOUS
 10
7.4661587764
 20
5.4362865766
 40
0.01
100
AcDbArc
 50
180.0
 51
270.0
  0
LINE
  5
2D8
100
AcDbEntity
  8
ALL_ASSEMBLY_MEMBERS
100
AcDbLine
 62
7
  6
CONTINUOUS
 10
3.6643789971
 20
2.5105794698
 11
3.6642680744
 21
2.5130801951
  0
LINE
  5
2D9
100
AcDbEntity
  8
ALL_ASSEMBLY_MEMBERS
100
AcDbLine
 62
7
  6
CONTINUOUS
 10
3.6276469013
 20
2.5130800601
 11
3.6273940154
 21
2.512117883
  0
SPLINE
  5
2DA
100
AcDbEntity
  8
ALL_ASSEMBLY_MEMBERS
100
AcDbSpline
 62
7
  6
CONTINUOUS
 70
0
 71
3
 72
10
 73
6
 74
0
 42
0.0000001
 43
0.0000001
 44
0.0000000001
 40
0.0
 40
0.0
 40
0.0
 40
0.0
 40
0.2533780872
 40
0.5059694662
 40
1.0
 40
1.0
 40
1.0
 40
1.0
 10
3.5792541516
 20
2.5105794698
 30
0.0
 10
3.5792541249
 20
2.5107972509
 30
0.0
 10
3.579230308
 20
2.5112325866
 30
0.0
 10
3.5790921426
 20
2.512081855
 30
0.0
 10
3.5788846148
 20
2.5126968243
 30
0.0
 10
3.5787020426
 20
2.5130801951
 30
0.0
  0
SPLINE
  5
2DB
100
AcDbEntity
  8
ALL_ASSEMBLY_MEMBERS
100
AcDbSpline
 62
7
  6
CONTINUOUS
 70
0
 71
3
 72
20
 73
16
 74
0
 42
0.0000001
 43
0.0000001
 44
0.0000000001
 40
0.0
 40
0.0
 40
0.0
 40
0.0
 40
0.1882045655
 40
0.3701109608
 40
0.5379085676
 40
0.6856031256
 40
0.7502417241
 40
0.8080325741
 40
0.8585427596
 40
0.9013942107
 40
0.936374884
 40
0.9637002708
 40
0.974728277
 40
0.9842305339
 40
1.0
 40
1.0
 40
1.0
 40
1.0
 10
3.4898211376
 20
2.4930794698
 30
0.0
 10
3.4898211376
 20
2.4929172269
 30
0.0
 10
3.4898161274
 20
2.4925981505
 30
0.0
 10
3.4897943155
 20
2.4921348683
 30
0.0
 10
3.4897586117
 20
2.4917074776
 30
0.0
 10
3.4897174053
 20
2.4913822171
 30
0.0
 10
3.4896774259
 20
2.4911527722
 30
0.0
 10
3.4896464296
 20
2.4910069006
 30
0.0
 10
3.4896134307
 20
2.4908807931
 30
0.0
 10
3.4895787906
 20
2.4907755882
 30
0.0
 10
3.4895426799
 20
2.490692313
 30
0.0
 10
3.4895098092
 20
2.4906378295
 30
0.0
 10
3.48948207
 20
2.4906070409
 30
0.0
 10
3.4894577182
 20
2.4905873839
 30
0.0
 10
3.4894358887
 20
2.4905794698
 30
0.0
 10
3.4894222945
 20
2.4905794698
 30
0.0
  0
SPLINE
  5
2DC
100
AcDbEntity
  8
ALL_ASSEMBLY_MEMBERS
100
AcDbSpline
 62
7
  6
CONTINUOUS
 70
0
 71
3
 72
20
 73
16
 74
0
 42
0.0000001
 43
0.0000001
 44
0.0000000001
 40
0.0
 40
0.0
 40
0.0
 40
0.0
 40
0.0159569555
 40
0.0255308838
 40
0.0366156074
 40
0.0640192583
 40
0.0990493324
 40
0.1419252044
 40
0.1924333792
 40
0.2502035257
 40
0.3148096556
 40
0.4624047221
 40
0.6301017493
 40
0.8119205914
 40
1.0
 40
1.0
 40
1.0
 40
1.0
 10
3.4224261723
 20
2.4905794698
 30
0.0
 10
3.4224124057
 20
2.4905794698
 30
0.0
 10
3.4223903198
 20
2.4905873291
 30
0.0
 10
3.4223655809
 20
2.4906069876
 30
0.0
 10
3.4223374732
 20
2.4906377263
 30
0.0
 10
3.4223041313
 20
2.4906921778
 30
0.0
 10
3.4222675184
 20
2.4907754594
 30
0.0
 10
3.4222323905
 20
2.4908806621
 30
0.0
 10
3.4221989191
 20
2.4910067547
 30
0.0
 10
3.4221674778
 20
2.4911526041
 30
0.0
 10
3.4221269314
 20
2.4913820039
 30
0.0
 10
3.4220851273
 20
2.491707252
 30
0.0
 10
3.4220489177
 20
2.4921346944
 30
0.0
 10
3.4220267961
 20
2.4925980609
 30
0.0
 10
3.4220217047
 20
2.4929172065
 30
0.0
 10
3.4220217047
 20
2.4930794698
 30
0.0
  0
SPLINE
  5
2DD
100
AcDbEntity
  8
ALL_ASSEMBLY_MEMBERS
100
AcDbSpline
 62
7
  6
CONTINUOUS
 70
0
 71
3
 72
11
 73
7
 74
0
 42
0.0000001
 43
0.0000001
 44
0.0000000001
 40
0.0
 40
0.0
 40
0.0
 40
0.0
 40
0.2432449294
 40
0.4889816537
 40
0.7403968656
 40
1.0
 40
1.0
 40
1.0
 40
1.0
 10
3.3587132614
 20
2.5130794698
 30
0.0
 10
3.3585402442
 20
2.5130794698
 30
0.0
 10
3.3581907152
 20
2.5130335371
 30
0.0
 10
3.3576991563
 20
2.5128288423
 30
0.0
 10
3.3572669934
 20
2.5124987673
 30
0.0
 10
3.3570371561
 20
2.512212177
 30
0.0
 10
3.3569383159
 20
2.5120562051
 30
0.0
  0
SPLINE
  5
2DE
100
AcDbEntity
  8
ALL_ASSEMBLY_MEMBERS
100
AcDbSpline
 62
7
  6
CONTINUOUS
 70
0
 71
3
 72
9
 73
5
 74
0
 42
0.0000001
 43
0.0000001
 44
0.0000000001
 40
0.0
 40
0.0
 40
0.0
 40
0.0
 40
0.4935404216
 40
1.0
 40
1.0
 40
1.0
 40
1.0
 10
3.3569383159
 20
2.5120562051
 30
0.0
 10
3.3568018548
 20
2.5118408666
 30
0.0
 10
3.356591855
 20
2.5113598859
 30
0.0
 10
3.356522306
 20
2.5108408716
 30
0.0
 10
3.3565223152
 20
2.5105792624
 30
0.0
  0
SPLINE
  5
2DF
100
AcDbEntity
  8
ALL_ASSEMBLY_MEMBERS
100
AcDbSpline
 62
7
  6
CONTINUOUS
 70
0
 71
3
 72
15
 73
11
 74
0
 42
0.0000001
 43
0.0000001
 44
0.0000000001
 40
0.0
 40
0.0
 40
0.0
 40
0.0
 40
0.1342898447
 40
0.2673173129
 40
0.3974222957
 40
0.5239811703
 40
0.6468018479
 40
0.7663194396
 40
0.8837038958
 40
1.0
 40
1.0
 40
1.0
 40
1.0
 10
3.3360820734
 20
2.510585504
 30
0.0
 10
3.3360822414
 20
2.5107489734
 30
0.0
 10
3.3361101446
 20
2.5110749843
 30
0.0
 10
3.3362316119
 20
2.5115455618
 30
0.0
 10
3.3364291447
 20
2.5119796865
 30
0.0
 10
3.3366960659
 20
2.512360101
 30
0.0
 10
3.3370226479
 20
2.5126727475
 30
0.0
 10
3.3373978955
 20
2.5129050379
 30
0.0
 10
3.3378071742
 20
2.5130473499
 30
0.0
 10
3.3380926205
 20
2.5130794571
 30
0.0
 10
3.3382341864
 20
2.5130794698
 30
0.0
  0
SPLINE
  5
2E0
100
AcDbEntity
  8
ALL_ASSEMBLY_MEMBERS
100
AcDbSpline
 62
7
  6
CONTINUOUS
 70
0
 71
3
 72
15
 73
11
 74
0
 42
0.0000001
 43
0.0000001
 44
0.0000000001
 40
0.0
 40
0.0
 40
0.0
 40
0.0
 40
0.1091247012
 40
0.2212747731
 40
0.3379622123
 40
0.4603481745
 40
0.5887511236
 40
0.7225797839
 40
0.8605218736
 40
1.0
 40
1.0
 40
1.0
 40
1.0
 10
3.3341361913
 20
2.4905794698
 30
0.0
 10
3.3342634865
 20
2.4905794698
 30
0.0
 10
3.3345226085
 20
2.4906131961
 30
0.0
 10
3.3348929965
 20
2.4907584368
 30
0.0
 10
3.3352321207
 20
2.4909944023
 30
0.0
 10
3.3355275863
 20
2.4913088339
 30
0.0
 10
3.3357686344
 20
2.4916901358
 30
0.0
 10
3.3359477933
 20
2.492123573
 30
0.0
 10
3.3360569529
 20
2.4925926553
 30
0.0
 10
3.336082004
 20
2.4929167669
 30
0.0
 10
3.336082004
 20
2.4930794698
 30
0.0
  0
SPLINE
  5
2E1
100
AcDbEntity
  8
ALL_ASSEMBLY_MEMBERS
100
AcDbSpline
 62
7
  6
CONTINUOUS
 70
0
 71
3
 72
15
 73
11
 74
0
 42
0.0000001
 43
0.0000001
 44
0.0000000001
 40
0.0
 40
0.0
 40
0.0
 40
0.0
 40
0.1542236709
 40
0.3051927255
 40
0.4485266857
 40
0.5814389919
 40
0.7021904745
 40
0.8106452044
 40
0.9086013162
 40
1.0
 40
1.0
 40
1.0
 40
1.0
 10
3.3326730908
 20
2.4930794698
 30
0.0
 10
3.3326730908
 20
2.4929169754
 30
0.0
 10
3.3326917151
 20
2.4925951334
 30
0.0
 10
3.3327729116
 20
2.4921284711
 30
0.0
 10
3.3329061311
 20
2.4916971121
 30
0.0
 10
3.3330852287
 20
2.4913172732
 30
0.0
 10
3.3333050391
 20
2.4910028042
 30
0.0
 10
3.3335585958
 20
2.4907645502
 30
0.0
 10
3.3338391971
 20
2.490615025
 30
0.0
 10
3.3340398911
 20
2.4905794698
 30
0.0
 10
3.3341361913
 20
2.4905794698
 30
0.0
  0
SPLINE
  5
2E2
100
AcDbEntity
  8
ALL_ASSEMBLY_MEMBERS
100
AcDbSpline
 62
7
  6
CONTINUOUS
 70
0
 71
3
 72
15
 73
11
 74
0
 42
0.0000001
 43
0.0000001
 44
0.0000000001
 40
0.0
 40
0.0
 40
0.0
 40
0.0
 40
0.1403554699
 40
0.2768952951
 40
0.4087914634
 40
0.5355743809
 40
0.6573259351
 40
0.7746220234
 40
0.8884855698
 40
1.0
 40
1.0
 40
1.0
 40
1.0
 10
3.3564557961
 20
2.4924324976
 30
0.0
 10
3.3564286412
 20
2.492301946
 30
0.0
 10
3.3563584535
 20
2.4920474488
 30
0.0
 10
3.3562041931
 20
2.4916896965
 30
0.0
 10
3.3560071127
 20
2.4913684377
 30
0.0
 10
3.3557713705
 20
2.4910923845
 30
0.0
 10
3.3555032649
 20
2.4908684155
 30
0.0
 10
3.3552089701
 20
2.4907033939
 30
0.0
 10
3.3548971675
 20
2.490602702
 30
0.0
 10
3.3546824502
 20
2.4905794698
 30
0.0
 10
3.354576505
 20
2.4905794698
 30
0.0
  0
SPLINE
  5
2E3
100
AcDbEntity
  8
ALL_ASSEMBLY_MEMBERS
100
AcDbSpline
 62
7
  6
CONTINUOUS
 70
0
 71
3
 72
11
 73
7
 74
0
 42
0.0000001
 43
0.0000001
 44
0.0000000001
 40
0.0
 40
0.0
 40
0.0
 40
0.0
 40
0.2368881702
 40
0.480493444
 40
0.7341790035
 40
1.0
 40
1.0
 40
1.0
 40
1.0
 10
3.2868167711
 20
2.4905794698
 30
0.0
 10
3.2866623135
 20
2.4905794698
 30
0.0
 10
3.2863474625
 20
2.4906249139
 30
0.0
 10
3.2859047951
 20
2.4908210563
 30
0.0
 10
3.2855125717
 20
2.4911351476
 30
0.0
 10
3.2853019272
 20
2.4914045025
 30
0.0
 10
3.285209844
 20
2.4915513405
 30
0.0
  0
SPLINE
  5
2E4
100
AcDbEntity
  8
ALL_ASSEMBLY_MEMBERS
100
AcDbSpline
 62
7
  6
CONTINUOUS
 70
0
 71
3
 72
10
 73
6
 74
0
 42
0.0000001
 43
0.0000001
 44
0.0000000001
 40
0.0
 40
0.0
 40
0.0
 40
0.0
 40
0.4909190135
 40
0.744863044
 40
1.0
 40
1.0
 40
1.0
 40
1.0
 10
3.285209844
 20
2.4915513405
 30
0.0
 10
3.2850704855
 20
2.4917735647
 30
0.0
 10
3.2849108153
 20
2.4921461555
 30
0.0
 10
3.2848048491
 20
2.4926707047
 30
0.0
 10
3.2847862914
 20
2.4929431461
 30
0.0
 10
3.2847862914
 20
2.4930794698
 30
0.0
  0
SPLINE
  5
2E5
100
AcDbEntity
  8
ALL_ASSEMBLY_MEMBERS
100
AcDbSpline
 62
7
  6
CONTINUOUS
 70
0
 71
3
 72
18
 73
14
 74
0
 42
0.0000001
 43
0.0000001
 44
0.0000000001
 40
0.0
 40
0.0
 40
0.0
 40
0.0
 40
0.1831477582
 40
0.3597253658
 40
0.5227255661
 40
0.6666509293
 40
0.7870407098
 40
0.8374473741
 40
0.8811667952
 40
0.9183523678
 40
0.9495742747
 40
0.9760839247
 40
1.0
 40
1.0
 40
1.0
 40
1.0
 10
3.2505953498
 20
2.510585504
 30
0.0
 10
3.2505953775
 20
2.5107484166
 30
0.0
 10
3.2506021166
 20
2.5110684415
 30
0.0
 10
3.2506320206
 20
2.5115325972
 30
0.0
 10
3.2506811323
 20
2.5119601228
 30
0.0
 10
3.2507484652
 20
2.5123344578
 30
0.0
 10
3.2508215483
 20
2.512605428
 30
0.0
 10
3.2508911554
 20
2.5127833102
 30
0.0
 10
3.2509436968
 20
2.5128878725
 30
0.0
 10
3.2509994927
 20
2.512970981
 30
0.0
 10
3.2510587223
 20
2.5130320212
 30
0.0
 10
3.2511215981
 20
2.5130704081
 30
0.0
 10
3.25116678
 20
2.5130794634
 30
0.0
 10
3.2511880537
 20
2.5130794698
 30
0.0
  0
SPLINE
  5
2E6
100
AcDbEntity
  8
ALL_ASSEMBLY_MEMBERS
100
AcDbSpline
 62
7
  6
CONTINUOUS
 70
0
 71
3
 72
20
 73
16
 74
0
 42
0.0000001
 43
0.0000001
 44
0.0000000001
 40
0.0
 40
0.0
 40
0.0
 40
0.0
 40
0.0112679819
 40
0.0190789704
 40
0.0287624293
 40
0.0542137002
 40
0.0880965351
 40
0.1304155722
 40
0.1808252204
 40
0.238862758
 40
0.3040381516
 40
0.4535143926
 40
0.6237931538
 40
0.8086414758
 40
1.0
 40
1.0
 40
1.0
 40
1.0
 10
3.2503292635
 20
2.4905794698
 30
0.0
 10
3.2503388164
 20
2.4905794698
 30
0.0
 10
3.2503543276
 20
2.4905888066
 30
0.0
 10
3.2503694705
 20
2.4906076159
 30
0.0
 10
3.2503882932
 20
2.4906390405
 30
0.0
 10
3.2504099087
 20
2.4906936139
 30
0.0
 10
3.2504338602
 20
2.4907764633
 30
0.0
 10
3.250456833
 20
2.4908813766
 30
0.0
 10
3.2504788033
 20
2.4910073157
 30
0.0
 10
3.2504994458
 20
2.4911530776
 30
0.0
 10
3.2505261247
 20
2.4913827341
 30
0.0
 10
3.250553582
 20
2.4917079924
 30
0.0
 10
3.2505773731
 20
2.4921351692
 30
0.0
 10
3.2505919087
 20
2.4925982851
 30
0.0
 10
3.2505952481
 20
2.4929172381
 30
0.0
 10
3.2505952481
 20
2.4930794698
 30
0.0
  0
SPLINE
  5
2E7
100
AcDbEntity
  8
ALL_ASSEMBLY_MEMBERS
100
AcDbSpline
 62
7
  6
CONTINUOUS
 70
0
 71
3
 72
12
 73
8
 74
0
 42
0.0000001
 43
0.0000001
 44
0.0000000001
 40
0.0
 40
0.0
 40
0.0
 40
0.0
 40
0.2504750916
 40
0.3762180332
 40
0.5016780436
 40
0.7512555353
 40
1.0
 40
1.0
 40
1.0
 40
1.0
 10
3.2478612837
 20
2.4930794698
 30
0.0
 10
3.2478612837
 20
2.4928627975
 30
0.0
 10
3.2479041767
 20
2.4925354553
 30
0.0
 10
3.2480414057
 20
2.4921228355
 30
0.0
 10
3.2482311849
 20
2.4917321572
 30
0.0
 10
3.2485594686
 20
2.491296002
 30
0.0
 10
3.2489038053
 20
2.4910272261
 30
0.0
 10
3.2490891984
 20
2.4909180025
 30
0.0
  0
LINE
  5
2E8
100
AcDbEntity
  8
ALL_ASSEMBLY_MEMBERS
100
AcDbLine
 62
7
  6
CONTINUOUS
 10
3.2496895053
 20
2.4906652373
 11
3.2503292635
 21
2.4905794698
  0
SPLINE
  5
2E9
100
AcDbEntity
  8
ALL_ASSEMBLY_MEMBERS
100
AcDbSpline
 62
7
  6
CONTINUOUS
 70
0
 71
3
 72
20
 73
16
 74
0
 42
0.0000001
 43
0.0000001
 44
0.0000000001
 40
0.0
 40
0.0
 40
0.0
 40
0.0
 40
0.1913777742
 40
0.3762640364
 40
0.546545314
 40
0.6959964208
 40
0.7611623912
 40
0.8191916987
 40
0.8695952769
 40
0.9119113276
 40
0.9457920965
 40
0.9712404875
 40
0.9809226275
 40
0.9887326071
 40
1.0
 40
1.0
 40
1.0
 40
1.0
 10
3.2829659163
 20
2.4930794698
 30
0.0
 10
3.2829659163
 20
2.4929172216
 30
0.0
 10
3.2829625713
 20
2.49259822
 30
0.0
 10
3.2829480355
 20
2.4921350531
 30
0.0
 10
3.2829242456
 20
2.4917078627
 30
0.0
 10
3.2828967823
 20
2.4913826319
 30
0.0
 10
3.2828701051
 20
2.4911530116
 30
0.0
 10
3.2828494631
 20
2.4910072697
 30
0.0
 10
3.2828274935
 20
2.4908813453
 30
0.0
 10
3.282804523
 20
2.490776441
 30
0.0
 10
3.2827805748
 20
2.4906935977
 30
0.0
 10
3.2827589602
 20
2.4906390294
 30
0.0
 10
3.282740138
 20
2.4906076097
 30
0.0
 10
3.2827249948
 20
2.4905888034
 30
0.0
 10
3.2827094841
 20
2.4905794698
 30
0.0
 10
3.2826999317
 20
2.4905794698
 30
0.0
  0
SPLINE
  5
2EA
100
AcDbEntity
  8
ALL_ASSEMBLY_MEMBERS
100
AcDbSpline
 62
7
  6
CONTINUOUS
 70
0
 71
3
 72
10
 73
6
 74
0
 42
0.0000001
 43
0.0000001
 44
0.0000000001
 40
0.0
 40
0.0
 40
0.0
 40
0.0
 40
0.4939834445
 40
0.7465939807
 40
1.0
 40
1.0
 40
1.0
 40
1.0
 10
3.3332245378
 20
2.5130800601
 30
0.0
 10
3.3330421717
 20
2.5126966937
 30
0.0
 10
3.3328349121
 20
2.5120817563
 30
0.0
 10
3.3326969267
 20
2.5112325689
 30
0.0
 10
3.3326731268
 20
2.5107972482
 30
0.0
 10
3.3326730908
 20
2.5105794698
 30
0.0
  0
LINE
  5
2EB
100
AcDbEntity
  8
ALL_ASSEMBLY_MEMBERS
100
AcDbLine
 62
7
  6
CONTINUOUS
 10
3.2846436055
 20
2.5121149259
 11
3.2843910508
 21
2.5130801951
  0
LINE
  5
2EC
100
AcDbEntity
  8
ALL_ASSEMBLY_MEMBERS
100
AcDbLine
 62
7
  6
CONTINUOUS
 10
3.2479707266
 20
2.5130800601
 11
3.2478612837
 21
2.5105794698
  0
SPLINE
  5
2ED
100
AcDbEntity
  8
ALL_ASSEMBLY_MEMBERS
100
AcDbSpline
 62
7
  6
CONTINUOUS
 70
0
 71
3
 72
15
 73
11
 74
0
 42
0.0000001
 43
0.0000001
 44
0.0000000001
 40
0.0
 40
0.0
 40
0.0
 40
0.0
 40
0.1338776514
 40
0.2665507953
 40
0.3963810176
 40
0.522782544
 40
0.6456136424
 40
0.7653352536
 40
0.8831206917
 40
1.0
 40
1.0
 40
1.0
 40
1.0
 10
3.5557448417
 20
2.5105794698
 30
0.0
 10
3.5557448392
 20
2.5107432289
 30
0.0
 10
3.5557173864
 20
2.5110699164
 30
0.0
 10
3.55559616
 20
2.5115417083
 30
0.0
 10
3.5553978753
 20
2.5119770117
 30
0.0
 10
3.55512947
 20
2.5123585332
 30
0.0
 10
3.5548005847
 20
2.5126720845
 30
0.0
 10
3.5544222574
 20
2.5129049169
 30
0.0
 10
3.5540092939
 20
2.5130474412
 30
0.0
 10
3.5537212536
 20
2.5130794698
 30
0.0
 10
3.5535782869
 20
2.5130794698
 30
0.0
  0
SPLINE
  5
2EE
100
AcDbEntity
  8
ALL_ASSEMBLY_MEMBERS
100
AcDbSpline
 62
7
  6
CONTINUOUS
 70
0
 71
3
 72
14
 73
10
 74
0
 42
0.0000001
 43
0.0000001
 44
0.0000000001
 40
0.0
 40
0.0
 40
0.0
 40
0.0
 40
0.1160657746
 40
0.233272972
 40
0.3527247839
 40
0.4756197492
 40
0.6023916103
 40
0.7328187924
 40
1.0
 40
1.0
 40
1.0
 40
1.0
 10
3.5736935211
 20
2.5130794698
 30
0.0
 10
3.5738344177
 20
2.5130794698
 30
0.0
 10
3.5741186052
 20
2.5130471746
 30
0.0
 10
3.574525776
 20
2.5129040132
 30
0.0
 10
3.574898636
 20
2.5126704856
 30
0.0
 10
3.5752226518
 20
2.5123566249
 30
0.0
 10
3.5754870975
 20
2.5119749519
 30
0.0
 10
3.5757491024
 20
2.5113920675
 30
0.0
 10
3.5758288702
 20
2.510903811
 30
0.0
 10
3.5758288787
 20
2.5105794698
 30
0.0
  0
SPLINE
  5
2EF
100
AcDbEntity
  8
ALL_ASSEMBLY_MEMBERS
100
AcDbSpline
 62
7
  6
CONTINUOUS
 70
0
 71
3
 72
15
 73
11
 74
0
 42
0.0000001
 43
0.0000001
 44
0.0000000001
 40
0.0
 40
0.0
 40
0.0
 40
0.0
 40
0.0911927876
 40
0.1889716665
 40
0.2973329951
 40
0.4180648644
 40
0.5510186753
 40
0.6944651957
 40
0.8456085696
 40
1.0
 40
1.0
 40
1.0
 40
1.0
 10
3.5777956756
 20
2.4905794698
 30
0.0
 10
3.5778916654
 20
2.4905794698
 30
0.0
 10
3.5780917734
 20
2.4906149818
 30
0.0
 10
3.5783714485
 20
2.4907645555
 30
0.0
 10
3.5786241341
 20
2.4910027811
 30
0.0
 10
3.5788432606
 20
2.4913171715
 30
0.0
 10
3.5790218189
 20
2.4916969655
 30
0.0
 10
3.5791546144
 20
2.492128353
 30
0.0
 10
3.5792355496
 20
2.4925950711
 30
0.0
 10
3.5792541516
 20
2.4929169569
 30
0.0
 10
3.5792541516
 20
2.4930794698
 30
0.0
  0
LINE
  5
2F0
100
AcDbEntity
  8
ALL_ASSEMBLY_MEMBERS
100
AcDbLine
 62
7
  6
CONTINUOUS
 10
3.4908412001
 20
2.490769771
 11
3.4898913804
 21
2.4905794698
  0
SPLINE
  5
2F1
100
AcDbEntity
  8
ALL_ASSEMBLY_MEMBERS
100
AcDbSpline
 62
7
  6
CONTINUOUS
 70
0
 71
3
 72
15
 73
11
 74
0
 42
0.0000001
 43
0.0000001
 44
0.0000000001
 40
0.0
 40
0.0
 40
0.0
 40
0.0
 40
0.1388910525
 40
0.2763357366
 40
0.4097943984
 40
0.5380221144
 40
0.6604851133
 40
0.7775050099
 40
0.8902026552
 40
1.0
 40
1.0
 40
1.0
 40
1.0
 10
3.5758288787
 20
2.4930794698
 30
0.0
 10
3.5758288787
 20
2.4929167394
 30
0.0
 10
3.575854256
 20
2.4925924675
 30
0.0
 10
3.5759646488
 20
2.4921232209
 30
0.0
 10
3.5761458304
 20
2.4916896781
 30
0.0
 10
3.576389622
 20
2.4913083951
 30
0.0
 10
3.5766883496
 20
2.4909940506
 30
0.0
 10
3.5770311196
 20
2.4907582232
 30
0.0
 10
3.5774053529
 20
2.4906131319
 30
0.0
 10
3.5776670325
 20
2.4905794698
 30
0.0
 10
3.5777956756
 20
2.4905794698
 30
0.0
  0
SPLINE
  5
2F2
100
AcDbEntity
  8
ALL_ASSEMBLY_MEMBERS
100
AcDbSpline
 62
7
  6
CONTINUOUS
 70
0
 71
3
 72
11
 73
7
 74
0
 42
0.0000001
 43
0.0000001
 44
0.0000000001
 40
0.0
 40
0.0
 40
0.0
 40
0.0
 40
0.23451059
 40
0.4769257879
 40
0.7313269846
 40
1.0
 40
1.0
 40
1.0
 40
1.0
 10
3.5577116385
 20
2.4905794698
 30
0.0
 10
3.5575604933
 20
2.4905794698
 30
0.0
 10
3.5572514862
 20
2.4906261508
 30
0.0
 10
3.5568186135
 20
2.4908266674
 30
0.0
 10
3.5564367231
 20
2.491146904
 30
0.0
 10
3.556233487
 20
2.4914198387
 30
0.0
 10
3.5561447693
 20
2.4915685489
 30
0.0
  0
SPLINE
  5
2F3
100
AcDbEntity
  8
ALL_ASSEMBLY_MEMBERS
100
AcDbSpline
 62
7
  6
CONTINUOUS
 70
0
 71
3
 72
10
 73
6
 74
0
 42
0.0000001
 43
0.0000001
 44
0.0000000001
 40
0.0
 40
0.0
 40
0.0
 40
0.0
 40
0.490153537
 40
0.7443524515
 40
1.0
 40
1.0
 40
1.0
 40
1.0
 10
3.5561447693
 20
2.4915685489
 30
0.0
 10
3.5560126322
 20
2.4917900396
 30
0.0
 10
3.5558621257
 20
2.4921589112
 30
0.0
 10
3.5557622944
 20
2.4926762829
 30
0.0
 10
3.5557448417
 20
2.4929449519
 30
0.0
 10
3.5557448417
 20
2.4930794698
 30
0.0
  0
SPLINE
  5
2F4
100
AcDbEntity
  8
ALL_ASSEMBLY_MEMBERS
100
AcDbSpline
 62
7
  6
CONTINUOUS
 70
0
 71
3
 72
15
 73
11
 74
0
 42
0.0000001
 43
0.0000001
 44
0.0000000001
 40
0.0
 40
0.0
 40
0.0
 40
0.0
 40
0.1378772898
 40
0.2725287531
 40
0.4032609807
 40
0.5296946125
 40
0.6519395286
 40
0.7705167664
 40
0.886272872
 40
1.0
 40
1.0
 40
1.0
 40
1.0
 10
3.6271820325
 20
2.4924374942
 30
0.0
 10
3.6271538844
 20
2.4923065201
 30
0.0
 10
3.6270808221
 20
2.4920509544
 30
0.0
 10
3.626920155
 20
2.491692169
 30
0.0
 10
3.6267146638
 20
2.4913699262
 30
0.0
 10
3.6264687206
 20
2.491093119
 30
0.0
 10
3.6261890058
 20
2.4908686513
 30
0.0
 10
3.6258820955
 20
2.4907034276
 30
0.0
 10
3.6255571275
 20
2.4906026932
 30
0.0
 10
3.6253335797
 20
2.4905794698
 30
0.0
 10
3.6252230799
 20
2.4905794698
 30
0.0
  0
SPLINE
  5
2F5
100
AcDbEntity
  8
ALL_ASSEMBLY_MEMBERS
100
AcDbSpline
 62
7
  6
CONTINUOUS
 70
0
 71
3
 72
18
 73
14
 74
0
 42
0.0000001
 43
0.0000001
 44
0.0000000001
 40
0.0
 40
0.0
 40
0.0
 40
0.0
 40
0.1821021281
 40
0.3577847666
 40
0.5200397825
 40
0.6634386402
 40
0.7836227305
 40
0.83409237
 40
0.8780212165
 40
0.9156094884
 40
0.9474778449
 40
0.9749149206
 40
1.0
 40
1.0
 40
1.0
 40
1.0
 10
3.6293120478
 20
2.5105794698
 30
0.0
 10
3.6293120552
 20
2.5107426902
 30
0.0
 10
3.6293052011
 20
2.5110634253
 30
0.0
 10
3.6292744856
 20
2.5115286866
 30
0.0
 10
3.6292237577
 20
2.5119573988
 30
0.0
 10
3.6291538582
 20
2.5123328947
 30
0.0
 10
3.6290776207
 20
2.512604666
 30
0.0
 10
3.6290047808
 20
2.5127829115
 30
0.0
 10
3.6289495779
 20
2.5128878119
 30
0.0
 10
3.62889079
 20
2.512971189
 30
0.0
 10
3.628828206
 20
2.513032352
 30
0.0
 10
3.628761737
 20
2.5130705876
 30
0.0
 10
3.6287143218
 20
2.5130794698
 30
0.0
 10
3.6286918377
 20
2.5130794698
 30
0.0
  0
SPLINE
  5
2F6
100
AcDbEntity
  8
ALL_ASSEMBLY_MEMBERS
100
AcDbSpline
 62
7
  6
CONTINUOUS
 70
0
 71
3
 72
12
 73
8
 74
0
 42
0.0000001
 43
0.0000001
 44
0.0000000001
 40
0.0
 40
0.0
 40
0.0
 40
0.0
 40
0.2486820468
 40
0.4982149285
 40
0.6236850449
 40
0.749465529
 40
1.0
 40
1.0
 40
1.0
 40
1.0
 10
3.6631300659
 20
2.4909055252
 30
0.0
 10
3.6633182358
 20
2.4910138895
 30
0.0
 10
3.6636681625
 20
2.4912821708
 30
0.0
 10
3.6640022558
 20
2.4917204132
 30
0.0
 10
3.6641954648
 20
2.4921139872
 30
0.0
 10
3.6643352261
 20
2.4925301811
 30
0.0
 10
3.6643789971
 20
2.4928607101
 30
0.0
 10
3.6643789971
 20
2.4930794698
 30
0.0
  0
LINE
  5
2F7
100
AcDbEntity
  8
ALL_ASSEMBLY_MEMBERS
100
AcDbLine
 62
7
  6
CONTINUOUS
 10
3.625949403
 20
2.4906876646
 11
3.6255007816
 21
2.4905794698
  0
SPLINE
  5
2F8
100
AcDbEntity
  8
ALL_ASSEMBLY_MEMBERS
100
AcDbSpline
 62
7
  6
CONTINUOUS
 70
0
 71
3
 72
19
 73
15
 74
0
 42
0.0000001
 43
0.0000001
 44
0.0000000001
 40
0.0
 40
0.0
 40
0.0
 40
0.0
 40
0.3748326613
 40
0.5445391489
 40
0.6935721204
 40
0.7586081619
 40
0.8165724167
 40
0.866988681
 40
0.9094144733
 40
0.9435334099
 40
0.9694010057
 40
0.9793926994
 40
0.9876032834
 40
1.0
 40
1.0
 40
1.0
 40
1.0
 10
3.6616124605
 20
2.4930794698
 30
0.0
 10
3.6616124605
 20
2.4927604764
 30
0.0
 10
3.6616225282
 20
2.492296907
 30
0.0
 10
3.6616593717
 20
2.4917077535
 30
0.0
 10
3.6616903133
 20
2.4913825197
 30
0.0
 10
3.6617203433
 20
2.4911529452
 30
0.0
 10
3.6617435922
 20
2.4910071784
 30
0.0
 10
3.6617683352
 20
2.4908812168
 30
0.0
 10
3.6617942356
 20
2.4907762408
 30
0.0
 10
3.6618212233
 20
2.4906932985
 30
0.0
 10
3.6618456726
 20
2.4906387141
 30
0.0
 10
3.661866762
 20
2.4906074563
 30
0.0
 10
3.6618842304
 20
2.4905883398
 30
0.0
 10
3.6619013829
 20
2.4905794698
 30
0.0
 10
3.6619119329
 20
2.4905794698
 30
0.0
  0
SPLINE
  5
2F9
100
AcDbEntity
  8
ALL_ASSEMBLY_MEMBERS
100
AcDbSpline
 62
7
  6
CONTINUOUS
 70
0
 71
3
 72
19
 73
15
 74
0
 42
0.0000001
 43
0.0000001
 44
0.0000000001
 40
0.0
 40
0.0
 40
0.0
 40
0.0
 40
0.012397214
 40
0.0206086982
 40
0.0306016082
 40
0.0564720064
 40
0.0905932542
 40
0.1330226861
 40
0.1834460802
 40
0.2414200607
 40
0.3064674781
 40
0.455531216
 40
0.6252356148
 40
1.0
 40
1.0
 40
1.0
 40
1.0
 10
3.6296115202
 20
2.4905794698
 30
0.0
 10
3.6296009698
 20
2.4905794698
 30
0.0
 10
3.6295838167
 20
2.4905883426
 30
0.0
 10
3.6295663486
 20
2.4906074621
 30
0.0
 10
3.6295452586
 20
2.4906387245
 30
0.0
 10
3.6295208083
 20
2.4906933141
 30
0.0
 10
3.6294938169
 20
2.4907762629
 30
0.0
 10
3.6294679135
 20
2.4908812497
 30
0.0
 10
3.6294431693
 20
2.4910072287
 30
0.0
 10
3.6294199194
 20
2.4911530195
 30
0.0
 10
3.6293898867
 20
2.491382638
 30
0.0
 10
3.6293589533
 20
2.4917079065
 30
0.0
 10
3.6293221066
 20
2.4922970254
 30
0.0
 10
3.6293120478
 20
2.4927605348
 30
0.0
 10
3.6293120478
 20
2.4930794698
 30
0.0
  0
SPLINE
  5
2FA
100
AcDbEntity
  8
ALL_ASSEMBLY_MEMBERS
100
AcDbSpline
 62
7
  6
CONTINUOUS
 70
0
 71
3
 72
22
 73
18
 74
0
 42
0.0000001
 43
0.0000001
 44
0.0000000001
 40
0.0
 40
0.0
 40
0.0
 40
0.0
 40
0.0079150667
 40
0.0164830204
 40
0.0262003449
 40
0.0374008693
 40
0.0649787966
 40
0.1001340329
 40
0.1430204578
 40
0.1934861719
 40
0.2512602923
 40
0.315888391
 40
0.3867838407
 40
0.46333679
 40
0.6306772186
 40
0.8120056821
 40
1.0
 40
1.0
 40
1.0
 40
1.0
 10
6.3481587764
 20
5.9277865766
 30
0.0
 10
6.3481587764
 20
5.9277318566
 30
0.0
 10
6.3481766771
 20
5.9276173398
 30
0.0
 10
6.3482536843
 20
5.9274514397
 30
0.0
 10
6.3483782541
 20
5.9272885293
 30
0.0
 10
6.3486237593
 20
5.9270585924
 30
0.0
 10
6.349059587
 20
5.9267844978
 30
0.0
 10
6.3497265388
 20
5.9264849772
 30
0.0
 10
6.3505678579
 20
5.9261963786
 30
0.0
 10
6.3515763285
 20
5.9259215186
 30
0.0
 10
6.3527436919
 20
5.9256637244
 30
0.0
 10
6.3540588734
 20
5.9254254477
 30
0.0
 10
6.3555091658
 20
5.9252088846
 30
0.0
 10
6.3576695524
 20
5.9249448421
 30
0.0
 10
6.3605992831
 20
5.924691169
 30
0.0
 10
6.364305611
 20
5.9245086916
 30
0.0
 10
6.3668590975
 20
5.9244674277
 30
0.0
 10
6.3681587764
 20
5.9244674277
 30
0.0
  0
SPLINE
  5
2FB
100
AcDbEntity
  8
ALL_ASSEMBLY_MEMBERS
100
AcDbSpline
 62
7
  6
CONTINUOUS
 70
0
 71
3
 72
14
 73
10
 74
0
 42
0.0000001
 43
0.0000001
 44
0.0000000001
 40
0.0
 40
0.0
 40
0.0
 40
0.0
 40
0.2503406805
 40
0.3751807426
 40
0.4998268735
 40
0.6244928024
 40
0.7493170557
 40
0.8744808284
 40
1.0
 40
1.0
 40
1.0
 40
1.0
 10
6.3505189866
 20
5.9548151746
 30
0.0
 10
6.353120063
 20
5.9532088763
 30
0.0
 10
6.3567642383
 20
5.950341622
 30
0.0
 10
6.3608121609
 20
5.9457585791
 30
0.0
 10
6.3633971672
 20
5.941975422
 30
0.0
 10
6.3654783002
 20
5.9378939795
 30
0.0
 10
6.3670089552
 20
5.9335678431
 30
0.0
 10
6.3679474622
 20
5.9290656375
 30
0.0
 10
6.3681588334
 20
5.9260002319
 30
0.0
 10
6.3681587764
 20
5.9244674277
 30
0.0
  0
SPLINE
  5
2FC
100
AcDbEntity
  8
ALL_ASSEMBLY_MEMBERS
100
AcDbSpline
 62
7
  6
CONTINUOUS
 70
0
 71
3
 72
20
 73
16
 74
0
 42
0.0000001
 43
0.0000001
 44
0.0000000001
 40
0.0
 40
0.0
 40
0.0
 40
0.0
 40
0.0192785729
 40
0.042085921
 40
0.0705488728
 40
0.1057052271
 40
0.1479412174
 40
0.1971007866
 40
0.2529101014
 40
0.3150865577
 40
0.383364668
 40
0.4574759565
 40
0.6218178712
 40
0.8045323353
 40
1.0
 40
1.0
 40
1.0
 40
1.0
 10
6.3391899737
 20
5.8331039738
 30
0.0
 10
6.3392747047
 20
5.8331599879
 30
0.0
 10
6.3394916634
 20
5.8332359582
 30
0.0
 10
6.3398681038
 20
5.8332192322
 30
0.0
 10
6.3403090142
 20
5.8330969112
 30
0.0
 10
6.3408206765
 20
5.8328719521
 30
0.0
 10
6.3414036201
 20
5.8325468206
 30
0.0
 10
6.3420508101
 20
5.8321182728
 30
0.0
 10
6.3427525445
 20
5.8315853319
 30
0.0
 10
6.3434985115
 20
5.8309468629
 30
0.0
 10
6.3442789783
 20
5.8302029805
 30
0.0
 10
6.3454038268
 20
5.8290422258
 30
0.0
 10
6.3468752162
 20
5.8273800776
 30
0.0
 10
6.3487015519
 20
5.8251808392
 30
0.0
 10
6.3499160539
 20
5.8236003211
 30
0.0
 10
6.3505255352
 20
5.8227701833
 30
0.0
  0
SPLINE
  5
2FD
100
AcDbEntity
  8
ALL_ASSEMBLY_MEMBERS
100
AcDbSpline
 62
7
  6
CONTINUOUS
 70
0
 71
3
 72
14
 73
10
 74
0
 42
0.0000001
 43
0.0000001
 44
0.0000000001
 40
0.0
 40
0.0
 40
0.0
 40
0.0
 40
0.2572902629
 40
0.3849590649
 40
0.5115934386
 40
0.6368246184
 40
0.7603437021
 40
0.881669625
 40
1.0
 40
1.0
 40
1.0
 40
1.0
 10
6.3505255352
 20
5.8227701833
 30
0.0
 10
6.3495869702
 20
5.8216958349
 30
0.0
 10
6.3480963321
 20
5.8201603338
 30
0.0
 10
6.3459555445
 20
5.818297647
 30
0.0
 10
6.3442887332
 20
5.817010839
 30
0.0
 10
6.3425634272
 20
5.8158439699
 30
0.0
 10
6.3407870731
 20
5.8148133346
 30
0.0
 10
6.3389765109
 20
5.8139284218
 30
0.0
 10
6.3377441018
 20
5.8134281897
 30
0.0
 10
6.3371277823
 20
5.8132032118
 30
0.0
  0
SPLINE
  5
2FE
100
AcDbEntity
  8
ALL_ASSEMBLY_MEMBERS
100
AcDbSpline
 62
7
  6
CONTINUOUS
 70
0
 71
3
 72
17
 73
13
 74
0
 42
0.0000001
 43
0.0000001
 44
0.0000000001
 40
0.0
 40
0.0
 40
0.0
 40
0.0
 40
0.1678778611
 40
0.3283081144
 40
0.4769994758
 40
0.6112695522
 40
0.7294826135
 40
0.7825637424
 40
0.831783763
 40
0.9200249619
 40
0.9606347608
 40
1.0
 40
1.0
 40
1.0
 40
1.0
 10
6.3371277823
 20
5.8132032118
 30
0.0
 10
6.3370387488
 20
5.8143315407
 30
0.0
 10
6.3367752172
 20
5.8165322526
 30
0.0
 10
6.3361216313
 20
5.8196854008
 30
0.0
 10
6.3352279157
 20
5.8225441152
 30
0.0
 10
6.3341265552
 20
5.8250218028
 30
0.0
 10
6.3330200822
 20
5.826772562
 30
0.0
 10
6.3320457392
 20
5.8278996433
 30
0.0
 10
6.3311004065
 20
5.8287713825
 30
0.0
 10
6.3300578388
 20
5.8294111216
 30
0.0
 10
6.3289647302
 20
5.8297330081
 30
0.0
 10
6.3284241776
 20
5.8297865674
 30
0.0
 10
6.3281587763
 20
5.8297865652
 30
0.0
  0
SPLINE
  5
2FF
100
AcDbEntity
  8
ALL_ASSEMBLY_MEMBERS
100
AcDbSpline
 62
7
  6
CONTINUOUS
 70
0
 71
3
 72
9
 73
5
 74
0
 42
0.0000001
 43
0.0000001
 44
0.0000000001
 40
0.0
 40
0.0
 40
0.0
 40
0.0
 40
0.2346690707
 40
1.0
 40
1.0
 40
1.0
 40
1.0
 10
6.3290814673
 20
5.8097865766
 30
0.0
 10
6.3296941384
 20
5.8100907094
 30
0.0
 10
6.3323243248
 20
5.8113474285
 30
0.0
 10
6.3350296033
 20
5.8124455737
 30
0.0
 10
6.3371277644
 20
5.813203205
 30
0.0
  0
SPLINE
  5
300
100
AcDbEntity
  8
ALL_ASSEMBLY_MEMBERS
100
AcDbSpline
 62
7
  6
CONTINUOUS
 70
0
 71
3
 72
17
 73
13
 74
0
 42
0.0000001
 43
0.0000001
 44
0.0000000001
 40
0.0
 40
0.0
 40
0.0
 40
0.0
 40
0.1448395821
 40
0.287205435
 40
0.4241815026
 40
0.5540299098
 40
0.6757128856
 40
0.7892895148
 40
0.8436009441
 40
0.8965989709
 40
0.9486129468
 40
1.0
 40
1.0
 40
1.0
 40
1.0
 10
6.329081432
 20
5.8097865766
 30
0.0
 10
6.3290814299
 20
5.811089242
 30
0.0
 10
6.3289018005
 20
5.8136758656
 30
0.0
 10
6.3281086329
 20
5.817420312
 30
0.0
 10
6.3268145732
 20
5.8208815202
 30
0.0
 10
6.3250663988
 20
5.8239269702
 30
0.0
 10
6.32292874
 20
5.8264462711
 30
0.0
 10
6.3208428522
 20
5.8280473343
 30
0.0
 10
6.319067543
 20
5.828949356
 30
0.0
 10
6.3177129761
 20
5.8294297115
 30
0.0
 10
6.316332673
 20
5.8297207523
 30
0.0
 10
6.3154014638
 20
5.8297865766
 30
0.0
 10
6.3149392963
 20
5.8297865766
 30
0.0
  0
SPLINE
  5
301
100
AcDbEntity
  8
ALL_ASSEMBLY_MEMBERS
100
AcDbSpline
 62
7
  6
CONTINUOUS
 70
0
 71
3
 72
16
 73
12
 74
0
 42
0.0000001
 43
0.0000001
 44
0.0000000001
 40
0.0
 40
0.0
 40
0.0
 40
0.0
 40
0.0295189127
 40
0.0639337647
 40
0.1035148662
 40
0.1482458774
 40
0.252423092
 40
0.37443924
 40
0.5121805651
 40
0.6635544875
 40
1.0
 40
1.0
 40
1.0
 40
1.0
 10
5.9624563701
 20
5.8165105309
 30
0.0
 10
5.9624968838
 20
5.8163971173
 30
0.0
 10
5.962615673
 20
5.8161625556
 30
0.0
 10
5.9628645897
 20
5.8158202037
 30
0.0
 10
5.9631913646
 20
5.815461607
 30
0.0
 10
5.9637537555
 20
5.8149362939
 30
0.0
 10
5.9646285396
 20
5.8142575547
 30
0.0
 10
5.9658611186
 20
5.813428799
 30
0.0
 10
5.9672957569
 20
5.8125587387
 30
0.0
 10
5.9695202788
 20
5.8113071388
 30
0.0
 10
5.9712909435
 20
5.8103967817
 30
0.0
 10
5.9725204983
 20
5.8097865766
 30
0.0
  0
SPLINE
  5
302
100
AcDbEntity
  8
ALL_ASSEMBLY_MEMBERS
100
AcDbSpline
 62
7
  6
CONTINUOUS
 70
0
 71
3
 72
14
 73
10
 74
0
 42
0.0000001
 43
0.0000001
 44
0.0000000001
 40
0.0
 40
0.0
 40
0.0
 40
0.0
 40
0.1183285859
 40
0.2396547992
 40
0.3631733771
 40
0.4884061005
 40
0.6150413577
 40
0.742709638
 40
1.0
 40
1.0
 40
1.0
 40
1.0
 10
6.3371277916
 20
5.9643698069
 30
0.0
 10
6.3377446839
 20
5.9641445596
 30
0.0
 10
6.3389782701
 20
5.9636438055
 30
0.0
 10
6.3407905791
 20
5.9627580051
 30
0.0
 10
6.342568557
 20
5.9617261534
 30
0.0
 10
6.3442953981
 20
5.9605579031
 30
0.0
 10
6.3459635421
 20
5.95926943
 30
0.0
 10
6.3481056274
 20
5.9574039925
 30
0.0
 10
6.3495969434
 20
5.9558662773
 30
0.0
 10
6.3505362209
 20
5.9547907017
 30
0.0
  0
SPLINE
  5
303
100
AcDbEntity
  8
ALL_ASSEMBLY_MEMBERS
100
AcDbSpline
 62
7
  6
CONTINUOUS
 70
0
 71
3
 72
19
 73
15
 74
0
 42
0.0000001
 43
0.0000001
 44
0.0000000001
 40
0.0
 40
0.0
 40
0.0
 40
0.0
 40
0.1950771265
 40
0.3774960765
 40
0.541683925
 40
0.6836275686
 40
0.7452070645
 40
0.8001943144
 40
0.8485343155
 40
0.8903508885
 40
0.9260077394
 40
0.9416488992
 40
0.9558840855
 40
1.0
 40
1.0
 40
1.0
 40
1.0
 10
6.3505362209
 20
5.9547907017
 30
0.0
 10
6.3499289254
 20
5.9539596057
 30
0.0
 10
6.3487160687
 20
5.952378556
 30
0.0
 10
6.3468829552
 20
5.9501846592
 30
0.0
 10
6.3451538344
 20
5.9482718496
 30
0.0
 10
6.3437865977
 20
5.9468935885
 30
0.0
 10
6.3427784433
 20
5.9459743128
 30
0.0
 10
6.342108629
 20
5.9454181889
 30
0.0
 10
6.3414877143
 20
5.944968608
 30
0.0
 10
6.3409138927
 20
5.9446316584
 30
0.0
 10
6.3404575762
 20
5.9444442524
 30
0.0
 10
6.3401212997
 20
5.9443582046
 30
0.0
 10
6.3397383123
 20
5.9442997844
 30
0.0
 10
6.3393990927
 20
5.9443309175
 30
0.0
 10
6.3392048699
 20
5.9444592294
 30
0.0
  0
SPLINE
  5
304
100
AcDbEntity
  8
ALL_ASSEMBLY_MEMBERS
100
AcDbSpline
 62
7
  6
CONTINUOUS
 70
0
 71
3
 72
9
 73
5
 74
0
 42
0.0000001
 43
0.0000001
 44
0.0000000001
 40
0.0
 40
0.0
 40
0.0
 40
0.0
 40
0.2654325286
 40
1.0
 40
1.0
 40
1.0
 40
1.0
 10
6.3371278049
 20
5.9643698019
 30
0.0
 10
6.3364001021
 20
5.9646325774
 30
0.0
 10
6.3336722705
 20
5.9656599709
 30
0.0
 10
6.3309991876
 20
5.9668345427
 30
0.0
 10
6.329081338
 20
5.9677865766
 30
0.0
  0
SPLINE
  5
305
100
AcDbEntity
  8
ALL_ASSEMBLY_MEMBERS
100
AcDbSpline
 62
7
  6
CONTINUOUS
 70
0
 71
3
 72
22
 73
18
 74
0
 42
0.0000001
 43
0.0000001
 44
0.0000000001
 40
0.0
 40
0.0
 40
0.0
 40
0.0
 40
0.0544803003
 40
0.1091467509
 40
0.1641839765
 40
0.2197793586
 40
0.2761279454
 40
0.3334202926
 40
0.3918588595
 40
0.4516464219
 40
0.5129835643
 40
0.576080784
 40
0.6411255581
 40
0.7083066965
 40
0.7777486589
 40
0.8495528185
 40
1.0
 40
1.0
 40
1.0
 40
1.0
 10
6.164942865
 20
5.673786051
 30
0.0
 10
6.1695776739
 20
5.6737859199
 30
0.0
 10
6.1788672648
 20
5.6741517761
 30
0.0
 10
6.1927513002
 20
5.6757980572
 30
0.0
 10
6.2065573779
 20
5.6785477123
 30
0.0
 10
6.2202414881
 20
5.6824155531
 30
0.0
 10
6.2337598321
 20
5.6874125207
 30
0.0
 10
6.2470620131
 20
5.6935613801
 30
0.0
 10
6.2600926246
 20
5.7008845331
 30
0.0
 10
6.2727901598
 20
5.7094062146
 30
0.0
 10
6.2850806761
 20
5.7191573539
 30
0.0
 10
6.2968834471
 20
5.7301614419
 30
0.0
 10
6.3080991705
 20
5.7424466753
 30
0.0
 10
6.3186164791
 20
5.7560248222
 30
0.0
 10
6.3283055874
 20
5.7709008376
 30
0.0
 10
6.3401005654
 20
5.7927558112
 30
0.0
 10
6.3469366099
 20
5.8105127302
 30
0.0
 10
6.3505323866
 20
5.8227962582
 30
0.0
  0
SPLINE
  5
306
100
AcDbEntity
  8
ALL_ASSEMBLY_MEMBERS
100
AcDbSpline
 62
7
  6
CONTINUOUS
 70
0
 71
3
 72
17
 73
13
 74
0
 42
0.0000001
 43
0.0000001
 44
0.0000000001
 40
0.0
 40
0.0
 40
0.0
 40
0.0
 40
0.1678781104
 40
0.3283084886
 40
0.4769998833
 40
0.6112699192
 40
0.7294828708
 40
0.7825639386
 40
0.8317839107
 40
0.9200250676
 40
0.9606348358
 40
1.0
 40
1.0
 40
1.0
 40
1.0
 10
6.3371278049
 20
5.9643698019
 30
0.0
 10
6.3370387625
 20
5.9632414837
 30
0.0
 10
6.3367752167
 20
5.9610407942
 30
0.0
 10
6.336121616
 20
5.9578876803
 30
0.0
 10
6.3352278893
 20
5.955029001
 30
0.0
 10
6.3341265228
 20
5.9525513476
 30
0.0
 10
6.3330200499
 20
5.9508006154
 30
0.0
 10
6.3320457098
 20
5.949673554
 30
0.0
 10
6.331100381
 20
5.9488018317
 30
0.0
 10
6.3300578196
 20
5.9481621081
 30
0.0
 10
6.328964721
 20
5.9478402332
 30
0.0
 10
6.3284241744
 20
5.9477866782
 30
0.0
 10
6.3281587764
 20
5.9477866822
 30
0.0
  0
SPLINE
  5
307
100
AcDbEntity
  8
ALL_ASSEMBLY_MEMBERS
100
AcDbSpline
 62
7
  6
CONTINUOUS
 70
0
 71
3
 72
17
 73
13
 74
0
 42
0.0000001
 43
0.0000001
 44
0.0000000001
 40
0.0
 40
0.0
 40
0.0
 40
0.0
 40
0.1448395153
 40
0.2872052815
 40
0.4241812672
 40
0.5540296151
 40
0.6757125711
 40
0.7892892394
 40
0.8436007134
 40
0.8965988016
 40
0.9486128547
 40
1.0
 40
1.0
 40
1.0
 40
1.0
 10
5.9725205228
 20
5.8097865766
 30
0.0
 10
5.9725205228
 20
5.8110892419
 30
0.0
 10
5.9723408972
 20
5.8136758653
 30
0.0
 10
5.9715477336
 20
5.8174203118
 30
0.0
 10
5.9702536764
 20
5.8208815201
 30
0.0
 10
5.9685055028
 20
5.8239269704
 30
0.0
 10
5.9663678429
 20
5.8264462715
 30
0.0
 10
5.9642819531
 20
5.8280473345
 30
0.0
 10
5.9625066415
 20
5.828949356
 30
0.0
 10
5.9611520724
 20
5.8294297115
 30
0.0
 10
5.9597717667
 20
5.8297207523
 30
0.0
 10
5.9588405556
 20
5.8297865766
 30
0.0
 10
5.9583783872
 20
5.8297865766
 30
0.0
  0
SPLINE
  5
308
100
AcDbEntity
  8
ALL_ASSEMBLY_MEMBERS
100
AcDbSpline
 62
7
  6
CONTINUOUS
 70
0
 71
3
 72
17
 73
13
 74
0
 42
0.0000001
 43
0.0000001
 44
0.0000000001
 40
0.0
 40
0.0
 40
0.0
 40
0.0
 40
0.1448395152
 40
0.2872052814
 40
0.4241812671
 40
0.554029615
 40
0.675712571
 40
0.7892892393
 40
0.8436007133
 40
0.8965988015
 40
0.9486128547
 40
1.0
 40
1.0
 40
1.0
 40
1.0
 10
6.3290813012
 20
5.9677865766
 30
0.0
 10
6.3290813012
 20
5.9664839113
 30
0.0
 10
6.3289016755
 20
5.9638972879
 30
0.0
 10
6.328108512
 20
5.9601528414
 30
0.0
 10
6.3268144548
 20
5.9566916331
 30
0.0
 10
6.3250662812
 20
5.9536461828
 30
0.0
 10
6.3229286213
 20
5.9511268817
 30
0.0
 10
6.3208427314
 20
5.9495258187
 30
0.0
 10
6.3190674199
 20
5.9486237972
 30
0.0
 10
6.3177128508
 20
5.9481434417
 30
0.0
 10
6.316332545
 20
5.9478524008
 30
0.0
 10
6.315401334
 20
5.9477865766
 30
0.0
 10
6.3149391656
 20
5.9477865766
 30
0.0
  0
SPLINE
  5
309
100
AcDbEntity
  8
ALL_ASSEMBLY_MEMBERS
100
AcDbSpline
 62
7
  6
CONTINUOUS
 70
0
 71
3
 72
16
 73
12
 74
0
 42
0.0000001
 43
0.0000001
 44
0.0000000001
 40
0.0
 40
0.0
 40
0.0
 40
0.0
 40
0.3364289885
 40
0.4878021146
 40
0.6255404272
 40
0.7475619024
 40
0.8517439214
 40
0.8964769936
 40
0.9360613909
 40
0.9704790603
 40
1.0
 40
1.0
 40
1.0
 40
1.0
 10
5.9725203371
 20
5.9677865766
 30
0.0
 10
5.9712908625
 20
5.9671764989
 30
0.0
 10
5.9695203579
 20
5.966266175
 30
0.0
 10
5.967296021
 20
5.9650146468
 30
0.0
 10
5.9658614801
 20
5.9641445575
 30
0.0
 10
5.9646289412
 20
5.9633158104
 30
0.0
 10
5.9637541519
 20
5.9626370772
 30
0.0
 10
5.9631917483
 20
5.9621117677
 30
0.0
 10
5.9628649438
 20
5.961753183
 30
0.0
 10
5.9626159852
 20
5.9614108444
 30
0.0
 10
5.9624971585
 20
5.9611762938
 30
0.0
 10
5.9624566237
 20
5.9610628847
 30
0.0
  0
SPLINE
  5
30A
100
AcDbEntity
  8
ALL_ASSEMBLY_MEMBERS
100
AcDbSpline
 62
7
  6
CONTINUOUS
 70
0
 71
3
 72
17
 73
13
 74
0
 42
0.0000001
 43
0.0000001
 44
0.0000000001
 40
0.0
 40
0.0
 40
0.0
 40
0.0
 40
0.1448393673
 40
0.2872049524
 40
0.4241807482
 40
0.5540289474
 40
0.6757118507
 40
0.7892886001
 40
0.8436001727
 40
0.8965984003
 40
0.9486126343
 40
1.0
 40
1.0
 40
1.0
 40
1.0
 10
5.972520392
 20
5.9677865766
 30
0.0
 10
5.9725203971
 20
5.9664839115
 30
0.0
 10
5.9723407803
 20
5.9638972882
 30
0.0
 10
5.9715476265
 20
5.9601528411
 30
0.0
 10
5.9702535751
 20
5.9566916321
 30
0.0
 10
5.9685054031
 20
5.9536461813
 30
0.0
 10
5.9663677406
 20
5.95112688
 30
0.0
 10
5.9642818458
 20
5.9495258178
 30
0.0
 10
5.962506529
 20
5.9486237968
 30
0.0
 10
5.9611519545
 20
5.9481434414
 30
0.0
 10
5.9597716426
 20
5.9478524007
 30
0.0
 10
5.9588404272
 20
5.9477865766
 30
0.0
 10
5.9583782564
 20
5.9477865766
 30
0.0
  0
SPLINE
  5
30B
100
AcDbEntity
  8
ALL_ASSEMBLY_MEMBERS
100
AcDbSpline
 62
7
  6
CONTINUOUS
 70
0
 71
3
 72
22
 73
18
 74
0
 42
0.0000001
 43
0.0000001
 44
0.0000000001
 40
0.0
 40
0.0
 40
0.0
 40
0.0
 40
0.1504408084
 40
0.2222429317
 40
0.2916833491
 40
0.3588633351
 40
0.423907578
 40
0.4870048884
 40
0.5483426506
 40
0.6081312449
 40
0.6665711522
 40
0.7238649857
 40
0.7802151617
 40
0.8358121238
 40
0.8908508272
 40
0.9455186135
 40
1.0
 40
1.0
 40
1.0
 40
1.0
 10
6.3505189866
 20
5.9548151746
 30
0.0
 10
6.3469244166
 20
5.9670951805
 30
0.0
 10
6.3400871288
 20
5.9848459875
 30
0.0
 10
6.3282928862
 20
6.0066933068
 30
0.0
 10
6.3186049274
 20
6.0215643302
 30
0.0
 10
6.3080893624
 20
6.0351380721
 30
0.0
 10
6.296875769
 20
6.0474194666
 30
0.0
 10
6.2850754351
 20
6.0584203054
 30
0.0
 10
6.2727875993
 20
6.0681687837
 30
0.0
 10
6.2600929367
 20
6.076688378
 30
0.0
 10
6.247065347
 20
6.0840099891
 30
0.0
 10
6.2337663115
 20
6.0901578626
 30
0.0
 10
6.2202511867
 20
6.095154344
 30
0.0
 10
6.2065703533
 20
6.0990222262
 30
0.0
 10
6.1927675736
 20
6.1017724328
 30
0.0
 10
6.1788868269
 20
6.1034197381
 30
0.0
 10
6.1695993859
 20
6.1037866349
 30
0.0
 10
6.1649656352
 20
6.1037871033
 30
0.0
  0
SPLINE
  5
30C
100
AcDbEntity
  8
ALL_ASSEMBLY_MEMBERS
100
AcDbSpline
 62
7
  6
CONTINUOUS
 70
0
 71
3
 72
22
 73
18
 74
0
 42
0.0000001
 43
0.0000001
 44
0.0000000001
 40
0.0
 40
0.0
 40
0.0
 40
0.0
 40
0.0079150587
 40
0.0164830056
 40
0.0262003249
 40
0.0374008452
 40
0.0649787674
 40
0.1001340014
 40
0.1430204261
 40
0.1934861412
 40
0.2512602634
 40
0.3158883648
 40
0.3867838179
 40
0.4633367706
 40
0.6306772061
 40
0.8120056754
 40
1.0
 40
1.0
 40
1.0
 40
1.0
 10
6.3481587764
 20
5.8497865766
 30
0.0
 10
6.3481587764
 20
5.8498412965
 30
0.0
 10
6.3481766771
 20
5.8499558132
 30
0.0
 10
6.3482536843
 20
5.8501217132
 30
0.0
 10
6.3483782541
 20
5.8502846234
 30
0.0
 10
6.3486237593
 20
5.8505145601
 30
0.0
 10
6.349059587
 20
5.8507886545
 30
0.0
 10
6.3497265389
 20
5.8510881749
 30
0.0
 10
6.350567858
 20
5.8513767733
 30
0.0
 10
6.3515763286
 20
5.8516516332
 30
0.0
 10
6.352743692
 20
5.8519094274
 30
0.0
 10
6.3540588734
 20
5.852147704
 30
0.0
 10
6.3555091658
 20
5.8523642671
 30
0.0
 10
6.3576695525
 20
5.8526283098
 30
0.0
 10
6.3605992831
 20
5.8528819831
 30
0.0
 10
6.364305611
 20
5.853064461
 30
0.0
 10
6.3668590975
 20
5.8531057253
 30
0.0
 10
6.3681587764
 20
5.8531057255
 30
0.0
  0
SPLINE
  5
30D
100
AcDbEntity
  8
ALL_ASSEMBLY_MEMBERS
100
AcDbSpline
 62
7
  6
CONTINUOUS
 70
0
 71
3
 72
14
 73
10
 74
0
 42
0.0000001
 43
0.0000001
 44
0.0000000001
 40
0.0
 40
0.0
 40
0.0
 40
0.0
 40
0.1255031802
 40
0.2506455267
 40
0.3754502618
 40
0.5001051725
 40
0.6247595293
 40
0.7496065013
 40
1.0
 40
1.0
 40
1.0
 40
1.0
 10
6.3681587764
 20
5.8531057255
 30
0.0
 10
6.3681587843
 20
5.8515745417
 30
0.0
 10
6.367947899
 20
5.8485124643
 30
0.0
 10
6.3670117135
 20
5.8440148855
 30
0.0
 10
6.3654839617
 20
5.839692879
 30
0.0
 10
6.3634058701
 20
5.8356150898
 30
0.0
 10
6.3608287211
 20
5.8318320107
 30
0.0
 10
6.3567873399
 20
5.8272481504
 30
0.0
 10
6.3531320412
 20
5.8244006745
 30
0.0
 10
6.3505323866
 20
5.8227962582
 30
0.0
  0
ENDSEC
  0
SECTION
  2
OBJECTS
  0
DICTIONARY
  5
C
100
AcDbDictionary
280
0
281
1
  3
ACAD_GROUP
350
D
  3
ACAD_MLINESTYLE
350
17
  3
ACAD_LAYOUT
350
1A
  3
ACAD_PLOTSETTINGS
350
19
  3
ACAD_PLOTSTYLENAME
350
E
  0
DICTIONARY
  5
D
102
{ACAD_REACTORS
330
C
102
}
100
AcDbDictionary
280
0
281
1
  0
ACDBDICTIONARYWDFLT
  5
E
102
{ACAD_REACTORS
330
C
102
}
100
AcDbDictionary
281
1
  3
Normal
350
F
100
AcDbDictionaryWithDefault
340
F
  0
DICTIONARY
  5
17
102
{ACAD_REACTORS
330
C
102
}
100
AcDbDictionary
280
0
281
1
  3
Standard
350
18
  0
DICTIONARY
  5
19
102
{ACAD_REACTORS
330
C
102
}
100
AcDbDictionary
281
1
  0
DICTIONARY
  5
1A
102
{ACAD_REACTORS
330
C
102
}
100
AcDbDictionary
281
1
  3
Model
350
30E
  3
Layout1
350
30F
  0
ACDBPLACEHOLDER
  5
F
102
{ACAD_REACTORS
330
E
102
}
  0
MLINESTYLE
  5
18
102
{ACAD_REACTORS
330
17
102
}
100
AcDbMlineStyle
  2
STANDARD
 70
0
  3

 62
256
 51
90.0
 52
90.0
 71
2
 49
0.5
 62
256
  6
BYLAYER
 49
-0.5
 62
256
  6
BYLAYER
  0
LAYOUT
  5
30E
102
{ACAD_REACTORS
330
1A
102
}
100
AcDbPlotSettings
  1

  2
none_device
  4
ANSI_A_(11.00_x_8.50_Inches)
  6

 40
0.0
 41
0.0
 42
0.0
 43
0.0
 44
279.4
 45
215.9
 46
0.0
 47
0.0
 48
0.0
 49
0.0
140
0.0
141
0.0
142
1.0
143
1.0
 70
1024
 72
0
 73
0
 74
0
  7

 75
0
147
1.0
148
0.0
149
0.0
100
AcDbLayout
  1
Model
 70
0
 71
0
 10
0.0
 20
0.0
 11
11.0
 21
8.5
 12
0.0
 22
0.0
 32
0.0
 14
0.0
 24
0.0
 34
0.0
 15
0.0
 25
0.0
 35
0.0
146
0.0
 13
0.0
 23
0.0
 33
0.0
 16
1.0
 26
0.0
 36
0.0
 17
0.0
 27
1.0
 37
0.0
 76
0
330
221
345
0
346
0
  0
LAYOUT
  5
30F
102
{ACAD_REACTORS
330
1A
102
}
100
AcDbPlotSettings
  1

  2
none_device
  4
ANSI_A_(11.00_x_8.50_Inches)
  6

 40
0.0
 41
0.0
 42
0.0
 43
0.0
 44
279.4
 45
215.9
 46
0.0
 47
0.0
 48
0.0
 49
0.0
140
0.0
141
0.0
142
1.0
143
1.0
 70
0
 72
0
 73
0
 74
0
  7

 75
0
147
1.0
148
0.0
149
0.0
100
AcDbLayout
  1
Layout1
 70
0
 71
1
 10
0.0
 20
0.0
 11
11.0
 21
8.5
 12
0.0
 22
0.0
 32
0.0
 14
0.0
 24
0.0
 34
0.0
 15
0.0
 25
0.0
 35
0.0
146
0.0
 13
0.0
 23
0.0
 33
0.0
 16
1.0
 26
0.0
 36
0.0
 17
0.0
 27
1.0
 37
0.0
 76
0
330
222
345
0
346
0
  0
ENDSEC
  0
EOF
