999
DXF file: 3-2541_RIGHT.dxf
999
Pro/ENGINEER 2018400 by Parametric Technology Corporation
  0
SECTION
  2
HEADER
  9
$ACADVER
  1
AC1027
  9
$DWGCODEPAGE
  3
ANSI_1252
  9
$EXTMAX
 10
11.0
 20
8.5
 30
0.0
  9
$EXTMIN
 10
0.0
 20
0.0
 30
0.0
  9
$LIMMIN
 10
0.0
 20
0.0
  9
$LIMMAX
 10
11.0
 20
8.5
  9
$VIEWCTR
 10
5.5
 20
4.25
  9
$VIEWSIZE
 40
8.5
  9
$CLAYER
  8
0
  9
$LTSCALE
 40
0.605
  9
$CELTYPE
  6
BYLAYER
  9
$DIMSCALE
 40
1.0
  9
$DIMASZ
 40
0.1
  9
$DIMEXO
 40
0.0625
  9
$DIMDLI
 40
0.418
  9
$DIMEXE
 40
0.125
  9
$DIMCEN
 40
0.099
  9
$DIMLFAC
 40
1.0
  9
$DIMBLK
  1
_FILLED
  9
$DIMALT
 70
1
  9
$DIMALTD
 70
2
  9
$DIMALTTD
 70
2
  9
$DIMALTF
 40
25.4
  9
$DIMTXT
 40
0.08
  9
$DIMTOL
 70
1
  9
$DIMLIM
 70
0
  9
$DIMTFAC
 40
1.0
  9
$DIMTP
 40
0.001
  9
$DIMTM
 40
0.001
  9
$DIMGAP
 40
0.09
  9
$DIMDSEP
 70
46
  9
$AUNITS
 70
0
  9
$PDMODE
 70
3
  9
$PDSIZE
 40
0.3125
  9
$HANDSEED
  5
2A8
  9
$TILEMODE
 70
1
  9
$MEASUREMENT
 70
0
  9
$INSUNITS
 70
1
  0
ENDSEC
  0
SECTION
  2
CLASSES
  0
CLASS
  1
ACDBDICTIONARYWDFLT
  2
AcDbDictionaryWithDefault
  3
AutoCAD 2000
 90
0
 91
1
280
0
281
0
  0
CLASS
  1
ACDBPLACEHOLDER
  2
AcDbPlaceHolder
  3
AutoCAD 2000
 90
0
 91
1
280
0
281
0
  0
CLASS
  1
LAYOUT
  2
AcDbLayout
  3
AutoCAD 2000
 90
0
 91
0
280
0
281
0
  0
ENDSEC
  0
SECTION
  2
TABLES
  0
TABLE
  2
VPORT
  5
8
100
AcDbSymbolTable
 70
2
  0
VPORT
  5
1F4
100
AcDbSymbolTableRecord
100
AcDbViewportTableRecord
  2
*ACTIVE
 70
0
 10
0.0
 20
0.0
 11
1.0
 21
1.0
 12
5.5
 22
4.25
 13
0.0
 23
0.0
 14
1.0
 24
1.0
 15
0.0
 25
0.0
 16
0.0
 26
0.0
 36
1.0
 17
0.0
 27
0.0
 37
0.0
 40
8.5
 41
1.2941176471
 42
50.0
 43
0.0
 44
0.0
 50
0.0
 51
0.0
 71
0
 72
100
 73
1
 74
1
 75
0
 76
0
 77
0
 78
0
  0
ENDTAB
  0
TABLE
  2
LTYPE
  5
5
100
AcDbSymbolTable
 70
6
  0
LTYPE
  5
14
100
AcDbSymbolTableRecord
100
AcDbLinetypeTableRecord
  2
BYBLOCK
 70
0
  3

 72
65
 73
0
 40
0.0
  0
LTYPE
  5
15
100
AcDbSymbolTableRecord
100
AcDbLinetypeTableRecord
  2
BYLAYER
 70
0
  3

 72
65
 73
0
 40
0.0
  0
LTYPE
  5
16
100
AcDbSymbolTableRecord
100
AcDbLinetypeTableRecord
  2
CONTINUOUS
 70
64
  3
Solid line
 72
65
 73
0
 40
0.0
  0
LTYPE
  5
1F5
100
AcDbSymbolTableRecord
100
AcDbLinetypeTableRecord
  2
CENTER
 70
64
  3
____ _ ____ _ ____ _ ____ _ ____ _ ____ _ ____
 72
65
 73
4
 40
0.6
 49
0.375
 74
0
 49
-0.075
 74
0
 49
0.075
 74
0
 49
-0.075
 74
0
  0
LTYPE
  5
1F6
100
AcDbSymbolTableRecord
100
AcDbLinetypeTableRecord
  2
HIDDEN
 70
64
  3
- - - - - - - - - - - - - - - - - - - -
 72
65
 73
2
 40
0.2
 49
0.1
 74
0
 49
-0.1
 74
0
  0
LTYPE
  5
1F7
100
AcDbSymbolTableRecord
100
AcDbLinetypeTableRecord
  2
PHANTOM
 70
64
  3
_____ _ _ _____ _ _ _____ _ _ _____
 72
65
 73
6
 40
0.8
 49
0.45
 74
0
 49
-0.05
 74
0
 49
0.1
 74
0
 49
-0.05
 74
0
 49
0.1
 74
0
 49
-0.05
 74
0
  0
LTYPE
  5
1F8
100
AcDbSymbolTableRecord
100
AcDbLinetypeTableRecord
  2
DOT
 70
64
  3
. . . . . . . . . . . . . . . . . . . .
 72
65
 73
2
 40
0.2
 49
0.1
 74
0
 49
-0.1
 74
0
  0
LTYPE
  5
1F9
100
AcDbSymbolTableRecord
100
AcDbLinetypeTableRecord
  2
DASHED
 70
64
  3
- - - - - - - - - - - - - - - - - - - -
 72
65
 73
2
 40
0.2
 49
0.1
 74
0
 49
-0.1
 74
0
  0
ENDTAB
  0
TABLE
  2
LAYER
  5
2
100
AcDbSymbolTable
 70
36
  0
LAYER
  5
10
100
AcDbSymbolTableRecord
100
AcDbLayerTableRecord
  2
0
 70
0
 62
7
  6
CONTINUOUS
370
-3
390
F
  0
LAYER
  5
1FA
100
AcDbSymbolTableRecord
100
AcDbLayerTableRecord
  2
DEFAULT_1
 70
0
 62
7
  6
CENTER
370
-3
390
F
  0
LAYER
  5
1FB
100
AcDbSymbolTableRecord
100
AcDbLayerTableRecord
  2
DEFAULT_2
 70
0
 62
8
  6
HIDDEN
370
-3
390
F
  0
LAYER
  5
1FC
100
AcDbSymbolTableRecord
100
AcDbLayerTableRecord
  2
DEFAULT_3
 70
0
 62
7
  6
PHANTOM
370
-3
390
F
  0
LAYER
  5
1FD
100
AcDbSymbolTableRecord
100
AcDbLayerTableRecord
  2
ALL_ASSEMBLY_MEMBERS
 70
0
 62
7
  6
CONTINUOUS
370
-3
390
F
  0
LAYER
  5
1FE
100
AcDbSymbolTableRecord
100
AcDbLayerTableRecord
  2
ALL_FEATURES
 70
0
 62
7
  6
CONTINUOUS
370
-3
390
F
  0
LAYER
  5
1FF
100
AcDbSymbolTableRecord
100
AcDbLayerTableRecord
  2
AXES_FEATURES
 70
0
 62
7
  6
CONTINUOUS
370
-3
390
F
  0
LAYER
  5
200
100
AcDbSymbolTableRecord
100
AcDbLayerTableRecord
  2
CHAMFER_FEATURES
 70
0
 62
7
  6
CONTINUOUS
370
-3
390
F
  0
LAYER
  5
201
100
AcDbSymbolTableRecord
100
AcDbLayerTableRecord
  2
COSMETIC_SKETCHES
 70
0
 62
7
  6
CONTINUOUS
370
-3
390
F
  0
LAYER
  5
202
100
AcDbSymbolTableRecord
100
AcDbLayerTableRecord
  2
CUT_FEATURES
 70
0
 62
7
  6
CONTINUOUS
370
-3
390
F
  0
LAYER
  5
203
100
AcDbSymbolTableRecord
100
AcDbLayerTableRecord
  2
DATUM_CURVES
 70
0
 62
7
  6
CONTINUOUS
370
-3
390
F
  0
LAYER
  5
204
100
AcDbSymbolTableRecord
100
AcDbLayerTableRecord
  2
DATUM_PLANES
 70
0
 62
7
  6
CONTINUOUS
370
-3
390
F
  0
LAYER
  5
205
100
AcDbSymbolTableRecord
100
AcDbLayerTableRecord
  2
DATUM_POINTS
 70
0
 62
7
  6
CONTINUOUS
370
-3
390
F
  0
LAYER
  5
206
100
AcDbSymbolTableRecord
100
AcDbLayerTableRecord
  2
DEFAULT_COORDINATE_SYSTEM
 70
0
 62
7
  6
CONTINUOUS
370
-3
390
F
  0
LAYER
  5
207
100
AcDbSymbolTableRecord
100
AcDbLayerTableRecord
  2
DEFAULT_DATUM_AXES
 70
0
 62
7
  6
CONTINUOUS
370
-3
390
F
  0
LAYER
  5
208
100
AcDbSymbolTableRecord
100
AcDbLayerTableRecord
  2
DEFAULT_DATUM_CURVES
 70
0
 62
7
  6
CONTINUOUS
370
-3
390
F
  0
LAYER
  5
209
100
AcDbSymbolTableRecord
100
AcDbLayerTableRecord
  2
DEFAULT_DATUM_PLANES
 70
0
 62
7
  6
CONTINUOUS
370
-3
390
F
  0
LAYER
  5
20A
100
AcDbSymbolTableRecord
100
AcDbLayerTableRecord
  2
DEFAULT_SURFACES
 70
0
 62
7
  6
CONTINUOUS
370
-3
390
F
  0
LAYER
  5
20B
100
AcDbSymbolTableRecord
100
AcDbLayerTableRecord
  2
DIMENSIONS
 70
0
 62
7
  6
CONTINUOUS
370
-3
390
F
  0
LAYER
  5
20C
100
AcDbSymbolTableRecord
100
AcDbLayerTableRecord
  2
HOLE_FEATURES
 70
0
 62
7
  6
CONTINUOUS
370
-3
390
F
  0
LAYER
  5
20D
100
AcDbSymbolTableRecord
100
AcDbLayerTableRecord
  2
NONE
 70
0
 62
7
  6
CONTINUOUS
370
-3
390
F
  0
LAYER
  5
20E
100
AcDbSymbolTableRecord
100
AcDbLayerTableRecord
  2
PART_REFERENCE_DIMENSIONS
 70
0
 62
7
  6
CONTINUOUS
370
-3
390
F
  0
LAYER
  5
20F
100
AcDbSymbolTableRecord
100
AcDbLayerTableRecord
  2
PLATED_SURFACE_AREA
 70
0
 62
7
  6
CONTINUOUS
370
-3
390
F
  0
LAYER
  5
210
100
AcDbSymbolTableRecord
100
AcDbLayerTableRecord
  2
POINTS
 70
0
 62
7
  6
CONTINUOUS
370
-3
390
F
  0
LAYER
  5
211
100
AcDbSymbolTableRecord
100
AcDbLayerTableRecord
  2
PROTRUSION_FEATURES
 70
0
 62
7
  6
CONTINUOUS
370
-3
390
F
  0
LAYER
  5
212
100
AcDbSymbolTableRecord
100
AcDbLayerTableRecord
  2
QUILTS
 70
0
 62
7
  6
CONTINUOUS
370
-3
390
F
  0
LAYER
  5
213
100
AcDbSymbolTableRecord
100
AcDbLayerTableRecord
  2
REFERENCE_DIMENSIONS
 70
0
 62
7
  6
CONTINUOUS
370
-3
390
F
  0
LAYER
  5
214
100
AcDbSymbolTableRecord
100
AcDbLayerTableRecord
  2
ROUND_FEATURES
 70
0
 62
7
  6
CONTINUOUS
370
-3
390
F
  0
LAYER
  5
215
100
AcDbSymbolTableRecord
100
AcDbLayerTableRecord
  2
SHELL_FEATURES
 70
0
 62
7
  6
CONTINUOUS
370
-3
390
F
  0
LAYER
  5
216
100
AcDbSymbolTableRecord
100
AcDbLayerTableRecord
  2
SIZE_REF
 70
0
 62
7
  6
CONTINUOUS
370
-3
390
F
  0
LAYER
  5
217
100
AcDbSymbolTableRecord
100
AcDbLayerTableRecord
  2
SURFACE_FEATURES
 70
0
 62
7
  6
CONTINUOUS
370
-3
390
F
  0
LAYER
  5
218
100
AcDbSymbolTableRecord
100
AcDbLayerTableRecord
  2
WETTED_SURFACES
 70
0
 62
7
  6
CONTINUOUS
370
-3
390
F
  0
LAYER
  5
219
100
AcDbSymbolTableRecord
100
AcDbLayerTableRecord
  2
WETTED_SURFACE_AREA
 70
0
 62
7
  6
CONTINUOUS
370
-3
390
F
  0
LAYER
  5
21A
100
AcDbSymbolTableRecord
100
AcDbLayerTableRecord
  2
WETTED_TSURFACES
 70
0
 62
7
  6
CONTINUOUS
370
-3
390
F
  0
LAYER
  5
21B
100
AcDbSymbolTableRecord
100
AcDbLayerTableRecord
  2
XSEC_DATUMS
 70
0
 62
7
  6
CONTINUOUS
370
-3
390
F
  0
ENDTAB
  0
TABLE
  2
STYLE
  5
3
100
AcDbSymbolTable
 70
1
  0
STYLE
  5
11
100
AcDbSymbolTableRecord
100
AcDbTextStyleTableRecord
  2
STANDARD
 70
0
 40
0.0
 41
0.8
 50
0.0
 71
0
 42
0.2
  3
txt
  4

  0
STYLE
  5
21C
100
AcDbSymbolTableRecord
100
AcDbTextStyleTableRecord
  2
TEXTSTYLE_1
 70
0
 40
0.0
 41
0.8
 50
0.0
 71
0
 42
0.2
  3
gdt
  4

  0
ENDTAB
  0
TABLE
  2
VIEW
  5
6
100
AcDbSymbolTable
 70
0
  0
ENDTAB
  0
TABLE
  2
UCS
  5
7
100
AcDbSymbolTable
 70
0
  0
ENDTAB
  0
TABLE
  2
APPID
  5
9
100
AcDbSymbolTable
 70
1
  0
APPID
  5
21D
100
AcDbSymbolTableRecord
100
AcDbRegAppTableRecord
  2
ACAD
 70
0
  0
ENDTAB
  0
TABLE
  2
BLOCK_RECORD
  5
1
100
AcDbSymbolTable
 70
0
  0
BLOCK_RECORD
  5
21E
100
AcDbSymbolTableRecord
100
AcDbBlockTableRecord
  2
*Model_Space
  0
BLOCK_RECORD
  5
21F
100
AcDbSymbolTableRecord
100
AcDbBlockTableRecord
  2
*Paper_Space
  0
BLOCK_RECORD
  5
220
100
AcDbSymbolTableRecord
100
AcDbBlockTableRecord
  2
_FILLED
  0
ENDTAB
  0
TABLE
  2
DIMSTYLE
  5
A
100
AcDbSymbolTable
 70
1
100
AcDbDimStyleTable
 71
0
  0
DIMSTYLE
105
221
100
AcDbSymbolTableRecord
100
AcDbDimStyleTableRecord
  2
STANDARD
 70
0
  3

  4

 40
1.0
 41
0.1
 42
0.0625
 43
0.38
 44
0.125
 45
0.0
 46
0.0
 47
0.001
 48
0.001
140
0.08
141
0.09
142
0.0
143
25.4
144
1.0
145
0.0
146
1.0
147
0.09
 71
1.0
 72
0.0
 73
1
 74
1
 75
0
 76
0
 77
0
 78
4
 79
1
170
1
171
2
172
0
173
0
174
0
175
0
176
0
177
0
178
0
270
2
179
3
271
3
272
3
273
2
274
2
275
0
280
0
281
0
282
0
283
1
284
4
285
0
286
0
287
3
288
0
340
11
278
46
341
220
342
220
343
220
344
220
  0
ENDTAB
  0
ENDSEC
  0
SECTION
  2
BLOCKS
  0
BLOCK
  5
20
100
AcDbEntity
  8
0
100
AcDbBlockBegin
  2
*Model_Space
 70
0
 10
0.0
 20
0.0
 30
0.0
  3
*Model_Space
  1

  0
ENDBLK
  5
21
100
AcDbEntity
  8
0
100
AcDbBlockEnd
  0
BLOCK
  5
1C
100
AcDbEntity
  8
0
100
AcDbBlockBegin
  2
*Paper_Space
 70
0
 10
0.0
 20
0.0
 30
0.0
  3
*Paper_Space
  1

  0
ENDBLK
  5
1D
100
AcDbEntity
  8
0
100
AcDbBlockEnd
  0
BLOCK
  5
222
100
AcDbEntity
  8
0
100
AcDbBlockBegin
  2
_FILLED
 70
64
 10
0.0
 20
0.0
  3
_FILLED
  1

  0
SOLID
  5
223
100
AcDbEntity
  8
0
  6
BYBLOCK
 62
0
100
AcDbTrace
 10
0.0
 20
0.0
 11
-1.0
 21
0.2
 12
-1.0
 22
-0.2
 13
-1.0
 23
-0.2
  0
ENDBLK
  5
224
100
AcDbEntity
  8
0
  6
BYBLOCK
 62
0
100
AcDbBlockEnd
  0
ENDSEC
  0
SECTION
  2
ENTITIES
  0
MTEXT
  5
225
100
AcDbEntity
  8
0
100
AcDbMText
 62
2
  6
CONTINUOUS
  7
STANDARD
 71
3
 72
1
 10
4.1605422723
 20
2.2848718944
 30
0.0
 11
1.0
 21
0.0
 31
0.0
 73
2
 44
0.9
  1
SCALE  .500
 40
0.08
 41
0.704
  0
LINE
  5
226
100
AcDbEntity
  8
0
100
AcDbLine
 62
7
  6
CONTINUOUS
 10
0.0
 20
0.0
 11
0.0
 21
8.5
  0
LINE
  5
227
100
AcDbEntity
  8
0
100
AcDbLine
 62
7
  6
CONTINUOUS
 10
0.0
 20
0.0
 11
11.0
 21
0.0
  0
LINE
  5
228
100
AcDbEntity
  8
0
100
AcDbLine
 62
7
  6
CONTINUOUS
 10
0.0
 20
8.5
 11
11.0
 21
8.5
  0
LINE
  5
229
100
AcDbEntity
  8
0
100
AcDbLine
 62
7
  6
CONTINUOUS
 10
11.0
 20
0.0
 11
11.0
 21
8.5
  0
LINE
  5
22A
100
AcDbEntity
  8
ALL_ASSEMBLY_MEMBERS
100
AcDbLine
 62
7
  6
CONTINUOUS
 10
3.0655582298
 20
4.7742352484
 11
3.0655582298
 21
4.4872352484
  0
LINE
  5
22B
100
AcDbEntity
  8
ALL_ASSEMBLY_MEMBERS
100
AcDbLine
 62
7
  6
CONTINUOUS
 10
3.0955582298
 20
4.4672352484
 11
3.0955582298
 21
4.7942352484
  0
LINE
  5
22C
100
AcDbEntity
  8
ALL_ASSEMBLY_MEMBERS
100
AcDbLine
 62
7
  6
CONTINUOUS
 10
3.1868082298
 20
4.4672352484
 11
3.1868082298
 21
4.3992352484
  0
LINE
  5
22D
100
AcDbEntity
  8
ALL_ASSEMBLY_MEMBERS
100
AcDbLine
 62
7
  6
CONTINUOUS
 10
3.2103082298
 20
4.3992352484
 11
3.2103082298
 21
4.3042352484
  0
LINE
  5
22E
100
AcDbEntity
  8
ALL_ASSEMBLY_MEMBERS
100
AcDbLine
 62
7
  6
CONTINUOUS
 10
3.6008082298
 20
4.3992352484
 11
3.6008082298
 21
4.3042352484
  0
LINE
  5
22F
100
AcDbEntity
  8
ALL_ASSEMBLY_MEMBERS
100
AcDbLine
 62
7
  6
CONTINUOUS
 10
3.6243082298
 20
4.4672352484
 11
3.6243082298
 21
4.3992352484
  0
LINE
  5
230
100
AcDbEntity
  8
ALL_ASSEMBLY_MEMBERS
100
AcDbLine
 62
7
  6
CONTINUOUS
 10
7.2585582298
 20
3.6942352484
 11
7.5655582298
 21
3.6942352484
  0
LINE
  5
231
100
AcDbEntity
  8
ALL_ASSEMBLY_MEMBERS
100
AcDbLine
 62
7
  6
CONTINUOUS
 10
7.2385582298
 20
3.7142352484
 11
7.5655582298
 21
3.7142352484
  0
LINE
  5
232
100
AcDbEntity
  8
ALL_ASSEMBLY_MEMBERS
100
AcDbLine
 62
7
  6
CONTINUOUS
 10
7.5655582298
 20
3.8317352484
 11
7.5705582298
 21
3.8317352484
  0
LINE
  5
233
100
AcDbEntity
  8
ALL_ASSEMBLY_MEMBERS
100
AcDbLine
 62
7
  6
CONTINUOUS
 10
7.5705582298
 20
3.8814852484
 11
7.5730582298
 21
3.8814852484
  0
LINE
  5
234
100
AcDbEntity
  8
ALL_ASSEMBLY_MEMBERS
100
AcDbLine
 62
7
  6
CONTINUOUS
 10
7.7845582298
 20
3.9692352484
 11
7.5862082298
 21
3.9692352484
  0
LINE
  5
235
100
AcDbEntity
  8
ALL_ASSEMBLY_MEMBERS
100
AcDbLine
 62
7
  6
CONTINUOUS
 10
7.4105582298
 20
4.0292352484
 11
7.2225582298
 21
4.0292352484
  0
LINE
  5
236
100
AcDbEntity
  8
ALL_ASSEMBLY_MEMBERS
100
AcDbLine
 62
7
  6
CONTINUOUS
 10
6.119319447
 20
4.0292352488
 11
7.1975582298
 21
4.0292352484
  0
LINE
  5
237
100
AcDbEntity
  8
ALL_ASSEMBLY_MEMBERS
100
AcDbLine
 62
7
  6
CONTINUOUS
 10
7.2195582298
 20
4.0742352484
 11
7.2225582298
 21
4.0742352484
  0
LINE
  5
238
100
AcDbEntity
  8
ALL_ASSEMBLY_MEMBERS
100
AcDbLine
 62
7
  6
CONTINUOUS
 10
5.926919984
 20
4.1652352484
 11
6.2834808799
 21
4.1652352484
  0
LINE
  5
239
100
AcDbEntity
  8
ALL_ASSEMBLY_MEMBERS
100
AcDbLine
 62
7
  6
CONTINUOUS
 10
5.8305582298
 20
4.1852352484
 11
6.2825582298
 21
4.1852352484
  0
LINE
  5
23A
100
AcDbEntity
  8
ALL_ASSEMBLY_MEMBERS
100
AcDbLine
 62
7
  6
CONTINUOUS
 10
5.8105582298
 20
4.2052352484
 11
6.3025582298
 21
4.2052352484
  0
LWPOLYLINE
  5
23B
100
AcDbEntity
  8
ALL_ASSEMBLY_MEMBERS
100
AcDbPolyline
 62
7
  6
CONTINUOUS
 90
7
 70
0
 10
5.8985402294
 20
4.1852146051
 10
5.8995917763
 20
4.1851732281
 10
5.9012323593
 20
4.184975441
 10
5.9029088935
 20
4.1846283967
 10
5.9046133284
 20
4.184117107
 10
5.9063198934
 20
4.1834316612
 10
5.9079877591
 20
4.1825742954
  0
LWPOLYLINE
  5
23C
100
AcDbEntity
  8
ALL_ASSEMBLY_MEMBERS
100
AcDbPolyline
 62
7
  6
CONTINUOUS
 90
14
 70
0
 10
5.8980805241
 20
4.1852351411
 10
5.8997429137
 20
4.1851608786
 10
5.9014482824
 20
4.1849392039
 10
5.9031821529
 20
4.1845575408
 10
5.9049375425
 20
4.1840008083
 10
5.9066845327
 20
4.183260906
 10
5.908374201
 20
4.1823463212
 10
5.909987679
 20
4.18125938
 10
5.911505744
 20
4.1800045643
 10
5.9128879624
 20
4.1786121516
 10
5.9141225682
 20
4.177097163
 10
5.9151995391
 20
4.1754754164
 10
5.9160970571
 20
4.1737919715
 10
5.9168556634
 20
4.171959473
  0
LINE
  5
23D
100
AcDbEntity
  8
ALL_ASSEMBLY_MEMBERS
100
AcDbLine
 62
7
  6
CONTINUOUS
 10
7.2190365273
 20
4.0742727799
 11
7.2195582298
 21
4.0742352484
  0
LINE
  5
23E
100
AcDbEntity
  8
ALL_ASSEMBLY_MEMBERS
100
AcDbLine
 62
7
  6
CONTINUOUS
 10
7.2190391863
 20
4.0742726242
 11
7.2195582298
 21
4.0742352484
  0
LWPOLYLINE
  5
23F
100
AcDbEntity
  8
ALL_ASSEMBLY_MEMBERS
100
AcDbPolyline
 62
7
  6
CONTINUOUS
 90
7
 70
0
 10
5.9079877604
 20
4.3058962022
 10
5.9063198946
 20
4.3050388362
 10
5.9046133294
 20
4.3043533902
 10
5.9029088943
 20
4.3038421004
 10
5.90123236
 20
4.303495056
 10
5.8995917768
 20
4.3032972689
 10
5.8980202543
 20
4.3032354315
  0
LINE
  5
240
100
AcDbEntity
  8
ALL_ASSEMBLY_MEMBERS
100
AcDbLine
 62
7
  6
CONTINUOUS
 10
7.2195582298
 20
4.4142352484
 11
7.219065429
 21
4.4141997234
  0
LINE
  5
241
100
AcDbEntity
  8
ALL_ASSEMBLY_MEMBERS
100
AcDbLine
 62
7
  6
CONTINUOUS
 10
5.8105582298
 20
4.2832352484
 11
6.3025582298
 21
4.2832352484
  0
LINE
  5
242
100
AcDbEntity
  8
ALL_ASSEMBLY_MEMBERS
100
AcDbLine
 62
7
  6
CONTINUOUS
 10
6.2825582298
 20
4.3032352484
 11
5.8305582298
 21
4.3032352484
  0
LINE
  5
243
100
AcDbEntity
  8
ALL_ASSEMBLY_MEMBERS
100
AcDbLine
 62
7
  6
CONTINUOUS
 10
3.2103082298
 20
4.3042352484
 11
3.6008082298
 21
4.3042352484
  0
LINE
  5
244
100
AcDbEntity
  8
ALL_ASSEMBLY_MEMBERS
100
AcDbLine
 62
7
  6
CONTINUOUS
 10
6.2834807489
 20
4.3232352484
 11
5.9269198404
 21
4.3232352484
  0
LINE
  5
245
100
AcDbEntity
  8
ALL_ASSEMBLY_MEMBERS
100
AcDbLine
 62
7
  6
CONTINUOUS
 10
3.6243065916
 20
4.3992352484
 11
3.6008082298
 21
4.3992352484
  0
LINE
  5
246
100
AcDbEntity
  8
ALL_ASSEMBLY_MEMBERS
100
AcDbLine
 62
7
  6
CONTINUOUS
 10
3.2103082298
 20
4.3992352484
 11
3.186809868
 21
4.3992352484
  0
LINE
  5
247
100
AcDbEntity
  8
ALL_ASSEMBLY_MEMBERS
100
AcDbLine
 62
7
  6
CONTINUOUS
 10
7.2195582298
 20
4.4142352484
 11
7.2225582298
 21
4.4142352484
  0
LWPOLYLINE
  5
248
100
AcDbEntity
  8
ALL_ASSEMBLY_MEMBERS
100
AcDbPolyline
 62
7
  6
CONTINUOUS
 90
7
 70
0
 10
6.0363787336
 20
4.0458867558
 10
6.047626679
 20
4.0415473665
 10
6.0593445335
 20
4.0377753353
 10
6.0716146175
 20
4.0345996958
 10
6.0843239271
 20
4.0321055876
 10
6.0972074269
 20
4.0303764805
 10
6.1102417969
 20
4.0294275167
  0
LWPOLYLINE
  5
249
100
AcDbEntity
  8
ALL_ASSEMBLY_MEMBERS
100
AcDbPolyline
 62
7
  6
CONTINUOUS
 90
8
 70
0
 10
6.0360918633
 20
4.0460071646
 10
6.047326296
 20
4.0416540493
 10
6.0590307161
 20
4.0378666342
 10
6.0712856038
 20
4.0346747448
 10
6.083980373
 20
4.0321627959
 10
6.0968577987
 20
4.0304129534
 10
6.1098991001
 20
4.0294421078
 10
6.1193237811
 20
4.0292352392
  0
LINE
  5
24A
100
AcDbEntity
  8
ALL_ASSEMBLY_MEMBERS
100
AcDbLine
 62
7
  6
CONTINUOUS
 10
6.0252926721
 20
4.0508965018
 11
6.0363787336
 21
4.0458867558
  0
LINE
  5
24B
100
AcDbEntity
  8
ALL_ASSEMBLY_MEMBERS
100
AcDbLine
 62
7
  6
CONTINUOUS
 10
6.0149519887
 20
4.0562772524
 11
6.0255672374
 21
4.050763421
  0
LINE
  5
24C
100
AcDbEntity
  8
ALL_ASSEMBLY_MEMBERS
100
AcDbLine
 62
7
  6
CONTINUOUS
 10
6.0050725179
 20
4.0621151675
 11
6.0152152999
 21
4.0561313285
  0
LINE
  5
24D
100
AcDbEntity
  8
ALL_ASSEMBLY_MEMBERS
100
AcDbLine
 62
7
  6
CONTINUOUS
 10
5.9955925125
 20
4.068420175
 11
6.0053254613
 21
4.0619564719
  0
LWPOLYLINE
  5
24E
100
AcDbEntity
  8
ALL_ASSEMBLY_MEMBERS
100
AcDbPolyline
 62
7
  6
CONTINUOUS
 90
24
 70
0
 10
6.1193673467
 20
4.4592352572
 10
6.1102417969
 20
4.4590429802
 10
6.0972074269
 20
4.4580940164
 10
6.0843239271
 20
4.4563649093
 10
6.0716146175
 20
4.4538708011
 10
6.0593445335
 20
4.4506951616
 10
6.047626679
 20
4.4469231304
 10
6.0363787336
 20
4.4425837411
 10
6.0255672374
 20
4.4377070759
 10
6.0152152999
 20
4.4323391684
 10
6.0053254613
 20
4.426514025
 10
5.9958359252
 20
4.420221451
 10
5.9867572855
 20
4.4134877482
 10
5.978105944
 20
4.4063393566
 10
5.9698330656
 20
4.3987414613
 10
5.961955841
 20
4.3907085822
 10
5.9544936842
 20
4.3822573732
 10
5.9474144063
 20
4.3733321304
 10
5.9407474168
 20
4.3639381825
 10
5.934524381
 20
4.3540861512
 10
5.928738485
 20
4.3437099593
 10
5.9234254429
 20
4.3327874176
 10
5.9186525889
 20
4.3213597001
 10
5.9167150436
 20
4.316128946
  0
LINE
  5
24F
100
AcDbEntity
  8
ALL_ASSEMBLY_MEMBERS
100
AcDbLine
 62
7
  6
CONTINUOUS
 10
7.4105582298
 20
4.4592352484
 11
7.2225582298
 21
4.4592352484
  0
LINE
  5
250
100
AcDbEntity
  8
ALL_ASSEMBLY_MEMBERS
100
AcDbLine
 62
7
  6
CONTINUOUS
 10
7.1975582298
 20
4.4592352484
 11
6.1193428718
 21
4.4592352484
  0
LINE
  5
251
100
AcDbEntity
  8
ALL_ASSEMBLY_MEMBERS
100
AcDbLine
 62
7
  6
CONTINUOUS
 10
3.0855582298
 20
4.4672352484
 11
7.1985582298
 21
4.4672352484
  0
LINE
  5
252
100
AcDbEntity
  8
ALL_ASSEMBLY_MEMBERS
100
AcDbLine
 62
7
  6
CONTINUOUS
 10
3.0655582298
 20
4.4872352484
 11
7.1985582298
 21
4.4872352484
  0
LINE
  5
253
100
AcDbEntity
  8
ALL_ASSEMBLY_MEMBERS
100
AcDbLine
 62
7
  6
CONTINUOUS
 10
7.7845582298
 20
4.5192352484
 11
7.5862082298
 21
4.5192352484
  0
LINE
  5
254
100
AcDbEntity
  8
ALL_ASSEMBLY_MEMBERS
100
AcDbLine
 62
7
  6
CONTINUOUS
 10
5.9865230311
 20
4.0751662656
 11
5.9958359252
 21
4.0682490459
  0
LINE
  5
255
100
AcDbEntity
  8
ALL_ASSEMBLY_MEMBERS
100
AcDbLine
 62
7
  6
CONTINUOUS
 10
5.9778811198
 20
4.0823273144
 11
5.9867572855
 21
4.0749827487
  0
LINE
  5
256
100
AcDbEntity
  8
ALL_ASSEMBLY_MEMBERS
100
AcDbLine
 62
7
  6
CONTINUOUS
 10
5.9696180461
 20
4.0899376512
 11
5.978105944
 21
4.0821311403
  0
LINE
  5
257
100
AcDbEntity
  8
ALL_ASSEMBLY_MEMBERS
100
AcDbLine
 62
7
  6
CONTINUOUS
 10
5.9617506714
 20
4.097982568
 11
5.9698330656
 21
4.0897290356
  0
LINE
  5
258
100
AcDbEntity
  8
ALL_ASSEMBLY_MEMBERS
100
AcDbLine
 62
7
  6
CONTINUOUS
 10
5.9542995396
 20
4.1064451658
 11
5.961955841
 21
4.0977619147
  0
LINE
  5
259
100
AcDbEntity
  8
ALL_ASSEMBLY_MEMBERS
100
AcDbLine
 62
7
  6
CONTINUOUS
 10
5.9472325761
 20
4.1153810017
 11
5.9544936842
 21
4.1062131237
  0
LINE
  5
25A
100
AcDbEntity
  8
ALL_ASSEMBLY_MEMBERS
100
AcDbLine
 62
7
  6
CONTINUOUS
 10
5.8105582298
 20
4.2832352484
 11
5.8105582298
 21
4.2052352484
  0
LINE
  5
25B
100
AcDbEntity
  8
ALL_ASSEMBLY_MEMBERS
100
AcDbLine
 62
7
  6
CONTINUOUS
 10
5.8305582298
 20
4.1852352484
 11
5.8305582298
 21
4.3032352484
  0
LINE
  5
25C
100
AcDbEntity
  8
ALL_ASSEMBLY_MEMBERS
100
AcDbLine
 62
7
  6
CONTINUOUS
 10
5.9168560235
 20
4.3165115244
 11
5.916855097
 21
4.3165089209
  0
LWPOLYLINE
  5
25D
100
AcDbEntity
  8
ALL_ASSEMBLY_MEMBERS
100
AcDbPolyline
 62
7
  6
CONTINUOUS
 90
8
 70
0
 10
5.9168556634
 20
4.3165110239
 10
5.9160970571
 20
4.3146785254
 10
5.9151995391
 20
4.3129950805
 10
5.9141225682
 20
4.3113733339
 10
5.9128879624
 20
4.3098583452
 10
5.911505744
 20
4.3084659325
 10
5.9099876789
 20
4.3072111168
 10
5.9083742009
 20
4.3061241756
  0
LINE
  5
25E
100
AcDbEntity
  8
ALL_ASSEMBLY_MEMBERS
100
AcDbLine
 62
7
  6
CONTINUOUS
 10
5.9185801376
 20
4.3211641879
 11
5.918547496
 21
4.3210857331
  0
LWPOLYLINE
  5
25F
100
AcDbEntity
  8
ALL_ASSEMBLY_MEMBERS
100
AcDbPolyline
 62
7
  6
CONTINUOUS
 90
8
 70
0
 10
5.9167150436
 20
4.316128946
 10
5.9159311485
 20
4.3143361147
 10
5.9149660466
 20
4.3126128761
 10
5.9138291679
 20
4.3109848273
 10
5.9125451496
 20
4.3094867278
 10
5.9111292357
 20
4.3081306531
 10
5.9095976707
 20
4.3069270485
 10
5.9079877604
 20
4.3058962022
  0
LINE
  5
260
100
AcDbEntity
  8
ALL_ASSEMBLY_MEMBERS
100
AcDbLine
 62
7
  6
CONTINUOUS
 10
7.5705582298
 20
4.6069852484
 11
7.5730582298
 21
4.6069852484
  0
LINE
  5
261
100
AcDbEntity
  8
ALL_ASSEMBLY_MEMBERS
100
AcDbLine
 62
7
  6
CONTINUOUS
 10
7.5655582298
 20
4.6567352484
 11
7.5705582298
 21
4.6567352484
  0
LINE
  5
262
100
AcDbEntity
  8
ALL_ASSEMBLY_MEMBERS
100
AcDbLine
 62
7
  6
CONTINUOUS
 10
5.9405784118
 20
4.1247849878
 11
5.9474144063
 21
4.1151383665
  0
LINE
  5
263
100
AcDbEntity
  8
ALL_ASSEMBLY_MEMBERS
100
AcDbLine
 62
7
  6
CONTINUOUS
 10
5.9343693402
 20
4.1346454444
 11
5.9407474168
 21
4.1245323144
  0
LINE
  5
264
100
AcDbEntity
  8
ALL_ASSEMBLY_MEMBERS
100
AcDbLine
 62
7
  6
CONTINUOUS
 10
5.9285991306
 20
4.1450279062
 11
5.934524381
 21
4.1343843457
  0
LINE
  5
265
100
AcDbEntity
  8
ALL_ASSEMBLY_MEMBERS
100
AcDbLine
 62
7
  6
CONTINUOUS
 10
5.9233027931
 20
4.1559553177
 11
5.928738485
 21
4.1447605375
  0
LINE
  5
266
100
AcDbEntity
  8
ALL_ASSEMBLY_MEMBERS
100
AcDbLine
 62
7
  6
CONTINUOUS
 10
5.9185801376
 20
4.167306309
 11
5.9186525889
 21
4.1671107968
  0
LWPOLYLINE
  5
267
100
AcDbEntity
  8
ALL_ASSEMBLY_MEMBERS
100
AcDbPolyline
 62
7
  6
CONTINUOUS
 90
3
 70
0
 10
5.9168547561
 20
4.1719620068
 10
5.918547496
 20
4.1673847638
 10
5.9234254429
 20
4.1556830793
  0
LINE
  5
268
100
AcDbEntity
  8
ALL_ASSEMBLY_MEMBERS
100
AcDbLine
 62
7
  6
CONTINUOUS
 10
5.9168549219
 20
4.1719615568
 11
5.9168557493
 21
4.1719592323
  0
LINE
  5
269
100
AcDbEntity
  8
ALL_ASSEMBLY_MEMBERS
100
AcDbLine
 62
7
  6
CONTINUOUS
 10
3.0655582298
 20
4.7742352484
 11
7.5655582298
 21
4.7742352484
  0
LINE
  5
26A
100
AcDbEntity
  8
ALL_ASSEMBLY_MEMBERS
100
AcDbLine
 62
7
  6
CONTINUOUS
 10
3.0855582298
 20
4.7942352484
 11
7.5655582298
 21
4.7942352484
  0
LINE
  5
26B
100
AcDbEntity
  8
ALL_ASSEMBLY_MEMBERS
100
AcDbLine
 62
7
  6
CONTINUOUS
 10
6.2825582298
 20
4.1852352484
 11
6.2825582298
 21
4.3032352484
  0
LINE
  5
26C
100
AcDbEntity
  8
ALL_ASSEMBLY_MEMBERS
100
AcDbLine
 62
7
  6
CONTINUOUS
 10
6.3025582298
 20
4.2052352484
 11
6.3025582298
 21
4.2832352484
  0
LINE
  5
26D
100
AcDbEntity
  8
ALL_ASSEMBLY_MEMBERS
100
AcDbLine
 62
7
  6
CONTINUOUS
 10
6.3225582298
 20
4.2799160995
 11
6.3225582298
 21
4.2085543974
  0
LINE
  5
26E
100
AcDbEntity
  8
ALL_ASSEMBLY_MEMBERS
100
AcDbLine
 62
7
  6
CONTINUOUS
 10
7.1975582298
 20
4.0292352484
 11
7.1975582298
 21
4.4592352484
  0
LINE
  5
26F
100
AcDbEntity
  8
ALL_ASSEMBLY_MEMBERS
100
AcDbLine
 62
7
  6
CONTINUOUS
 10
7.1985582298
 20
4.4872352484
 11
7.1985582298
 21
4.4672352484
  0
LINE
  5
270
100
AcDbEntity
  8
ALL_ASSEMBLY_MEMBERS
100
AcDbLine
 62
7
  6
CONTINUOUS
 10
7.2225582298
 20
4.0292352484
 11
7.2225582298
 21
4.4592352484
  0
LINE
  5
271
100
AcDbEntity
  8
ALL_ASSEMBLY_MEMBERS
100
AcDbLine
 62
7
  6
CONTINUOUS
 10
7.2385582298
 20
4.0292352484
 11
7.2385582298
 21
3.7142352484
  0
LINE
  5
272
100
AcDbEntity
  8
ALL_ASSEMBLY_MEMBERS
100
AcDbLine
 62
7
  6
CONTINUOUS
 10
7.2585582298
 20
4.0292352484
 11
7.2585582298
 21
3.6942352484
  0
LINE
  5
273
100
AcDbEntity
  8
ALL_ASSEMBLY_MEMBERS
100
AcDbLine
 62
7
  6
CONTINUOUS
 10
7.4105582298
 20
3.7142352484
 11
7.4105582298
 21
4.7742352484
  0
LINE
  5
274
100
AcDbEntity
  8
ALL_ASSEMBLY_MEMBERS
100
AcDbLine
 62
7
  6
CONTINUOUS
 10
7.4305582298
 20
3.6942352484
 11
7.4305582298
 21
4.7942352484
  0
LINE
  5
275
100
AcDbEntity
  8
ALL_ASSEMBLY_MEMBERS
100
AcDbLine
 62
7
  6
CONTINUOUS
 10
7.5655582298
 20
3.6942352484
 11
7.5655582298
 21
4.7942352484
  0
LINE
  5
276
100
AcDbEntity
  8
ALL_ASSEMBLY_MEMBERS
100
AcDbLine
 62
7
  6
CONTINUOUS
 10
7.5705582298
 20
4.6567167139
 11
7.5705582298
 21
3.831753783
  0
LINE
  5
277
100
AcDbEntity
  8
ALL_ASSEMBLY_MEMBERS
100
AcDbLine
 62
7
  6
CONTINUOUS
 10
7.5730582298
 20
3.8814852484
 11
7.5730582298
 21
4.6069852484
  0
LINE
  5
278
100
AcDbEntity
  8
ALL_ASSEMBLY_MEMBERS
100
AcDbLine
 62
7
  6
CONTINUOUS
 10
7.5862082298
 20
4.5869852484
 11
7.5862082298
 21
3.9014852484
  0
LINE
  5
279
100
AcDbEntity
  8
ALL_ASSEMBLY_MEMBERS
100
AcDbLine
 62
7
  6
CONTINUOUS
 10
7.7845582298
 20
4.5192352484
 11
7.7845582298
 21
3.9692352484
  0
ARC
  5
27A
100
AcDbEntity
  8
ALL_ASSEMBLY_MEMBERS
100
AcDbCircle
 62
7
  6
CONTINUOUS
 10
3.0855582298
 20
4.4872352484
 40
0.02
100
AcDbArc
 50
180.0
 51
270.0
  0
ARC
  5
27B
100
AcDbEntity
  8
ALL_ASSEMBLY_MEMBERS
100
AcDbCircle
 62
7
  6
CONTINUOUS
 10
3.0855582298
 20
4.7742352484
 40
0.02
100
AcDbArc
 50
90.0
 51
180.0
  0
ARC
  5
27C
100
AcDbEntity
  8
ALL_ASSEMBLY_MEMBERS
100
AcDbCircle
 62
7
  6
CONTINUOUS
 10
6.1052003219
 20
4.2442321877
 40
0.194998451
100
AcDbArc
 50
203.8983795869
 51
336.1016466124
  0
ARC
  5
27D
100
AcDbEntity
  8
ALL_ASSEMBLY_MEMBERS
100
AcDbCircle
 62
7
  6
CONTINUOUS
 10
7.2070511222
 20
3.9043022051
 40
0.1703926555
100
AcDbArc
 50
85.9655925803
 51
86.4646651291
  0
ARC
  5
27E
100
AcDbEntity
  8
ALL_ASSEMBLY_MEMBERS
100
AcDbCircle
 62
7
  6
CONTINUOUS
 10
7.2070588996
 20
3.9048339924
 40
0.1698613888
100
AcDbArc
 50
86.4977833231
 51
93.210556182
  0
ARC
  5
27F
100
AcDbEntity
  8
ALL_ASSEMBLY_MEMBERS
100
AcDbCircle
 62
7
  6
CONTINUOUS
 10
7.4305582298
 20
3.7142352484
 40
0.02
100
AcDbArc
 50
180.0
 51
270.0
  0
ARC
  5
280
100
AcDbEntity
  8
ALL_ASSEMBLY_MEMBERS
100
AcDbCircle
 62
7
  6
CONTINUOUS
 10
6.2825582298
 20
4.2052352484
 40
0.02
100
AcDbArc
 50
270.0
 51
360.0
  0
ARC
  5
281
100
AcDbEntity
  8
ALL_ASSEMBLY_MEMBERS
100
AcDbCircle
 62
7
  6
CONTINUOUS
 10
5.8305582298
 20
4.2052352484
 40
0.02
100
AcDbArc
 50
180.0
 51
270.0
  0
ARC
  5
282
100
AcDbEntity
  8
ALL_ASSEMBLY_MEMBERS
100
AcDbCircle
 62
7
  6
CONTINUOUS
 10
7.2585582298
 20
3.7142352484
 40
0.02
100
AcDbArc
 50
180.0
 51
270.0
  0
ARC
  5
283
100
AcDbEntity
  8
ALL_ASSEMBLY_MEMBERS
100
AcDbCircle
 62
7
  6
CONTINUOUS
 10
7.5687082298
 20
3.9014852484
 40
0.0175
100
AcDbArc
 50
284.3929927845
 51
360.0
  0
ARC
  5
284
100
AcDbEntity
  8
ALL_ASSEMBLY_MEMBERS
100
AcDbCircle
 62
7
  6
CONTINUOUS
 10
6.1052003812
 20
4.2442382886
 40
0.1949984607
100
AcDbArc
 50
23.8983815834
 51
156.1016390145
  0
ARC
  5
285
100
AcDbEntity
  8
ALL_ASSEMBLY_MEMBERS
100
AcDbCircle
 62
7
  6
CONTINUOUS
 10
7.2068837445
 20
4.5868517075
 40
0.1730812841
100
AcDbArc
 50
273.3163633528
 51
273.4952904438
  0
ARC
  5
286
100
AcDbEntity
  8
ALL_ASSEMBLY_MEMBERS
100
AcDbCircle
 62
7
  6
CONTINUOUS
 10
7.2070274678
 20
4.5843683736
 40
0.1705937947
100
AcDbArc
 50
272.761568428
 51
273.3164225344
  0
ARC
  5
287
100
AcDbEntity
  8
ALL_ASSEMBLY_MEMBERS
100
AcDbCircle
 62
7
  6
CONTINUOUS
 10
7.2070574604
 20
4.5835826055
 40
0.1698074943
100
AcDbArc
 50
266.788878864
 51
272.7642341268
  0
ARC
  5
288
100
AcDbEntity
  8
ALL_ASSEMBLY_MEMBERS
100
AcDbCircle
 62
7
  6
CONTINUOUS
 10
7.2071146834
 20
4.5832147174
 40
0.169436975
100
AcDbArc
 50
273.5387049606
 51
274.0445498275
  0
ARC
  5
289
100
AcDbEntity
  8
ALL_ASSEMBLY_MEMBERS
100
AcDbCircle
 62
7
  6
CONTINUOUS
 10
7.1985582298
 20
4.4272352484
 40
0.0599999358
100
AcDbArc
 50
32.2367928079
 51
90.0
  0
ARC
  5
28A
100
AcDbEntity
  8
ALL_ASSEMBLY_MEMBERS
100
AcDbCircle
 62
7
  6
CONTINUOUS
 10
7.1985582298
 20
4.4272352484
 40
0.04
100
AcDbArc
 50
53.1176936739
 51
90.0
  0
ARC
  5
28B
100
AcDbEntity
  8
ALL_ASSEMBLY_MEMBERS
100
AcDbCircle
 62
7
  6
CONTINUOUS
 10
7.4305582298
 20
4.7742352484
 40
0.02
100
AcDbArc
 50
90.0
 51
180.0
  0
ARC
  5
28C
100
AcDbEntity
  8
ALL_ASSEMBLY_MEMBERS
100
AcDbCircle
 62
7
  6
CONTINUOUS
 10
5.8305582298
 20
4.2832352484
 40
0.02
100
AcDbArc
 50
90.0
 51
180.0
  0
ARC
  5
28D
100
AcDbEntity
  8
ALL_ASSEMBLY_MEMBERS
100
AcDbCircle
 62
7
  6
CONTINUOUS
 10
6.2825582298
 20
4.2832352484
 40
0.02
100
AcDbArc
 50
0.0
 51
90.0
  0
ARC
  5
28E
100
AcDbEntity
  8
ALL_ASSEMBLY_MEMBERS
100
AcDbCircle
 62
7
  6
CONTINUOUS
 10
7.5687082298
 20
4.5869852484
 40
0.0175
100
AcDbArc
 50
0.0
 51
75.6070072155
  0
ARC
  5
28F
100
AcDbEntity
  8
ALL_ASSEMBLY_MEMBERS
100
AcDbCircle
 62
7
  6
CONTINUOUS
 10
7.2070582298
 20
4.2442352484
 40
0.0125
100
AcDbArc
 50
220.4438584186
 51
139.5537424742
  0
LINE
  5
290
100
AcDbEntity
  8
ALL_ASSEMBLY_MEMBERS
100
AcDbLine
 62
7
  6
CONTINUOUS
 10
7.2174352487
 20
4.0743781542
 11
7.2175582298
 21
4.0743705964
  0
LINE
  5
291
100
AcDbEntity
  8
ALL_ASSEMBLY_MEMBERS
100
AcDbLine
 62
7
  6
CONTINUOUS
 10
7.217572807
 20
4.4141008026
 11
7.2174359038
 21
4.414092387
  0
SPLINE
  5
292
100
AcDbEntity
  8
ALL_ASSEMBLY_MEMBERS
100
AcDbSpline
 62
7
  6
CONTINUOUS
 70
0
 71
3
 72
22
 73
18
 74
0
 42
0.0000001
 43
0.0000001
 44
0.0000000001
 40
0.0
 40
0.0
 40
0.0
 40
0.0
 40
0.0079150667
 40
0.0164830204
 40
0.0262003449
 40
0.0374008693
 40
0.0649787966
 40
0.1001340329
 40
0.1430204578
 40
0.1934861719
 40
0.2512602923
 40
0.315888391
 40
0.3867838407
 40
0.46333679
 40
0.6306772186
 40
0.8120056821
 40
1.0
 40
1.0
 40
1.0
 40
1.0
 10
6.3025582298
 20
4.2832352484
 30
0.0
 10
6.3025582298
 20
4.2831805285
 30
0.0
 10
6.3025761305
 20
4.2830660116
 30
0.0
 10
6.3026531377
 20
4.2829001115
 30
0.0
 10
6.3027777076
 20
4.2827372011
 30
0.0
 10
6.3030232127
 20
4.2825072643
 30
0.0
 10
6.3034590404
 20
4.2822331696
 30
0.0
 10
6.3041259923
 20
4.281933649
 30
0.0
 10
6.3049673114
 20
4.2816450505
 30
0.0
 10
6.305975782
 20
4.2813701905
 30
0.0
 10
6.3071431454
 20
4.2811123962
 30
0.0
 10
6.3084583268
 20
4.2808741195
 30
0.0
 10
6.3099086192
 20
4.2806575565
 30
0.0
 10
6.3120690059
 20
4.2803935139
 30
0.0
 10
6.3149987365
 20
4.2801398408
 30
0.0
 10
6.3187050645
 20
4.2799573634
 30
0.0
 10
6.3212585509
 20
4.2799160995
 30
0.0
 10
6.3225582298
 20
4.2799160995
 30
0.0
  0
SPLINE
  5
293
100
AcDbEntity
  8
ALL_ASSEMBLY_MEMBERS
100
AcDbSpline
 62
7
  6
CONTINUOUS
 70
0
 71
3
 72
14
 73
10
 74
0
 42
0.0000001
 43
0.0000001
 44
0.0000000001
 40
0.0
 40
0.0
 40
0.0
 40
0.0
 40
0.2503406805
 40
0.3751807426
 40
0.4998268735
 40
0.6244928024
 40
0.7493170557
 40
0.8744808284
 40
1.0
 40
1.0
 40
1.0
 40
1.0
 10
6.3049184401
 20
4.3102638465
 30
0.0
 10
6.3075195164
 20
4.3086575481
 30
0.0
 10
6.3111636918
 20
4.3057902938
 30
0.0
 10
6.3152116144
 20
4.3012072509
 30
0.0
 10
6.3177966207
 20
4.2974240939
 30
0.0
 10
6.3198777536
 20
4.2933426514
 30
0.0
 10
6.3214084087
 20
4.289016515
 30
0.0
 10
6.3223469156
 20
4.2845143093
 30
0.0
 10
6.3225582868
 20
4.2814489038
 30
0.0
 10
6.3225582298
 20
4.2799160995
 30
0.0
  0
SPLINE
  5
294
100
AcDbEntity
  8
ALL_ASSEMBLY_MEMBERS
100
AcDbSpline
 62
7
  6
CONTINUOUS
 70
0
 71
3
 72
20
 73
16
 74
0
 42
0.0000001
 43
0.0000001
 44
0.0000000001
 40
0.0
 40
0.0
 40
0.0
 40
0.0
 40
0.0192785729
 40
0.042085921
 40
0.0705488728
 40
0.1057052271
 40
0.1479412174
 40
0.1971007866
 40
0.2529101014
 40
0.3150865577
 40
0.383364668
 40
0.4574759565
 40
0.6218178712
 40
0.8045323353
 40
1.0
 40
1.0
 40
1.0
 40
1.0
 10
6.2935894272
 20
4.1885526457
 30
0.0
 10
6.2936741582
 20
4.1886086598
 30
0.0
 10
6.2938911169
 20
4.18868463
 30
0.0
 10
6.2942675572
 20
4.1886679041
 30
0.0
 10
6.2947084677
 20
4.1885455831
 30
0.0
 10
6.29522013
 20
4.188320624
 30
0.0
 10
6.2958030735
 20
4.1879954924
 30
0.0
 10
6.2964502636
 20
4.1875669446
 30
0.0
 10
6.297151998
 20
4.1870340037
 30
0.0
 10
6.297897965
 20
4.1863955347
 30
0.0
 10
6.2986784318
 20
4.1856516524
 30
0.0
 10
6.2998032802
 20
4.1844908976
 30
0.0
 10
6.3012746696
 20
4.1828287495
 30
0.0
 10
6.3031010053
 20
4.180629511
 30
0.0
 10
6.3043155073
 20
4.1790489929
 30
0.0
 10
6.3049249886
 20
4.1782188551
 30
0.0
  0
SPLINE
  5
295
100
AcDbEntity
  8
ALL_ASSEMBLY_MEMBERS
100
AcDbSpline
 62
7
  6
CONTINUOUS
 70
0
 71
3
 72
14
 73
10
 74
0
 42
0.0000001
 43
0.0000001
 44
0.0000000001
 40
0.0
 40
0.0
 40
0.0
 40
0.0
 40
0.2572902629
 40
0.3849590649
 40
0.5115934386
 40
0.6368246184
 40
0.7603437021
 40
0.881669625
 40
1.0
 40
1.0
 40
1.0
 40
1.0
 10
6.3049249886
 20
4.1782188551
 30
0.0
 10
6.3039864237
 20
4.1771445068
 30
0.0
 10
6.3024957855
 20
4.1756090056
 30
0.0
 10
6.300354998
 20
4.1737463189
 30
0.0
 10
6.2986881867
 20
4.1724595109
 30
0.0
 10
6.2969628806
 20
4.1712926418
 30
0.0
 10
6.2951865266
 20
4.1702620065
 30
0.0
 10
6.2933759644
 20
4.1693770937
 30
0.0
 10
6.2921435552
 20
4.1688768616
 30
0.0
 10
6.2915272358
 20
4.1686518836
 30
0.0
  0
SPLINE
  5
296
100
AcDbEntity
  8
ALL_ASSEMBLY_MEMBERS
100
AcDbSpline
 62
7
  6
CONTINUOUS
 70
0
 71
3
 72
17
 73
13
 74
0
 42
0.0000001
 43
0.0000001
 44
0.0000000001
 40
0.0
 40
0.0
 40
0.0
 40
0.0
 40
0.1678778611
 40
0.3283081144
 40
0.4769994758
 40
0.6112695522
 40
0.7294826135
 40
0.7825637424
 40
0.831783763
 40
0.9200249619
 40
0.9606347608
 40
1.0
 40
1.0
 40
1.0
 40
1.0
 10
6.2915272358
 20
4.1686518836
 30
0.0
 10
6.2914382023
 20
4.1697802125
 30
0.0
 10
6.2911746707
 20
4.1719809244
 30
0.0
 10
6.2905210848
 20
4.1751340727
 30
0.0
 10
6.2896273691
 20
4.177992787
 30
0.0
 10
6.2885260086
 20
4.1804704747
 30
0.0
 10
6.2874195357
 20
4.1822212339
 30
0.0
 10
6.2864451927
 20
4.1833483152
 30
0.0
 10
6.28549986
 20
4.1842200543
 30
0.0
 10
6.2844572922
 20
4.1848597935
 30
0.0
 10
6.2833641837
 20
4.18518168
 30
0.0
 10
6.2828236311
 20
4.1852352392
 30
0.0
 10
6.2825582298
 20
4.1852352371
 30
0.0
  0
SPLINE
  5
297
100
AcDbEntity
  8
ALL_ASSEMBLY_MEMBERS
100
AcDbSpline
 62
7
  6
CONTINUOUS
 70
0
 71
3
 72
9
 73
5
 74
0
 42
0.0000001
 43
0.0000001
 44
0.0000000001
 40
0.0
 40
0.0
 40
0.0
 40
0.0
 40
0.2346690707
 40
1.0
 40
1.0
 40
1.0
 40
1.0
 10
6.2834809207
 20
4.1652352484
 30
0.0
 10
6.2840935919
 20
4.1655393813
 30
0.0
 10
6.2867237783
 20
4.1667961003
 30
0.0
 10
6.2894290568
 20
4.1678942456
 30
0.0
 10
6.2915272179
 20
4.1686518768
 30
0.0
  0
SPLINE
  5
298
100
AcDbEntity
  8
ALL_ASSEMBLY_MEMBERS
100
AcDbSpline
 62
7
  6
CONTINUOUS
 70
0
 71
3
 72
17
 73
13
 74
0
 42
0.0000001
 43
0.0000001
 44
0.0000000001
 40
0.0
 40
0.0
 40
0.0
 40
0.0
 40
0.1448395821
 40
0.287205435
 40
0.4241815026
 40
0.5540299098
 40
0.6757128856
 40
0.7892895148
 40
0.8436009441
 40
0.8965989709
 40
0.9486129468
 40
1.0
 40
1.0
 40
1.0
 40
1.0
 10
6.2834808854
 20
4.1652352484
 30
0.0
 10
6.2834808833
 20
4.1665379139
 30
0.0
 10
6.283301254
 20
4.1691245375
 30
0.0
 10
6.2825080864
 20
4.1728689839
 30
0.0
 10
6.2812140267
 20
4.176330192
 30
0.0
 10
6.2794658522
 20
4.1793756421
 30
0.0
 10
6.2773281935
 20
4.181894943
 30
0.0
 10
6.2752423057
 20
4.1834960062
 30
0.0
 10
6.2734669964
 20
4.1843980278
 30
0.0
 10
6.2721124296
 20
4.1848783834
 30
0.0
 10
6.2707321265
 20
4.1851694242
 30
0.0
 10
6.2698009172
 20
4.1852352484
 30
0.0
 10
6.2693387498
 20
4.1852352484
 30
0.0
  0
SPLINE
  5
299
100
AcDbEntity
  8
ALL_ASSEMBLY_MEMBERS
100
AcDbSpline
 62
7
  6
CONTINUOUS
 70
0
 71
3
 72
16
 73
12
 74
0
 42
0.0000001
 43
0.0000001
 44
0.0000000001
 40
0.0
 40
0.0
 40
0.0
 40
0.0
 40
0.0295189127
 40
0.0639337647
 40
0.1035148662
 40
0.1482458774
 40
0.252423092
 40
0.37443924
 40
0.5121805651
 40
0.6635544875
 40
1.0
 40
1.0
 40
1.0
 40
1.0
 10
5.9168558235
 20
4.1719592027
 30
0.0
 10
5.9168963372
 20
4.1718457891
 30
0.0
 10
5.9170151264
 20
4.1716112274
 30
0.0
 10
5.9172640431
 20
4.1712688756
 30
0.0
 10
5.917590818
 20
4.1709102789
 30
0.0
 10
5.9181532089
 20
4.1703849658
 30
0.0
 10
5.919027993
 20
4.1697062265
 30
0.0
 10
5.920260572
 20
4.1688774708
 30
0.0
 10
5.9216952104
 20
4.1680074105
 30
0.0
 10
5.9239197323
 20
4.1667558107
 30
0.0
 10
5.9256903969
 20
4.1658454535
 30
0.0
 10
5.9269199517
 20
4.1652352484
 30
0.0
  0
SPLINE
  5
29A
100
AcDbEntity
  8
ALL_ASSEMBLY_MEMBERS
100
AcDbSpline
 62
7
  6
CONTINUOUS
 70
0
 71
3
 72
14
 73
10
 74
0
 42
0.0000001
 43
0.0000001
 44
0.0000000001
 40
0.0
 40
0.0
 40
0.0
 40
0.0
 40
0.1183285859
 40
0.2396547992
 40
0.3631733771
 40
0.4884061005
 40
0.6150413577
 40
0.742709638
 40
1.0
 40
1.0
 40
1.0
 40
1.0
 10
6.2915272451
 20
4.3198184788
 30
0.0
 10
6.2921441374
 20
4.3195932315
 30
0.0
 10
6.2933777235
 20
4.3190924773
 30
0.0
 10
6.2951900326
 20
4.3182066769
 30
0.0
 10
6.2969680104
 20
4.3171748252
 30
0.0
 10
6.2986948515
 20
4.3160065749
 30
0.0
 10
6.3003629955
 20
4.3147181019
 30
0.0
 10
6.3025050809
 20
4.3128526643
 30
0.0
 10
6.3039963969
 20
4.3113149491
 30
0.0
 10
6.3049356743
 20
4.3102393736
 30
0.0
  0
SPLINE
  5
29B
100
AcDbEntity
  8
ALL_ASSEMBLY_MEMBERS
100
AcDbSpline
 62
7
  6
CONTINUOUS
 70
0
 71
3
 72
19
 73
15
 74
0
 42
0.0000001
 43
0.0000001
 44
0.0000000001
 40
0.0
 40
0.0
 40
0.0
 40
0.0
 40
0.1950771265
 40
0.3774960765
 40
0.541683925
 40
0.6836275686
 40
0.7452070645
 40
0.8001943144
 40
0.8485343155
 40
0.8903508885
 40
0.9260077394
 40
0.9416488992
 40
0.9558840855
 40
1.0
 40
1.0
 40
1.0
 40
1.0
 10
6.3049356743
 20
4.3102393736
 30
0.0
 10
6.3043283789
 20
4.3094082776
 30
0.0
 10
6.3031155222
 20
4.3078272279
 30
0.0
 10
6.3012824087
 20
4.3056333311
 30
0.0
 10
6.2995532878
 20
4.3037205214
 30
0.0
 10
6.2981860512
 20
4.3023422603
 30
0.0
 10
6.2971778967
 20
4.3014229847
 30
0.0
 10
6.2965080825
 20
4.3008668607
 30
0.0
 10
6.2958871678
 20
4.3004172799
 30
0.0
 10
6.2953133462
 20
4.3000803302
 30
0.0
 10
6.2948570296
 20
4.2998929242
 30
0.0
 10
6.2945207531
 20
4.2998068764
 30
0.0
 10
6.2941377658
 20
4.2997484562
 30
0.0
 10
6.2937985462
 20
4.2997795894
 30
0.0
 10
6.2936043234
 20
4.2999079012
 30
0.0
  0
SPLINE
  5
29C
100
AcDbEntity
  8
ALL_ASSEMBLY_MEMBERS
100
AcDbSpline
 62
7
  6
CONTINUOUS
 70
0
 71
3
 72
9
 73
5
 74
0
 42
0.0000001
 43
0.0000001
 44
0.0000000001
 40
0.0
 40
0.0
 40
0.0
 40
0.0
 40
0.2654325286
 40
1.0
 40
1.0
 40
1.0
 40
1.0
 10
6.2915272583
 20
4.3198184737
 30
0.0
 10
6.2907995556
 20
4.3200812492
 30
0.0
 10
6.288071724
 20
4.3211086427
 30
0.0
 10
6.285398641
 20
4.3222832145
 30
0.0
 10
6.2834807915
 20
4.3232352484
 30
0.0
  0
SPLINE
  5
29D
100
AcDbEntity
  8
ALL_ASSEMBLY_MEMBERS
100
AcDbSpline
 62
7
  6
CONTINUOUS
 70
0
 71
3
 72
22
 73
18
 74
0
 42
0.0000001
 43
0.0000001
 44
0.0000000001
 40
0.0
 40
0.0
 40
0.0
 40
0.0
 40
0.0544803003
 40
0.1091467509
 40
0.1641839765
 40
0.2197793586
 40
0.2761279454
 40
0.3334202926
 40
0.3918588595
 40
0.4516464219
 40
0.5129835643
 40
0.576080784
 40
0.6411255581
 40
0.7083066965
 40
0.7777486589
 40
0.8495528185
 40
1.0
 40
1.0
 40
1.0
 40
1.0
 10
6.1193423184
 20
4.0292347228
 30
0.0
 10
6.1239771273
 20
4.0292345917
 30
0.0
 10
6.1332667183
 20
4.029600448
 30
0.0
 10
6.1471507537
 20
4.0312467291
 30
0.0
 10
6.1609568314
 20
4.0339963842
 30
0.0
 10
6.1746409416
 20
4.0378642249
 30
0.0
 10
6.1881592856
 20
4.0428611925
 30
0.0
 10
6.2014614666
 20
4.0490100519
 30
0.0
 10
6.214492078
 20
4.0563332049
 30
0.0
 10
6.2271896133
 20
4.0648548865
 30
0.0
 10
6.2394801296
 20
4.0746060257
 30
0.0
 10
6.2512829006
 20
4.0856101138
 30
0.0
 10
6.262498624
 20
4.0978953472
 30
0.0
 10
6.2730159326
 20
4.1114734941
 30
0.0
 10
6.2827050408
 20
4.1263495094
 30
0.0
 10
6.2945000189
 20
4.1482044831
 30
0.0
 10
6.3013360634
 20
4.165961402
 30
0.0
 10
6.3049318401
 20
4.17824493
 30
0.0
  0
SPLINE
  5
29E
100
AcDbEntity
  8
ALL_ASSEMBLY_MEMBERS
100
AcDbSpline
 62
7
  6
CONTINUOUS
 70
0
 71
3
 72
17
 73
13
 74
0
 42
0.0000001
 43
0.0000001
 44
0.0000000001
 40
0.0
 40
0.0
 40
0.0
 40
0.0
 40
0.1678781104
 40
0.3283084886
 40
0.4769998833
 40
0.6112699192
 40
0.7294828708
 40
0.7825639386
 40
0.8317839107
 40
0.9200250676
 40
0.9606348358
 40
1.0
 40
1.0
 40
1.0
 40
1.0
 10
6.2915272583
 20
4.3198184737
 30
0.0
 10
6.2914382159
 20
4.3186901556
 30
0.0
 10
6.2911746701
 20
4.3164894661
 30
0.0
 10
6.2905210695
 20
4.3133363521
 30
0.0
 10
6.2896273427
 20
4.3104776729
 30
0.0
 10
6.2885259763
 20
4.3080000195
 30
0.0
 10
6.2874195034
 20
4.3062492873
 30
0.0
 10
6.2864451632
 20
4.3051222258
 30
0.0
 10
6.2854998345
 20
4.3042505036
 30
0.0
 10
6.284457273
 20
4.3036107799
 30
0.0
 10
6.2833641744
 20
4.3032889051
 30
0.0
 10
6.2828236278
 20
4.3032353501
 30
0.0
 10
6.2825582298
 20
4.3032353541
 30
0.0
  0
SPLINE
  5
29F
100
AcDbEntity
  8
ALL_ASSEMBLY_MEMBERS
100
AcDbSpline
 62
7
  6
CONTINUOUS
 70
0
 71
3
 72
17
 73
13
 74
0
 42
0.0000001
 43
0.0000001
 44
0.0000000001
 40
0.0
 40
0.0
 40
0.0
 40
0.0
 40
0.1448395153
 40
0.2872052815
 40
0.4241812672
 40
0.5540296151
 40
0.6757125711
 40
0.7892892394
 40
0.8436007134
 40
0.8965988016
 40
0.9486128547
 40
1.0
 40
1.0
 40
1.0
 40
1.0
 10
5.9269199762
 20
4.1652352484
 30
0.0
 10
5.9269199762
 20
4.1665379137
 30
0.0
 10
5.9267403506
 20
4.1691245371
 30
0.0
 10
5.9259471871
 20
4.1728689836
 30
0.0
 10
5.9246531299
 20
4.1763301919
 30
0.0
 10
5.9229049562
 20
4.1793756423
 30
0.0
 10
5.9207672964
 20
4.1818949434
 30
0.0
 10
5.9186814065
 20
4.1834960064
 30
0.0
 10
5.916906095
 20
4.1843980279
 30
0.0
 10
5.9155515258
 20
4.1848783834
 30
0.0
 10
5.9141712201
 20
4.1851694242
 30
0.0
 10
5.9132400091
 20
4.1852352484
 30
0.0
 10
5.9127778406
 20
4.1852352484
 30
0.0
  0
SPLINE
  5
2A0
100
AcDbEntity
  8
ALL_ASSEMBLY_MEMBERS
100
AcDbSpline
 62
7
  6
CONTINUOUS
 70
0
 71
3
 72
17
 73
13
 74
0
 42
0.0000001
 43
0.0000001
 44
0.0000000001
 40
0.0
 40
0.0
 40
0.0
 40
0.0
 40
0.1448395152
 40
0.2872052814
 40
0.4241812671
 40
0.554029615
 40
0.675712571
 40
0.7892892393
 40
0.8436007133
 40
0.8965988015
 40
0.9486128547
 40
1.0
 40
1.0
 40
1.0
 40
1.0
 10
6.2834807546
 20
4.3232352484
 30
0.0
 10
6.2834807546
 20
4.3219325831
 30
0.0
 10
6.283301129
 20
4.3193459598
 30
0.0
 10
6.2825079654
 20
4.3156015133
 30
0.0
 10
6.2812139083
 20
4.3121403049
 30
0.0
 10
6.2794657346
 20
4.3090948546
 30
0.0
 10
6.2773280748
 20
4.3065755535
 30
0.0
 10
6.2752421849
 20
4.3049744905
 30
0.0
 10
6.2734668734
 20
4.304072469
 30
0.0
 10
6.2721123042
 20
4.3035921135
 30
0.0
 10
6.2707319985
 20
4.3033010727
 30
0.0
 10
6.2698007874
 20
4.3032352484
 30
0.0
 10
6.269338619
 20
4.3032352484
 30
0.0
  0
SPLINE
  5
2A1
100
AcDbEntity
  8
ALL_ASSEMBLY_MEMBERS
100
AcDbSpline
 62
7
  6
CONTINUOUS
 70
0
 71
3
 72
16
 73
12
 74
0
 42
0.0000001
 43
0.0000001
 44
0.0000000001
 40
0.0
 40
0.0
 40
0.0
 40
0.0
 40
0.3364289885
 40
0.4878021146
 40
0.6255404272
 40
0.7475619024
 40
0.8517439214
 40
0.8964769936
 40
0.9360613909
 40
0.9704790603
 40
1.0
 40
1.0
 40
1.0
 40
1.0
 10
5.9269197905
 20
4.3232352484
 30
0.0
 10
5.925690316
 20
4.3226251707
 30
0.0
 10
5.9239198114
 20
4.3217148468
 30
0.0
 10
5.9216954744
 20
4.3204633186
 30
0.0
 10
5.9202609336
 20
4.3195932294
 30
0.0
 10
5.9190283946
 20
4.3187644822
 30
0.0
 10
5.9181536053
 20
4.3180857491
 30
0.0
 10
5.9175912018
 20
4.3175604396
 30
0.0
 10
5.9172643972
 20
4.3172018548
 30
0.0
 10
5.9170154387
 20
4.3168595163
 30
0.0
 10
5.916896612
 20
4.3166249656
 30
0.0
 10
5.9168560771
 20
4.3165115565
 30
0.0
  0
SPLINE
  5
2A2
100
AcDbEntity
  8
ALL_ASSEMBLY_MEMBERS
100
AcDbSpline
 62
7
  6
CONTINUOUS
 70
0
 71
3
 72
17
 73
13
 74
0
 42
0.0000001
 43
0.0000001
 44
0.0000000001
 40
0.0
 40
0.0
 40
0.0
 40
0.0
 40
0.1448393673
 40
0.2872049524
 40
0.4241807482
 40
0.5540289474
 40
0.6757118507
 40
0.7892886001
 40
0.8436001727
 40
0.8965984003
 40
0.9486126343
 40
1.0
 40
1.0
 40
1.0
 40
1.0
 10
5.9269198455
 20
4.3232352484
 30
0.0
 10
5.9269198505
 20
4.3219325834
 30
0.0
 10
5.9267402337
 20
4.3193459601
 30
0.0
 10
5.9259470799
 20
4.3156015129
 30
0.0
 10
5.9246530286
 20
4.312140304
 30
0.0
 10
5.9229048566
 20
4.3090948532
 30
0.0
 10
5.9207671941
 20
4.3065755519
 30
0.0
 10
5.9186812993
 20
4.3049744897
 30
0.0
 10
5.9169059824
 20
4.3040724687
 30
0.0
 10
5.915551408
 20
4.3035921133
 30
0.0
 10
5.9141710961
 20
4.3033010726
 30
0.0
 10
5.9132398806
 20
4.3032352484
 30
0.0
 10
5.9127777098
 20
4.3032352484
 30
0.0
  0
SPLINE
  5
2A3
100
AcDbEntity
  8
ALL_ASSEMBLY_MEMBERS
100
AcDbSpline
 62
7
  6
CONTINUOUS
 70
0
 71
3
 72
22
 73
18
 74
0
 42
0.0000001
 43
0.0000001
 44
0.0000000001
 40
0.0
 40
0.0
 40
0.0
 40
0.0
 40
0.1504408084
 40
0.2222429317
 40
0.2916833491
 40
0.3588633351
 40
0.423907578
 40
0.4870048884
 40
0.5483426506
 40
0.6081312449
 40
0.6665711522
 40
0.7238649857
 40
0.7802151617
 40
0.8358121238
 40
0.8908508272
 40
0.9455186135
 40
1.0
 40
1.0
 40
1.0
 40
1.0
 10
6.3049184401
 20
4.3102638465
 30
0.0
 10
6.30132387
 20
4.3225438523
 30
0.0
 10
6.2944865823
 20
4.3402946594
 30
0.0
 10
6.2826923396
 20
4.3621419787
 30
0.0
 10
6.2730043809
 20
4.3770130021
 30
0.0
 10
6.2624888159
 20
4.390586744
 30
0.0
 10
6.2512752225
 20
4.4028681384
 30
0.0
 10
6.2394748885
 20
4.4138689773
 30
0.0
 10
6.2271870527
 20
4.4236174556
 30
0.0
 10
6.2144923902
 20
4.4321370499
 30
0.0
 10
6.2014648004
 20
4.439458661
 30
0.0
 10
6.188165765
 20
4.4456065345
 30
0.0
 10
6.1746506402
 20
4.4506030159
 30
0.0
 10
6.1609698067
 20
4.454470898
 30
0.0
 10
6.147167027
 20
4.4572211047
 30
0.0
 10
6.1332862803
 20
4.45886841
 30
0.0
 10
6.1239988393
 20
4.4592353067
 30
0.0
 10
6.1193650886
 20
4.4592357752
 30
0.0
  0
SPLINE
  5
2A4
100
AcDbEntity
  8
ALL_ASSEMBLY_MEMBERS
100
AcDbSpline
 62
7
  6
CONTINUOUS
 70
0
 71
3
 72
22
 73
18
 74
0
 42
0.0000001
 43
0.0000001
 44
0.0000000001
 40
0.0
 40
0.0
 40
0.0
 40
0.0
 40
0.0079150587
 40
0.0164830056
 40
0.0262003249
 40
0.0374008452
 40
0.0649787674
 40
0.1001340014
 40
0.1430204261
 40
0.1934861412
 40
0.2512602634
 40
0.3158883648
 40
0.3867838179
 40
0.4633367706
 40
0.6306772061
 40
0.8120056754
 40
1.0
 40
1.0
 40
1.0
 40
1.0
 10
6.3025582298
 20
4.2052352484
 30
0.0
 10
6.3025582298
 20
4.2052899684
 30
0.0
 10
6.3025761305
 20
4.2054044851
 30
0.0
 10
6.3026531377
 20
4.2055703851
 30
0.0
 10
6.3027777076
 20
4.2057332953
 30
0.0
 10
6.3030232128
 20
4.2059632319
 30
0.0
 10
6.3034590405
 20
4.2062373264
 30
0.0
 10
6.3041259923
 20
4.2065368468
 30
0.0
 10
6.3049673114
 20
4.2068254451
 30
0.0
 10
6.3059757821
 20
4.2071003051
 30
0.0
 10
6.3071431455
 20
4.2073580992
 30
0.0
 10
6.3084583269
 20
4.2075963759
 30
0.0
 10
6.3099086193
 20
4.207812939
 30
0.0
 10
6.312069006
 20
4.2080769816
 30
0.0
 10
6.3149987366
 20
4.208330655
 30
0.0
 10
6.3187050645
 20
4.2085131328
 30
0.0
 10
6.3212585509
 20
4.2085543971
 30
0.0
 10
6.3225582298
 20
4.2085543974
 30
0.0
  0
SPLINE
  5
2A5
100
AcDbEntity
  8
ALL_ASSEMBLY_MEMBERS
100
AcDbSpline
 62
7
  6
CONTINUOUS
 70
0
 71
3
 72
14
 73
10
 74
0
 42
0.0000001
 43
0.0000001
 44
0.0000000001
 40
0.0
 40
0.0
 40
0.0
 40
0.0
 40
0.1255031802
 40
0.2506455267
 40
0.3754502618
 40
0.5001051725
 40
0.6247595293
 40
0.7496065013
 40
1.0
 40
1.0
 40
1.0
 40
1.0
 10
6.3225582298
 20
4.2085543974
 30
0.0
 10
6.3225582378
 20
4.2070232136
 30
0.0
 10
6.3223473525
 20
4.2039611361
 30
0.0
 10
6.3214111669
 20
4.1994635573
 30
0.0
 10
6.3198834152
 20
4.1951415509
 30
0.0
 10
6.3178053236
 20
4.1910637617
 30
0.0
 10
6.3152281746
 20
4.1872806825
 30
0.0
 10
6.3111867933
 20
4.1826968223
 30
0.0
 10
6.3075314947
 20
4.1798493463
 30
0.0
 10
6.3049318401
 20
4.17824493
 30
0.0
  0
ENDSEC
  0
SECTION
  2
OBJECTS
  0
DICTIONARY
  5
C
100
AcDbDictionary
280
0
281
1
  3
ACAD_GROUP
350
D
  3
ACAD_MLINESTYLE
350
17
  3
ACAD_LAYOUT
350
1A
  3
ACAD_PLOTSETTINGS
350
19
  3
ACAD_PLOTSTYLENAME
350
E
  0
DICTIONARY
  5
D
102
{ACAD_REACTORS
330
C
102
}
100
AcDbDictionary
280
0
281
1
  0
ACDBDICTIONARYWDFLT
  5
E
102
{ACAD_REACTORS
330
C
102
}
100
AcDbDictionary
281
1
  3
Normal
350
F
100
AcDbDictionaryWithDefault
340
F
  0
DICTIONARY
  5
17
102
{ACAD_REACTORS
330
C
102
}
100
AcDbDictionary
280
0
281
1
  3
Standard
350
18
  0
DICTIONARY
  5
19
102
{ACAD_REACTORS
330
C
102
}
100
AcDbDictionary
281
1
  0
DICTIONARY
  5
1A
102
{ACAD_REACTORS
330
C
102
}
100
AcDbDictionary
281
1
  3
Model
350
2A6
  3
Layout1
350
2A7
  0
ACDBPLACEHOLDER
  5
F
102
{ACAD_REACTORS
330
E
102
}
  0
MLINESTYLE
  5
18
102
{ACAD_REACTORS
330
17
102
}
100
AcDbMlineStyle
  2
STANDARD
 70
0
  3

 62
256
 51
90.0
 52
90.0
 71
2
 49
0.5
 62
256
  6
BYLAYER
 49
-0.5
 62
256
  6
BYLAYER
  0
LAYOUT
  5
2A6
102
{ACAD_REACTORS
330
1A
102
}
100
AcDbPlotSettings
  1

  2
none_device
  4
ANSI_A_(11.00_x_8.50_Inches)
  6

 40
0.0
 41
0.0
 42
0.0
 43
0.0
 44
279.4
 45
215.9
 46
0.0
 47
0.0
 48
0.0
 49
0.0
140
0.0
141
0.0
142
1.0
143
1.0
 70
1024
 72
0
 73
0
 74
0
  7

 75
0
147
1.0
148
0.0
149
0.0
100
AcDbLayout
  1
Model
 70
0
 71
0
 10
0.0
 20
0.0
 11
11.0
 21
8.5
 12
0.0
 22
0.0
 32
0.0
 14
0.0
 24
0.0
 34
0.0
 15
0.0
 25
0.0
 35
0.0
146
0.0
 13
0.0
 23
0.0
 33
0.0
 16
1.0
 26
0.0
 36
0.0
 17
0.0
 27
1.0
 37
0.0
 76
0
330
21E
345
0
346
0
  0
LAYOUT
  5
2A7
102
{ACAD_REACTORS
330
1A
102
}
100
AcDbPlotSettings
  1

  2
none_device
  4
ANSI_A_(11.00_x_8.50_Inches)
  6

 40
0.0
 41
0.0
 42
0.0
 43
0.0
 44
279.4
 45
215.9
 46
0.0
 47
0.0
 48
0.0
 49
0.0
140
0.0
141
0.0
142
1.0
143
1.0
 70
0
 72
0
 73
0
 74
0
  7

 75
0
147
1.0
148
0.0
149
0.0
100
AcDbLayout
  1
Layout1
 70
0
 71
1
 10
0.0
 20
0.0
 11
11.0
 21
8.5
 12
0.0
 22
0.0
 32
0.0
 14
0.0
 24
0.0
 34
0.0
 15
0.0
 25
0.0
 35
0.0
146
0.0
 13
0.0
 23
0.0
 33
0.0
 16
1.0
 26
0.0
 36
0.0
 17
0.0
 27
1.0
 37
0.0
 76
0
330
21F
345
0
346
0
  0
ENDSEC
  0
EOF
