999
DXF file: E:\BT Custom\CADOUTPUT\_RIGHT.dxf
999
Pro/ENGINEER 2018400 by Parametric Technology Corporation
  0
SECTION
  2
HEADER
  9
$ACADVER
  1
AC1018
  9
$DWGCODEPAGE
  3
ANSI_1252
  9
$EXTMAX
 10
22.0
 20
17.0
 30
0.0
  9
$EXTMIN
 10
0.0
 20
0.0
 30
0.0
  9
$LIMMIN
 10
0.0
 20
0.0
  9
$LIMMAX
 10
22.0
 20
17.0
  9
$VIEWCTR
 10
11.0
 20
8.5
  9
$VIEWSIZE
 40
17.0
  9
$CLAYER
  8
0
  9
$LTSCALE
 40
1.21
  9
$CELTYPE
  6
BYLAYER
  9
$DIMSCALE
 40
1.0
  9
$DIMASZ
 40
0.1
  9
$DIMEXO
 40
0.0625
  9
$DIMDLI
 40
0.836
  9
$DIMEXE
 40
0.125
  9
$DIMCEN
 40
0.198
  9
$DIMLFAC
 40
1.0
  9
$DIMBLK
  1
_FILLED
  9
$DIMALT
 70
1
  9
$DIMALTD
 70
2
  9
$DIMALTTD
 70
2
  9
$DIMALTF
 40
25.4
  9
$DIMTXT
 40
0.08
  9
$DIMTOL
 70
1
  9
$DIMLIM
 70
0
  9
$DIMTFAC
 40
1.0
  9
$DIMTP
 40
0.001
  9
$DIMTM
 40
0.001
  9
$DIMGAP
 40
0.09
  9
$DIMDSEP
 70
46
  9
$AUNITS
 70
0
  9
$PDMODE
 70
3
  9
$PDSIZE
 40
0.06
  9
$HANDSEED
  5
4B8
  9
$TILEMODE
 70
1
  9
$MEASUREMENT
 70
0
  9
$INSUNITS
 70
1
  0
ENDSEC
  0
SECTION
  2
CLASSES
  0
CLASS
  1
ACDBDICTIONARYWDFLT
  2
AcDbDictionaryWithDefault
  3
AutoCAD 2000
 90
0
 91
1
280
0
281
0
  0
CLASS
  1
ACDBPLACEHOLDER
  2
AcDbPlaceHolder
  3
AutoCAD 2000
 90
0
 91
1
280
0
281
0
  0
CLASS
  1
LAYOUT
  2
AcDbLayout
  3
AutoCAD 2000
 90
0
 91
0
280
0
281
0
  0
ENDSEC
  0
SECTION
  2
TABLES
  0
TABLE
  2
VPORT
  5
8
100
AcDbSymbolTable
 70
2
  0
VPORT
  5
1F4
100
AcDbSymbolTableRecord
100
AcDbViewportTableRecord
  2
*ACTIVE
 70
0
 10
0.0
 20
0.0
 11
1.0
 21
1.0
 12
11.0
 22
8.5
 13
0.0
 23
0.0
 14
1.0
 24
1.0
 15
0.0
 25
0.0
 16
0.0
 26
0.0
 36
1.0
 17
0.0
 27
0.0
 37
0.0
 40
17.0
 41
1.2941176471
 42
50.0
 43
0.0
 44
0.0
 50
0.0
 51
0.0
 71
0
 72
100
 73
1
 74
1
 75
0
 76
0
 77
0
 78
0
  0
ENDTAB
  0
TABLE
  2
LTYPE
  5
5
100
AcDbSymbolTable
 70
6
  0
LTYPE
  5
14
100
AcDbSymbolTableRecord
100
AcDbLinetypeTableRecord
  2
BYBLOCK
 70
0
  3

 72
65
 73
0
 40
0.0
  0
LTYPE
  5
15
100
AcDbSymbolTableRecord
100
AcDbLinetypeTableRecord
  2
BYLAYER
 70
0
  3

 72
65
 73
0
 40
0.0
  0
LTYPE
  5
16
100
AcDbSymbolTableRecord
100
AcDbLinetypeTableRecord
  2
CONTINUOUS
 70
64
  3
Solid line
 72
65
 73
0
 40
0.0
  0
LTYPE
  5
1F5
100
AcDbSymbolTableRecord
100
AcDbLinetypeTableRecord
  2
CENTER
 70
64
  3
____ _ ____ _ ____ _ ____ _ ____ _ ____ _ ____
 72
65
 73
4
 40
0.6
 49
0.375
 74
0
 49
-0.075
 74
0
 49
0.075
 74
0
 49
-0.075
 74
0
  0
LTYPE
  5
1F6
100
AcDbSymbolTableRecord
100
AcDbLinetypeTableRecord
  2
HIDDEN
 70
64
  3
- - - - - - - - - - - - - - - - - - - -
 72
65
 73
2
 40
0.2
 49
0.1
 74
0
 49
-0.1
 74
0
  0
LTYPE
  5
1F7
100
AcDbSymbolTableRecord
100
AcDbLinetypeTableRecord
  2
PHANTOM
 70
64
  3
_____ _ _ _____ _ _ _____ _ _ _____
 72
65
 73
6
 40
0.8
 49
0.45
 74
0
 49
-0.05
 74
0
 49
0.1
 74
0
 49
-0.05
 74
0
 49
0.1
 74
0
 49
-0.05
 74
0
  0
LTYPE
  5
1F8
100
AcDbSymbolTableRecord
100
AcDbLinetypeTableRecord
  2
DOT
 70
64
  3
. . . . . . . . . . . . . . . . . . . .
 72
65
 73
2
 40
0.2
 49
0.1
 74
0
 49
-0.1
 74
0
  0
LTYPE
  5
1F9
100
AcDbSymbolTableRecord
100
AcDbLinetypeTableRecord
  2
DASHED
 70
64
  3
- - - - - - - - - - - - - - - - - - - -
 72
65
 73
2
 40
0.2
 49
0.1
 74
0
 49
-0.1
 74
0
  0
ENDTAB
  0
TABLE
  2
LAYER
  5
2
100
AcDbSymbolTable
 70
36
  0
LAYER
  5
10
100
AcDbSymbolTableRecord
100
AcDbLayerTableRecord
  2
0
 70
0
 62
7
  6
CONTINUOUS
370
-3
390
F
  0
LAYER
  5
1FA
100
AcDbSymbolTableRecord
100
AcDbLayerTableRecord
  2
DEFAULT_1
 70
0
 62
7
  6
CENTER
370
-3
390
F
  0
LAYER
  5
1FB
100
AcDbSymbolTableRecord
100
AcDbLayerTableRecord
  2
DEFAULT_2
 70
0
 62
8
  6
HIDDEN
370
-3
390
F
  0
LAYER
  5
1FC
100
AcDbSymbolTableRecord
100
AcDbLayerTableRecord
  2
DEFAULT_3
 70
0
 62
7
  6
PHANTOM
370
-3
390
F
  0
LAYER
  5
1FD
100
AcDbSymbolTableRecord
100
AcDbLayerTableRecord
  2
ALL_FEATURES
 70
0
 62
7
  6
CONTINUOUS
370
-3
390
F
  0
LAYER
  5
1FE
100
AcDbSymbolTableRecord
100
AcDbLayerTableRecord
  2
AXES_FEATURES
 70
0
 62
7
  6
CONTINUOUS
370
-3
390
F
  0
LAYER
  5
1FF
100
AcDbSymbolTableRecord
100
AcDbLayerTableRecord
  2
DEFAULT_COORDINATE_SYSTEM
 70
0
 62
7
  6
CONTINUOUS
370
-3
390
F
  0
LAYER
  5
200
100
AcDbSymbolTableRecord
100
AcDbLayerTableRecord
  2
DEFAULT_DATUM_AXES
 70
0
 62
7
  6
CONTINUOUS
370
-3
390
F
  0
LAYER
  5
201
100
AcDbSymbolTableRecord
100
AcDbLayerTableRecord
  2
DEFAULT_DATUM_PLANES
 70
0
 62
7
  6
CONTINUOUS
370
-3
390
F
  0
LAYER
  5
202
100
AcDbSymbolTableRecord
100
AcDbLayerTableRecord
  2
DIMENSIONS
 70
0
 62
7
  6
CONTINUOUS
370
-3
390
F
  0
ENDTAB
  0
TABLE
  2
STYLE
  5
3
100
AcDbSymbolTable
 70
1
  0
STYLE
  5
11
100
AcDbSymbolTableRecord
100
AcDbTextStyleTableRecord
  2
STANDARD
 70
0
 40
0.0
 41
0.8
 50
0.0
 71
0
 42
0.2
  3
txt
  4

  0
STYLE
  5
203
100
AcDbSymbolTableRecord
100
AcDbTextStyleTableRecord
  2
TEXTSTYLE_1
 70
0
 40
0.0
 41
0.8
 50
0.0
 71
0
 42
0.2
  3
gdt
  4

  0
ENDTAB
  0
TABLE
  2
VIEW
  5
6
100
AcDbSymbolTable
 70
0
  0
ENDTAB
  0
TABLE
  2
UCS
  5
7
100
AcDbSymbolTable
 70
0
  0
ENDTAB
  0
TABLE
  2
APPID
  5
9
100
AcDbSymbolTable
 70
1
  0
APPID
  5
204
100
AcDbSymbolTableRecord
100
AcDbRegAppTableRecord
  2
ACAD
 70
0
  0
ENDTAB
  0
TABLE
  2
BLOCK_RECORD
  5
1
100
AcDbSymbolTable
 70
0
  0
BLOCK_RECORD
  5
205
100
AcDbSymbolTableRecord
100
AcDbBlockTableRecord
  2
*Model_Space
  0
BLOCK_RECORD
  5
206
100
AcDbSymbolTableRecord
100
AcDbBlockTableRecord
  2
*Paper_Space
  0
BLOCK_RECORD
  5
207
100
AcDbSymbolTableRecord
100
AcDbBlockTableRecord
  2
_FILLED
  0
ENDTAB
  0
TABLE
  2
DIMSTYLE
  5
A
100
AcDbSymbolTable
 70
1
100
AcDbDimStyleTable
 71
0
  0
DIMSTYLE
105
208
100
AcDbSymbolTableRecord
100
AcDbDimStyleTableRecord
  2
STANDARD
 70
0
  3

  4

 40
1.0
 41
0.1
 42
0.0625
 43
0.38
 44
0.125
 45
0.0
 46
0.0
 47
0.001
 48
0.001
140
0.08
141
0.09
142
0.0
143
25.4
144
1.0
145
0.0
146
1.0
147
0.09
 71
1.0
 72
0.0
 73
1
 74
1
 75
0
 76
0
 77
0
 78
4
 79
1
170
1
171
2
172
0
173
0
174
0
175
0
176
0
177
0
178
0
270
2
179
3
271
3
272
3
273
2
274
2
275
0
280
0
281
0
282
0
283
1
284
4
285
0
286
0
287
3
288
0
340
11
278
46
341
207
342
207
343
207
344
207
  0
ENDTAB
  0
ENDSEC
  0
SECTION
  2
BLOCKS
  0
BLOCK
  5
20
100
AcDbEntity
  8
0
100
AcDbBlockBegin
  2
*Model_Space
 70
0
 10
0.0
 20
0.0
 30
0.0
  3
*Model_Space
  1

  0
ENDBLK
  5
21
100
AcDbEntity
  8
0
100
AcDbBlockEnd
  0
BLOCK
  5
1C
100
AcDbEntity
  8
0
100
AcDbBlockBegin
  2
*Paper_Space
 70
0
 10
0.0
 20
0.0
 30
0.0
  3
*Paper_Space
  1

  0
ENDBLK
  5
1D
100
AcDbEntity
  8
0
100
AcDbBlockEnd
  0
BLOCK
  5
209
100
AcDbEntity
  8
0
100
AcDbBlockBegin
  2
_FILLED
 70
64
 10
0.0
 20
0.0
  3
_FILLED
  1

  0
SOLID
  5
20A
100
AcDbEntity
  8
0
  6
BYBLOCK
 62
0
100
AcDbTrace
 10
0.0
 20
0.0
 11
-1.0
 21
0.2
 12
-1.0
 22
-0.2
 13
-1.0
 23
-0.2
  0
ENDBLK
  5
20B
100
AcDbEntity
  8
0
  6
BYBLOCK
 62
0
100
AcDbBlockEnd
  0
ENDSEC
  0
SECTION
  2
ENTITIES
  0
LINE
  5
20C
100
AcDbEntity
  8
0
100
AcDbLine
 62
7
  6
CONTINUOUS
 10
5.0941723505
 20
19.5526101893
 11
4.4728521233
 21
18.931289962
  0
LINE
  5
20D
100
AcDbEntity
  8
0
100
AcDbLine
 62
7
  6
CONTINUOUS
 10
4.8798489262
 20
18.2178382293
 11
4.8633189276
 21
18.2036147422
  0
LINE
  5
20E
100
AcDbEntity
  8
0
100
AcDbLine
 62
7
  6
CONTINUOUS
 10
4.9838068624
 20
18.1143694906
 11
4.9670139202
 21
18.0999197496
  0
LINE
  5
20F
100
AcDbEntity
  8
0
100
AcDbLine
 62
7
  6
CONTINUOUS
 10
16.3459016515
 20
-1.640108196
 11
16.9559016515
 21
-1.640108196
  0
LINE
  5
210
100
AcDbEntity
  8
0
100
AcDbLine
 62
9
  6
CONTINUOUS
 10
16.2859016515
 20
-1.580108196
 11
16.9559016515
 21
-1.580108196
  0
LINE
  5
211
100
AcDbEntity
  8
0
100
AcDbLine
 62
7
  6
CONTINUOUS
 10
4.7702357551
 20
18.3426364391
 11
4.7489891876
 21
18.3179444822
  0
LINE
  5
212
100
AcDbEntity
  8
0
100
AcDbLine
 62
7
  6
CONTINUOUS
 10
4.8052330771
 20
18.3074690156
 11
4.7840651815
 21
18.2828684883
  0
LINE
  5
213
100
AcDbEntity
  8
0
100
AcDbLine
 62
7
  6
CONTINUOUS
 10
4.9086956366
 20
18.2035038981
 11
4.8877601741
 21
18.1791734957
  0
LINE
  5
214
100
AcDbEntity
  8
0
100
AcDbLine
 62
7
  6
CONTINUOUS
 10
5.0479709256
 20
18.0120048575
 11
5.0282963662
 21
17.989139829
  0
LINE
  5
215
100
AcDbEntity
  8
0
100
AcDbLine
 62
7
  6
CONTINUOUS
 10
5.07610203
 20
18.0352853339
 11
5.0555421965
 21
18.0113914733
  0
LINE
  5
216
100
AcDbEntity
  8
0
100
AcDbLine
 62
7
  6
CONTINUOUS
 10
5.0864447197
 20
17.9608622811
 11
5.0726294721
 21
17.9448067231
  0
LINE
  5
217
100
AcDbEntity
  8
0
100
AcDbLine
 62
7
  6
CONTINUOUS
 10
5.2218937278
 20
17.8372422855
 11
5.2026075619
 21
17.8148286332
  0
LINE
  5
218
100
AcDbEntity
  8
0
100
AcDbLine
 62
7
  6
CONTINUOUS
 10
5.3001363925
 20
17.8101659762
 11
5.2800783693
 21
17.7868553005
  0
LINE
  5
219
100
AcDbEntity
  8
0
100
AcDbLine
 62
7
  6
CONTINUOUS
 10
6.3570650617
 20
18.7012536247
 11
6.1937233953
 21
18.5379119583
  0
LINE
  5
21A
100
AcDbEntity
  8
0
100
AcDbLine
 62
7
  6
CONTINUOUS
 10
5.152014846
 20
17.9469539929
 11
5.1347959426
 21
17.9321377272
  0
LINE
  5
21B
100
AcDbEntity
  8
0
100
AcDbLine
 62
7
  6
CONTINUOUS
 10
5.1681943655
 20
17.8795881503
 11
5.1518832182
 21
17.8655529769
  0
LINE
  5
21C
100
AcDbEntity
  8
0
100
AcDbLine
 62
7
  6
CONTINUOUS
 10
5.297916866
 20
17.7493901347
 11
5.281861308
 21
17.7355748871
  0
LINE
  5
21D
100
AcDbEntity
  8
0
100
AcDbLine
 62
7
  6
CONTINUOUS
 10
5.3771220535
 20
17.7229091756
 11
5.3593321154
 21
17.7076015544
  0
LINE
  5
21E
100
AcDbEntity
  8
0
100
AcDbLine
 62
7
  6
CONTINUOUS
 10
5.4627753809
 20
17.5350341452
 11
5.4505205218
 21
17.5244892664
  0
LINE
  5
21F
100
AcDbEntity
  8
0
100
AcDbLine
 62
7
  6
CONTINUOUS
 10
5.505792117
 20
17.5435799429
 11
5.4886265896
 21
17.5288096055
  0
LINE
  5
220
100
AcDbEntity
  8
0
100
AcDbLine
 62
7
  6
CONTINUOUS
 10
5.3309857971
 20
17.6869358148
 11
5.3111390786
 21
17.6638707096
  0
LINE
  5
221
100
AcDbEntity
  8
0
100
AcDbLine
 62
7
  6
CONTINUOUS
 10
5.3909797491
 20
17.6266526843
 11
5.3712667757
 21
17.6037430125
  0
LINE
  5
222
100
AcDbEntity
  8
0
100
AcDbLine
 62
7
  6
CONTINUOUS
 10
5.4281990841
 20
17.629942496
 11
5.4093728435
 21
17.6080633516
  0
LINE
  5
223
100
AcDbEntity
  8
0
100
AcDbLine
 62
7
  6
CONTINUOUS
 10
5.5710080307
 20
17.5379854152
 11
5.5515553842
 21
17.5153782856
  0
LINE
  5
224
100
AcDbEntity
  8
0
100
AcDbLine
 62
7
  6
CONTINUOUS
 10
5.563725848
 20
17.4530747915
 11
5.5443975793
 21
17.4306122089
  0
LINE
  5
225
100
AcDbEntity
  8
0
100
AcDbLine
 62
7
  6
CONTINUOUS
 10
5.604897436
 20
17.3507140099
 11
5.597517325
 21
17.3421371242
  0
LINE
  5
226
100
AcDbEntity
  8
0
100
AcDbLine
 62
7
  6
CONTINUOUS
 10
5.6970627274
 20
17.3597856246
 11
5.6788346048
 21
17.3386015903
  0
LINE
  5
227
100
AcDbEntity
  8
0
100
AcDbLine
 62
7
  6
CONTINUOUS
 10
5.7118878912
 20
17.2743198717
 11
5.6903569836
 21
17.2492974656
  0
LINE
  5
228
100
AcDbEntity
  8
0
100
AcDbLine
 62
7
  6
CONTINUOUS
 10
5.8283893724
 20
17.1871393629
 11
5.8096493594
 21
17.1653604289
  0
LINE
  5
229
100
AcDbEntity
  8
0
100
AcDbLine
 62
7
  6
CONTINUOUS
 10
5.8768792028
 20
17.2306400014
 11
5.8581083931
 21
17.2088252767
  0
LINE
  5
22A
100
AcDbEntity
  8
0
100
AcDbLine
 62
7
  6
CONTINUOUS
 10
7.06700027
 20
18.3363865256
 11
6.9368926223
 21
18.2062788779
  0
LINE
  5
22B
100
AcDbEntity
  8
0
100
AcDbLine
 62
7
  6
CONTINUOUS
 10
7.0952845413
 20
18.3646707969
 11
7.2289277229
 21
18.4983139785
  0
LINE
  5
22C
100
AcDbEntity
  8
0
100
AcDbLine
 62
7
  6
CONTINUOUS
 10
7.264283062
 20
18.4629586395
 11
7.5117704354
 21
18.7104460129
  0
LINE
  5
22D
100
AcDbEntity
  8
0
100
AcDbLine
 62
7
  6
CONTINUOUS
 10
5.6492909956
 20
17.4520275398
 11
5.6308091303
 21
17.4361245394
  0
LINE
  5
22E
100
AcDbEntity
  8
0
100
AcDbLine
 62
7
  6
CONTINUOUS
 10
5.6421988492
 20
17.3673179601
 11
5.6236513254
 21
17.3513584628
  0
LINE
  5
22F
100
AcDbEntity
  8
0
100
AcDbLine
 62
7
  6
CONTINUOUS
 10
5.6984781616
 20
17.2815615722
 11
5.6767710711
 21
17.2628833781
  0
LINE
  5
230
100
AcDbEntity
  8
0
100
AcDbLine
 62
7
  6
CONTINUOUS
 10
5.7759393828
 20
17.2747080344
 11
5.758088351
 21
17.2593478442
  0
LINE
  5
231
100
AcDbEntity
  8
0
100
AcDbLine
 62
7
  6
CONTINUOUS
 10
5.7915440162
 20
17.1889165474
 11
5.7696107297
 21
17.1700437195
  0
LINE
  5
232
100
AcDbEntity
  8
0
100
AcDbLine
 62
7
  6
CONTINUOUS
 10
5.9566273306
 20
17.1461485557
 11
5.9373621392
 21
17.1295715306
  0
LINE
  5
233
100
AcDbEntity
  8
0
100
AcDbLine
 62
7
  6
CONTINUOUS
 10
5.9081266834
 20
17.102647901
 11
5.8889031055
 21
17.0861066828
  0
LINE
  5
234
100
AcDbEntity
  8
0
100
AcDbLine
 62
7
  6
CONTINUOUS
 10
6.0458367602
 20
16.9358332542
 11
6.0232533939
 21
16.9164010553
  0
LINE
  5
235
100
AcDbEntity
  8
0
100
AcDbLine
 62
7
  6
CONTINUOUS
 10
6.0905345963
 20
16.9616018372
 11
6.0718832182
 21
16.9455529769
  0
LINE
  5
236
100
AcDbEntity
  8
0
100
AcDbLine
 62
7
  6
CONTINUOUS
 10
9.5709016515
 20
-0.610108196
 11
8.3409016515
 21
-0.610108196
  0
LINE
  5
237
100
AcDbEntity
  8
0
100
AcDbLine
 62
9
  6
CONTINUOUS
 10
8.3309016515
 20
-0.600108196
 11
9.5809016515
 21
-0.600108196
  0
LINE
  5
238
100
AcDbEntity
  8
0
100
AcDbLine
 62
9
  6
CONTINUOUS
 10
16.3459016515
 20
-0.190108196
 11
16.2859016515
 21
-0.190108196
  0
LINE
  5
239
100
AcDbEntity
  8
0
100
AcDbLine
 62
7
  6
CONTINUOUS
 10
8.0159016515
 20
-0.110108196
 11
16.2059016515
 21
-0.110108196
  0
LINE
  5
23A
100
AcDbEntity
  8
0
100
AcDbLine
 62
9
  6
CONTINUOUS
 10
7.9559016515
 20
-0.050108196
 11
16.2059016515
 21
-0.050108196
  0
LINE
  5
23B
100
AcDbEntity
  8
0
100
AcDbLine
 62
7
  6
CONTINUOUS
 10
5.9132762272
 20
17.0528286358
 11
5.8945021731
 21
17.0310101404
  0
LINE
  5
23C
100
AcDbEntity
  8
0
100
AcDbLine
 62
7
  6
CONTINUOUS
 10
5.9649664824
 20
17.0200216633
 11
5.9439996478
 21
16.9956548014
  0
LINE
  5
23D
100
AcDbEntity
  8
0
100
AcDbLine
 62
7
  6
CONTINUOUS
 10
6.0101628742
 20
17.0451833795
 11
5.9926294721
 21
17.0248067231
  0
LINE
  5
23E
100
AcDbEntity
  8
0
100
AcDbLine
 62
7
  6
CONTINUOUS
 10
6.1073010178
 20
16.8578750361
 11
6.0889565379
 21
16.8365557756
  0
LINE
  5
23F
100
AcDbEntity
  8
0
100
AcDbLine
 62
7
  6
CONTINUOUS
 10
6.1530491346
 20
16.8609234603
 11
6.1350288365
 21
16.8399809517
  0
LINE
  5
240
100
AcDbEntity
  8
0
100
AcDbLine
 62
7
  6
CONTINUOUS
 10
6.2043823726
 20
16.9015627872
 11
6.1863395585
 21
16.8805941113
  0
LINE
  5
241
100
AcDbEntity
  8
0
100
AcDbLine
 62
7
  6
CONTINUOUS
 10
6.3106803119
 20
16.6726462266
 11
6.2904819706
 21
16.6491724786
  0
LINE
  5
242
100
AcDbEntity
  8
0
100
AcDbLine
 62
7
  6
CONTINUOUS
 10
6.3461628674
 20
16.707576082
 11
6.3293728435
 21
16.6880633516
  0
LINE
  5
243
100
AcDbEntity
  8
0
100
AcDbLine
 62
7
  6
CONTINUOUS
 10
8.0865234052
 20
19.005891804
 11
7.9317630347
 21
18.8511314336
  0
LINE
  5
244
100
AcDbEntity
  8
0
100
AcDbLine
 62
7
  6
CONTINUOUS
 10
8.3029965092
 20
18.7586788384
 11
8.1636060695
 21
18.6192883987
  0
LINE
  5
245
100
AcDbEntity
  8
0
100
AcDbLine
 62
7
  6
CONTINUOUS
 10
8.4792420765
 20
18.5824332711
 11
8.3398516368
 21
18.4430428314
  0
LWPOLYLINE
  5
246
100
AcDbEntity
  8
0
100
AcDbPolyline
 62
7
  6
CONTINUOUS
 90
9
 70
0
 10
9.3510793018
 20
18.9905844648
 10
9.3535205226
 20
18.9928741215
 10
9.3577417136
 20
18.9962170601
 10
9.3622844572
 20
18.9991079214
 10
9.3671005302
 20
19.0015160209
 10
9.3721388084
 20
19.003415799
 10
9.3773458092
 20
19.0047870923
 10
9.3826662574
 20
19.005615347
 10
9.3880345486
 20
19.0058917759
  0
LINE
  5
247
100
AcDbEntity
  8
0
100
AcDbLine
 62
7
  6
CONTINUOUS
 10
6.1842658421
 20
16.7711172771
 11
6.168210284
 21
16.7573020295
  0
LINE
  5
248
100
AcDbEntity
  8
0
100
AcDbLine
 62
7
  6
CONTINUOUS
 10
6.2343376292
 20
16.7779838736
 11
6.2142825826
 21
16.7607272056
  0
LINE
  5
249
100
AcDbEntity
  8
0
100
AcDbLine
 62
7
  6
CONTINUOUS
 10
6.285699576
 20
16.8186411104
 11
6.2655933046
 21
16.8013403652
  0
LINE
  5
24A
100
AcDbEntity
  8
0
100
AcDbLine
 62
7
  6
CONTINUOUS
 10
6.4281393201
 20
16.6255996293
 11
6.4086265896
 21
16.6088096055
  0
LINE
  5
24B
100
AcDbEntity
  8
0
100
AcDbLine
 62
7
  6
CONTINUOUS
 10
6.3932094647
 20
16.5901170738
 11
6.3697357167
 21
16.5699187325
  0
LINE
  5
24C
100
AcDbEntity
  8
0
100
AcDbLine
 62
7
  6
CONTINUOUS
 10
6.6221260253
 20
16.4838191345
 11
6.6011573494
 21
16.4657763204
  0
LINE
  5
24D
100
AcDbEntity
  8
0
100
AcDbLine
 62
7
  6
CONTINUOUS
 10
6.5814866984
 20
16.4324858965
 11
6.5605441898
 21
16.4144655984
  0
LINE
  5
24E
100
AcDbEntity
  8
0
100
AcDbLine
 62
7
  6
CONTINUOUS
 10
6.5784382741
 20
16.3867377798
 11
6.5571190137
 21
16.3683932999
  0
LINE
  5
24F
100
AcDbEntity
  8
0
100
AcDbLine
 62
9
  6
CONTINUOUS
 10
16.9559016515
 20
0.499891804
 11
7.9559016515
 21
0.499891804
  0
LINE
  5
250
100
AcDbEntity
  8
0
100
AcDbLine
 62
7
  6
CONTINUOUS
 10
16.9559016515
 20
0.559891804
 11
8.0159016515
 21
0.559891804
  0
LINE
  5
251
100
AcDbEntity
  8
0
100
AcDbLine
 62
7
  6
CONTINUOUS
 10
6.5392043484
 20
16.5651363379
 11
6.5219036033
 21
16.5450300665
  0
LINE
  5
252
100
AcDbEntity
  8
0
100
AcDbLine
 62
7
  6
CONTINUOUS
 10
6.4985471117
 20
16.5137743911
 11
6.4812904437
 21
16.4937193445
  0
LINE
  5
253
100
AcDbEntity
  8
0
100
AcDbLine
 62
7
  6
CONTINUOUS
 10
6.4916805152
 20
16.463702604
 11
6.4778652676
 21
16.447647046
  0
LINE
  5
254
100
AcDbEntity
  8
0
100
AcDbLine
 62
7
  6
CONTINUOUS
 10
6.6821650752
 20
16.3699713582
 11
6.666116215
 21
16.3513199801
  0
LINE
  5
255
100
AcDbEntity
  8
0
100
AcDbLine
 62
7
  6
CONTINUOUS
 10
6.6563964923
 20
16.3252735222
 11
6.6369642934
 21
16.3026901558
  0
LINE
  5
256
100
AcDbEntity
  8
0
100
AcDbLine
 62
7
  6
CONTINUOUS
 10
6.8232111391
 20
16.1875634454
 11
6.8066699208
 21
16.1683398674
  0
LINE
  5
257
100
AcDbEntity
  8
0
100
AcDbLine
 62
7
  6
CONTINUOUS
 10
6.8667117938
 20
16.2360640926
 11
6.8501347686
 21
16.2167989012
  0
LINE
  5
258
100
AcDbEntity
  8
0
100
AcDbLine
 62
7
  6
CONTINUOUS
 10
6.9094797854
 20
16.0709807781
 11
6.8906069576
 21
16.0490474916
  0
LINE
  5
259
100
AcDbEntity
  8
0
100
AcDbLine
 62
7
  6
CONTINUOUS
 10
6.9952712724
 20
16.0553761447
 11
6.9799110822
 21
16.0375251129
  0
LINE
  5
25A
100
AcDbEntity
  8
0
100
AcDbLine
 62
7
  6
CONTINUOUS
 10
7.0021248102
 20
15.9779149235
 11
6.9834466161
 21
15.956207833
  0
LINE
  5
25B
100
AcDbEntity
  8
0
100
AcDbLine
 62
7
  6
CONTINUOUS
 10
9.3510793573
 20
18.9905844823
 11
8.5716946717
 21
18.2111997966
  0
LINE
  5
25C
100
AcDbEntity
  8
0
100
AcDbLine
 62
7
  6
CONTINUOUS
 10
8.1835218775
 20
17.5437198239
 11
8.4310092509
 21
17.7912071973
  0
LINE
  5
25D
100
AcDbEntity
  8
0
100
AcDbLine
 62
7
  6
CONTINUOUS
 10
8.0569497637
 20
17.346437032
 11
7.926842116
 21
17.2163293842
  0
LINE
  5
25E
100
AcDbEntity
  8
0
100
AcDbLine
 62
7
  6
CONTINUOUS
 10
8.0852340349
 20
17.3747213032
 11
8.2188772166
 21
17.5083644848
  0
LINE
  5
25F
100
AcDbEntity
  8
0
100
AcDbLine
 62
7
  6
CONTINUOUS
 10
6.7657466176
 20
16.2895996361
 11
6.7453699611
 21
16.272066234
  0
LINE
  5
260
100
AcDbEntity
  8
0
100
AcDbLine
 62
7
  6
CONTINUOUS
 10
6.7405849014
 20
16.2444032444
 11
6.7162180395
 21
16.2234364097
  0
LINE
  5
261
100
AcDbEntity
  8
0
100
AcDbLine
 62
7
  6
CONTINUOUS
 10
6.7733918739
 20
16.1927129892
 11
6.7515733785
 21
16.173938935
  0
LINE
  5
262
100
AcDbEntity
  8
0
100
AcDbLine
 62
7
  6
CONTINUOUS
 10
6.9512032395
 20
16.1563159647
 11
6.9293885147
 21
16.1375451551
  0
LINE
  5
263
100
AcDbEntity
  8
0
100
AcDbLine
 62
7
  6
CONTINUOUS
 10
6.907702601
 20
16.1078261343
 11
6.885923667
 21
16.0890861213
  0
LINE
  5
264
100
AcDbEntity
  8
0
100
AcDbLine
 62
7
  6
CONTINUOUS
 10
6.9948831098
 20
15.9913246531
 11
6.9698607037
 21
15.9697937455
  0
LINE
  5
265
100
AcDbEntity
  8
0
100
AcDbLine
 62
7
  6
CONTINUOUS
 10
7.0803488627
 20
15.9764994894
 11
7.0591648283
 21
15.9582713668
  0
LINE
  5
266
100
AcDbEntity
  8
0
100
AcDbLine
 62
7
  6
CONTINUOUS
 10
7.071277248
 20
15.8843341979
 11
7.0627003622
 21
15.8769540869
  0
LINE
  5
267
100
AcDbEntity
  8
0
100
AcDbLine
 62
7
  6
CONTINUOUS
 10
7.1736380296
 20
15.84316261
 11
7.151175447
 21
15.8238343412
  0
LINE
  5
268
100
AcDbEntity
  8
0
100
AcDbLine
 62
7
  6
CONTINUOUS
 10
7.2585486533
 20
15.8504447926
 11
7.2359415236
 21
15.8309921462
  0
LINE
  5
269
100
AcDbEntity
  8
0
100
AcDbLine
 62
7
  6
CONTINUOUS
 10
7.0878811981
 20
15.9216356112
 11
7.0719217009
 21
15.9030880873
  0
LINE
  5
26A
100
AcDbEntity
  8
0
100
AcDbLine
 62
7
  6
CONTINUOUS
 10
7.1725907778
 20
15.9287277575
 11
7.1566877775
 21
15.9102458923
  0
LINE
  5
26B
100
AcDbEntity
  8
0
100
AcDbLine
 62
7
  6
CONTINUOUS
 10
7.264143181
 20
15.7852288789
 11
7.2493728435
 21
15.7680633516
  0
LINE
  5
26C
100
AcDbEntity
  8
0
100
AcDbLine
 62
7
  6
CONTINUOUS
 10
7.2555973832
 20
15.7422121428
 11
7.2450525045
 21
15.7299572837
  0
LINE
  5
26D
100
AcDbEntity
  8
0
100
AcDbLine
 62
7
  6
CONTINUOUS
 10
7.4434724137
 20
15.6565588154
 11
7.4281647925
 21
15.6387688773
  0
LINE
  5
26E
100
AcDbEntity
  8
0
100
AcDbLine
 62
7
  6
CONTINUOUS
 10
7.4699533728
 20
15.5773536279
 11
7.4561381252
 21
15.5612980699
  0
LINE
  5
26F
100
AcDbEntity
  8
0
100
AcDbLine
 62
7
  6
CONTINUOUS
 10
7.6001513883
 20
15.4476311274
 11
7.586116215
 21
15.4313199801
  0
LINE
  5
270
100
AcDbEntity
  8
0
100
AcDbLine
 62
7
  6
CONTINUOUS
 10
7.667517231
 20
15.431451608
 11
7.6527009653
 21
15.4142327045
  0
LINE
  5
271
100
AcDbEntity
  8
0
100
AcDbLine
 62
7
  6
CONTINUOUS
 10
8.4218168628
 20
16.6365018236
 11
8.2584751963
 21
16.4731601572
  0
LINE
  5
272
100
AcDbEntity
  8
0
100
AcDbLine
 62
7
  6
CONTINUOUS
 10
7.3505057341
 20
15.707635846
 11
7.3286265896
 21
15.6888096055
  0
LINE
  5
273
100
AcDbEntity
  8
0
100
AcDbLine
 62
7
  6
CONTINUOUS
 10
7.3472159224
 20
15.670416511
 11
7.3243062506
 21
15.6507035376
  0
LINE
  5
274
100
AcDbEntity
  8
0
100
AcDbLine
 62
7
  6
CONTINUOUS
 10
7.4074990529
 20
15.610422559
 11
7.3844339477
 21
15.5905758406
  0
LINE
  5
275
100
AcDbEntity
  8
0
100
AcDbLine
 62
7
  6
CONTINUOUS
 10
7.5307292143
 20
15.5795731545
 11
7.5074185386
 21
15.5595151312
  0
LINE
  5
276
100
AcDbEntity
  8
0
100
AcDbLine
 62
7
  6
CONTINUOUS
 10
7.5578055236
 20
15.5013304897
 11
7.5353918713
 21
15.4820443238
  0
LINE
  5
277
100
AcDbEntity
  8
0
100
AcDbLine
 62
7
  6
CONTINUOUS
 10
7.6814255192
 20
15.3658814816
 11
7.6653699611
 21
15.352066234
  0
LINE
  5
278
100
AcDbEntity
  8
0
100
AcDbLine
 62
7
  6
CONTINUOUS
 10
7.7558485719
 20
15.3555387919
 11
7.7319547114
 21
15.3349789584
  0
LINE
  5
279
100
AcDbEntity
  8
0
100
AcDbLine
 62
7
  6
CONTINUOUS
 10
7.7325680956
 20
15.3274076875
 11
7.709703067
 21
15.3077331281
  0
LINE
  5
27A
100
AcDbEntity
  8
0
100
AcDbLine
 62
7
  6
CONTINUOUS
 10
7.9240671361
 20
15.1881323985
 11
7.8997367338
 21
15.167196936
  0
LINE
  5
27B
100
AcDbEntity
  8
0
100
AcDbLine
 62
7
  6
CONTINUOUS
 10
7.8349327287
 20
15.2632436243
 11
7.8204829877
 21
15.2464506821
  0
LINE
  5
27C
100
AcDbEntity
  8
0
100
AcDbLine
 62
7
  6
CONTINUOUS
 10
7.9384014673
 20
15.1592856881
 11
7.9241779802
 21
15.1427556896
  0
LINE
  5
27D
100
AcDbEntity
  8
0
100
AcDbLine
 62
7
  6
CONTINUOUS
 10
8.0280322537
 20
15.0846698391
 11
8.0034317264
 21
15.0635019434
  0
LINE
  5
27E
100
AcDbEntity
  8
0
100
AcDbLine
 62
7
  6
CONTINUOUS
 10
8.0631996771
 20
15.049672517
 11
8.0385077203
 21
15.0284259495
  0
LINE
  5
27F
100
AcDbEntity
  8
0
100
AcDbLine
 62
7
  6
CONTINUOUS
 10
9.2731734273
 20
15.3736091124
 11
8.6518532001
 21
14.7522888852
  0
LINE
  5
280
100
AcDbEntity
  8
0
100
AcDbLine
 62
7
  6
CONTINUOUS
 10
16.6759016515
 20
3.912891804
 11
16.9559016515
 21
3.912891804
  0
LINE
  5
281
100
AcDbEntity
  8
0
100
AcDbLine
 62
9
  6
CONTINUOUS
 10
16.6459016515
 20
3.942891804
 11
16.9559016515
 21
3.942891804
  0
LINE
  5
282
100
AcDbEntity
  8
0
100
AcDbLine
 62
7
  6
CONTINUOUS
 10
15.0694016515
 20
4.8445374733
 11
14.8334016515
 21
4.8445374733
  0
LINE
  5
283
100
AcDbEntity
  8
0
100
AcDbLine
 62
7
  6
CONTINUOUS
 10
14.3899016515
 20
4.899891804
 11
13.4859016515
 21
4.899891804
  0
LINE
  5
284
100
AcDbEntity
  8
0
100
AcDbLine
 62
9
  6
CONTINUOUS
 10
13.4459016515
 20
4.939891804
 11
14.4299016515
 21
4.939891804
  0
LINE
  5
285
100
AcDbEntity
  8
0
100
AcDbLine
 62
7
  6
CONTINUOUS
 10
15.0694016515
 20
5.0570374733
 11
15.3504016515
 21
5.0570374733
  0
LINE
  5
286
100
AcDbEntity
  8
0
100
AcDbLine
 62
7
  6
CONTINUOUS
 10
16.6459016515
 20
5.0585374733
 11
15.9704016515
 21
5.0585374733
  0
LINE
  5
287
100
AcDbEntity
  8
0
100
AcDbLine
 62
7
  6
CONTINUOUS
 10
15.3504016515
 20
5.1175374733
 11
15.9584016515
 21
5.1175374733
  0
LINE
  5
288
100
AcDbEntity
  8
0
100
AcDbLine
 62
7
  6
CONTINUOUS
 10
15.3504016515
 20
5.4715374733
 11
15.9584016515
 21
5.4715374733
  0
LINE
  5
289
100
AcDbEntity
  8
0
100
AcDbLine
 62
7
  6
CONTINUOUS
 10
16.6459016515
 20
5.5305374733
 11
15.9704016515
 21
5.5305374733
  0
LINE
  5
28A
100
AcDbEntity
  8
0
100
AcDbLine
 62
7
  6
CONTINUOUS
 10
15.0694016515
 20
5.5320374733
 11
15.3504016515
 21
5.5320374733
  0
LINE
  5
28B
100
AcDbEntity
  8
0
100
AcDbLine
 62
7
  6
CONTINUOUS
 10
15.0694016515
 20
5.7445374733
 11
14.8334016515
 21
5.7445374733
  0
LINE
  5
28C
100
AcDbEntity
  8
0
100
AcDbLine
 62
7
  6
CONTINUOUS
 10
4.4650875519
 20
18.9023121872
 11
4.5505220002
 21
18.5834664857
  0
LINE
  5
28D
100
AcDbEntity
  8
0
100
AcDbLine
 62
7
  6
CONTINUOUS
 10
7.8766991095
 20
18.7181953587
 11
7.8766991095
 21
18.6448791939
  0
LINE
  5
28E
100
AcDbEntity
  8
0
100
AcDbLine
 62
7
  6
CONTINUOUS
 10
7.9559016515
 20
19.599891804
 11
7.9559016515
 21
19.065891804
  0
LINE
  5
28F
100
AcDbEntity
  8
0
100
AcDbLine
 62
7
  6
CONTINUOUS
 10
7.9559016515
 20
0.499891804
 11
7.9559016515
 21
-0.050108196
  0
LINE
  5
290
100
AcDbEntity
  8
0
100
AcDbLine
 62
9
  6
CONTINUOUS
 10
8.0159016515
 20
19.005891804
 11
8.0159016515
 21
19.659891804
  0
LINE
  5
291
100
AcDbEntity
  8
0
100
AcDbLine
 62
9
  6
CONTINUOUS
 10
8.0739016515
 20
-0.110108196
 11
8.0739016515
 21
0.559891804
  0
LINE
  5
292
100
AcDbEntity
  8
0
100
AcDbLine
 62
7
  6
CONTINUOUS
 10
8.3309016515
 20
-0.110108196
 11
8.3309016515
 21
-0.600108196
  0
LINE
  5
293
100
AcDbEntity
  8
0
100
AcDbLine
 62
7
  6
CONTINUOUS
 10
16.6459016515
 20
7.029891804
 11
16.2699016515
 21
7.029891804
  0
LINE
  5
294
100
AcDbEntity
  8
0
100
AcDbLine
 62
7
  6
CONTINUOUS
 10
16.2199016515
 20
7.029891804
 11
14.4699016515
 21
7.029891804
  0
LINE
  5
295
100
AcDbEntity
  8
0
100
AcDbLine
 62
7
  6
CONTINUOUS
 10
16.2699016515
 20
7.119891804
 11
16.2199016515
 21
7.119891804
  0
LINE
  5
296
100
AcDbEntity
  8
0
100
AcDbLine
 62
7
  6
CONTINUOUS
 10
9.5809016515
 20
-0.110108196
 11
9.5809016515
 21
-0.600108196
  0
LINE
  5
297
100
AcDbEntity
  8
0
100
AcDbLine
 62
7
  6
CONTINUOUS
 10
16.2699016515
 20
7.799891804
 11
16.2199016515
 21
7.799891804
  0
LINE
  5
298
100
AcDbEntity
  8
0
100
AcDbLine
 62
9
  6
CONTINUOUS
 10
14.3899016524
 20
7.8648663401
 11
13.6961690535
 21
7.8648663401
  0
LINE
  5
299
100
AcDbEntity
  8
0
100
AcDbLine
 62
7
  6
CONTINUOUS
 10
16.6459016515
 20
7.889891804
 11
16.2699016515
 21
7.889891804
  0
LINE
  5
29A
100
AcDbEntity
  8
0
100
AcDbLine
 62
7
  6
CONTINUOUS
 10
16.2199016515
 20
7.889891804
 11
14.4699016515
 21
7.889891804
  0
LINE
  5
29B
100
AcDbEntity
  8
0
100
AcDbLine
 62
9
  6
CONTINUOUS
 10
14.3899016515
 20
7.9025383899
 11
13.6961334617
 21
7.9025383899
  0
LINE
  5
29C
100
AcDbEntity
  8
0
100
AcDbLine
 62
9
  6
CONTINUOUS
 10
14.4299016515
 20
8.046891804
 11
13.4459016515
 21
8.046891804
  0
LINE
  5
29D
100
AcDbEntity
  8
0
100
AcDbLine
 62
7
  6
CONTINUOUS
 10
14.3899016515
 20
8.086891804
 11
13.4859016515
 21
8.086891804
  0
LINE
  5
29E
100
AcDbEntity
  8
0
100
AcDbLine
 62
9
  6
CONTINUOUS
 10
16.6459016515
 20
9.382891804
 11
16.9559016515
 21
9.382891804
  0
LINE
  5
29F
100
AcDbEntity
  8
0
100
AcDbLine
 62
7
  6
CONTINUOUS
 10
16.6759016515
 20
9.412891804
 11
16.9559016515
 21
9.412891804
  0
LINE
  5
2A0
100
AcDbEntity
  8
0
100
AcDbLine
 62
9
  6
CONTINUOUS
 10
14.3634624299
 20
7.0467624832
 11
13.6503406116
 21
7.7598843015
  0
LINE
  5
2A1
100
AcDbEntity
  8
0
100
AcDbLine
 62
7
  6
CONTINUOUS
 10
14.3917466898
 20
7.0750467658
 11
13.6786248727
 21
7.7881685829
  0
LINE
  5
2A2
100
AcDbEntity
  8
0
100
AcDbLine
 62
7
  6
CONTINUOUS
 10
5.3288352418
 20
17.6893626402
 11
5.3309857971
 21
17.6869358148
  0
LINE
  5
2A3
100
AcDbEntity
  8
0
100
AcDbLine
 62
7
  6
CONTINUOUS
 10
5.04702812
 20
18.0131073362
 11
5.0479709256
 21
18.0120048575
  0
LINE
  5
2A4
100
AcDbEntity
  8
0
100
AcDbLine
 62
7
  6
CONTINUOUS
 10
6.2076543696
 20
16.7487206406
 11
6.1998949093
 21
16.7578453117
  0
LINE
  5
2A5
100
AcDbEntity
  8
0
100
AcDbLine
 62
7
  6
CONTINUOUS
 10
6.7311831481
 20
16.1747024964
 11
6.6730831938
 21
16.2328024507
  0
LINE
  5
2A6
100
AcDbEntity
  8
0
100
AcDbLine
 62
7
  6
CONTINUOUS
 10
6.5367287833
 20
16.3691568612
 11
6.478628829
 21
16.4272568155
  0
LINE
  5
2A7
100
AcDbEntity
  8
0
100
AcDbLine
 62
7
  6
CONTINUOUS
 10
6.1478200536
 20
16.7580655909
 11
6.0897200993
 21
16.8161655452
  0
LINE
  5
2A8
100
AcDbEntity
  8
0
100
AcDbLine
 62
7
  6
CONTINUOUS
 10
5.9533656888
 20
16.9525199557
 11
5.8952657345
 21
17.01061991
  0
LINE
  5
2A9
100
AcDbEntity
  8
0
100
AcDbLine
 62
7
  6
CONTINUOUS
 10
7.0423101318
 20
15.8777176483
 11
6.9842101775
 21
15.9358176026
  0
LINE
  5
2AA
100
AcDbEntity
  8
0
100
AcDbLine
 62
7
  6
CONTINUOUS
 10
6.9494704732
 20
15.9705573069
 11
6.8913705189
 21
16.0286572612
  0
LINE
  5
2AB
100
AcDbEntity
  8
0
100
AcDbLine
 62
7
  6
CONTINUOUS
 10
6.695827809
 20
16.2241999711
 11
6.6377278547
 21
16.2822999254
  0
LINE
  5
2AC
100
AcDbEntity
  8
0
100
AcDbLine
 62
7
  6
CONTINUOUS
 10
6.3493454862
 20
16.5706822939
 11
6.291245532
 21
16.6287822482
  0
LINE
  5
2AD
100
AcDbEntity
  8
0
100
AcDbLine
 62
7
  6
CONTINUOUS
 10
6.0028631635
 20
16.9171646167
 11
5.9447632092
 21
16.9752645709
  0
LINE
  5
2AE
100
AcDbEntity
  8
0
100
AcDbLine
 62
7
  6
CONTINUOUS
 10
5.7492204993
 20
17.1708072809
 11
5.691120545
 21
17.2289072351
  0
LINE
  5
2AF
100
AcDbEntity
  8
0
100
AcDbLine
 62
7
  6
CONTINUOUS
 10
5.6563808407
 20
17.2636469394
 11
5.5982808864
 21
17.3217468937
  0
LINE
  5
2B0
100
AcDbEntity
  8
0
100
AcDbLine
 62
9
  6
CONTINUOUS
 10
6.7515733785
 20
16.173938935
 11
6.7056726438
 21
16.2198396698
  0
LINE
  5
2B1
100
AcDbEntity
  8
0
100
AcDbLine
 62
9
  6
CONTINUOUS
 10
6.5571190137
 20
16.3683932999
 11
6.4778652676
 21
16.447647046
  0
LINE
  5
2B2
100
AcDbEntity
  8
0
100
AcDbLine
 62
9
  6
CONTINUOUS
 10
6.168210284
 20
16.7573020295
 11
6.0889565379
 21
16.8365557756
  0
LINE
  5
2B3
100
AcDbEntity
  8
0
100
AcDbLine
 62
9
  6
CONTINUOUS
 10
5.9404029078
 20
16.9851094057
 11
5.8945021731
 21
17.0310101404
  0
LINE
  5
2B4
100
AcDbEntity
  8
0
100
AcDbLine
 62
9
  6
CONTINUOUS
 10
7.0627003622
 20
15.8769540869
 11
6.9834466161
 21
15.956207833
  0
LINE
  5
2B5
100
AcDbEntity
  8
0
100
AcDbLine
 62
9
  6
CONTINUOUS
 10
6.9698607037
 20
15.9697937455
 11
6.8906069576
 21
16.0490474916
  0
LINE
  5
2B6
100
AcDbEntity
  8
0
100
AcDbLine
 62
9
  6
CONTINUOUS
 10
6.7162180395
 20
16.2234364097
 11
6.6369642934
 21
16.3026901558
  0
LINE
  5
2B7
100
AcDbEntity
  8
0
100
AcDbLine
 62
9
  6
CONTINUOUS
 10
6.3697357167
 20
16.5699187325
 11
6.2904819706
 21
16.6491724786
  0
LINE
  5
2B8
100
AcDbEntity
  8
0
100
AcDbLine
 62
9
  6
CONTINUOUS
 10
6.0232533939
 20
16.9164010553
 11
5.9439996478
 21
16.9956548014
  0
LINE
  5
2B9
100
AcDbEntity
  8
0
100
AcDbLine
 62
9
  6
CONTINUOUS
 10
5.7696107297
 20
17.1700437195
 11
5.6903569836
 21
17.2492974656
  0
LINE
  5
2BA
100
AcDbEntity
  8
0
100
AcDbLine
 62
9
  6
CONTINUOUS
 10
5.6767710711
 20
17.2628833781
 11
5.597517325
 21
17.3421371242
  0
LINE
  5
2BB
100
AcDbEntity
  8
0
100
AcDbLine
 62
7
  6
CONTINUOUS
 10
7.3640437172
 20
15.5913394019
 11
7.305943763
 21
15.6494393562
  0
LINE
  5
2BC
100
AcDbEntity
  8
0
100
AcDbLine
 62
7
  6
CONTINUOUS
 10
7.3039160202
 20
15.651467099
 11
7.2458160659
 21
15.7095670533
  0
LINE
  5
2BD
100
AcDbEntity
  8
0
100
AcDbLine
 62
7
  6
CONTINUOUS
 10
7.1307852166
 20
15.8245979026
 11
7.0726852623
 21
15.8826978569
  0
LINE
  5
2BE
100
AcDbEntity
  8
0
100
AcDbLine
 62
7
  6
CONTINUOUS
 10
6.8655334365
 20
16.0898496827
 11
6.8074334822
 21
16.147949637
  0
LINE
  5
2BF
100
AcDbEntity
  8
0
100
AcDbLine
 62
7
  6
CONTINUOUS
 10
6.5401539594
 20
16.4152291598
 11
6.4820540051
 21
16.4733291141
  0
LINE
  5
2C0
100
AcDbEntity
  8
0
100
AcDbLine
 62
7
  6
CONTINUOUS
 10
6.1938923522
 20
16.761490767
 11
6.1357923979
 21
16.8195907213
  0
LINE
  5
2C1
100
AcDbEntity
  8
0
100
AcDbLine
 62
7
  6
CONTINUOUS
 10
5.868512875
 20
17.0868702441
 11
5.8104129208
 21
17.1449701984
  0
LINE
  5
2C2
100
AcDbEntity
  8
0
100
AcDbLine
 62
7
  6
CONTINUOUS
 10
5.603261095
 20
17.3521220242
 11
5.5451611407
 21
17.4102219785
  0
LINE
  5
2C3
100
AcDbEntity
  8
0
100
AcDbLine
 62
7
  6
CONTINUOUS
 10
5.4301302914
 20
17.5252528278
 11
5.3720303371
 21
17.5833527821
  0
LINE
  5
2C4
100
AcDbEntity
  8
0
100
AcDbLine
 62
7
  6
CONTINUOUS
 10
5.3700025943
 20
17.5853805249
 11
5.31190264
 21
17.6434804792
  0
LINE
  5
2C5
100
AcDbEntity
  8
0
100
AcDbLine
 62
7
  6
CONTINUOUS
 10
6.2076543696
 20
16.7487206406
 11
6.29821523
 21
16.6581597801
  0
LINE
  5
2C6
100
AcDbEntity
  8
0
100
AcDbLine
 62
7
  6
CONTINUOUS
 10
6.3787230182
 20
16.577651992
 11
6.4692838786
 21
16.4870911315
  0
LINE
  5
2C7
100
AcDbEntity
  8
0
100
AcDbLine
 62
7
  6
CONTINUOUS
 10
6.0383593978
 20
16.9225502566
 11
6.1053278081
 21
16.8555818463
  0
LINE
  5
2C8
100
AcDbEntity
  8
0
100
AcDbLine
 62
7
  6
CONTINUOUS
 10
6.2037845236
 20
16.7571251308
 11
6.300312503
 21
16.6605971514
  0
LINE
  5
2C9
100
AcDbEntity
  8
0
100
AcDbLine
 62
7
  6
CONTINUOUS
 10
6.3811603895
 20
16.5797492649
 11
6.4776883689
 21
16.4832212855
  0
LINE
  5
2CA
100
AcDbEntity
  8
0
100
AcDbLine
 62
7
  6
CONTINUOUS
 10
6.5761450844
 20
16.38476457
 11
6.6431134947
 21
16.3177961597
  0
LINE
  5
2CB
100
AcDbEntity
  8
0
100
AcDbLine
 62
9
  6
CONTINUOUS
 10
6.0348050175
 20
16.9263408244
 11
6.1054370448
 21
16.8557087971
  0
LINE
  5
2CC
100
AcDbEntity
  8
0
100
AcDbLine
 62
9
  6
CONTINUOUS
 10
6.2040343513
 20
16.7571114906
 11
6.3004217397
 21
16.6607241022
  0
LINE
  5
2CD
100
AcDbEntity
  8
0
100
AcDbLine
 62
9
  6
CONTINUOUS
 10
6.3812873403
 20
16.5798585016
 11
6.4776747287
 21
16.4834711132
  0
LINE
  5
2CE
100
AcDbEntity
  8
0
100
AcDbLine
 62
9
  6
CONTINUOUS
 10
6.5762720352
 20
16.3848738067
 11
6.6469040625
 21
16.3142417794
  0
LINE
  5
2CF
100
AcDbEntity
  8
0
100
AcDbLine
 62
9
  6
CONTINUOUS
 10
6.7785564071
 20
16.1878011802
 11
6.7305709762
 21
16.2357866111
  0
LINE
  5
2D0
100
AcDbEntity
  8
0
100
AcDbLine
 62
9
  6
CONTINUOUS
 10
6.6493144947
 20
16.3170430926
 11
6.5549153308
 21
16.4114422565
  0
LINE
  5
2D1
100
AcDbEntity
  8
0
100
AcDbLine
 62
9
  6
CONTINUOUS
 10
6.4782671018
 20
16.4880904855
 11
6.3840886534
 21
16.5822689339
  0
LINE
  5
2D2
100
AcDbEntity
  8
0
100
AcDbLine
 62
9
  6
CONTINUOUS
 10
6.302832172
 20
16.6635254154
 11
6.2086537236
 21
16.7577038637
  0
LINE
  5
2D3
100
AcDbEntity
  8
0
100
AcDbLine
 62
9
  6
CONTINUOUS
 10
6.1320054946
 20
16.8343520927
 11
6.0376063307
 21
16.9287512567
  0
LINE
  5
2D4
100
AcDbEntity
  8
0
100
AcDbLine
 62
9
  6
CONTINUOUS
 10
5.9563498492
 20
17.0100077381
 11
5.9083644183
 21
17.057993169
  0
LINE
  5
2D5
100
AcDbEntity
  8
0
100
AcDbLine
 62
9
  6
CONTINUOUS
 10
7.3844339477
 20
15.5905758406
 11
7.2450525045
 21
15.7299572837
  0
LINE
  5
2D6
100
AcDbEntity
  8
0
100
AcDbLine
 62
9
  6
CONTINUOUS
 10
7.151175447
 20
15.8238343412
 11
7.0719217009
 21
15.9030880873
  0
LINE
  5
2D7
100
AcDbEntity
  8
0
100
AcDbLine
 62
9
  6
CONTINUOUS
 10
6.885923667
 20
16.0890861213
 11
6.8066699208
 21
16.1683398674
  0
LINE
  5
2D8
100
AcDbEntity
  8
0
100
AcDbLine
 62
9
  6
CONTINUOUS
 10
6.5605441898
 20
16.4144655984
 11
6.4812904437
 21
16.4937193445
  0
LINE
  5
2D9
100
AcDbEntity
  8
0
100
AcDbLine
 62
9
  6
CONTINUOUS
 10
6.2142825826
 20
16.7607272056
 11
6.1350288365
 21
16.8399809517
  0
LINE
  5
2DA
100
AcDbEntity
  8
0
100
AcDbLine
 62
9
  6
CONTINUOUS
 10
5.8889031055
 20
17.0861066828
 11
5.8096493594
 21
17.1653604289
  0
LINE
  5
2DB
100
AcDbEntity
  8
0
100
AcDbLine
 62
9
  6
CONTINUOUS
 10
5.6236513254
 20
17.3513584628
 11
5.5443975793
 21
17.4306122089
  0
LINE
  5
2DC
100
AcDbEntity
  8
0
100
AcDbLine
 62
9
  6
CONTINUOUS
 10
5.4505205218
 20
17.5244892664
 11
5.3111390786
 21
17.6638707096
  0
LINE
  5
2DD
100
AcDbEntity
  8
0
100
AcDbLine
 62
7
  6
CONTINUOUS
 10
5.7909619311
 20
17.1883344623
 11
5.811792662
 21
17.1675037315
  0
LINE
  5
2DE
100
AcDbEntity
  8
0
100
AcDbLine
 62
7
  6
CONTINUOUS
 10
5.8912071558
 20
17.0880892377
 11
5.962334047
 21
17.0169623465
  0
LINE
  5
2DF
100
AcDbEntity
  8
0
100
AcDbLine
 62
7
  6
CONTINUOUS
 10
6.044560939
 20
16.9347354545
 11
6.1370113914
 21
16.8422850021
  0
LINE
  5
2E0
100
AcDbEntity
  8
0
100
AcDbLine
 62
7
  6
CONTINUOUS
 10
6.2165866329
 20
16.7627097606
 11
6.3088163698
 21
16.6704800237
  0
LINE
  5
2E1
100
AcDbEntity
  8
0
100
AcDbLine
 62
7
  6
CONTINUOUS
 10
6.3910432618
 20
16.5882531317
 11
6.4832729986
 21
16.4960233949
  0
LINE
  5
2E2
100
AcDbEntity
  8
0
100
AcDbLine
 62
7
  6
CONTINUOUS
 10
6.5628482401
 20
16.4164481534
 11
6.6552986926
 21
16.3239977009
  0
LINE
  5
2E3
100
AcDbEntity
  8
0
100
AcDbLine
 62
7
  6
CONTINUOUS
 10
6.7375255845
 20
16.241770809
 11
6.8086524758
 21
16.1706439177
  0
LINE
  5
2E4
100
AcDbEntity
  8
0
100
AcDbLine
 62
7
  6
CONTINUOUS
 10
6.8880669696
 20
16.0912294239
 11
6.9088977004
 21
16.0703986931
  0
LINE
  5
2E5
100
AcDbEntity
  8
0
100
AcDbLine
 62
9
  6
CONTINUOUS
 10
5.6948876807
 20
17.2854306944
 11
5.7091640493
 21
17.2711543258
  0
LINE
  5
2E6
100
AcDbEntity
  8
0
100
AcDbLine
 62
9
  6
CONTINUOUS
 10
5.7914729219
 20
17.1888454531
 11
5.8121045808
 21
17.1682137943
  0
LINE
  5
2E7
100
AcDbEntity
  8
0
100
AcDbLine
 62
9
  6
CONTINUOUS
 10
5.8917564709
 20
17.0885619042
 11
5.9628067135
 21
17.0175116616
  0
LINE
  5
2E8
100
AcDbEntity
  8
0
100
AcDbLine
 62
9
  6
CONTINUOUS
 10
6.0451609406
 20
16.9351574345
 11
6.1374840579
 21
16.8428343172
  0
LINE
  5
2E9
100
AcDbEntity
  8
0
100
AcDbLine
 62
9
  6
CONTINUOUS
 10
6.2171359481
 20
16.763182427
 11
6.3092890363
 21
16.6710293388
  0
LINE
  5
2EA
100
AcDbEntity
  8
0
100
AcDbLine
 62
9
  6
CONTINUOUS
 10
6.3915925769
 20
16.5887257982
 11
6.4837456651
 21
16.49657271
  0
LINE
  5
2EB
100
AcDbEntity
  8
0
100
AcDbLine
 62
9
  6
CONTINUOUS
 10
6.5633975552
 20
16.4169208198
 11
6.6557206726
 21
16.3245977025
  0
LINE
  5
2EC
100
AcDbEntity
  8
0
100
AcDbLine
 62
9
  6
CONTINUOUS
 10
6.7380748996
 20
16.2422434754
 11
6.8091251423
 21
16.1711932328
  0
LINE
  5
2ED
100
AcDbEntity
  8
0
100
AcDbLine
 62
9
  6
CONTINUOUS
 10
6.8887770324
 20
16.0915413427
 11
6.9094086912
 21
16.0709096839
  0
LINE
  5
2EE
100
AcDbEntity
  8
0
100
AcDbLine
 62
9
  6
CONTINUOUS
 10
6.9917175638
 20
15.9886008112
 11
7.0059939325
 21
15.9743244426
  0
LINE
  5
2EF
100
AcDbEntity
  8
0
100
AcDbLine
 62
9
  6
CONTINUOUS
 10
7.0774438075
 20
15.9095056706
 11
6.8923412502
 21
16.0946082278
  0
LINE
  5
2F0
100
AcDbEntity
  8
0
100
AcDbLine
 62
9
  6
CONTINUOUS
 10
6.8121920274
 20
16.1747574507
 11
6.5669617731
 21
16.419987705
  0
LINE
  5
2F1
100
AcDbEntity
  8
0
100
AcDbLine
 62
9
  6
CONTINUOUS
 10
6.4868125503
 20
16.5001369278
 11
6.2207001659
 21
16.7662493122
  0
LINE
  5
2F2
100
AcDbEntity
  8
0
100
AcDbLine
 62
9
  6
CONTINUOUS
 10
6.1405509431
 20
16.846398535
 11
5.8953206888
 21
17.0916287893
  0
LINE
  5
2F3
100
AcDbEntity
  8
0
100
AcDbLine
 62
9
  6
CONTINUOUS
 10
5.8151714659
 20
17.1717780122
 11
5.6300689087
 21
17.3568805694
  0
LINE
  5
2F4
100
AcDbEntity
  8
0
100
AcDbLine
 62
7
  6
CONTINUOUS
 10
7.6893128366
 20
15.3084966895
 11
7.5868797764
 21
15.4109297497
  0
LINE
  5
2F5
100
AcDbEntity
  8
0
100
AcDbLine
 62
7
  6
CONTINUOUS
 10
7.5150016409
 20
15.4828078852
 11
7.4569016866
 21
15.5409078395
  0
LINE
  5
2F6
100
AcDbEntity
  8
0
100
AcDbLine
 62
7
  6
CONTINUOUS
 10
7.3082363592
 20
15.6895731668
 11
7.2501364049
 21
15.7476731211
  0
LINE
  5
2F7
100
AcDbEntity
  8
0
100
AcDbLine
 62
7
  6
CONTINUOUS
 10
7.0387745979
 20
15.9590349282
 11
6.9806746436
 21
16.0171348824
  0
LINE
  5
2F8
100
AcDbEntity
  8
0
100
AcDbLine
 62
7
  6
CONTINUOUS
 10
6.7249797307
 20
16.2728297954
 11
6.6668797764
 21
16.3309297497
  0
LINE
  5
2F9
100
AcDbEntity
  8
0
100
AcDbLine
 62
7
  6
CONTINUOUS
 10
6.3882363592
 20
16.6095731668
 11
6.3301364049
 21
16.6676731211
  0
LINE
  5
2FA
100
AcDbEntity
  8
0
100
AcDbLine
 62
7
  6
CONTINUOUS
 10
6.0514929877
 20
16.9463165383
 11
5.9933930334
 21
17.0044164926
  0
LINE
  5
2FB
100
AcDbEntity
  8
0
100
AcDbLine
 62
7
  6
CONTINUOUS
 10
5.7376981205
 20
17.2601114055
 11
5.6795981662
 21
17.3182113598
  0
LINE
  5
2FC
100
AcDbEntity
  8
0
100
AcDbLine
 62
7
  6
CONTINUOUS
 10
5.4682363592
 20
17.5295731668
 11
5.4101364049
 21
17.5876731211
  0
LINE
  5
2FD
100
AcDbEntity
  8
0
100
AcDbLine
 62
7
  6
CONTINUOUS
 10
5.2614710775
 20
17.7363384485
 11
5.2033711232
 21
17.7944384028
  0
LINE
  5
2FE
100
AcDbEntity
  8
0
100
AcDbLine
 62
7
  6
CONTINUOUS
 10
5.1314929877
 20
17.8663165383
 11
5.0290599275
 21
17.9687495985
  0
LINE
  5
2FF
100
AcDbEntity
  8
0
100
AcDbLine
 62
7
  6
CONTINUOUS
 10
5.4810911238
 20
17.5253817066
 11
5.5589492363
 21
17.4475235941
  0
LINE
  5
300
100
AcDbEntity
  8
0
100
AcDbLine
 62
7
  6
CONTINUOUS
 10
5.6405627106
 20
17.3659101198
 11
5.6754067059
 21
17.3310661244
  0
LINE
  5
301
100
AcDbEntity
  8
0
100
AcDbLine
 62
7
  6
CONTINUOUS
 10
5.7505528851
 20
17.2559199452
 11
5.8242010163
 21
17.182271814
  0
LINE
  5
302
100
AcDbEntity
  8
0
100
AcDbLine
 62
7
  6
CONTINUOUS
 10
5.9059758064
 20
17.100497024
 11
5.9892015731
 21
17.0172712572
  0
LINE
  5
303
100
AcDbEntity
  8
0
100
AcDbLine
 62
7
  6
CONTINUOUS
 10
6.0643477523
 20
16.942125078
 11
6.1495804935
 21
16.8568923369
  0
LINE
  5
304
100
AcDbEntity
  8
0
100
AcDbLine
 62
7
  6
CONTINUOUS
 10
6.2311939678
 20
16.7752788626
 11
6.3259449446
 21
16.6805278857
  0
LINE
  5
305
100
AcDbEntity
  8
0
100
AcDbLine
 62
7
  6
CONTINUOUS
 10
6.4010911238
 20
16.6053817066
 11
6.4958421007
 21
16.5106307297
  0
LINE
  5
306
100
AcDbEntity
  8
0
100
AcDbLine
 62
7
  6
CONTINUOUS
 10
6.577455575
 20
16.4290172554
 11
6.6626883161
 21
16.3437845142
  0
LINE
  5
307
100
AcDbEntity
  8
0
100
AcDbLine
 62
7
  6
CONTINUOUS
 10
6.7378344953
 20
16.2686383351
 11
6.821060262
 21
16.1854125683
  0
LINE
  5
308
100
AcDbEntity
  8
0
100
AcDbLine
 62
7
  6
CONTINUOUS
 10
6.9028350521
 20
16.1036377783
 11
6.9764831833
 21
16.029989647
  0
LINE
  5
309
100
AcDbEntity
  8
0
100
AcDbLine
 62
7
  6
CONTINUOUS
 10
7.0516293625
 20
15.9548434679
 11
7.0863592087
 21
15.9201136217
  0
LINE
  5
30A
100
AcDbEntity
  8
0
100
AcDbLine
 62
7
  6
CONTINUOUS
 10
7.1680868321
 20
15.8383859982
 11
7.2459449446
 21
15.7605278857
  0
LINE
  5
30B
100
AcDbEntity
  8
0
100
AcDbLine
 62
9
  6
CONTINUOUS
 10
5.6417685703
 20
17.3668876811
 11
5.6757781539
 21
17.3328780974
  0
LINE
  5
30C
100
AcDbEntity
  8
0
100
AcDbLine
 62
9
  6
CONTINUOUS
 10
5.7523648581
 20
17.2562913932
 11
5.8252108485
 21
17.1834454028
  0
LINE
  5
30D
100
AcDbEntity
  8
0
100
AcDbLine
 62
9
  6
CONTINUOUS
 10
5.9070675169
 20
17.1015887344
 11
5.9895730211
 21
17.0190832302
  0
LINE
  5
30E
100
AcDbEntity
  8
0
100
AcDbLine
 62
9
  6
CONTINUOUS
 10
6.0661597253
 20
16.942496526
 11
6.1505903257
 21
16.8580659256
  0
LINE
  5
30F
100
AcDbEntity
  8
0
100
AcDbLine
 62
9
  6
CONTINUOUS
 10
6.2323675565
 20
16.7762886948
 11
6.3263163926
 21
16.6823398587
  0
LINE
  5
310
100
AcDbEntity
  8
0
100
AcDbLine
 62
9
  6
CONTINUOUS
 10
6.4029030968
 20
16.6057531545
 11
6.4968519329
 21
16.5118043184
  0
LINE
  5
311
100
AcDbEntity
  8
0
100
AcDbLine
 62
9
  6
CONTINUOUS
 10
6.5786291637
 20
16.4300270876
 11
6.6630597641
 21
16.3455964872
  0
LINE
  5
312
100
AcDbEntity
  8
0
100
AcDbLine
 62
9
  6
CONTINUOUS
 10
6.7396464683
 20
16.2690097831
 11
6.8221519725
 21
16.1865042788
  0
LINE
  5
313
100
AcDbEntity
  8
0
100
AcDbLine
 62
9
  6
CONTINUOUS
 10
6.9040086409
 20
16.1046476105
 11
6.9768546313
 21
16.03180162
  0
LINE
  5
314
100
AcDbEntity
  8
0
100
AcDbLine
 62
9
  6
CONTINUOUS
 10
7.0534413355
 20
15.9552149158
 11
7.0874509191
 21
15.9212053322
  0
LINE
  5
315
100
AcDbEntity
  8
0
100
AcDbLine
 62
9
  6
CONTINUOUS
 10
7.709703067
 20
15.3077331281
 11
7.586116215
 21
15.4313199801
  0
LINE
  5
316
100
AcDbEntity
  8
0
100
AcDbLine
 62
9
  6
CONTINUOUS
 10
7.5353918713
 20
15.4820443238
 11
7.4561381252
 21
15.5612980699
  0
LINE
  5
317
100
AcDbEntity
  8
0
100
AcDbLine
 62
9
  6
CONTINUOUS
 10
7.3286265896
 20
15.6888096055
 11
7.2493728435
 21
15.7680633516
  0
LINE
  5
318
100
AcDbEntity
  8
0
100
AcDbLine
 62
9
  6
CONTINUOUS
 10
7.0591648283
 20
15.9582713668
 11
6.9799110822
 21
16.0375251129
  0
LINE
  5
319
100
AcDbEntity
  8
0
100
AcDbLine
 62
9
  6
CONTINUOUS
 10
6.7453699611
 20
16.272066234
 11
6.666116215
 21
16.3513199801
  0
LINE
  5
31A
100
AcDbEntity
  8
0
100
AcDbLine
 62
9
  6
CONTINUOUS
 10
6.4086265896
 20
16.6088096055
 11
6.3293728435
 21
16.6880633516
  0
LINE
  5
31B
100
AcDbEntity
  8
0
100
AcDbLine
 62
9
  6
CONTINUOUS
 10
6.0718832182
 20
16.9455529769
 11
5.9926294721
 21
17.0248067231
  0
LINE
  5
31C
100
AcDbEntity
  8
0
100
AcDbLine
 62
9
  6
CONTINUOUS
 10
5.758088351
 20
17.2593478442
 11
5.6788346048
 21
17.3386015903
  0
LINE
  5
31D
100
AcDbEntity
  8
0
100
AcDbLine
 62
9
  6
CONTINUOUS
 10
5.4886265896
 20
17.5288096055
 11
5.4093728435
 21
17.6080633516
  0
LINE
  5
31E
100
AcDbEntity
  8
0
100
AcDbLine
 62
9
  6
CONTINUOUS
 10
5.281861308
 20
17.7355748871
 11
5.2026075619
 21
17.8148286332
  0
LINE
  5
31F
100
AcDbEntity
  8
0
100
AcDbLine
 62
9
  6
CONTINUOUS
 10
5.1518832182
 20
17.8655529769
 11
5.0282963662
 21
17.989139829
  0
LINE
  5
320
100
AcDbEntity
  8
0
100
AcDbLine
 62
9
  6
CONTINUOUS
 10
7.4099258783
 20
15.6082720037
 11
7.3290074331
 21
15.6891904489
  0
LINE
  5
321
100
AcDbEntity
  8
0
100
AcDbLine
 62
9
  6
CONTINUOUS
 10
7.249753687
 20
15.768444195
 11
7.0595456718
 21
15.9586522102
  0
LINE
  5
322
100
AcDbEntity
  8
0
100
AcDbLine
 62
9
  6
CONTINUOUS
 10
6.9802919257
 20
16.0379059563
 11
6.7457508046
 21
16.2724470774
  0
LINE
  5
323
100
AcDbEntity
  8
0
100
AcDbLine
 62
9
  6
CONTINUOUS
 10
6.6664970585
 20
16.3517008235
 11
6.4090074331
 21
16.6091904489
  0
LINE
  5
324
100
AcDbEntity
  8
0
100
AcDbLine
 62
9
  6
CONTINUOUS
 10
6.329753687
 20
16.688444195
 11
6.0722640616
 21
16.9459338204
  0
LINE
  5
325
100
AcDbEntity
  8
0
100
AcDbLine
 62
9
  6
CONTINUOUS
 10
5.9930103155
 20
17.0251875665
 11
5.7584691944
 21
17.2597286876
  0
LINE
  5
326
100
AcDbEntity
  8
0
100
AcDbLine
 62
9
  6
CONTINUOUS
 10
5.6792154483
 20
17.3389824337
 11
5.4890074331
 21
17.5291904489
  0
LINE
  5
327
100
AcDbEntity
  8
0
100
AcDbLine
 62
9
  6
CONTINUOUS
 10
5.409753687
 20
17.608444195
 11
5.3288352418
 21
17.6893626402
  0
LINE
  5
328
100
AcDbEntity
  8
0
100
AcDbLine
 62
7
  6
CONTINUOUS
 10
5.1730471376
 20
17.8708218813
 11
5.2148327429
 21
17.829036276
  0
LINE
  5
329
100
AcDbEntity
  8
0
100
AcDbLine
 62
7
  6
CONTINUOUS
 10
5.2962386937
 20
17.7476303252
 11
5.4215980245
 21
17.6222709943
  0
LINE
  5
32A
100
AcDbEntity
  8
0
100
AcDbLine
 62
7
  6
CONTINUOUS
 10
5.5030405965
 20
17.5408284224
 11
5.6910597858
 21
17.352809233
  0
LINE
  5
32B
100
AcDbEntity
  8
0
100
AcDbLine
 62
7
  6
CONTINUOUS
 10
5.7722959937
 20
17.2715730251
 11
6.0048546531
 21
17.0390143658
  0
LINE
  5
32C
100
AcDbEntity
  8
0
100
AcDbLine
 62
7
  6
CONTINUOUS
 10
6.0860908609
 20
16.9577781579
 11
6.3415980245
 21
16.7022709943
  0
LINE
  5
32D
100
AcDbEntity
  8
0
100
AcDbLine
 62
7
  6
CONTINUOUS
 10
6.4228342324
 20
16.6210347865
 11
6.678341396
 21
16.3655276229
  0
LINE
  5
32E
100
AcDbEntity
  8
0
100
AcDbLine
 62
7
  6
CONTINUOUS
 10
6.7595776039
 20
16.284291415
 11
6.9921362632
 21
16.0517327557
  0
LINE
  5
32F
100
AcDbEntity
  8
0
100
AcDbLine
 62
7
  6
CONTINUOUS
 10
7.0733724711
 20
15.9704965478
 11
7.2613916605
 21
15.7824773584
  0
LINE
  5
330
100
AcDbEntity
  8
0
100
AcDbLine
 62
7
  6
CONTINUOUS
 10
7.3428342324
 20
15.7010347865
 11
7.4681935633
 21
15.5756754556
  0
LINE
  5
331
100
AcDbEntity
  8
0
100
AcDbLine
 62
7
  6
CONTINUOUS
 10
7.5495995141
 20
15.4942695048
 11
7.5913851193
 21
15.4524838996
  0
LINE
  5
332
100
AcDbEntity
  8
0
100
AcDbLine
 62
7
  6
CONTINUOUS
 10
8.0181174898
 20
15.0291895109
 11
7.9249415416
 21
15.1223654591
  0
LINE
  5
333
100
AcDbEntity
  8
0
100
AcDbLine
 62
7
  6
CONTINUOUS
 10
7.8793465034
 20
15.1679604974
 11
7.8212465491
 21
15.2260604517
  0
LINE
  5
334
100
AcDbEntity
  8
0
100
AcDbLine
 62
7
  6
CONTINUOUS
 10
7.7115644809
 20
15.3357425198
 11
7.6534645267
 21
15.3938424741
  0
LINE
  5
335
100
AcDbEntity
  8
0
100
AcDbLine
 62
7
  6
CONTINUOUS
 10
7.4870283082
 20
15.5602786926
 11
7.4289283539
 21
15.6183786469
  0
LINE
  5
336
100
AcDbEntity
  8
0
100
AcDbLine
 62
7
  6
CONTINUOUS
 10
7.2155512932
 20
15.8317557075
 11
7.1574513389
 21
15.8898556618
  0
LINE
  5
337
100
AcDbEntity
  8
0
100
AcDbLine
 62
7
  6
CONTINUOUS
 10
6.9089982843
 20
16.1383087164
 11
6.85089833
 21
16.1964086707
  0
LINE
  5
338
100
AcDbEntity
  8
0
100
AcDbLine
 62
7
  6
CONTINUOUS
 10
6.580767119
 20
16.4665398818
 11
6.5226671647
 21
16.5246398361
  0
LINE
  5
339
100
AcDbEntity
  8
0
100
AcDbLine
 62
7
  6
CONTINUOUS
 10
6.2452030741
 20
16.8021039266
 11
6.1871031199
 21
16.8602038809
  0
LINE
  5
33A
100
AcDbEntity
  8
0
100
AcDbLine
 62
7
  6
CONTINUOUS
 10
5.9169719088
 20
17.1303350919
 11
5.8588719545
 21
17.1884350462
  0
LINE
  5
33B
100
AcDbEntity
  8
0
100
AcDbLine
 62
7
  6
CONTINUOUS
 10
5.6104188999
 20
17.4368881008
 11
5.5523189456
 21
17.4949880551
  0
LINE
  5
33C
100
AcDbEntity
  8
0
100
AcDbLine
 62
7
  6
CONTINUOUS
 10
5.3389418849
 20
17.7083651158
 11
5.2808419307
 21
17.7664650701
  0
LINE
  5
33D
100
AcDbEntity
  8
0
100
AcDbLine
 62
7
  6
CONTINUOUS
 10
5.1144057122
 20
17.9329012886
 11
5.0563057579
 21
17.9910012429
  0
LINE
  5
33E
100
AcDbEntity
  8
0
100
AcDbLine
 62
7
  6
CONTINUOUS
 10
4.9466236897
 20
18.100683311
 11
4.8885237355
 21
18.1587832653
  0
LINE
  5
33F
100
AcDbEntity
  8
0
100
AcDbLine
 62
7
  6
CONTINUOUS
 10
4.8429286972
 20
18.2043783036
 11
4.749752749
 21
18.2975542518
  0
LINE
  5
340
100
AcDbEntity
  8
0
100
AcDbLine
 62
9
  6
CONTINUOUS
 10
5.168128428
 20
17.8795222127
 11
5.216581743
 21
17.8310688978
  0
LINE
  5
341
100
AcDbEntity
  8
0
100
AcDbLine
 62
9
  6
CONTINUOUS
 10
5.3409282801
 20
17.7067223607
 11
5.4233470246
 21
17.6243036161
  0
LINE
  5
342
100
AcDbEntity
  8
0
100
AcDbLine
 62
9
  6
CONTINUOUS
 10
5.5049314074
 20
17.5427192333
 11
5.5506761905
 21
17.4969744502
  0
LINE
  5
343
100
AcDbEntity
  8
0
100
AcDbLine
 62
9
  6
CONTINUOUS
 10
5.612405295
 20
17.4352453457
 11
5.692808786
 21
17.3548418548
  0
LINE
  5
344
100
AcDbEntity
  8
0
100
AcDbLine
 62
9
  6
CONTINUOUS
 10
5.7744409946
 20
17.2732096461
 11
5.8572291994
 21
17.1904214413
  0
LINE
  5
345
100
AcDbEntity
  8
0
100
AcDbLine
 62
9
  6
CONTINUOUS
 10
5.9189583039
 20
17.1286923368
 11
6.0066036532
 21
17.0410469876
  0
LINE
  5
346
100
AcDbEntity
  8
0
100
AcDbLine
 62
9
  6
CONTINUOUS
 10
6.0881234827
 20
16.959527158
 11
6.1854603647
 21
16.862190276
  0
LINE
  5
347
100
AcDbEntity
  8
0
100
AcDbLine
 62
9
  6
CONTINUOUS
 10
6.2471894693
 20
16.8004611715
 11
6.3433470246
 21
16.7043036161
  0
LINE
  5
348
100
AcDbEntity
  8
0
100
AcDbLine
 62
9
  6
CONTINUOUS
 10
6.4248668542
 20
16.6227837866
 11
6.5210244096
 21
16.5266262312
  0
LINE
  5
349
100
AcDbEntity
  8
0
100
AcDbLine
 62
9
  6
CONTINUOUS
 10
6.5827535141
 20
16.4648971266
 11
6.6799221789
 21
16.3677284618
  0
LINE
  5
34A
100
AcDbEntity
  8
0
100
AcDbLine
 62
9
  6
CONTINUOUS
 10
6.7616102257
 20
16.2860404151
 11
6.8492555749
 21
16.1983950658
  0
LINE
  5
34B
100
AcDbEntity
  8
0
100
AcDbLine
 62
9
  6
CONTINUOUS
 10
6.9109846794
 20
16.1366659613
 11
6.9937728842
 21
16.0538777565
  0
LINE
  5
34C
100
AcDbEntity
  8
0
100
AcDbLine
 62
9
  6
CONTINUOUS
 10
7.0754050929
 20
15.9722455479
 11
7.1558085838
 21
15.8918420569
  0
LINE
  5
34D
100
AcDbEntity
  8
0
100
AcDbLine
 62
9
  6
CONTINUOUS
 10
7.2175376883
 20
15.8301129524
 11
7.2632824714
 21
15.7843681693
  0
LINE
  5
34E
100
AcDbEntity
  8
0
100
AcDbLine
 62
9
  6
CONTINUOUS
 10
7.3448668542
 20
15.7027837866
 11
7.4272855988
 21
15.620365042
  0
LINE
  5
34F
100
AcDbEntity
  8
0
100
AcDbLine
 62
9
  6
CONTINUOUS
 10
7.5516321359
 20
15.4960185049
 11
7.6000854508
 21
15.4475651899
  0
LINE
  5
350
100
AcDbEntity
  8
0
100
AcDbLine
 62
9
  6
CONTINUOUS
 10
7.7336705743
 20
15.3264648819
 11
7.7276993141
 21
15.3324361422
  0
LINE
  5
351
100
AcDbEntity
  8
0
100
AcDbLine
 62
9
  6
CONTINUOUS
 10
7.650158149
 20
15.4099773072
 11
7.5031631413
 21
15.5569723149
  0
LINE
  5
352
100
AcDbEntity
  8
0
100
AcDbLine
 62
9
  6
CONTINUOUS
 10
7.4256219762
 20
15.63451348
 11
7.2316861263
 21
15.8284493299
  0
LINE
  5
353
100
AcDbEntity
  8
0
100
AcDbLine
 62
9
  6
CONTINUOUS
 10
7.1541449613
 20
15.905990495
 11
6.9251331174
 21
16.1350023388
  0
LINE
  5
354
100
AcDbEntity
  8
0
100
AcDbLine
 62
9
  6
CONTINUOUS
 10
6.8475919524
 20
16.2125435039
 11
6.5969019521
 21
16.4632335041
  0
LINE
  5
355
100
AcDbEntity
  8
0
100
AcDbLine
 62
9
  6
CONTINUOUS
 10
6.519360787
 20
16.5407746692
 11
6.2613379073
 21
16.798797549
  0
LINE
  5
356
100
AcDbEntity
  8
0
100
AcDbLine
 62
9
  6
CONTINUOUS
 10
6.1837967422
 20
16.876338714
 11
5.9331067419
 21
17.1270287143
  0
LINE
  5
357
100
AcDbEntity
  8
0
100
AcDbLine
 62
9
  6
CONTINUOUS
 10
5.8555655769
 20
17.2045698794
 11
5.626553733
 21
17.4335817232
  0
LINE
  5
358
100
AcDbEntity
  8
0
100
AcDbLine
 62
9
  6
CONTINUOUS
 10
5.549012568
 20
17.5111228883
 11
5.3550767181
 21
17.7050587382
  0
LINE
  5
359
100
AcDbEntity
  8
0
100
AcDbLine
 62
9
  6
CONTINUOUS
 10
5.277535553
 20
17.7825999032
 11
5.1305405453
 21
17.929594911
  0
LINE
  5
35A
100
AcDbEntity
  8
0
100
AcDbLine
 62
9
  6
CONTINUOUS
 10
5.0529993802
 20
18.007136076
 11
5.04702812
 21
18.0131073362
  0
LINE
  5
35B
100
AcDbEntity
  8
0
100
AcDbLine
 62
9
  6
CONTINUOUS
 10
8.0385077203
 20
15.0284259495
 11
7.9241779802
 21
15.1427556896
  0
LINE
  5
35C
100
AcDbEntity
  8
0
100
AcDbLine
 62
9
  6
CONTINUOUS
 10
7.8997367338
 20
15.167196936
 11
7.8204829877
 21
15.2464506821
  0
LINE
  5
35D
100
AcDbEntity
  8
0
100
AcDbLine
 62
9
  6
CONTINUOUS
 10
7.7319547114
 20
15.3349789584
 11
7.6527009653
 21
15.4142327045
  0
LINE
  5
35E
100
AcDbEntity
  8
0
100
AcDbLine
 62
9
  6
CONTINUOUS
 10
7.5074185386
 20
15.5595151312
 11
7.4281647925
 21
15.6387688773
  0
LINE
  5
35F
100
AcDbEntity
  8
0
100
AcDbLine
 62
9
  6
CONTINUOUS
 10
7.2359415236
 20
15.8309921462
 11
7.1566877775
 21
15.9102458923
  0
LINE
  5
360
100
AcDbEntity
  8
0
100
AcDbLine
 62
9
  6
CONTINUOUS
 10
6.9293885147
 20
16.1375451551
 11
6.8501347686
 21
16.2167989012
  0
LINE
  5
361
100
AcDbEntity
  8
0
100
AcDbLine
 62
9
  6
CONTINUOUS
 10
6.6011573494
 20
16.4657763204
 11
6.5219036033
 21
16.5450300665
  0
LINE
  5
362
100
AcDbEntity
  8
0
100
AcDbLine
 62
9
  6
CONTINUOUS
 10
6.2655933046
 20
16.8013403652
 11
6.1863395585
 21
16.8805941113
  0
LINE
  5
363
100
AcDbEntity
  8
0
100
AcDbLine
 62
9
  6
CONTINUOUS
 10
5.9373621392
 20
17.1295715306
 11
5.8581083931
 21
17.2088252767
  0
LINE
  5
364
100
AcDbEntity
  8
0
100
AcDbLine
 62
9
  6
CONTINUOUS
 10
5.6308091303
 20
17.4361245394
 11
5.5515553842
 21
17.5153782856
  0
LINE
  5
365
100
AcDbEntity
  8
0
100
AcDbLine
 62
9
  6
CONTINUOUS
 10
5.3593321154
 20
17.7076015544
 11
5.2800783693
 21
17.7868553005
  0
LINE
  5
366
100
AcDbEntity
  8
0
100
AcDbLine
 62
9
  6
CONTINUOUS
 10
5.1347959426
 20
17.9321377272
 11
5.0555421965
 21
18.0113914733
  0
LINE
  5
367
100
AcDbEntity
  8
0
100
AcDbLine
 62
9
  6
CONTINUOUS
 10
4.9670139202
 20
18.0999197496
 11
4.8877601741
 21
18.1791734957
  0
LINE
  5
368
100
AcDbEntity
  8
0
100
AcDbLine
 62
9
  6
CONTINUOUS
 10
4.8633189276
 20
18.2036147422
 11
4.7489891876
 21
18.3179444822
  0
LINE
  5
369
100
AcDbEntity
  8
0
100
AcDbLine
 62
9
  6
CONTINUOUS
 10
7.8308089005
 20
15.2584510672
 11
7.7439550965
 21
15.3453048712
  0
LINE
  5
36A
100
AcDbEntity
  8
0
100
AcDbLine
 62
9
  6
CONTINUOUS
 10
7.663026878
 20
15.4262330896
 11
7.5194189237
 21
15.569841044
  0
LINE
  5
36B
100
AcDbEntity
  8
0
100
AcDbLine
 62
9
  6
CONTINUOUS
 10
7.4384907053
 20
15.6507692624
 11
7.2479419087
 21
15.8413180589
  0
LINE
  5
36C
100
AcDbEntity
  8
0
100
AcDbLine
 62
9
  6
CONTINUOUS
 10
7.1670136903
 20
15.9222462774
 11
6.9413888998
 21
16.1478710678
  0
LINE
  5
36D
100
AcDbEntity
  8
0
100
AcDbLine
 62
9
  6
CONTINUOUS
 10
6.8604606814
 20
16.2287992863
 11
6.6131577345
 21
16.4761022331
  0
LINE
  5
36E
100
AcDbEntity
  8
0
100
AcDbLine
 62
9
  6
CONTINUOUS
 10
6.5322295161
 20
16.5570304516
 11
6.2775936897
 21
16.811666278
  0
LINE
  5
36F
100
AcDbEntity
  8
0
100
AcDbLine
 62
9
  6
CONTINUOUS
 10
6.1966654712
 20
16.8925944964
 11
5.9493625243
 21
17.1398974433
  0
LINE
  5
370
100
AcDbEntity
  8
0
100
AcDbLine
 62
9
  6
CONTINUOUS
 10
5.8684343059
 20
17.2208256618
 11
5.6428095154
 21
17.4464504522
  0
LINE
  5
371
100
AcDbEntity
  8
0
100
AcDbLine
 62
9
  6
CONTINUOUS
 10
5.561881297
 20
17.5273786707
 11
5.3713325005
 21
17.7179274672
  0
LINE
  5
372
100
AcDbEntity
  8
0
100
AcDbLine
 62
9
  6
CONTINUOUS
 10
5.290404282
 20
17.7988556856
 11
5.1467963277
 21
17.94246364
  0
LINE
  5
373
100
AcDbEntity
  8
0
100
AcDbLine
 62
9
  6
CONTINUOUS
 10
5.0658681092
 20
18.0233918584
 11
4.9790143053
 21
18.1102456624
  0
LINE
  5
374
100
AcDbEntity
  8
0
100
AcDbLine
 62
7
  6
CONTINUOUS
 10
4.9802270719
 20
18.1112892058
 11
5.0669116526
 21
18.024604625
  0
LINE
  5
375
100
AcDbEntity
  8
0
100
AcDbLine
 62
7
  6
CONTINUOUS
 10
5.1480090943
 20
17.9435071833
 11
5.2914478254
 21
17.8000684523
  0
LINE
  5
376
100
AcDbEntity
  8
0
100
AcDbLine
 62
7
  6
CONTINUOUS
 10
5.3725452671
 20
17.7189710106
 11
5.5629248404
 21
17.5285914373
  0
LINE
  5
377
100
AcDbEntity
  8
0
100
AcDbLine
 62
7
  6
CONTINUOUS
 10
5.6440222821
 20
17.4474939956
 11
5.8694778493
 21
17.2220384284
  0
LINE
  5
378
100
AcDbEntity
  8
0
100
AcDbLine
 62
7
  6
CONTINUOUS
 10
5.950575291
 20
17.1409409867
 11
6.1977090146
 21
16.8938072631
  0
LINE
  5
379
100
AcDbEntity
  8
0
100
AcDbLine
 62
7
  6
CONTINUOUS
 10
6.2788064563
 20
16.8127098214
 11
6.5332730594
 21
16.5582432182
  0
LINE
  5
37A
100
AcDbEntity
  8
0
100
AcDbLine
 62
7
  6
CONTINUOUS
 10
6.6143705011
 20
16.4771457765
 11
6.8615042248
 21
16.2300120529
  0
LINE
  5
37B
100
AcDbEntity
  8
0
100
AcDbLine
 62
7
  6
CONTINUOUS
 10
6.9426016665
 20
16.1489146112
 11
7.1680572337
 21
15.923459044
  0
LINE
  5
37C
100
AcDbEntity
  8
0
100
AcDbLine
 62
7
  6
CONTINUOUS
 10
7.2491546754
 20
15.8423616023
 11
7.4395342486
 21
15.651982029
  0
LINE
  5
37D
100
AcDbEntity
  8
0
100
AcDbLine
 62
7
  6
CONTINUOUS
 10
7.5206316903
 20
15.5708845873
 11
7.6640704214
 21
15.4274458563
  0
LINE
  5
37E
100
AcDbEntity
  8
0
100
AcDbLine
 62
7
  6
CONTINUOUS
 10
7.7451678631
 20
15.3463484146
 11
7.8318524438
 21
15.2596638338
  0
LINE
  5
37F
100
AcDbEntity
  8
0
100
AcDbLine
 62
9
  6
CONTINUOUS
 10
4.8796724487
 20
18.2176617518
 11
4.9018204195
 21
18.1955137809
  0
LINE
  5
380
100
AcDbEntity
  8
0
100
AcDbLine
 62
9
  6
CONTINUOUS
 10
4.9833857861
 20
18.1139484143
 11
5.0696024419
 21
18.0277317585
  0
LINE
  5
381
100
AcDbEntity
  8
0
100
AcDbLine
 62
9
  6
CONTINUOUS
 10
5.1511975268
 20
17.9461366737
 11
5.2941386147
 21
17.8031955857
  0
LINE
  5
382
100
AcDbEntity
  8
0
100
AcDbLine
 62
9
  6
CONTINUOUS
 10
5.3757735392
 20
17.7215606613
 11
5.5656156296
 21
17.5317185708
  0
LINE
  5
383
100
AcDbEntity
  8
0
100
AcDbLine
 62
9
  6
CONTINUOUS
 10
5.6472988281
 20
17.4500353723
 11
5.8721686385
 21
17.2251655619
  0
LINE
  5
384
100
AcDbEntity
  8
0
100
AcDbLine
 62
9
  6
CONTINUOUS
 10
5.9537024245
 20
17.143631776
 11
6.2003998039
 21
16.8969343965
  0
LINE
  5
385
100
AcDbEntity
  8
0
100
AcDbLine
 62
9
  6
CONTINUOUS
 10
6.2819335898
 20
16.8154006106
 11
6.5359638487
 21
16.5613703517
  0
LINE
  5
386
100
AcDbEntity
  8
0
100
AcDbLine
 62
9
  6
CONTINUOUS
 10
6.6174976346
 20
16.4798365658
 11
6.8639909508
 21
16.2333432496
  0
LINE
  5
387
100
AcDbEntity
  8
0
100
AcDbLine
 62
9
  6
CONTINUOUS
 10
6.9457288
 20
16.1516054005
 11
7.1705986104
 21
15.92673559
  0
LINE
  5
388
100
AcDbEntity
  8
0
100
AcDbLine
 62
9
  6
CONTINUOUS
 10
7.2522818088
 20
15.8450523916
 11
7.4421238993
 21
15.6552103011
  0
LINE
  5
389
100
AcDbEntity
  8
0
100
AcDbLine
 62
9
  6
CONTINUOUS
 10
7.5237588238
 20
15.5735753766
 11
7.6666999117
 21
15.4306342887
  0
LINE
  5
38A
100
AcDbEntity
  8
0
100
AcDbLine
 62
9
  6
CONTINUOUS
 10
7.7482949966
 20
15.3490392038
 11
7.8345116524
 21
15.262822548
  0
LINE
  5
38B
100
AcDbEntity
  8
0
100
AcDbLine
 62
9
  6
CONTINUOUS
 10
7.916077019
 20
15.1812571814
 11
7.9382249898
 21
15.1591092106
  0
LINE
  5
38C
100
AcDbEntity
  8
0
100
AcDbLine
 62
7
  6
CONTINUOUS
 10
4.5539920883
 20
18.5754399861
 11
8.2960032242
 21
14.8334288503
  0
LINE
  5
38D
100
AcDbEntity
  8
0
100
AcDbLine
 62
9
  6
CONTINUOUS
 10
8.3040297238
 20
14.8299587621
 11
4.5505220002
 21
18.5834664857
  0
LINE
  5
38E
100
AcDbEntity
  8
0
100
AcDbLine
 62
9
  6
CONTINUOUS
 10
8.6228754253
 20
14.7445243139
 11
4.4650875519
 21
18.9023121872
  0
LINE
  5
38F
100
AcDbEntity
  8
0
100
AcDbLine
 62
7
  6
CONTINUOUS
 10
13.4459016515
 20
4.939891804
 11
13.4459016515
 21
8.046891804
  0
LINE
  5
390
100
AcDbEntity
  8
0
100
AcDbLine
 62
9
  6
CONTINUOUS
 10
13.4859016515
 20
4.899891804
 11
13.4859016515
 21
8.086891804
  0
LINE
  5
391
100
AcDbEntity
  8
0
100
AcDbLine
 62
9
  6
CONTINUOUS
 10
13.6961690535
 20
7.8648663401
 11
13.6961692235
 21
7.9025383899
  0
LINE
  5
392
100
AcDbEntity
  8
0
100
AcDbLine
 62
9
  6
CONTINUOUS
 10
13.6786248828
 20
7.7881685727
 11
13.6503406116
 21
7.7598843015
  0
LINE
  5
393
100
AcDbEntity
  8
0
100
AcDbLine
 62
7
  6
CONTINUOUS
 10
6.4692838786
 20
16.4870911315
 11
6.4784085498
 21
16.4793316712
  0
LINE
  5
394
100
AcDbEntity
  8
0
100
AcDbLine
 62
7
  6
CONTINUOUS
 10
7.7336705743
 20
15.3264648819
 11
7.7325680956
 21
15.3274076875
  0
LINE
  5
395
100
AcDbEntity
  8
0
100
AcDbLine
 62
7
  6
CONTINUOUS
 10
7.4099258783
 20
15.6082720037
 11
7.4074990529
 21
15.610422559
  0
LINE
  5
396
100
AcDbEntity
  8
0
100
AcDbLine
 62
9
  6
CONTINUOUS
 10
8.6518532001
 20
14.7522888852
 11
4.4728521233
 21
18.931289962
  0
LINE
  5
397
100
AcDbEntity
  8
0
100
AcDbLine
 62
9
  6
CONTINUOUS
 10
14.3899016515
 20
4.899891804
 11
14.3899016515
 21
7.0273979557
  0
LINE
  5
398
100
AcDbEntity
  8
0
100
AcDbLine
 62
9
  6
CONTINUOUS
 10
14.3899016524
 20
7.8648663401
 11
14.3899016515
 21
8.086891804
  0
LINE
  5
399
100
AcDbEntity
  8
0
100
AcDbLine
 62
7
  6
CONTINUOUS
 10
14.4299016515
 20
8.046891804
 11
14.4299016515
 21
7.923374274
  0
LINE
  5
39A
100
AcDbEntity
  8
0
100
AcDbLine
 62
7
  6
CONTINUOUS
 10
14.4299016515
 20
6.996409334
 11
14.4299016515
 21
4.939891804
  0
LINE
  5
39B
100
AcDbEntity
  8
0
100
AcDbLine
 62
9
  6
CONTINUOUS
 10
14.4699016515
 20
7.889891804
 11
14.4699016515
 21
7.8839289575
  0
LINE
  5
39C
100
AcDbEntity
  8
0
100
AcDbLine
 62
9
  6
CONTINUOUS
 10
14.4699016515
 20
7.0358546506
 11
14.4699016515
 21
7.029891804
  0
LINE
  5
39D
100
AcDbEntity
  8
0
100
AcDbLine
 62
7
  6
CONTINUOUS
 10
14.8334016515
 20
4.8445374733
 11
14.8334016515
 21
5.7445374733
  0
LINE
  5
39E
100
AcDbEntity
  8
0
100
AcDbLine
 62
9
  6
CONTINUOUS
 10
14.4078397086
 20
7.0624912347
 11
14.3899016515
 21
7.0273979557
  0
LINE
  5
39F
100
AcDbEntity
  8
0
100
AcDbLine
 62
9
  6
CONTINUOUS
 10
14.3917467012
 20
7.0750467544
 11
14.3634624299
 21
7.0467624832
  0
LINE
  5
3A0
100
AcDbEntity
  8
0
100
AcDbLine
 62
9
  6
CONTINUOUS
 10
9.2731734273
 20
15.3736091124
 11
5.0941723505
 21
19.5526101893
  0
LINE
  5
3A1
100
AcDbEntity
  8
0
100
AcDbLine
 62
7
  6
CONTINUOUS
 10
9.2731734273
 20
15.4160355193
 11
5.1365987574
 21
19.5526101893
  0
LINE
  5
3A2
100
AcDbEntity
  8
0
100
AcDbLine
 62
9
  6
CONTINUOUS
 10
6.1937233953
 20
18.5379119583
 11
8.2584751963
 21
16.4731601572
  0
LINE
  5
3A3
100
AcDbEntity
  8
0
100
AcDbLine
 62
9
  6
CONTINUOUS
 10
8.4218168628
 20
16.6365018236
 11
6.3570650617
 21
18.7012536247
  0
LINE
  5
3A4
100
AcDbEntity
  8
0
100
AcDbLine
 62
7
  6
CONTINUOUS
 10
8.4218168628
 20
16.6789282305
 11
6.3994914686
 21
18.7012536247
  0
LINE
  5
3A5
100
AcDbEntity
  8
0
100
AcDbLine
 62
9
  6
CONTINUOUS
 10
6.9368926223
 20
18.2062788779
 11
7.926842116
 21
17.2163293842
  0
LINE
  5
3A6
100
AcDbEntity
  8
0
100
AcDbLine
 62
9
  6
CONTINUOUS
 10
8.0569497637
 20
17.346437032
 11
7.06700027
 21
18.3363865256
  0
LINE
  5
3A7
100
AcDbEntity
  8
0
100
AcDbLine
 62
7
  6
CONTINUOUS
 10
7.0952845413
 20
18.3363865256
 11
8.0569497637
 21
17.3747213032
  0
LINE
  5
3A8
100
AcDbEntity
  8
0
100
AcDbLine
 62
9
  6
CONTINUOUS
 10
7.0952845413
 20
18.3646707969
 11
8.0852340349
 21
17.3747213032
  0
LINE
  5
3A9
100
AcDbEntity
  8
0
100
AcDbLine
 62
7
  6
CONTINUOUS
 10
15.0694016515
 20
4.8445374733
 11
15.0694016515
 21
5.7445374733
  0
LINE
  5
3AA
100
AcDbEntity
  8
0
100
AcDbLine
 62
7
  6
CONTINUOUS
 10
15.3504016515
 20
5.5320374733
 11
15.3504016515
 21
5.0570374733
  0
LINE
  5
3AB
100
AcDbEntity
  8
0
100
AcDbLine
 62
7
  6
CONTINUOUS
 10
8.6228754253
 20
14.7445243139
 11
8.3040297238
 21
14.8299587621
  0
LINE
  5
3AC
100
AcDbEntity
  8
0
100
AcDbLine
 62
7
  6
CONTINUOUS
 10
8.2188772166
 20
17.5083644848
 11
8.1835218775
 21
17.5437198239
  0
LINE
  5
3AD
100
AcDbEntity
  8
0
100
AcDbLine
 62
7
  6
CONTINUOUS
 10
7.264283062
 20
18.4629586395
 11
7.2289277229
 21
18.4983139785
  0
LINE
  5
3AE
100
AcDbEntity
  8
0
100
AcDbLine
 62
7
  6
CONTINUOUS
 10
8.4310092509
 20
17.7912071973
 11
7.5117704354
 21
18.7104460129
  0
LINE
  5
3AF
100
AcDbEntity
  8
0
100
AcDbLine
 62
9
  6
CONTINUOUS
 10
8.2854424401
 20
18.0760997914
 11
7.7966630295
 21
18.5648792021
  0
LINE
  5
3B0
100
AcDbEntity
  8
0
100
AcDbLine
 62
9
  6
CONTINUOUS
 10
8.365442432
 20
18.1561358715
 11
7.8766991095
 21
18.6448791939
  0
LINE
  5
3B1
100
AcDbEntity
  8
0
100
AcDbLine
 62
9
  6
CONTINUOUS
 10
7.8766991095
 20
18.7181953587
 11
8.4387585968
 21
18.1561358715
  0
LINE
  5
3B2
100
AcDbEntity
  8
0
100
AcDbLine
 62
9
  6
CONTINUOUS
 10
7.9317630347
 20
18.8511314336
 11
8.1636060695
 21
18.6192883987
  0
LINE
  5
3B3
100
AcDbEntity
  8
0
100
AcDbLine
 62
9
  6
CONTINUOUS
 10
8.3398516368
 20
18.4430428314
 11
8.5716946717
 21
18.2111997966
  0
LINE
  5
3B4
100
AcDbEntity
  8
0
100
AcDbLine
 62
7
  6
CONTINUOUS
 10
15.9584016515
 20
5.0705414106
 11
15.9584016515
 21
5.5185335342
  0
LINE
  5
3B5
100
AcDbEntity
  8
0
100
AcDbLine
 62
9
  6
CONTINUOUS
 10
15.9704016515
 20
5.0585374733
 11
15.9704016515
 21
5.5305374733
  0
LINE
  5
3B6
100
AcDbEntity
  8
0
100
AcDbLine
 62
9
  6
CONTINUOUS
 10
16.2059016515
 20
-0.050108196
 11
16.2059016515
 21
-0.110108196
  0
LINE
  5
3B7
100
AcDbEntity
  8
0
100
AcDbLine
 62
7
  6
CONTINUOUS
 10
16.2199016515
 20
7.029891804
 11
16.2199016515
 21
7.889891804
  0
LINE
  5
3B8
100
AcDbEntity
  8
0
100
AcDbLine
 62
9
  6
CONTINUOUS
 10
16.2219016515
 20
19.065891804
 11
16.2219016515
 21
19.005891804
  0
LINE
  5
3B9
100
AcDbEntity
  8
0
100
AcDbLine
 62
7
  6
CONTINUOUS
 10
16.2699016515
 20
7.029891804
 11
16.2699016515
 21
7.889891804
  0
LINE
  5
3BA
100
AcDbEntity
  8
0
100
AcDbLine
 62
7
  6
CONTINUOUS
 10
16.2859016515
 20
-0.190108196
 11
16.2859016515
 21
-1.580108196
  0
LINE
  5
3BB
100
AcDbEntity
  8
0
100
AcDbLine
 62
7
  6
CONTINUOUS
 10
16.3019016515
 20
18.925891804
 11
16.3019016515
 21
17.459891804
  0
LINE
  5
3BC
100
AcDbEntity
  8
0
100
AcDbLine
 62
9
  6
CONTINUOUS
 10
16.3459016515
 20
-0.190108196
 11
16.3459016515
 21
-1.640108196
  0
LINE
  5
3BD
100
AcDbEntity
  8
0
100
AcDbLine
 62
9
  6
CONTINUOUS
 10
16.3619016515
 20
18.925891804
 11
16.3619016515
 21
17.459891804
  0
LINE
  5
3BE
100
AcDbEntity
  8
0
100
AcDbLine
 62
7
  6
CONTINUOUS
 10
8.3029965092
 20
18.7586788384
 11
8.4792420765
 21
18.5824332711
  0
LINE
  5
3BF
100
AcDbEntity
  8
0
100
AcDbLine
 62
7
  6
CONTINUOUS
 10
8.2668525858
 20
18.9715994571
 11
8.2325603977
 21
19.0058916453
  0
LINE
  5
3C0
100
AcDbEntity
  8
0
100
AcDbLine
 62
7
  6
CONTINUOUS
 10
16.6459016515
 20
3.942891804
 11
16.6459016515
 21
9.382891804
  0
LINE
  5
3C1
100
AcDbEntity
  8
0
100
AcDbLine
 62
9
  6
CONTINUOUS
 10
16.6759016515
 20
3.912891804
 11
16.6759016515
 21
9.412891804
  0
LINE
  5
3C2
100
AcDbEntity
  8
0
100
AcDbLine
 62
7
  6
CONTINUOUS
 10
16.9559016515
 20
-1.640108196
 11
16.9559016515
 21
0.559891804
  0
LINE
  5
3C3
100
AcDbEntity
  8
0
100
AcDbLine
 62
7
  6
CONTINUOUS
 10
16.9559016515
 20
3.912891804
 11
16.9559016515
 21
9.412891804
  0
LINE
  5
3C4
100
AcDbEntity
  8
0
100
AcDbLine
 62
7
  6
CONTINUOUS
 10
16.9559016515
 20
17.459891804
 11
16.9559016515
 21
19.659891804
  0
LINE
  5
3C5
100
AcDbEntity
  8
0
100
AcDbLine
 62
7
  6
CONTINUOUS
 10
16.3019016515
 20
17.459891804
 11
16.9559016515
 21
17.459891804
  0
LINE
  5
3C6
100
AcDbEntity
  8
0
100
AcDbLine
 62
7
  6
CONTINUOUS
 10
8.4387585968
 20
18.1561358715
 11
8.365442432
 21
18.1561358715
  0
LINE
  5
3C7
100
AcDbEntity
  8
0
100
AcDbLine
 62
9
  6
CONTINUOUS
 10
16.3619016515
 20
18.925891804
 11
16.3019016515
 21
18.925891804
  0
LINE
  5
3C8
100
AcDbEntity
  8
0
100
AcDbLine
 62
7
  6
CONTINUOUS
 10
8.0159016515
 20
19.005891804
 11
16.2219016515
 21
19.005891804
  0
LINE
  5
3C9
100
AcDbEntity
  8
0
100
AcDbLine
 62
9
  6
CONTINUOUS
 10
7.9559016515
 20
19.065891804
 11
16.2219016515
 21
19.065891804
  0
LINE
  5
3CA
100
AcDbEntity
  8
0
100
AcDbLine
 62
9
  6
CONTINUOUS
 10
16.9559016515
 20
19.599891804
 11
7.9559016515
 21
19.599891804
  0
LINE
  5
3CB
100
AcDbEntity
  8
0
100
AcDbLine
 62
7
  6
CONTINUOUS
 10
16.9559016515
 20
19.659891804
 11
8.0159016515
 21
19.659891804
  0
ARC
  5
3CC
100
AcDbEntity
  8
0
100
AcDbCircle
 62
7
  6
CONTINUOUS
 10
8.0159016515
 20
0.499891804
 40
0.06
100
AcDbArc
 50
90.0
 51
180.0
  0
ARC
  5
3CD
100
AcDbEntity
  8
0
100
AcDbCircle
 62
7
  6
CONTINUOUS
 10
8.0159016515
 20
-0.050108196
 40
0.06
100
AcDbArc
 50
180.0
 51
270.0
  0
ARC
  5
3CE
100
AcDbEntity
  8
0
100
AcDbCircle
 62
7
  6
CONTINUOUS
 10
9.5709016515
 20
-0.600108196
 40
0.01
100
AcDbArc
 50
270.0
 51
360.0
  0
ARC
  5
3CF
100
AcDbEntity
  8
0
100
AcDbCircle
 62
7
  6
CONTINUOUS
 10
8.3409016515
 20
-0.600108196
 40
0.01
100
AcDbArc
 50
180.0
 51
270.0
  0
ARC
  5
3D0
100
AcDbEntity
  8
0
100
AcDbCircle
 62
7
  6
CONTINUOUS
 10
8.6124009221
 20
15.893328918
 40
1.0
100
AcDbArc
 50
225.6215627969
 51
227.4481231305
  0
ARC
  5
3D1
100
AcDbEntity
  8
0
100
AcDbCircle
 62
7
  6
CONTINUOUS
 10
8.3835741307
 20
16.0864815708
 40
1.0
100
AcDbArc
 50
229.4656691658
 51
236.2451227605
  0
ARC
  5
3D2
100
AcDbEntity
  8
0
100
AcDbCircle
 62
7
  6
CONTINUOUS
 10
8.6306399967
 20
14.7735020887
 40
0.03
100
AcDbArc
 50
254.9999999979
 51
315.0
  0
ARC
  5
3D3
100
AcDbEntity
  8
0
100
AcDbCircle
 62
7
  6
CONTINUOUS
 10
8.3117942952
 20
14.8589365369
 40
0.03
100
AcDbArc
 50
238.2395482929
 51
254.999999998
  0
ARC
  5
3D4
100
AcDbEntity
  8
0
100
AcDbCircle
 62
7
  6
CONTINUOUS
 10
9.2519602239
 20
15.3948223159
 40
0.03
100
AcDbArc
 50
315.0
 51
45.0
  0
ARC
  5
3D5
100
AcDbEntity
  8
0
100
AcDbCircle
 62
7
  6
CONTINUOUS
 10
6.9948167792
 20
15.9464242043
 40
0.015
100
AcDbArc
 50
139.2891533288
 51
225.0
  0
ARC
  5
3D6
100
AcDbEntity
  8
0
100
AcDbCircle
 62
7
  6
CONTINUOUS
 10
7.0529167335
 20
15.88832425
 40
0.015
100
AcDbArc
 50
225.0
 51
310.7108466712
  0
ARC
  5
3D7
100
AcDbEntity
  8
0
100
AcDbCircle
 62
7
  6
CONTINUOUS
 10
6.9019771207
 20
16.0392638629
 40
0.015
100
AcDbArc
 50
139.2891533288
 51
225.0
  0
ARC
  5
3D8
100
AcDbEntity
  8
0
100
AcDbCircle
 62
7
  6
CONTINUOUS
 10
6.9600770749
 20
15.9811639086
 40
0.015
100
AcDbArc
 50
225.0
 51
310.7108466712
  0
ARC
  5
3D9
100
AcDbEntity
  8
0
100
AcDbCircle
 62
7
  6
CONTINUOUS
 10
7.3165503647
 20
15.6600459579
 40
0.015
100
AcDbArc
 50
219.5026897671
 51
225.0
  0
ARC
  5
3DA
100
AcDbEntity
  8
0
100
AcDbCircle
 62
7
  6
CONTINUOUS
 10
7.374650319
 20
15.6019460037
 40
0.015
100
AcDbArc
 50
225.0
 51
310.7108466712
  0
ARC
  5
3DB
100
AcDbEntity
  8
0
100
AcDbCircle
 62
7
  6
CONTINUOUS
 10
7.2564226676
 20
15.720173655
 40
0.015
100
AcDbArc
 50
139.2891533288
 51
225.0
  0
ARC
  5
3DC
100
AcDbEntity
  8
0
100
AcDbCircle
 62
7
  6
CONTINUOUS
 10
7.3145226219
 20
15.6620737007
 40
0.015
100
AcDbArc
 50
225.0
 51
310.7108466712
  0
ARC
  5
3DD
100
AcDbEntity
  8
0
100
AcDbCircle
 62
7
  6
CONTINUOUS
 10
7.083291864
 20
15.8933044586
 40
0.015
100
AcDbArc
 50
139.2891533288
 51
225.0
  0
ARC
  5
3DE
100
AcDbEntity
  8
0
100
AcDbCircle
 62
7
  6
CONTINUOUS
 10
7.1413918183
 20
15.8352045043
 40
0.015
100
AcDbArc
 50
225.0
 51
310.7108466712
  0
ARC
  5
3DF
100
AcDbEntity
  8
0
100
AcDbCircle
 62
7
  6
CONTINUOUS
 10
6.8761400382
 20
16.1004562844
 40
0.015
100
AcDbArc
 50
225.0
 51
310.7108466712
  0
ARC
  5
3E0
100
AcDbEntity
  8
0
100
AcDbCircle
 62
7
  6
CONTINUOUS
 10
7.6999194383
 20
15.3191032912
 40
0.015
100
AcDbArc
 50
225.0
 51
310.7108466712
  0
ARC
  5
3E1
100
AcDbEntity
  8
0
100
AcDbCircle
 62
7
  6
CONTINUOUS
 10
7.5974863781
 20
15.4215363514
 40
0.015
100
AcDbArc
 50
139.2891533288
 51
225.0
  0
ARC
  5
3E2
100
AcDbEntity
  8
0
100
AcDbCircle
 62
7
  6
CONTINUOUS
 10
7.6555863324
 20
15.3634363971
 40
0.015
100
AcDbArc
 50
225.0
 51
310.7108466712
  0
ARC
  5
3E3
100
AcDbEntity
  8
0
100
AcDbCircle
 62
7
  6
CONTINUOUS
 10
7.4675082883
 20
15.5515144412
 40
0.015
100
AcDbArc
 50
139.2891533288
 51
225.0
  0
ARC
  5
3E4
100
AcDbEntity
  8
0
100
AcDbCircle
 62
7
  6
CONTINUOUS
 10
7.5256082426
 20
15.4934144869
 40
0.015
100
AcDbArc
 50
225.0
 51
310.7108466712
  0
ARC
  5
3E5
100
AcDbEntity
  8
0
100
AcDbCircle
 62
7
  6
CONTINUOUS
 10
7.2607430066
 20
15.7582797228
 40
0.015
100
AcDbArc
 50
139.2891533288
 51
225.0
  0
ARC
  5
3E6
100
AcDbEntity
  8
0
100
AcDbCircle
 62
7
  6
CONTINUOUS
 10
7.3188429609
 20
15.7001797686
 40
0.015
100
AcDbArc
 50
225.0
 51
310.7108466712
  0
ARC
  5
3E7
100
AcDbEntity
  8
0
100
AcDbCircle
 62
7
  6
CONTINUOUS
 10
6.9912812453
 20
16.0277414842
 40
0.015
100
AcDbArc
 50
139.2891533288
 51
225.0
  0
ARC
  5
3E8
100
AcDbEntity
  8
0
100
AcDbCircle
 62
7
  6
CONTINUOUS
 10
7.0493811996
 20
15.9696415299
 40
0.015
100
AcDbArc
 50
225.0
 51
310.7108466712
  0
ARC
  5
3E9
100
AcDbEntity
  8
0
100
AcDbCircle
 62
7
  6
CONTINUOUS
 10
8.0287240916
 20
15.0397961126
 40
0.015
100
AcDbArc
 50
225.0
 51
310.7108466712
  0
ARC
  5
3EA
100
AcDbEntity
  8
0
100
AcDbCircle
 62
7
  6
CONTINUOUS
 10
7.9355481433
 20
15.1329720608
 40
0.015
100
AcDbArc
 50
139.2891533288
 51
225.0
  0
ARC
  5
3EB
100
AcDbEntity
  8
0
100
AcDbCircle
 62
7
  6
CONTINUOUS
 10
7.9936480976
 20
15.0748721065
 40
0.015
100
AcDbArc
 50
225.0
 51
310.7108466712
  0
ARC
  5
3EC
100
AcDbEntity
  8
0
100
AcDbCircle
 62
7
  6
CONTINUOUS
 10
7.8318531508
 20
15.2366670534
 40
0.015
100
AcDbArc
 50
139.2891533288
 51
225.0
  0
ARC
  5
3ED
100
AcDbEntity
  8
0
100
AcDbCircle
 62
7
  6
CONTINUOUS
 10
7.8899531051
 20
15.1785670991
 40
0.015
100
AcDbArc
 50
225.0
 51
310.7108466712
  0
ARC
  5
3EE
100
AcDbEntity
  8
0
100
AcDbCircle
 62
7
  6
CONTINUOUS
 10
7.6640711284
 20
15.4044490758
 40
0.015
100
AcDbArc
 50
139.2891533288
 51
225.0
  0
ARC
  5
3EF
100
AcDbEntity
  8
0
100
AcDbCircle
 62
7
  6
CONTINUOUS
 10
7.7221710827
 20
15.3463491215
 40
0.015
100
AcDbArc
 50
225.0
 51
310.7108466712
  0
ARC
  5
3F0
100
AcDbEntity
  8
0
100
AcDbCircle
 62
7
  6
CONTINUOUS
 10
7.4395349556
 20
15.6289852486
 40
0.015
100
AcDbArc
 50
139.2891533288
 51
225.0
  0
ARC
  5
3F1
100
AcDbEntity
  8
0
100
AcDbCircle
 62
7
  6
CONTINUOUS
 10
7.4976349099
 20
15.5708852943
 40
0.015
100
AcDbArc
 50
225.0
 51
310.7108466712
  0
ARC
  5
3F2
100
AcDbEntity
  8
0
100
AcDbCircle
 62
7
  6
CONTINUOUS
 10
7.1680579406
 20
15.9004622635
 40
0.015
100
AcDbArc
 50
139.2891533288
 51
225.0
  0
ARC
  5
3F3
100
AcDbEntity
  8
0
100
AcDbCircle
 62
7
  6
CONTINUOUS
 10
7.2261578949
 20
15.8423623093
 40
0.015
100
AcDbArc
 50
225.0
 51
310.7108466712
  0
ARC
  5
3F4
100
AcDbEntity
  8
0
100
AcDbCircle
 62
7
  6
CONTINUOUS
 10
13.4859016515
 20
4.939891804
 40
0.04
100
AcDbArc
 50
180.0
 51
270.0
  0
ARC
  5
3F5
100
AcDbEntity
  8
0
100
AcDbCircle
 62
7
  6
CONTINUOUS
 10
13.4859016515
 20
8.046891804
 40
0.04
100
AcDbArc
 50
90.0
 51
180.0
  0
ARC
  5
3F6
100
AcDbEntity
  8
0
100
AcDbCircle
 62
7
  6
CONTINUOUS
 10
5.759827101
 20
17.1814138826
 40
0.015
100
AcDbArc
 50
225.0
 51
310.7108466712
  0
ARC
  5
3F7
100
AcDbEntity
  8
0
100
AcDbCircle
 62
7
  6
CONTINUOUS
 10
5.7017271467
 20
17.2395138369
 40
0.015
100
AcDbArc
 50
139.2891533288
 51
225.0
  0
ARC
  5
3F8
100
AcDbEntity
  8
0
100
AcDbCircle
 62
7
  6
CONTINUOUS
 10
5.6088874881
 20
17.3323534954
 40
0.015
100
AcDbArc
 50
139.2891533288
 51
225.0
  0
ARC
  5
3F9
100
AcDbEntity
  8
0
100
AcDbCircle
 62
7
  6
CONTINUOUS
 10
5.6669874424
 20
17.2742535412
 40
0.015
100
AcDbArc
 50
225.0
 51
310.7108466712
  0
ARC
  5
3FA
100
AcDbEntity
  8
0
100
AcDbCircle
 62
7
  6
CONTINUOUS
 10
5.5557677424
 20
17.4208285802
 40
0.015
100
AcDbArc
 50
139.2891533288
 51
225.0
  0
ARC
  5
3FB
100
AcDbEntity
  8
0
100
AcDbCircle
 62
7
  6
CONTINUOUS
 10
5.6138676967
 20
17.3627286259
 40
0.015
100
AcDbArc
 50
225.0
 51
310.7108466712
  0
ARC
  5
3FC
100
AcDbEntity
  8
0
100
AcDbCircle
 62
7
  6
CONTINUOUS
 10
5.3826369388
 20
17.5939593838
 40
0.015
100
AcDbArc
 50
139.2891533288
 51
225.0
  0
ARC
  5
3FD
100
AcDbEntity
  8
0
100
AcDbCircle
 62
7
  6
CONTINUOUS
 10
5.4407368931
 20
17.5358594295
 40
0.015
100
AcDbArc
 50
225.0
 51
310.7108466712
  0
ARC
  5
3FE
100
AcDbEntity
  8
0
100
AcDbCircle
 62
7
  6
CONTINUOUS
 10
5.3225092417
 20
17.6540870809
 40
0.015
100
AcDbArc
 50
139.2891533288
 51
225.0
  0
ARC
  5
3FF
100
AcDbEntity
  8
0
100
AcDbCircle
 62
7
  6
CONTINUOUS
 10
5.380609196
 20
17.5959871266
 40
0.015
100
AcDbArc
 50
225.0
 51
230.497310233
  0
ARC
  5
400
100
AcDbEntity
  8
0
100
AcDbCircle
 62
7
  6
CONTINUOUS
 10
5.690204768
 20
17.3288179615
 40
0.015
100
AcDbArc
 50
139.2891533288
 51
225.0
  0
ARC
  5
401
100
AcDbEntity
  8
0
100
AcDbCircle
 62
7
  6
CONTINUOUS
 10
5.7483047222
 20
17.2707180073
 40
0.015
100
AcDbArc
 50
225.0
 51
310.7108466712
  0
ARC
  5
402
100
AcDbEntity
  8
0
100
AcDbCircle
 62
7
  6
CONTINUOUS
 10
5.4207430066
 20
17.5982797228
 40
0.015
100
AcDbArc
 50
139.2891533288
 51
225.0
  0
ARC
  5
403
100
AcDbEntity
  8
0
100
AcDbCircle
 62
7
  6
CONTINUOUS
 10
5.4788429609
 20
17.5401797686
 40
0.015
100
AcDbArc
 50
225.0
 51
310.7108466712
  0
ARC
  5
404
100
AcDbEntity
  8
0
100
AcDbCircle
 62
7
  6
CONTINUOUS
 10
5.213977725
 20
17.8050450045
 40
0.015
100
AcDbArc
 50
139.2891533288
 51
225.0
  0
ARC
  5
405
100
AcDbEntity
  8
0
100
AcDbCircle
 62
7
  6
CONTINUOUS
 10
5.2720776792
 20
17.7469450502
 40
0.015
100
AcDbArc
 50
225.0
 51
310.7108466712
  0
ARC
  5
406
100
AcDbEntity
  8
0
100
AcDbCircle
 62
7
  6
CONTINUOUS
 10
5.5629255473
 20
17.5055946568
 40
0.015
100
AcDbArc
 50
139.2891533288
 51
225.0
  0
ARC
  5
407
100
AcDbEntity
  8
0
100
AcDbCircle
 62
7
  6
CONTINUOUS
 10
5.6210255016
 20
17.4474947026
 40
0.015
100
AcDbArc
 50
225.0
 51
310.7108466712
  0
ARC
  5
408
100
AcDbEntity
  8
0
100
AcDbCircle
 62
7
  6
CONTINUOUS
 10
5.2914485324
 20
17.7770716718
 40
0.015
100
AcDbArc
 50
139.2891533288
 51
225.0
  0
ARC
  5
409
100
AcDbEntity
  8
0
100
AcDbCircle
 62
7
  6
CONTINUOUS
 10
5.3495484867
 20
17.7189717175
 40
0.015
100
AcDbArc
 50
225.0
 51
310.7108466712
  0
ARC
  5
40A
100
AcDbEntity
  8
0
100
AcDbCircle
 62
7
  6
CONTINUOUS
 10
6.100326701
 20
16.8267721469
 40
0.015
100
AcDbArc
 50
139.2891533288
 51
225.0
  0
ARC
  5
40B
100
AcDbEntity
  8
0
100
AcDbCircle
 62
7
  6
CONTINUOUS
 10
6.1584266553
 20
16.7686721926
 40
0.015
100
AcDbArc
 50
225.0
 51
310.7108466712
  0
ARC
  5
40C
100
AcDbEntity
  8
0
100
AcDbCircle
 62
7
  6
CONTINUOUS
 10
5.9058723362
 20
17.0212265117
 40
0.015
100
AcDbArc
 50
139.2891533288
 51
225.0
  0
ARC
  5
40D
100
AcDbEntity
  8
0
100
AcDbCircle
 62
7
  6
CONTINUOUS
 10
5.9639722905
 20
16.9631265574
 40
0.015
100
AcDbArc
 50
225.0
 51
295.4923497626
  0
ARC
  5
40E
100
AcDbEntity
  8
0
100
AcDbCircle
 62
7
  6
CONTINUOUS
 10
6.3018521337
 20
16.6393888499
 40
0.015
100
AcDbArc
 50
139.2891533288
 51
225.0
  0
ARC
  5
40F
100
AcDbEntity
  8
0
100
AcDbCircle
 62
7
  6
CONTINUOUS
 10
6.359952088
 20
16.5812888956
 40
0.015
100
AcDbArc
 50
225.0
 51
310.7108466712
  0
ARC
  5
410
100
AcDbEntity
  8
0
100
AcDbCircle
 62
7
  6
CONTINUOUS
 10
5.9553698109
 20
16.9858711727
 40
0.015
100
AcDbArc
 50
139.2891533288
 51
225.0
  0
ARC
  5
411
100
AcDbEntity
  8
0
100
AcDbCircle
 62
7
  6
CONTINUOUS
 10
6.0134697652
 20
16.9277712184
 40
0.015
100
AcDbArc
 50
225.0
 51
310.7108466712
  0
ARC
  5
412
100
AcDbEntity
  8
0
100
AcDbCircle
 62
7
  6
CONTINUOUS
 10
6.1463989996
 20
16.830197323
 40
0.015
100
AcDbArc
 50
139.2891533288
 51
225.0
  0
ARC
  5
413
100
AcDbEntity
  8
0
100
AcDbCircle
 62
7
  6
CONTINUOUS
 10
6.2044989539
 20
16.7720973687
 40
0.015
100
AcDbArc
 50
225.0
 51
310.7108466712
  0
ARC
  5
414
100
AcDbEntity
  8
0
100
AcDbCircle
 62
7
  6
CONTINUOUS
 10
5.8210195225
 20
17.1555768002
 40
0.015
100
AcDbArc
 50
139.2891533288
 51
225.0
  0
ARC
  5
415
100
AcDbEntity
  8
0
100
AcDbCircle
 62
7
  6
CONTINUOUS
 10
5.8791194768
 20
17.0974768459
 40
0.015
100
AcDbArc
 50
225.0
 51
310.7108466712
  0
ARC
  5
416
100
AcDbEntity
  8
0
100
AcDbCircle
 62
7
  6
CONTINUOUS
 10
6.3407430066
 20
16.6782797228
 40
0.015
100
AcDbArc
 50
139.2891533288
 51
225.0
  0
ARC
  5
417
100
AcDbEntity
  8
0
100
AcDbCircle
 62
7
  6
CONTINUOUS
 10
6.3988429609
 20
16.6201797686
 40
0.015
100
AcDbArc
 50
225.0
 51
310.7108466712
  0
ARC
  5
418
100
AcDbEntity
  8
0
100
AcDbCircle
 62
7
  6
CONTINUOUS
 10
6.0039996352
 20
17.0150230943
 40
0.015
100
AcDbArc
 50
139.2891533288
 51
225.0
  0
ARC
  5
419
100
AcDbEntity
  8
0
100
AcDbCircle
 62
7
  6
CONTINUOUS
 10
6.0620995894
 20
16.95692314
 40
0.015
100
AcDbArc
 50
225.0
 51
310.7108466712
  0
ARC
  5
41A
100
AcDbEntity
  8
0
100
AcDbCircle
 62
7
  6
CONTINUOUS
 10
6.1977097216
 20
16.8708104826
 40
0.015
100
AcDbArc
 50
139.2891533288
 51
225.0
  0
ARC
  5
41B
100
AcDbEntity
  8
0
100
AcDbCircle
 62
7
  6
CONTINUOUS
 10
6.2558096759
 20
16.8127105283
 40
0.015
100
AcDbArc
 50
225.0
 51
310.7108466712
  0
ARC
  5
41C
100
AcDbEntity
  8
0
100
AcDbCircle
 62
7
  6
CONTINUOUS
 10
5.9275785105
 20
17.1409416937
 40
0.015
100
AcDbArc
 50
225.0
 51
310.7108466712
  0
ARC
  5
41D
100
AcDbEntity
  8
0
100
AcDbCircle
 62
7
  6
CONTINUOUS
 10
5.8694785562
 20
17.1990416479
 40
0.015
100
AcDbArc
 50
139.2891533288
 51
225.0
  0
ARC
  5
41E
100
AcDbEntity
  8
0
100
AcDbCircle
 62
7
  6
CONTINUOUS
 10
6.4281366837
 20
17.9653732722
 40
1.0
100
AcDbArc
 50
223.1422256028
 51
223.998836011
  0
ARC
  5
41F
100
AcDbEntity
  8
0
100
AcDbCircle
 62
7
  6
CONTINUOUS
 10
5.613892156
 20
18.891837684
 40
1.0
100
AcDbArc
 50
222.5518768695
 51
224.3784372031
  0
ARC
  5
420
100
AcDbEntity
  8
0
100
AcDbCircle
 62
7
  6
CONTINUOUS
 10
5.8801539188
 20
18.5779286624
 40
1.0
100
AcDbArc
 50
224.4368375548
 51
225.0
  0
ARC
  5
421
100
AcDbEntity
  8
0
100
AcDbCircle
 62
7
  6
CONTINUOUS
 10
5.8070448089
 20
18.6630108926
 40
1.0
100
AcDbArc
 50
213.7548772395
 51
220.5343308342
  0
ARC
  5
422
100
AcDbEntity
  8
0
100
AcDbCircle
 62
7
  6
CONTINUOUS
 10
6.0773019513
 20
18.3525350045
 40
1.0
100
AcDbArc
 50
217.7776581533
 51
221.542266468
  0
ARC
  5
423
100
AcDbEntity
  8
0
100
AcDbCircle
 62
7
  6
CONTINUOUS
 10
6.3526518311
 20
18.0472174493
 40
1.0
100
AcDbArc
 50
215.2263066615
 51
217.1377441342
  0
ARC
  5
424
100
AcDbEntity
  8
0
100
AcDbCircle
 62
7
  6
CONTINUOUS
 10
4.4940653267
 20
18.9100767586
 40
0.03
100
AcDbArc
 50
135.0
 51
195.0000000021
  0
ARC
  5
425
100
AcDbEntity
  8
0
100
AcDbCircle
 62
7
  6
CONTINUOUS
 10
4.579499775
 20
18.5912310571
 40
0.03
100
AcDbArc
 50
195.000000002
 51
211.7604517071
  0
ARC
  5
426
100
AcDbEntity
  8
0
100
AcDbCircle
 62
7
  6
CONTINUOUS
 10
5.115385554
 20
19.5313969858
 40
0.03
100
AcDbArc
 50
45.0
 51
135.0
  0
ARC
  5
427
100
AcDbEntity
  8
0
100
AcDbCircle
 62
7
  6
CONTINUOUS
 10
6.1725101918
 20
18.5591251617
 40
0.03
100
AcDbArc
 50
225.0
 51
315.0
  0
ARC
  5
428
100
AcDbEntity
  8
0
100
AcDbCircle
 62
7
  6
CONTINUOUS
 10
6.3782782652
 20
18.6800404213
 40
0.03
100
AcDbArc
 50
45.0
 51
135.0
  0
ARC
  5
429
100
AcDbEntity
  8
0
100
AcDbCircle
 62
7
  6
CONTINUOUS
 10
5.0839996352
 20
17.9350230943
 40
0.015
100
AcDbArc
 50
139.2891533288
 51
225.0
  0
ARC
  5
42A
100
AcDbEntity
  8
0
100
AcDbCircle
 62
7
  6
CONTINUOUS
 10
5.1420995894
 20
17.87692314
 40
0.015
100
AcDbArc
 50
225.0
 51
310.7108466712
  0
ARC
  5
42B
100
AcDbEntity
  8
0
100
AcDbCircle
 62
7
  6
CONTINUOUS
 10
5.0396665293
 20
17.9793562002
 40
0.015
100
AcDbArc
 50
139.2891533288
 51
225.0
  0
ARC
  5
42C
100
AcDbEntity
  8
0
100
AcDbCircle
 62
7
  6
CONTINUOUS
 10
5.0669123596
 20
18.0016078446
 40
0.015
100
AcDbArc
 50
139.2891533288
 51
225.0
  0
ARC
  5
42D
100
AcDbEntity
  8
0
100
AcDbCircle
 62
7
  6
CONTINUOUS
 10
5.1250123139
 20
17.9435078903
 40
0.015
100
AcDbArc
 50
225.0
 51
310.7108466712
  0
ARC
  5
42E
100
AcDbEntity
  8
0
100
AcDbCircle
 62
7
  6
CONTINUOUS
 10
4.8991303372
 20
18.169389867
 40
0.015
100
AcDbArc
 50
139.2891533288
 51
225.0
  0
ARC
  5
42F
100
AcDbEntity
  8
0
100
AcDbCircle
 62
7
  6
CONTINUOUS
 10
4.9572302915
 20
18.1112899127
 40
0.015
100
AcDbArc
 50
225.0
 51
310.7108466712
  0
ARC
  5
430
100
AcDbEntity
  8
0
100
AcDbCircle
 62
7
  6
CONTINUOUS
 10
4.7954353446
 20
18.2730848596
 40
0.015
100
AcDbArc
 50
139.2891533288
 51
225.0
  0
ARC
  5
431
100
AcDbEntity
  8
0
100
AcDbCircle
 62
7
  6
CONTINUOUS
 10
4.8535352989
 20
18.2149849053
 40
0.015
100
AcDbArc
 50
225.0
 51
310.7108466712
  0
ARC
  5
432
100
AcDbEntity
  8
0
100
AcDbCircle
 62
7
  6
CONTINUOUS
 10
4.7603593507
 20
18.3081608535
 40
0.015
100
AcDbArc
 50
139.2891533288
 51
225.0
  0
ARC
  5
433
100
AcDbEntity
  8
0
100
AcDbCircle
 62
7
  6
CONTINUOUS
 10
6.745466179
 20
17.6296570378
 40
1.0
100
AcDbArc
 50
224.701895091
 51
225.0
  0
ARC
  5
434
100
AcDbEntity
  8
0
100
AcDbCircle
 62
7
  6
CONTINUOUS
 10
7.3502202759
 20
17.0249029409
 40
1.0
100
AcDbArc
 50
225.0
 51
225.298104909
  0
ARC
  5
435
100
AcDbEntity
  8
0
100
AcDbCircle
 62
7
  6
CONTINUOUS
 10
7.6859365102
 20
16.7075734456
 40
1.0
100
AcDbArc
 50
226.001163989
 51
226.8577743972
  0
ARC
  5
436
100
AcDbEntity
  8
0
100
AcDbCircle
 62
7
  6
CONTINUOUS
 10
8.2984919005
 20
16.1595906807
 40
1.0
100
AcDbArc
 50
225.0
 51
225.5631624452
  0
ARC
  5
437
100
AcDbEntity
  8
0
100
AcDbCircle
 62
7
  6
CONTINUOUS
 10
8.0730982426
 20
16.3567387132
 40
1.0
100
AcDbArc
 50
228.457733532
 51
232.2223418467
  0
ARC
  5
438
100
AcDbEntity
  8
0
100
AcDbCircle
 62
7
  6
CONTINUOUS
 10
7.7677806874
 20
16.632088593
 40
1.0
100
AcDbArc
 50
232.8622558658
 51
234.7736933385
  0
ARC
  5
439
100
AcDbEntity
  8
0
100
AcDbCircle
 62
7
  6
CONTINUOUS
 10
6.6330788891
 20
17.7470424676
 40
1.0
100
AcDbArc
 50
221.5658335025
 51
223.5548996513
  0
ARC
  5
43A
100
AcDbEntity
  8
0
100
AcDbCircle
 62
7
  6
CONTINUOUS
 10
7.4676057057
 20
16.912515651
 40
1.0
100
AcDbArc
 50
226.4451003487
 51
228.4341664975
  0
ARC
  5
43B
100
AcDbEntity
  8
0
100
AcDbCircle
 62
7
  6
CONTINUOUS
 10
8.2796883998
 20
16.4519469538
 40
0.03
100
AcDbArc
 50
135.0
 51
224.9999999999
  0
ARC
  5
43C
100
AcDbEntity
  8
0
100
AcDbCircle
 62
7
  6
CONTINUOUS
 10
8.4006036594
 20
16.6577150271
 40
0.03
100
AcDbArc
 50
315.0
 51
45.0
  0
ARC
  5
43D
100
AcDbEntity
  8
0
100
AcDbCircle
 62
7
  6
CONTINUOUS
 10
7.9480553194
 20
17.1951161808
 40
0.03
100
AcDbArc
 50
135.0
 51
224.9999999964
  0
ARC
  5
43E
100
AcDbEntity
  8
0
100
AcDbCircle
 62
7
  6
CONTINUOUS
 10
8.0428076281
 20
17.3605791676
 40
0.02
100
AcDbArc
 50
315.0
 51
45.0
  0
ARC
  5
43F
100
AcDbEntity
  8
0
100
AcDbCircle
 62
7
  6
CONTINUOUS
 10
8.0710918993
 20
17.3888634388
 40
0.02
100
AcDbArc
 50
225.0
 51
315.0
  0
ARC
  5
440
100
AcDbEntity
  8
0
100
AcDbCircle
 62
7
  6
CONTINUOUS
 10
6.6836897955
 20
16.2434090524
 40
0.015
100
AcDbArc
 50
154.5076502374
 51
225.0
  0
ARC
  5
441
100
AcDbEntity
  8
0
100
AcDbCircle
 62
7
  6
CONTINUOUS
 10
6.7417897498
 20
16.1853090981
 40
0.015
100
AcDbArc
 50
225.0
 51
310.7108466712
  0
ARC
  5
442
100
AcDbEntity
  8
0
100
AcDbCircle
 62
7
  6
CONTINUOUS
 10
6.4892354307
 20
16.4378634172
 40
0.015
100
AcDbArc
 50
139.2891533288
 51
225.0
  0
ARC
  5
443
100
AcDbEntity
  8
0
100
AcDbCircle
 62
7
  6
CONTINUOUS
 10
6.547335385
 20
16.379763463
 40
0.015
100
AcDbArc
 50
225.0
 51
310.7108466712
  0
ARC
  5
444
100
AcDbEntity
  8
0
100
AcDbCircle
 62
7
  6
CONTINUOUS
 10
6.6483344565
 20
16.2929065271
 40
0.015
100
AcDbArc
 50
139.2891533288
 51
225.0
  0
ARC
  5
445
100
AcDbEntity
  8
0
100
AcDbCircle
 62
7
  6
CONTINUOUS
 10
6.7064344107
 20
16.2348065728
 40
0.015
100
AcDbArc
 50
225.0
 51
310.7108466712
  0
ARC
  5
446
100
AcDbEntity
  8
0
100
AcDbCircle
 62
7
  6
CONTINUOUS
 10
6.8180400839
 20
16.1585562387
 40
0.015
100
AcDbArc
 50
139.2891533288
 51
225.0
  0
ARC
  5
447
100
AcDbEntity
  8
0
100
AcDbCircle
 62
7
  6
CONTINUOUS
 10
6.4926606068
 20
16.4839357158
 40
0.015
100
AcDbArc
 50
139.2891533288
 51
225.0
  0
ARC
  5
448
100
AcDbEntity
  8
0
100
AcDbCircle
 62
7
  6
CONTINUOUS
 10
6.5507605611
 20
16.4258357615
 40
0.015
100
AcDbArc
 50
225.0
 51
310.7108466712
  0
ARC
  5
449
100
AcDbEntity
  8
0
100
AcDbCircle
 62
7
  6
CONTINUOUS
 10
6.6774863781
 20
16.3415363514
 40
0.015
100
AcDbArc
 50
139.2891533288
 51
225.0
  0
ARC
  5
44A
100
AcDbEntity
  8
0
100
AcDbCircle
 62
7
  6
CONTINUOUS
 10
6.7355863324
 20
16.2834363971
 40
0.015
100
AcDbArc
 50
225.0
 51
310.7108466712
  0
ARC
  5
44B
100
AcDbEntity
  8
0
100
AcDbCircle
 62
7
  6
CONTINUOUS
 10
6.8615049317
 20
16.2070152724
 40
0.015
100
AcDbArc
 50
139.2891533288
 51
225.0
  0
ARC
  5
44C
100
AcDbEntity
  8
0
100
AcDbCircle
 62
7
  6
CONTINUOUS
 10
6.919604886
 20
16.1489153182
 40
0.015
100
AcDbArc
 50
225.0
 51
310.7108466712
  0
ARC
  5
44D
100
AcDbEntity
  8
0
100
AcDbCircle
 62
7
  6
CONTINUOUS
 10
6.5332737664
 20
16.5352464378
 40
0.015
100
AcDbArc
 50
139.2891533288
 51
225.0
  0
ARC
  5
44E
100
AcDbEntity
  8
0
100
AcDbCircle
 62
7
  6
CONTINUOUS
 10
6.5913737207
 20
16.4771464835
 40
0.015
100
AcDbArc
 50
225.0
 51
310.7108466712
  0
ARC
  5
44F
100
AcDbEntity
  8
0
100
AcDbCircle
 62
7
  6
CONTINUOUS
 10
7.7964424899
 20
18.0758792518
 40
0.489
100
AcDbArc
 50
345.394893546
 51
0.0258404644
  0
ARC
  5
450
100
AcDbEntity
  8
0
100
AcDbCircle
 62
7
  6
CONTINUOUS
 10
7.7964424899
 20
18.0758792518
 40
0.489
100
AcDbArc
 50
89.9741595356
 51
104.605106454
  0
ARC
  5
451
100
AcDbEntity
  8
0
100
AcDbCircle
 62
7
  6
CONTINUOUS
 10
8.4387585968
 20
18.3441358715
 40
0.188
100
AcDbArc
 50
270.0
 51
315.0
  0
ARC
  5
452
100
AcDbEntity
  8
0
100
AcDbCircle
 62
7
  6
CONTINUOUS
 10
8.0646991095
 20
18.7181953587
 40
0.188
100
AcDbArc
 50
135.0
 51
180.0
  0
ARC
  5
453
100
AcDbEntity
  8
0
100
AcDbCircle
 62
7
  6
CONTINUOUS
 10
8.365442432
 20
18.0761358715
 40
0.08
100
AcDbArc
 50
90.0
 51
180.0258404644
  0
ARC
  5
454
100
AcDbEntity
  8
0
100
AcDbCircle
 62
7
  6
CONTINUOUS
 10
7.7966991095
 20
18.6448791939
 40
0.08
100
AcDbArc
 50
269.9741595356
 51
360.0
  0
ARC
  5
455
100
AcDbEntity
  8
0
100
AcDbCircle
 62
7
  6
CONTINUOUS
 10
8.0159016515
 20
19.599891804
 40
0.06
100
AcDbArc
 50
90.0
 51
180.0
  0
ARC
  5
456
100
AcDbEntity
  8
0
100
AcDbCircle
 62
7
  6
CONTINUOUS
 10
8.0159016515
 20
19.065891804
 40
0.06
100
AcDbArc
 50
180.0
 51
270.0
  0
ARC
  5
457
100
AcDbEntity
  8
0
100
AcDbCircle
 62
7
  6
CONTINUOUS
 10
6.9156794189
 20
18.2274920813
 40
0.03
100
AcDbArc
 50
225.0000000036
 51
315.0
  0
ARC
  5
458
100
AcDbEntity
  8
0
100
AcDbCircle
 62
7
  6
CONTINUOUS
 10
7.0811424057
 20
18.32224439
 40
0.02
100
AcDbArc
 50
45.0
 51
135.0
  0
ARC
  5
459
100
AcDbEntity
  8
0
100
AcDbCircle
 62
7
  6
CONTINUOUS
 10
7.1094266769
 20
18.3505286612
 40
0.02
100
AcDbArc
 50
135.0
 51
225.0
  0
ARC
  5
45A
100
AcDbEntity
  8
0
100
AcDbCircle
 62
9
  6
CONTINUOUS
 10
16.2059016515
 20
-0.190108196
 40
0.14
100
AcDbArc
 50
0.0
 51
90.0
  0
ARC
  5
45B
100
AcDbEntity
  8
0
100
AcDbCircle
 62
7
  6
CONTINUOUS
 10
16.2059016515
 20
-0.190108196
 40
0.08
100
AcDbArc
 50
0.0
 51
90.0
  0
ARC
  5
45C
100
AcDbEntity
  8
0
100
AcDbCircle
 62
7
  6
CONTINUOUS
 10
16.3459016515
 20
-1.580108196
 40
0.06
100
AcDbArc
 50
180.0
 51
270.0
  0
ARC
  5
45D
100
AcDbEntity
  8
0
100
AcDbCircle
 62
7
  6
CONTINUOUS
 10
14.4699016515
 20
6.989891804
 40
0.04
100
AcDbArc
 50
90.0
 51
173.0769230769
  0
ARC
  5
45E
100
AcDbEntity
  8
0
100
AcDbCircle
 62
7
  6
CONTINUOUS
 10
14.4699016515
 20
7.929891804
 40
0.04
100
AcDbArc
 50
186.9230769231
 51
270.0
  0
ARC
  5
45F
100
AcDbEntity
  8
0
100
AcDbCircle
 62
7
  6
CONTINUOUS
 10
14.3899016515
 20
4.939891804
 40
0.04
100
AcDbArc
 50
270.0
 51
360.0
  0
ARC
  5
460
100
AcDbEntity
  8
0
100
AcDbCircle
 62
7
  6
CONTINUOUS
 10
14.3899016515
 20
8.046891804
 40
0.04
100
AcDbArc
 50
0.0
 51
90.0
  0
ARC
  5
461
100
AcDbEntity
  8
0
100
AcDbCircle
 62
7
  6
CONTINUOUS
 10
16.6759016515
 20
9.382891804
 40
0.03
100
AcDbArc
 50
90.0
 51
180.0
  0
ARC
  5
462
100
AcDbEntity
  8
0
100
AcDbCircle
 62
7
  6
CONTINUOUS
 10
16.6759016515
 20
3.942891804
 40
0.03
100
AcDbArc
 50
180.0
 51
270.0
  0
ARC
  5
463
100
AcDbEntity
  8
0
100
AcDbCircle
 62
7
  6
CONTINUOUS
 10
15.9704016515
 20
5.0705374733
 40
0.012
100
AcDbArc
 50
180.0
 51
270.0
  0
ARC
  5
464
100
AcDbEntity
  8
0
100
AcDbCircle
 62
7
  6
CONTINUOUS
 10
15.9704016515
 20
5.5185374733
 40
0.012
100
AcDbArc
 50
90.0
 51
180.0
  0
ARC
  5
465
100
AcDbEntity
  8
0
100
AcDbCircle
 62
7
  6
CONTINUOUS
 10
23.5906210252
 20
33.8700577871
 40
24.3989285714
100
AcDbArc
 50
226.4283633978
 51
226.4451003487
  0
ARC
  5
466
100
AcDbEntity
  8
0
100
AcDbCircle
 62
7
  6
CONTINUOUS
 10
23.5906210252
 20
33.8700577871
 40
24.3989285714
100
AcDbArc
 50
223.5548996513
 51
223.5716366022
  0
ARC
  5
467
100
AcDbEntity
  8
0
100
AcDbCircle
 62
7
  6
CONTINUOUS
 10
23.5906210252
 20
33.8700577871
 40
24.3989285714
100
AcDbArc
 50
219.2430588061
 51
219.5237244568
  0
ARC
  5
468
100
AcDbEntity
  8
0
100
AcDbCircle
 62
7
  6
CONTINUOUS
 10
23.5906210252
 20
33.8700577871
 40
24.3989285714
100
AcDbArc
 50
230.4762755432
 51
230.7569411939
  0
ARC
  5
469
100
AcDbEntity
  8
0
100
AcDbCircle
 62
9
  6
CONTINUOUS
 10
16.2219016515
 20
18.925891804
 40
0.14
100
AcDbArc
 50
0.0
 51
90.0
  0
ARC
  5
46A
100
AcDbEntity
  8
0
100
AcDbCircle
 62
7
  6
CONTINUOUS
 10
16.2219016515
 20
18.925891804
 40
0.08
100
AcDbArc
 50
0.0
 51
90.0
  0
LINE
  5
46B
100
AcDbEntity
  8
0
100
AcDbLine
 62
7
  6
CONTINUOUS
 10
7.0059939325
 20
15.9743244426
 11
7.0021248102
 21
15.9779149235
  0
LINE
  5
46C
100
AcDbEntity
  8
0
100
AcDbLine
 62
7
  6
CONTINUOUS
 10
5.6984781616
 20
17.2815615722
 11
5.6948876807
 21
17.2854306944
  0
SPLINE
  5
46D
100
AcDbEntity
  8
0
100
AcDbSpline
 62
7
  6
CONTINUOUS
 70
0
 71
3
 72
29
 73
25
 74
0
 42
0.0000001
 43
0.0000001
 44
0.0000000001
 40
0.0
 40
0.0
 40
0.0
 40
0.0
 40
0.0015470938
 40
0.0029887501
 40
0.004939823
 40
0.0074149829
 40
0.0104209594
 40
0.0139611148
 40
0.0180365561
 40
0.0277925066
 40
0.0396840907
 40
0.0537018033
 40
0.069829114
 40
0.1083328144
 40
0.1550070026
 40
0.2096172948
 40
0.27188411
 40
0.341490457
 40
0.4180801773
 40
0.5012595007
 40
0.5906026112
 40
0.6856497508
 40
0.7859121098
 40
1.0
 40
1.0
 40
1.0
 40
1.0
 10
6.5784382741
 20
16.3867377798
 30
0.0
 10
6.5784516431
 20
16.3867492833
 30
0.0
 10
6.5784441521
 20
16.3867928139
 30
0.0
 10
6.5784231937
 20
16.3868411487
 30
0.0
 10
6.5783909143
 20
16.3869013681
 30
0.0
 10
6.5783459982
 20
16.3869726472
 30
0.0
 10
6.5782877512
 20
16.3870576474
 30
0.0
 10
6.5782163368
 20
16.3871553725
 30
0.0
 10
6.5780960257
 20
16.3873127193
 30
0.0
 10
6.5779118382
 20
16.3875409331
 30
0.0
 10
6.5776499221
 20
16.3878519434
 30
0.0
 10
6.5773357431
 20
16.3882138169
 30
0.0
 10
6.5768160941
 20
16.388798999
 30
0.0
 10
6.5760377402
 20
16.3896522341
 30
0.0
 10
6.5749510876
 20
16.3908178869
 30
0.0
 10
6.5736690093
 20
16.3921716335
 30
0.0
 10
6.572198049
 20
16.3937064959
 30
0.0
 10
6.5705456796
 20
16.3954145176
 30
0.0
 10
6.5687203598
 20
16.3972868993
 30
0.0
 10
6.5667314456
 20
16.3993139994
 30
0.0
 10
6.5645891508
 20
16.4014853722
 30
0.0
 10
6.5623044858
 20
16.4037898423
 30
0.0
 10
6.559011426
 20
16.4070970819
 30
0.0
 10
6.5564753075
 20
16.4096289362
 30
0.0
 10
6.5547453305
 20
16.4113504772
 30
0.0
  0
SPLINE
  5
46E
100
AcDbEntity
  8
0
100
AcDbSpline
 62
7
  6
CONTINUOUS
 70
0
 71
3
 72
29
 73
25
 74
0
 42
0.0000001
 43
0.0000001
 44
0.0000000001
 40
0.0
 40
0.0
 40
0.0
 40
0.0
 40
0.214087883
 40
0.3143502421
 40
0.4093973868
 40
0.4987404967
 40
0.5819198092
 40
0.6585095219
 40
0.7281158785
 40
0.7903827019
 40
0.8449929968
 40
0.8916671844
 40
0.9301708844
 40
0.9462981959
 40
0.9603159091
 40
0.9722074935
 40
0.9819634441
 40
0.9860388854
 40
0.9895790408
 40
0.9925850172
 40
0.995060177
 40
0.9970112499
 40
0.9984529062
 40
1.0
 40
1.0
 40
1.0
 40
1.0
 10
6.1319137143
 20
16.8341820935
 30
0.0
 10
6.1301921734
 20
16.8359120703
 30
0.0
 10
6.1276603193
 20
16.8384481886
 30
0.0
 10
6.1243530798
 20
16.8417412483
 30
0.0
 10
6.1220486097
 20
16.8440259132
 30
0.0
 10
6.1198772371
 20
16.8461682078
 30
0.0
 10
6.1178501373
 20
16.8481571219
 30
0.0
 10
6.1159777557
 20
16.8499824415
 30
0.0
 10
6.114269734
 20
16.851634811
 30
0.0
 10
6.1127348715
 20
16.8531057714
 30
0.0
 10
6.1113811249
 20
16.8543878497
 30
0.0
 10
6.1102154721
 20
16.8554745022
 30
0.0
 10
6.1093622371
 20
16.856252856
 30
0.0
 10
6.108777055
 20
16.856772505
 30
0.0
 10
6.1084151815
 20
16.8570866841
 30
0.0
 10
6.1081041711
 20
16.8573486001
 30
0.0
 10
6.1078759574
 20
16.8575327876
 30
0.0
 10
6.1077186105
 20
16.8576530987
 30
0.0
 10
6.1076208854
 20
16.8577245131
 30
0.0
 10
6.1075358853
 20
16.8577827601
 30
0.0
 10
6.1074646062
 20
16.8578276763
 30
0.0
 10
6.1074043868
 20
16.8578599556
 30
0.0
 10
6.107356052
 20
16.857880914
 30
0.0
 10
6.1073125213
 20
16.857888405
 30
0.0
 10
6.1073010178
 20
16.8578750361
 30
0.0
  0
LINE
  5
46F
100
AcDbEntity
  8
0
100
AcDbLine
 62
7
  6
CONTINUOUS
 10
5.9553382249
 20
17.0088256686
 11
5.9132762272
 21
17.0528286358
  0
LINE
  5
470
100
AcDbEntity
  8
0
100
AcDbLine
 62
7
  6
CONTINUOUS
 10
6.7733918739
 20
16.1927129892
 11
6.7293889028
 21
16.2347749904
  0
LINE
  5
471
100
AcDbEntity
  8
0
100
AcDbLine
 62
7
  6
CONTINUOUS
 10
5.6948876807
 20
17.2854306944
 11
5.6294095652
 21
17.3563944781
  0
SPLINE
  5
472
100
AcDbEntity
  8
0
100
AcDbSpline
 62
7
  6
CONTINUOUS
 70
0
 71
3
 72
60
 73
56
 74
0
 42
0.0000001
 43
0.0000001
 44
0.0000000001
 40
0.0
 40
0.0
 40
0.0
 40
0.0
 40
0.000283823
 40
0.0005048751
 40
0.0007915438
 40
0.0015747109
 40
0.002647389
 40
0.00401393
 40
0.005675689
 40
0.0076327189
 40
0.0098845786
 40
0.015269403
 40
0.0218192249
 40
0.0295196106
 40
0.0383525181
 40
0.0482970784
 40
0.0593295958
 40
0.0714234601
 40
0.0845498274
 40
0.1137709227
 40
0.1467119254
 40
0.1830557955
 40
0.2224529693
 40
0.2645246554
 40
0.3088660153
 40
0.3550504203
 40
0.4026338182
 40
0.5001558817
 40
0.5976847734
 40
0.64527553
 40
0.6914686692
 40
0.7358183008
 40
0.7778956465
 40
0.8172939561
 40
0.8536325137
 40
0.8865598482
 40
0.9157578171
 40
0.9288689515
 40
0.9409449317
 40
0.9519572826
 40
0.9618789562
 40
0.9706870072
 40
0.978360138
 40
0.9848810718
 40
0.9902352019
 40
0.9924712484
 40
0.9944122228
 40
0.9960576937
 40
0.9974077554
 40
0.9984639595
 40
0.9988832529
 40
0.9992313426
 40
0.9995103054
 40
0.9997242898
 40
1.0
 40
1.0
 40
1.0
 40
1.0
 10
5.7915440162
 20
17.1889165474
 30
0.0
 10
5.7915523994
 20
17.1889237609
 30
0.0
 10
5.7915556668
 20
17.1889466914
 30
0.0
 10
5.7915496676
 20
17.1889761863
 30
0.0
 10
5.7915339302
 20
17.1890244439
 30
0.0
 10
5.7914971838
 20
17.1890994274
 30
0.0
 10
5.7914340875
 20
17.1892081126
 30
0.0
 10
5.7913471743
 20
17.18934224
 30
0.0
 10
5.7912366305
 20
17.18950201
 30
0.0
 10
5.7911023326
 20
17.1896872124
 30
0.0
 10
5.790877937
 20
17.1899862218
 30
0.0
 10
5.7905374851
 20
17.1904217976
 30
0.0
 10
5.7900568923
 20
17.1910171483
 30
0.0
 10
5.7894839792
 20
17.1917105721
 30
0.0
 10
5.7888201086
 20
17.1925003777
 30
0.0
 10
5.7880668283
 20
17.1933846109
 30
0.0
 10
5.7872259433
 20
17.1943611122
 30
0.0
 10
5.7862994722
 20
17.1954275116
 30
0.0
 10
5.7849022505
 20
17.1970237707
 30
0.0
 10
5.7829592642
 20
17.1992218616
 30
0.0
 10
5.7804033912
 20
17.2020856101
 30
0.0
 10
5.7775712294
 20
17.2052342109
 30
0.0
 10
5.7744900245
 20
17.2086373085
 30
0.0
 10
5.7711894027
 20
17.212262105
 30
0.0
 10
5.7677011168
 20
17.2160736861
 30
0.0
 10
5.7640587294
 20
17.2200353531
 30
0.0
 10
5.7590020372
 20
17.2255116762
 30
0.0
 10
5.7525667807
 20
17.2324382205
 30
0.0
 10
5.746104537
 20
17.2393399863
 30
0.0
 10
5.7409926653
 20
17.2447660653
 30
0.0
 10
5.7372933384
 20
17.2486759236
 30
0.0
 10
5.7337330463
 20
17.2524215526
 30
0.0
 10
5.7303462195
 20
17.2559667488
 30
0.0
 10
5.7271656383
 20
17.2592772367
 30
0.0
 10
5.724222114
 20
17.2623210179
 30
0.0
 10
5.7215441676
 20
17.2650686627
 30
0.0
 10
5.7194878908
 20
17.2671583123
 30
0.0
 10
5.7179941407
 20
17.2686615383
 30
0.0
 10
5.7169961572
 20
17.2696583951
 30
0.0
 10
5.7160821081
 20
17.2705634048
 30
0.0
 10
5.7152541925
 20
17.271374401
 30
0.0
 10
5.7145144521
 20
17.2720894392
 30
0.0
 10
5.7138646914
 20
17.2727068607
 30
0.0
 10
5.7133065117
 20
17.2732252054
 30
0.0
 10
5.7128976606
 20
17.2735929494
 30
0.0
 10
5.712616638
 20
17.2738357866
 30
0.0
 10
5.7124424999
 20
17.27398124
 30
0.0
 10
5.7122921451
 20
17.2741012589
 30
0.0
 10
5.7121656339
 20
17.274195762
 30
0.0
 10
5.7120743913
 20
17.2742575182
 30
0.0
 10
5.7120129006
 20
17.2742932626
 30
0.0
 10
5.711976568
 20
17.2743116547
 30
0.0
 10
5.7119457071
 20
17.2743235956
 30
0.0
 10
5.7119174012
 20
17.2743310009
 30
0.0
 10
5.7118948985
 20
17.2743280153
 30
0.0
 10
5.7118878912
 20
17.2743198717
 30
0.0
  0
SPLINE
  5
473
100
AcDbEntity
  8
0
100
AcDbSpline
 62
7
  6
CONTINUOUS
 70
0
 71
3
 72
55
 73
51
 74
0
 42
0.0000001
 43
0.0000001
 44
0.0000000001
 40
0.0
 40
0.0
 40
0.0
 40
0.0
 40
0.0004450243
 40
0.0007218537
 40
0.0010517587
 40
0.0018961928
 40
0.0030100747
 40
0.0044055687
 40
0.0060880408
 40
0.0080599102
 40
0.0103222234
 40
0.015718146
 40
0.0222697506
 40
0.0299654658
 40
0.0387887314
 40
0.0597362439
 40
0.0849183791
 40
0.114096963
 40
0.1469938415
 40
0.1832939459
 40
0.2226490294
 40
0.2646812078
 40
0.3089861318
 40
0.3551371174
 40
0.4026897398
 40
0.5001552701
 40
0.5976275653
 40
0.645187358
 40
0.6913465278
 40
0.7356588018
 40
0.7776954246
 40
0.8170501246
 40
0.8533432289
 40
0.8862248768
 40
0.9153791167
 40
0.9405273825
 40
0.9614315667
 40
0.9702300553
 40
0.9778986249
 40
0.9844216381
 40
0.9897872405
 40
0.9920340085
 40
0.993990188
 40
0.9956568362
 40
0.9970364512
 40
0.9981347748
 40
0.9989646109
 40
0.9992880667
 40
0.9995595374
 40
1.0
 40
1.0
 40
1.0
 40
1.0
 10
6.0458367602
 20
16.9358332542
 30
0.0
 10
6.0458499214
 20
16.9358445789
 30
0.0
 10
6.0458634875
 20
16.9358719443
 30
0.0
 10
6.0458670901
 20
16.9359127992
 30
0.0
 10
6.0458628606
 20
16.9359695373
 30
0.0
 10
6.0458393182
 20
16.9360562102
 30
0.0
 10
6.0457901533
 20
16.9361775758
 30
0.0
 10
6.0457170143
 20
16.9363240157
 30
0.0
 10
6.0456199547
 20
16.9364955238
 30
0.0
 10
6.0454988102
 20
16.9366920732
 30
0.0
 10
6.045292734
 20
16.9370062792
 30
0.0
 10
6.044973156
 20
16.9374594695
 30
0.0
 10
6.0445146061
 20
16.9380736003
 30
0.0
 10
6.043961968
 20
16.938784142
 30
0.0
 10
6.0430475999
 20
16.9399246692
 30
0.0
 10
6.0416769567
 20
16.9415735267
 30
0.0
 10
6.0397659691
 20
16.9438054169
 30
0.0
 10
6.0375239435
 20
16.9463673551
 30
0.0
 10
6.0349723472
 20
16.9492345911
 30
0.0
 10
6.0321355373
 20
16.9523793662
 30
0.0
 10
6.029040754
 20
16.9557713271
 30
0.0
 10
6.0257177441
 20
16.9593777414
 30
0.0
 10
6.0221984971
 20
16.9631638073
 30
0.0
 10
6.0185169282
 20
16.96709299
 30
0.0
 10
6.0133970022
 20
16.9725166589
 30
0.0
 10
6.0068660067
 20
16.9793617424
 30
0.0
 10
6.0002889304
 20
16.9861629505
 30
0.0
 10
5.995074944
 20
16.9914974652
 30
0.0
 10
5.9912963602
 20
16.9953346869
 30
0.0
 10
5.9876543049
 20
16.9990038678
 30
0.0
 10
5.9841840764
 20
17.0024694846
 30
0.0
 10
5.9809193187
 20
17.0056980117
 30
0.0
 10
5.9778916889
 20
17.0086582628
 30
0.0
 10
5.9751305407
 20
17.0113216821
 30
0.0
 10
5.9726627166
 20
17.01366274
 30
0.0
 10
5.9705121263
 20
17.0156589627
 30
0.0
 10
5.9689223839
 20
17.0170918178
 30
0.0
 10
5.96782205
 20
17.0180485241
 30
0.0
 10
5.9671364494
 20
17.0186269582
 30
0.0
 10
5.9665435712
 20
17.0191073594
 30
0.0
 10
5.9661055985
 20
17.0194427417
 30
0.0
 10
5.9658015902
 20
17.0196594746
 30
0.0
 10
5.9656113628
 20
17.0197870577
 30
0.0
 10
5.9654452139
 20
17.0198895507
 30
0.0
 10
5.9653031619
 20
17.0199671242
 30
0.0
 10
5.9651852174
 20
17.0200197321
 30
0.0
 10
5.9651006449
 20
17.0200455531
 30
0.0
 10
5.9650450457
 20
17.0200510155
 30
0.0
 10
5.9650047307
 20
17.0200481541
 30
0.0
 10
5.9649776911
 20
17.0200346895
 30
0.0
 10
5.9649664824
 20
17.0200216633
 30
0.0
  0
SPLINE
  5
474
100
AcDbEntity
  8
0
100
AcDbSpline
 62
7
  6
CONTINUOUS
 70
0
 71
3
 72
55
 73
51
 74
0
 42
0.0000001
 43
0.0000001
 44
0.0000000001
 40
0.0
 40
0.0
 40
0.0
 40
0.0
 40
0.0005052197
 40
0.0011487623
 40
0.0020167136
 40
0.0031446124
 40
0.0045481342
 40
0.0062346965
 40
0.008207813
 40
0.0104691868
 40
0.0158585464
 40
0.0223998338
 40
0.0300822873
 40
0.0388911148
 40
0.0488065952
 40
0.0598070669
 40
0.0849567936
 40
0.1141044002
 40
0.1469730571
 40
0.1832484343
 40
0.2225822605
 40
0.2645963894
 40
0.3088858336
 40
0.3550230147
 40
0.4025624119
 40
0.499999989
 40
0.5974375761
 40
0.6449769677
 40
0.6911141525
 40
0.7354036051
 40
0.7774177357
 40
0.8167515623
 40
0.8530269398
 40
0.8858955957
 40
0.9150432031
 40
0.9401929317
 40
0.9511934041
 40
0.9611088849
 40
0.9699177126
 40
0.9776001662
 40
0.9841414534
 40
0.989530813
 40
0.9917921868
 40
0.9937653034
 40
0.9954518656
 40
0.9968553875
 40
0.9979832863
 40
0.9988512377
 40
0.9994947803
 40
1.0
 40
1.0
 40
1.0
 40
1.0
 10
6.3932094647
 20
16.5901170738
 30
0.0
 10
6.3932244145
 20
16.5901299376
 30
0.0
 10
6.3932480097
 20
16.590171437
 30
0.0
 10
6.3932499088
 20
16.5902516729
 30
0.0
 10
6.3932286213
 20
16.5903528445
 30
0.0
 10
6.3931831481
 20
16.5904778573
 30
0.0
 10
6.3931135549
 20
16.5906272038
 30
0.0
 10
6.3930194339
 20
16.5908011138
 30
0.0
 10
6.3929007753
 20
16.5909995302
 30
0.0
 10
6.3926975463
 20
16.5913155659
 30
0.0
 10
6.3923798665
 20
16.5917696735
 30
0.0
 10
6.3919214058
 20
16.5923829638
 30
0.0
 10
6.3913667507
 20
16.5930907109
 30
0.0
 10
6.390717149
 20
16.593891173
 30
0.0
 10
6.3899740386
 20
16.5947824209
 30
0.0
 10
6.3888076609
 20
16.5961511685
 30
0.0
 10
6.3871280797
 20
16.5980687778
 30
0.0
 10
6.3848545201
 20
16.6006005463
 30
0.0
 10
6.382263324
 20
16.6034305588
 30
0.0
 10
6.3793793544
 20
16.6065314546
 30
0.0
 10
6.3762302924
 20
16.6098732146
 30
0.0
 10
6.3728464813
 20
16.6134235128
 30
0.0
 10
6.3692605739
 20
16.6171479884
 30
0.0
 10
6.365507231
 20
16.6210105899
 30
0.0
 10
6.3602850222
 20
16.626338732
 30
0.0
 10
6.3536195024
 20
16.6330562631
 30
0.0
 10
6.3469019715
 20
16.6397217827
 30
0.0
 10
6.3415738292
 20
16.6449439917
 30
0.0
 10
6.3377112275
 20
16.6486973348
 30
0.0
 10
6.3339867515
 20
16.6522832426
 30
0.0
 10
6.3304364531
 20
16.655667054
 30
0.0
 10
6.3270946929
 20
16.658816116
 30
0.0
 10
6.3239937972
 20
16.6617000856
 30
0.0
 10
6.3211637846
 20
16.6642912818
 30
0.0
 10
6.3186320162
 20
16.6665648414
 30
0.0
 10
6.3167144067
 20
16.6682444227
 30
0.0
 10
6.3153456591
 20
16.6694108004
 30
0.0
 10
6.3144544111
 20
16.6701539109
 30
0.0
 10
6.313653949
 20
16.6708035126
 30
0.0
 10
6.3129462018
 20
16.6713581677
 30
0.0
 10
6.3123329116
 20
16.6718166284
 30
0.0
 10
6.311878804
 20
16.6721343082
 30
0.0
 10
6.3115627683
 20
16.6723375372
 30
0.0
 10
6.3113643519
 20
16.6724561958
 30
0.0
 10
6.3111904419
 20
16.6725503168
 30
0.0
 10
6.3110410954
 20
16.67261991
 30
0.0
 10
6.3109160825
 20
16.6726653832
 30
0.0
 10
6.310814911
 20
16.6726866707
 30
0.0
 10
6.3107346751
 20
16.6726847716
 30
0.0
 10
6.3106931757
 20
16.6726611764
 30
0.0
 10
6.3106803119
 20
16.6726462266
 30
0.0
  0
SPLINE
  5
475
100
AcDbEntity
  8
0
100
AcDbSpline
 62
7
  6
CONTINUOUS
 70
0
 71
3
 72
55
 73
51
 74
0
 42
0.0000001
 43
0.0000001
 44
0.0000000001
 40
0.0
 40
0.0
 40
0.0
 40
0.0
 40
0.0004404626
 40
0.0007119333
 40
0.0010353891
 40
0.0018652252
 40
0.0029635488
 40
0.0043431638
 40
0.006009812
 40
0.0079659914
 40
0.0102127594
 40
0.0155783618
 40
0.0221013751
 40
0.0297699446
 40
0.038568433
 40
0.0594726159
 40
0.0846208791
 40
0.1137751181
 40
0.1466567677
 40
0.1829498716
 40
0.2223045706
 40
0.2643411937
 40
0.3086534659
 40
0.3548126339
 40
0.4023724286
 40
0.4998447281
 40
0.5973102562
 40
0.6448628771
 40
0.6910138636
 40
0.7353187904
 40
0.7773509728
 40
0.8167060568
 40
0.8530061595
 40
0.8859030379
 40
0.9150816224
 40
0.9402637571
 40
0.9612112691
 40
0.9700345345
 40
0.9777302495
 40
0.984281854
 40
0.9896777765
 40
0.9919400897
 40
0.9939119591
 40
0.9955944312
 40
0.9969899252
 40
0.9981038072
 40
0.9989482412
 40
0.9992781463
 40
0.9995549757
 40
1.0
 40
1.0
 40
1.0
 40
1.0
 10
6.7405849014
 20
16.2444032444
 30
0.0
 10
6.7405979276
 20
16.244414453
 30
0.0
 10
6.7406113922
 20
16.2444414926
 30
0.0
 10
6.7406142536
 20
16.2444818076
 30
0.0
 10
6.7406087912
 20
16.2445374068
 30
0.0
 10
6.7405829702
 20
16.2446219793
 30
0.0
 10
6.7405303622
 20
16.2447399238
 30
0.0
 10
6.7404527888
 20
16.2448819758
 30
0.0
 10
6.7403502958
 20
16.2450481247
 30
0.0
 10
6.7402227127
 20
16.2452383521
 30
0.0
 10
6.7400059798
 20
16.2455423604
 30
0.0
 10
6.7396705975
 20
16.2459803331
 30
0.0
 10
6.7391901963
 20
16.2465732113
 30
0.0
 10
6.7386117622
 20
16.2472588119
 30
0.0
 10
6.7376550559
 20
16.2483591458
 30
0.0
 10
6.736222201
 20
16.249948888
 30
0.0
 10
6.7342259783
 20
16.2520994783
 30
0.0
 10
6.7318849206
 20
16.2545673023
 30
0.0
 10
6.7292215012
 20
16.2573284504
 30
0.0
 10
6.7262612501
 20
16.2603560803
 30
0.0
 10
6.723032723
 20
16.2636208379
 30
0.0
 10
6.7195671063
 20
16.2670910664
 30
0.0
 10
6.7158979255
 20
16.2707331216
 30
0.0
 10
6.7120607039
 20
16.2745117054
 30
0.0
 10
6.706726189
 20
16.2797256919
 30
0.0
 10
6.6999249808
 20
16.2863027683
 30
0.0
 10
6.6930798973
 20
16.2928337638
 30
0.0
 10
6.6876562285
 20
16.2979536897
 30
0.0
 10
6.6837270458
 20
16.3016352587
 30
0.0
 10
6.6799409796
 20
16.3051545059
 30
0.0
 10
6.6763345651
 20
16.308477516
 30
0.0
 10
6.6729426041
 20
16.3115722994
 30
0.0
 10
6.6697978291
 20
16.3144091092
 30
0.0
 10
6.6669305931
 20
16.3169607055
 30
0.0
 10
6.6643686548
 20
16.3192027312
 30
0.0
 10
6.6621367646
 20
16.3211137187
 30
0.0
 10
6.6604879073
 20
16.3224843618
 30
0.0
 10
6.65934738
 20
16.32339873
 30
0.0
 10
6.6586368384
 20
16.323951368
 30
0.0
 10
6.6580227075
 20
16.3244099179
 30
0.0
 10
6.6575695173
 20
16.3247294959
 30
0.0
 10
6.6572553113
 20
16.3249355722
 30
0.0
 10
6.6570587619
 20
16.3250567167
 30
0.0
 10
6.6568872538
 20
16.3251537762
 30
0.0
 10
6.6567408139
 20
16.3252269152
 30
0.0
 10
6.6566194483
 20
16.3252760801
 30
0.0
 10
6.6565327754
 20
16.3252996225
 30
0.0
 10
6.6564760373
 20
16.325303852
 30
0.0
 10
6.6564351824
 20
16.3253002494
 30
0.0
 10
6.656407817
 20
16.3252866833
 30
0.0
 10
6.6563964923
 20
16.3252735222
 30
0.0
  0
SPLINE
  5
476
100
AcDbEntity
  8
0
100
AcDbSpline
 62
7
  6
CONTINUOUS
 70
0
 71
3
 72
60
 73
56
 74
0
 42
0.0000001
 43
0.0000001
 44
0.0000000001
 40
0.0
 40
0.0
 40
0.0
 40
0.0
 40
0.0002757102
 40
0.0004896946
 40
0.0007686574
 40
0.0011167471
 40
0.0015360405
 40
0.0025922446
 40
0.0039423063
 40
0.0055877772
 40
0.0075287514
 40
0.0097647974
 40
0.0151189255
 40
0.0216398566
 40
0.0293129876
 40
0.038121041
 40
0.0480427172
 40
0.0590550697
 40
0.0711310496
 40
0.0842421817
 40
0.1134401517
 40
0.1463674955
 40
0.1827060529
 40
0.2221043614
 40
0.2641817175
 40
0.3085313459
 40
0.3547244774
 40
0.4023152465
 40
0.4998441481
 40
0.5973662257
 40
0.6449496046
 40
0.6911340014
 40
0.7354753606
 40
0.7775470357
 40
0.8169441992
 40
0.8532880682
 40
0.886229071
 40
0.9154501662
 40
0.9285765346
 40
0.9406703998
 40
0.9517029183
 40
0.9616474796
 40
0.9704803882
 40
0.9781807744
 40
0.9847305962
 40
0.9901154205
 40
0.9923672802
 40
0.9943243103
 40
0.9959860696
 40
0.9973526107
 40
0.9984252888
 40
0.9992084561
 40
0.9994951248
 40
0.999716177
 40
1.0
 40
1.0
 40
1.0
 40
1.0
 10
6.9948831098
 20
15.9913246531
 30
0.0
 10
6.9948912534
 20
15.9913316604
 30
0.0
 10
6.994894239
 20
15.9913541631
 30
0.0
 10
6.9948868336
 20
15.991382469
 30
0.0
 10
6.9948748927
 20
15.9914133299
 30
0.0
 10
6.9948565006
 20
15.9914496625
 30
0.0
 10
6.9948207563
 20
15.9915111532
 30
0.0
 10
6.9947590001
 20
15.9916023958
 30
0.0
 10
6.9946644969
 20
15.9917289071
 30
0.0
 10
6.9945444781
 20
15.9918792618
 30
0.0
 10
6.9943990247
 20
15.9920533999
 30
0.0
 10
6.9941561876
 20
15.9923344224
 30
0.0
 10
6.9937884437
 20
15.9927432733
 30
0.0
 10
6.9932700992
 20
15.993301453
 30
0.0
 10
6.9926526777
 20
15.9939512137
 30
0.0
 10
6.9919376393
 20
15.9946909541
 30
0.0
 10
6.9911266429
 20
15.9955188699
 30
0.0
 10
6.9902216331
 20
15.9964329192
 30
0.0
 10
6.9892247763
 20
15.9974309026
 30
0.0
 10
6.9877215503
 20
15.9989246527
 30
0.0
 10
6.9856319006
 20
16.0009809297
 30
0.0
 10
6.9828842555
 20
16.0036588764
 30
0.0
 10
6.9798404741
 20
16.006602401
 30
0.0
 10
6.9765299859
 20
16.0097829824
 30
0.0
 10
6.9729847895
 20
16.0131698093
 30
0.0
 10
6.9692391605
 20
16.0167301014
 30
0.0
 10
6.9653293022
 20
16.0204294284
 30
0.0
 10
6.9599032228
 20
16.0255413004
 30
0.0
 10
6.9530014559
 20
16.0320035451
 30
0.0
 10
6.9460749115
 20
16.0384388018
 30
0.0
 10
6.9405985887
 20
16.0434954935
 30
0.0
 10
6.9366369225
 20
16.0471378803
 30
0.0
 10
6.932825342
 20
16.0506261656
 30
0.0
 10
6.9292005461
 20
16.0539267869
 30
0.0
 10
6.9257974492
 20
16.0570079912
 30
0.0
 10
6.9226488487
 20
16.0598401527
 30
0.0
 10
6.9197851002
 20
16.0623960256
 30
0.0
 10
6.9175870093
 20
16.064339012
 30
0.0
 10
6.9159907502
 20
16.0657362338
 30
0.0
 10
6.9149243507
 20
16.0666627048
 30
0.0
 10
6.9139478493
 20
16.0675035899
 30
0.0
 10
6.913063616
 20
16.0682568704
 30
0.0
 10
6.9122738104
 20
16.068920741
 30
0.0
 10
6.9115803865
 20
16.0694936541
 30
0.0
 10
6.9109850358
 20
16.0699742469
 30
0.0
 10
6.9105494599
 20
16.0703146988
 30
0.0
 10
6.9102504505
 20
16.0705390944
 30
0.0
 10
6.9100652481
 20
16.0706733923
 30
0.0
 10
6.9099054782
 20
16.0707839362
 30
0.0
 10
6.9097713508
 20
16.0708708494
 30
0.0
 10
6.9096626655
 20
16.0709339457
 30
0.0
 10
6.909587682
 20
16.0709706921
 30
0.0
 10
6.9095394244
 20
16.0709864295
 30
0.0
 10
6.9095099295
 20
16.0709924287
 30
0.0
 10
6.9094869989
 20
16.0709891613
 30
0.0
 10
6.9094797854
 20
16.0709807781
 30
0.0
  0
LINE
  5
477
100
AcDbEntity
  8
0
100
AcDbLine
 62
7
  6
CONTINUOUS
 10
7.0769577121
 20
15.9088463309
 11
7.0059939325
 21
15.9743244426
  0
LINE
  5
478
100
AcDbEntity
  8
0
100
AcDbLine
 62
7
  6
CONTINUOUS
 10
5.3878908411
 20
17.6230363289
 11
5.3309857971
 21
17.6869358148
  0
LINE
  5
479
100
AcDbEntity
  8
0
100
AcDbLine
 62
7
  6
CONTINUOUS
 10
5.4091319173
 20
17.6078503786
 11
5.4090152667
 21
17.6079770847
  0
SPLINE
  5
47A
100
AcDbEntity
  8
0
100
AcDbSpline
 62
7
  6
CONTINUOUS
 70
0
 71
3
 72
27
 73
23
 74
0
 42
0.0000001
 43
0.0000001
 44
0.0000000001
 40
0.0
 40
0.0
 40
0.0
 40
0.0
 40
0.2195869968
 40
0.3212964365
 40
0.4170924342
 40
0.5066090389
 40
0.5895041712
 40
0.6654633953
 40
0.7341953432
 40
0.7954414689
 40
0.8489670832
 40
0.8945738606
 40
0.9320922992
 40
0.9613908944
 40
0.982382434
 40
0.9863293076
 40
0.9897565687
 40
0.9926670122
 40
0.9950656802
 40
0.9969620373
 40
0.9983761226
 40
1.0
 40
1.0
 40
1.0
 40
1.0
 10
5.4090152667
 20
17.6079770847
 30
0.0
 10
5.4077262424
 20
17.6093770833
 30
0.0
 10
5.4058367797
 20
17.6114224346
 30
0.0
 10
5.4033754417
 20
17.6140697044
 30
0.0
 10
5.401677381
 20
17.6158874241
 30
0.0
 10
5.4000860964
 20
17.6175817481
 30
0.0
 10
5.3986076719
 20
17.6191462084
 30
0.0
 10
5.3972477819
 20
17.6205748318
 30
0.0
 10
5.3960116267
 20
17.6218621855
 30
0.0
 10
5.3949039748
 20
17.6230033609
 30
0.0
 10
5.3939290978
 20
17.6239940851
 30
0.0
 10
5.393090752
 20
17.6248305756
 30
0.0
 10
5.392392393
 20
17.6255100861
 30
0.0
 10
5.3918365121
 20
17.6260297776
 30
0.0
 10
5.3914834381
 20
17.6263404903
 30
0.0
 10
5.3912906374
 20
17.6264930727
 30
0.0
 10
5.3912193288
 20
17.6265465189
 30
0.0
 10
5.3911570587
 20
17.6265897821
 30
0.0
 10
5.3911044072
 20
17.6266229372
 30
0.0
 10
5.3910597403
 20
17.6266459959
 30
0.0
 10
5.3910219954
 20
17.6266614626
 30
0.0
 10
5.3909889283
 20
17.626663352
 30
0.0
 10
5.3909797491
 20
17.6266526843
 30
0.0
  0
LINE
  5
47B
100
AcDbEntity
  8
0
100
AcDbLine
 62
9
  6
CONTINUOUS
 10
5.4827703446
 20
17.5258894351
 11
5.5597520163
 21
17.4489042802
  0
SPLINE
  5
47C
100
AcDbEntity
  8
0
100
AcDbSpline
 62
7
  6
CONTINUOUS
 70
0
 71
3
 72
55
 73
51
 74
0
 42
0.0000001
 43
0.0000001
 44
0.0000000001
 40
0.0
 40
0.0
 40
0.0
 40
0.0
 40
0.0004752398
 40
0.0011069076
 40
0.0019745554
 40
0.0031088049
 40
0.0045227567
 40
0.0062223801
 40
0.0082103982
 40
0.0104880285
 40
0.0159126091
 40
0.0224908007
 40
0.0302110167
 40
0.039056961
 40
0.0600436254
 40
0.0852562802
 40
0.1144558535
 40
0.1473639206
 40
0.1836658468
 40
0.2230138712
 40
0.2650310365
 40
0.3093148663
 40
0.355440451
 40
0.4029646562
 40
0.5003727733
 40
0.5977960735
 40
0.6453369091
 40
0.6914810713
 40
0.7357813104
 40
0.7778082497
 40
0.8171546223
 40
0.8534388612
 40
0.886309702
 40
0.9154501745
 40
0.940580667
 40
0.951566189
 40
0.9614629186
 40
0.9702488788
 40
0.9779042375
 40
0.9844137449
 40
0.9897661599
 40
0.9920068058
 40
0.9939574625
 40
0.9956195445
 40
0.9969961201
 40
0.9980939208
 40
0.9989276272
 40
0.9992558147
 40
0.9995347121
 40
1.0
 40
1.0
 40
1.0
 40
1.0
 10
5.6421988492
 20
17.3673179601
 30
0.0
 10
5.6422128489
 20
17.3673300062
 30
0.0
 10
5.6422341887
 20
17.3673707725
 30
0.0
 10
5.6422339856
 20
17.3674487352
 30
0.0
 10
5.6422124443
 20
17.3675490857
 30
0.0
 10
5.6421677519
 20
17.3676743804
 30
0.0
 10
5.6421001649
 20
17.3678250821
 30
0.0
 10
5.6420092163
 20
17.3680013389
 30
0.0
 10
5.6418949358
 20
17.368203083
 30
0.0
 10
5.641699674
 20
17.3685251402
 30
0.0
 10
5.6413951975
 20
17.368989306
 30
0.0
 10
5.6409565021
 20
17.3696178955
 30
0.0
 10
5.6404264552
 20
17.3703446302
 30
0.0
 10
5.6395481147
 20
17.3715101578
 30
0.0
 10
5.6382286351
 20
17.3731941396
 30
0.0
 10
5.6363858361
 20
17.3754723811
 30
0.0
 10
5.6342214817
 20
17.3780861158
 30
0.0
 10
5.631756319
 20
17.3810100606
 30
0.0
 10
5.6290138568
 20
17.384215921
 30
0.0
 10
5.6260203898
 20
17.3876727969
 30
0.0
 10
5.6228046177
 20
17.3913474086
 30
0.0
 10
5.6193973965
 20
17.3952044081
 30
0.0
 10
5.6158314546
 20
17.3992066927
 30
0.0
 10
5.6108701502
 20
17.4047307796
 30
0.0
 10
5.6045370463
 20
17.4117022581
 30
0.0
 10
5.598153651
 20
17.4186285961
 30
0.0
 10
5.5930894778
 20
17.4240612118
 30
0.0
 10
5.5894174349
 20
17.4279691313
 30
0.0
 10
5.5858761775
 20
17.431705842
 30
0.0
 10
5.5825001101
 20
17.4352350688
 30
0.0
 10
5.5793220773
 20
17.4385225527
 30
0.0
 10
5.5763730233
 20
17.4415363818
 30
0.0
 10
5.5736817129
 20
17.444247378
 30
0.0
 10
5.5712743612
 20
17.4466293034
 30
0.0
 10
5.5694511794
 20
17.4483922173
 30
0.0
 10
5.5681500872
 20
17.4496189034
 30
0.0
 10
5.5673033057
 20
17.4504014423
 30
0.0
 10
5.5665430384
 20
17.4510868063
 30
0.0
 10
5.5658711345
 20
17.451673465
 30
0.0
 10
5.5652892487
 20
17.4521600819
 30
0.0
 10
5.5648585227
 20
17.452499223
 30
0.0
 10
5.5645588631
 20
17.4527178417
 30
0.0
 10
5.5643710238
 20
17.4528462372
 30
0.0
 10
5.5642065678
 20
17.4529490531
 30
0.0
 10
5.5640654865
 20
17.4530264614
 30
0.0
 10
5.5639477894
 20
17.4530784518
 30
0.0
 10
5.5638628431
 20
17.4531031942
 30
0.0
 10
5.5638067289
 20
17.453107451
 30
0.0
 10
5.5637651764
 20
17.45310328
 30
0.0
 10
5.563737642
 20
17.453088498
 30
0.0
 10
5.563725848
 20
17.4530747915
 30
0.0
  0
SPLINE
  5
47D
100
AcDbEntity
  8
0
100
AcDbSpline
 62
7
  6
CONTINUOUS
 70
0
 71
3
 72
55
 73
51
 74
0
 42
0.0000001
 43
0.0000001
 44
0.0000000001
 40
0.0
 40
0.0
 40
0.0
 40
0.0
 40
0.0006247367
 40
0.0013691074
 40
0.002316545
 40
0.0035082847
 40
0.0049646687
 40
0.0066960818
 40
0.0087080332
 40
0.0110035642
 40
0.0164502405
 40
0.0230373564
 40
0.0307570262
 40
0.0395951933
 40
0.0495337693
 40
0.0605510595
 40
0.072621928
 40
0.0857188611
 40
0.1148653417
 40
0.1477163855
 40
0.1839601005
 40
0.2232509859
 40
0.2652136456
 40
0.309445906
 40
0.4030011052
 40
0.5003221078
 40
0.5976566035
 40
0.6912423684
 40
0.7354887681
 40
0.7774594021
 40
0.816747991
 40
0.8529753718
 40
0.8857928825
 40
0.9148866687
 40
0.9279498337
 40
0.9399818456
 40
0.9509555877
 40
0.9608456897
 40
0.9696313201
 40
0.9772942677
 40
0.98382154
 40
0.98920558
 40
0.9914691948
 40
0.993449094
 40
0.9951485627
 40
0.9965735515
 40
0.9977353997
 40
0.9986562543
 40
0.9993811503
 40
1.0
 40
1.0
 40
1.0
 40
1.0
 10
5.9081266834
 20
17.102647901
 30
0.0
 10
5.9081451145
 20
17.1026637603
 30
0.0
 10
5.9081762141
 20
17.1027098943
 30
0.0
 10
5.9081915074
 20
17.10280033
 30
0.0
 10
5.9081827388
 20
17.1029128166
 30
0.0
 10
5.9081504946
 20
17.1030493661
 30
0.0
 10
5.9080947856
 20
17.103210651
 30
0.0
 10
5.9080154068
 20
17.1033969403
 30
0.0
 10
5.9079123023
 20
17.1036082381
 30
0.0
 10
5.907732577
 20
17.1039427188
 30
0.0
 10
5.9074455882
 20
17.1044212241
 30
0.0
 10
5.9070249903
 20
17.1050649062
 30
0.0
 10
5.9065112567
 20
17.1058049806
 30
0.0
 10
5.9059055436
 20
17.1066396661
 30
0.0
 10
5.9052091396
 20
17.1075669094
 30
0.0
 10
5.9044236621
 20
17.1085844496
 30
0.0
 10
5.9035509586
 20
17.1096898315
 30
0.0
 10
5.9022257541
 20
17.111336842
 30
0.0
 10
5.9003659931
 20
17.1135916394
 30
0.0
 10
5.8978980193
 20
17.1165121543
 30
0.0
 10
5.895144071
 20
17.1197076557
 30
0.0
 10
5.8921305151
 20
17.1231473554
 30
0.0
 10
5.8888862286
 20
17.1267981051
 30
0.0
 10
5.8842061671
 20
17.1319981762
 30
0.0
 10
5.8780257727
 20
17.1387463688
 30
0.0
 10
5.8703667507
 20
17.1469421209
 30
0.0
 10
5.8626276177
 20
17.1550639115
 30
0.0
 10
5.8562471241
 20
17.1616263923
 30
0.0
 10
5.8513252897
 20
17.1666011242
 30
0.0
 10
5.8478678784
 20
17.1700518071
 30
0.0
 10
5.8446085604
 20
17.1732590037
 30
0.0
 10
5.8415790608
 20
17.1761916599
 30
0.0
 10
5.8388088422
 20
17.1788214291
 30
0.0
 10
5.8366684674
 20
17.1808049483
 30
0.0
 10
5.8351040835
 20
17.1822194863
 30
0.0
 10
5.8340540603
 20
17.1831512681
 30
0.0
 10
5.8330870912
 20
17.1839904735
 30
0.0
 10
5.8322054835
 20
17.1847351287
 30
0.0
 10
5.8314114118
 20
17.1853835237
 30
0.0
 10
5.8307067925
 20
17.1859342813
 30
0.0
 10
5.830093337
 20
17.1863861971
 30
0.0
 10
5.8296363874
 20
17.1866958249
 30
0.0
 10
5.8293162916
 20
17.1868907661
 30
0.0
 10
5.8291139818
 20
17.1870030531
 30
0.0
 10
5.8289353014
 20
17.1870901791
 30
0.0
 10
5.8287802316
 20
17.1871522164
 30
0.0
 10
5.8286484597
 20
17.1871893843
 30
0.0
 10
5.8285392357
 20
17.1872017429
 30
0.0
 10
5.8284503323
 20
17.1871883733
 30
0.0
 10
5.8284050822
 20
17.1871576203
 30
0.0
 10
5.8283893724
 20
17.1871393629
 30
0.0
  0
SPLINE
  5
47E
100
AcDbEntity
  8
0
100
AcDbSpline
 62
7
  6
CONTINUOUS
 70
0
 71
3
 72
51
 73
47
 74
0
 42
0.0000001
 43
0.0000001
 44
0.0000000001
 40
0.0
 40
0.0
 40
0.0
 40
0.0
 40
0.0007042963
 40
0.0015100231
 40
0.0025007874
 40
0.0037225172
 40
0.0051995073
 40
0.0069448559
 40
0.0089657761
 40
0.0112664293
 40
0.0167147822
 40
0.023295963
 40
0.0310041473
 40
0.0398274891
 40
0.0497484297
 40
0.0607467639
 40
0.0727975485
 40
0.0858740263
 40
0.1149796612
 40
0.1477920303
 40
0.1840010634
 40
0.2232617448
 40
0.3094074692
 40
0.4029247958
 40
0.5002083215
 40
0.5974971882
 40
0.6910266082
 40
0.7771809544
 40
0.8164406598
 40
0.8526431665
 40
0.8854422343
 40
0.9145269926
 40
0.9275900027
 40
0.9396255039
 40
0.9506065611
 40
0.9605084373
 40
0.969311086
 40
0.9769969872
 40
0.9835547426
 40
0.9864086954
 40
0.9889791367
 40
0.9912673567
 40
0.9932758269
 40
0.9950088196
 40
0.9964737573
 40
1.0
 40
1.0
 40
1.0
 40
1.0
 10
6.2343376292
 20
16.7779838736
 30
0.0
 10
6.2343584227
 20
16.7780017657
 30
0.0
 10
6.2343943471
 20
16.7780509601
 30
0.0
 10
6.234417392
 20
16.7781472699
 30
0.0
 10
6.2344150864
 20
16.7782655601
 30
0.0
 10
6.2343886483
 20
16.7784072403
 30
0.0
 10
6.2343381846
 20
16.7785730607
 30
0.0
 10
6.2342635713
 20
16.7787633227
 30
0.0
 10
6.2341647549
 20
16.778978077
 30
0.0
 10
6.2339905446
 20
16.7793164917
 30
0.0
 10
6.2337087509
 20
16.7797986802
 30
0.0
 10
6.2332920407
 20
16.7804448681
 30
0.0
 10
6.2327802047
 20
16.781185572
 30
0.0
 10
6.2321743431
 20
16.7820189945
 30
0.0
 10
6.2314757213
 20
16.7829431461
 30
0.0
 10
6.2306859224
 20
16.7839557507
 30
0.0
 10
6.2298067975
 20
16.7850544047
 30
0.0
 10
6.2284697162
 20
16.7866897176
 30
0.0
 10
6.2265895768
 20
16.7889253225
 30
0.0
 10
6.2240899703
 20
16.7918166842
 30
0.0
 10
6.2212965662
 20
16.7949765465
 30
0.0
 10
6.2170836036
 20
16.7996537255
 30
0.0
 10
6.2112991703
 20
16.8059190015
 30
0.0
 10
6.2038809112
 20
16.8137503452
 30
0.0
 10
6.1960711261
 20
16.8218076163
 30
0.0
 10
6.1881724563
 20
16.8297784351
 30
0.0
 10
6.1804913503
 20
16.8373535934
 30
0.0
 10
6.1743431942
 20
16.8432634713
 30
0.0
 10
6.1697516291
 20
16.8475696458
 30
0.0
 10
6.1666491117
 20
16.8504254103
 30
0.0
 10
6.1638096553
 20
16.8529814577
 30
0.0
 10
6.1616135428
 20
16.8549047648
 30
0.0
 10
6.1600067341
 20
16.8562729897
 30
0.0
 10
6.1589272015
 20
16.8571726943
 30
0.0
 10
6.1579320596
 20
16.8579812028
 30
0.0
 10
6.1570236707
 20
16.8586966119
 30
0.0
 10
6.1562042819
 20
16.8593173445
 30
0.0
 10
6.1554758075
 20
16.8598419875
 30
0.0
 10
6.1549231775
 20
16.8602138823
 30
0.0
 10
6.154526885
 20
16.860460519
 30
0.0
 10
6.1542675112
 20
16.8606120007
 30
0.0
 10
6.1540316513
 20
16.8607388105
 30
0.0
 10
6.1538208019
 20
16.8608406696
 30
0.0
 10
6.1536307708
 20
16.8609184219
 30
0.0
 10
6.1533917114
 20
16.860996723
 30
0.0
 10
6.1531387161
 20
16.8610275685
 30
0.0
 10
6.1530491346
 20
16.8609234603
 30
0.0
  0
SPLINE
  5
47F
100
AcDbEntity
  8
0
100
AcDbSpline
 62
7
  6
CONTINUOUS
 70
0
 71
3
 72
51
 73
47
 74
0
 42
0.0000001
 43
0.0000001
 44
0.0000000001
 40
0.0
 40
0.0
 40
0.0
 40
0.0
 40
0.0035262475
 40
0.0049911866
 40
0.0067241819
 40
0.0087326553
 40
0.0110208784
 40
0.0135913215
 40
0.0164452757
 40
0.0230030367
 40
0.0306889403
 40
0.0394915913
 40
0.0493934687
 40
0.0603745235
 40
0.0724100222
 40
0.0854730254
 40
0.1145577694
 40
0.1473568265
 40
0.1835593209
 40
0.2228190092
 40
0.3089733222
 40
0.4025026982
 40
0.4997915286
 40
0.5970750185
 40
0.6905923425
 40
0.7767380589
 40
0.8159987292
 40
0.8522077672
 40
0.8850201541
 40
0.9141258147
 40
0.9272023035
 40
0.9392531088
 40
0.9502514613
 40
0.9601724191
 40
0.9689957823
 40
0.9767039796
 40
0.983285179
 40
0.9887335422
 40
0.9910342019
 40
0.9930551288
 40
0.9948004827
 40
0.9962774757
 40
0.9974992082
 40
0.998489975
 40
0.9992957034
 40
1.0
 40
1.0
 40
1.0
 40
1.0
 10
6.5814866984
 20
16.4324858965
 30
0.0
 10
6.5815908067
 20
16.4325754781
 30
0.0
 10
6.5815599607
 20
16.4328284737
 30
0.0
 10
6.5814816598
 20
16.4330675336
 30
0.0
 10
6.5814039072
 20
16.4332575648
 30
0.0
 10
6.5813020479
 20
16.4334684145
 30
0.0
 10
6.5811752379
 20
16.4337042747
 30
0.0
 10
6.5810237561
 20
16.4339636487
 30
0.0
 10
6.5807771191
 20
16.4343599414
 30
0.0
 10
6.580405224
 20
16.4349125716
 30
0.0
 10
6.5798805807
 20
16.4356410464
 30
0.0
 10
6.5792598479
 20
16.4364604353
 30
0.0
 10
6.5785444388
 20
16.4373688242
 30
0.0
 10
6.5777359303
 20
16.438363966
 30
0.0
 10
6.5768362259
 20
16.4394434981
 30
0.0
 10
6.5754680016
 20
16.4410503062
 30
0.0
 10
6.5735446954
 20
16.4432464177
 30
0.0
 10
6.570988649
 20
16.446085873
 30
0.0
 10
6.5681328855
 20
16.4491883892
 30
0.0
 10
6.5638267127
 20
16.4537799526
 30
0.0
 10
6.5579168375
 20
16.4599281061
 30
0.0
 10
6.5503416823
 20
16.467609209
 30
0.0
 10
6.5423708669
 20
16.4755078757
 30
0.0
 10
6.5343135981
 20
16.483317659
 30
0.0
 10
6.5264822558
 20
16.490735917
 30
0.0
 10
6.5202169807
 20
16.4965203499
 30
0.0
 10
6.5155398023
 20
16.5007333123
 30
0.0
 10
6.5123799398
 20
16.5035267169
 30
0.0
 10
6.5094885769
 20
16.5060263248
 30
0.0
 10
6.5072529706
 20
16.5079064659
 30
0.0
 10
6.505617656
 20
16.5092435486
 30
0.0
 10
6.5045190006
 20
16.5101226749
 30
0.0
 10
6.5035063944
 20
16.5109124754
 30
0.0
 10
6.5025822411
 20
16.5116110986
 30
0.0
 10
6.5017488172
 20
16.5122169617
 30
0.0
 10
6.5010081116
 20
16.5127287988
 30
0.0
 10
6.5003619226
 20
16.5131455103
 30
0.0
 10
6.4998797329
 20
16.5134273047
 30
0.0
 10
6.4995413175
 20
16.5136015157
 30
0.0
 10
6.4993265626
 20
16.5137003325
 30
0.0
 10
6.4991363001
 20
16.5137749462
 30
0.0
 10
6.4989704793
 20
16.5138254099
 30
0.0
 10
6.4988287988
 20
16.5138518481
 30
0.0
 10
6.4987105084
 20
16.5138541537
 30
0.0
 10
6.4986141983
 20
16.513831109
 30
0.0
 10
6.4985650038
 20
16.5137951847
 30
0.0
 10
6.4985471117
 20
16.5137743911
 30
0.0
  0
SPLINE
  5
480
100
AcDbEntity
  8
0
100
AcDbSpline
 62
7
  6
CONTINUOUS
 70
0
 71
3
 72
55
 73
51
 74
0
 42
0.0000001
 43
0.0000001
 44
0.0000000001
 40
0.0
 40
0.0
 40
0.0
 40
0.0
 40
0.0006188497
 40
0.0013437457
 40
0.0022646003
 40
0.0034264485
 40
0.0048514373
 40
0.006550906
 40
0.0085308053
 40
0.0107944201
 40
0.0161784602
 40
0.0227057327
 40
0.0303686803
 40
0.0391543104
 40
0.0490444119
 40
0.0600181532
 40
0.072050164
 40
0.0851133277
 40
0.1142071131
 40
0.147024625
 40
0.1832520048
 40
0.2225405923
 40
0.2645112272
 40
0.3087576246
 40
0.4023433902
 40
0.4996778902
 40
0.5969988911
 40
0.6905540896
 40
0.7347863532
 40
0.7767490163
 40
0.8160399018
 40
0.8522836154
 40
0.8851346588
 40
0.9142811395
 40
0.9273780727
 40
0.9394489412
 40
0.9504662313
 40
0.9604048072
 40
0.9692429742
 40
0.9769626439
 40
0.9835497597
 40
0.9889964359
 40
0.9912919668
 40
0.9933039183
 40
0.9950353313
 40
0.9964917153
 40
0.997683455
 40
0.9986308926
 40
0.9993752633
 40
1.0
 40
1.0
 40
1.0
 40
1.0
 10
6.907702601
 20
16.1078261343
 30
0.0
 10
6.9077208584
 20
16.1078418441
 30
0.0
 10
6.9077516114
 20
16.1078870942
 30
0.0
 10
6.907764981
 20
16.1079759976
 30
0.0
 10
6.9077526224
 20
16.1080852216
 30
0.0
 10
6.9077154545
 20
16.1082169935
 30
0.0
 10
6.9076534172
 20
16.1083720633
 30
0.0
 10
6.9075662911
 20
16.1085507437
 30
0.0
 10
6.9074540041
 20
16.1087530536
 30
0.0
 10
6.907259063
 20
16.1090731493
 30
0.0
 10
6.9069494351
 20
16.1095300989
 30
0.0
 10
6.9064975194
 20
16.1101435545
 30
0.0
 10
6.9059467617
 20
16.1108481738
 30
0.0
 10
6.9052983668
 20
16.1116422455
 30
0.0
 10
6.9045537116
 20
16.1125238531
 30
0.0
 10
6.9037145063
 20
16.1134908221
 30
0.0
 10
6.9027827246
 20
16.1145408452
 30
0.0
 10
6.9013681866
 20
16.116105229
 30
0.0
 10
6.8993846675
 20
16.1182456039
 30
0.0
 10
6.8967548983
 20
16.1210158224
 30
0.0
 10
6.8938222421
 20
16.124045322
 30
0.0
 10
6.8906150456
 20
16.1273046399
 30
0.0
 10
6.8871643628
 20
16.1307620511
 30
0.0
 10
6.8821896309
 20
16.1356838855
 30
0.0
 10
6.8756271501
 20
16.1420643792
 30
0.0
 10
6.8675053593
 20
16.1498035123
 30
0.0
 10
6.8593096072
 20
16.1574625344
 30
0.0
 10
6.8525614146
 20
16.1636429288
 30
0.0
 10
6.8473613433
 20
16.1683229905
 30
0.0
 10
6.8437105934
 20
16.1715672771
 30
0.0
 10
6.8402708936
 20
16.1745808331
 30
0.0
 10
6.8370753923
 20
16.1773347813
 30
0.0
 10
6.8341548774
 20
16.179802755
 30
0.0
 10
6.83190008
 20
16.1816625161
 30
0.0
 10
6.8302530695
 20
16.1829877206
 30
0.0
 10
6.8291476877
 20
16.1838604241
 30
0.0
 10
6.8281301474
 20
16.1846459016
 30
0.0
 10
6.8272029041
 20
16.1853423056
 30
0.0
 10
6.8263682187
 20
16.1859480186
 30
0.0
 10
6.8256281442
 20
16.1864617523
 30
0.0
 10
6.8249844621
 20
16.1868823501
 30
0.0
 10
6.8245059569
 20
16.187169339
 30
0.0
 10
6.8241714761
 20
16.1873490643
 30
0.0
 10
6.8239601784
 20
16.1874521687
 30
0.0
 10
6.8237738891
 20
16.1875315475
 30
0.0
 10
6.8236126042
 20
16.1875872565
 30
0.0
 10
6.8234760546
 20
16.1876195007
 30
0.0
 10
6.823363568
 20
16.1876282693
 30
0.0
 10
6.8232731323
 20
16.187612976
 30
0.0
 10
6.8232269983
 20
16.1875818764
 30
0.0
 10
6.8232111391
 20
16.1875634454
 30
0.0
  0
SPLINE
  5
481
100
AcDbEntity
  8
0
100
AcDbSpline
 62
9
  6
CONTINUOUS
 70
0
 71
3
 72
62
 73
58
 74
0
 42
0.0000001
 43
0.0000001
 44
0.0000000001
 40
0.0
 40
0.0
 40
0.0
 40
0.0
 40
0.0331114777
 40
0.0673340075
 40
0.1384014353
 40
0.2120177795
 40
0.2872800161
 40
0.3634563117
 40
0.4399070618
 40
0.5160222475
 40
0.5537574791
 40
0.5911643858
 40
0.6281487579
 40
0.6646060637
 40
0.7004183768
 40
0.7354506618
 40
0.7695462801
 40
0.8025215822
 40
0.8341594983
 40
0.864202206
 40
0.8785317065
 40
0.8923433505
 40
0.905590111
 40
0.9182210386
 40
0.9301816509
 40
0.9414137196
 40
0.9518557654
 40
0.9614438262
 40
0.9701123218
 40
0.9740811099
 40
0.9777954274
 40
0.9812472826
 40
0.9844289229
 40
0.9873329764
 40
0.9899522739
 40
0.9922803856
 40
0.9943111527
 40
0.9952133181
 40
0.9960391861
 40
0.9967881448
 40
0.9974596114
 40
0.998053187
 40
0.9985685446
 40
0.9990053571
 40
0.9991942068
 40
0.9993632978
 40
0.9995125904
 40
0.9996420455
 40
0.9997516238
 40
0.9998412861
 40
0.9999109932
 40
0.9999383514
 40
0.999960706
 40
0.9999780524
 40
0.9999903858
 40
0.9999977019
 40
1.0
 40
1.0
 40
1.0
 40
1.0
 10
8.2668525813
 20
18.9715994617
 30
0.0
 10
8.2788203186
 20
18.9717522487
 30
0.0
 10
8.3031573663
 20
18.9720631909
 30
0.0
 10
8.3531807203
 20
18.9727132127
 30
0.0
 10
8.4178437851
 20
18.9735713427
 30
0.0
 10
8.4973395809
 20
18.9746612517
 30
0.0
 10
8.578681331
 20
18.9758166654
 30
0.0
 10
8.6610468513
 20
18.9770330551
 30
0.0
 10
8.7437198521
 20
18.9783070268
 30
0.0
 10
8.8124985262
 20
18.9794172856
 30
0.0
 10
8.8671653946
 20
18.9803343689
 30
0.0
 10
8.907689436
 20
18.9810325453
 30
0.0
 10
8.9477512776
 20
18.9817422386
 30
0.0
 10
8.9872364456
 20
18.9824623625
 30
0.0
 10
9.0260157119
 20
18.9831914271
 30
0.0
 10
9.0639410184
 20
18.9839273921
 30
0.0
 10
9.1008405583
 20
18.9846674661
 30
0.0
 10
9.136512884
 20
18.9854078439
 30
0.0
 10
9.1707199914
 20
18.9861433672
 30
0.0
 10
9.1981883335
 20
18.9867558071
 30
0.0
 10
9.2192143582
 20
18.9872380227
 30
0.0
 10
9.2341706471
 20
18.9875874376
 30
0.0
 10
9.2485129779
 20
18.9879287533
 30
0.0
 10
9.2621862666
 20
18.9882601553
 30
0.0
 10
9.2751313844
 20
18.9885796245
 30
0.0
 10
9.2872854013
 20
18.9888849099
 30
0.0
 10
9.2985819654
 20
18.9891735403
 30
0.0
 10
9.308952072
 20
18.9894428569
 30
0.0
 10
9.3169830125
 20
18.9896546522
 30
0.0
 10
9.32289148
 20
18.9898121877
 30
0.0
 10
9.3269149536
 20
18.989920191
 30
0.0
 10
9.3306539842
 20
18.9900212027
 30
0.0
 10
9.3341002227
 20
18.9901148648
 30
0.0
 10
9.3372456171
 20
18.9902008216
 30
0.0
 10
9.3400825936
 20
18.9902787304
 30
0.0
 10
9.3426040157
 20
18.9903483011
 30
0.0
 10
9.34450498
 20
18.9904010095
 30
0.0
 10
9.3458631381
 20
18.9904387721
 30
0.0
 10
9.3467581429
 20
18.990463681
 30
0.0
 10
9.3475697898
 20
18.9904862748
 30
0.0
 10
9.3482975039
 20
18.9905065063
 30
0.0
 10
9.3489408113
 20
18.9905243948
 30
0.0
 10
9.3494993304
 20
18.9905399745
 30
0.0
 10
9.3499116087
 20
18.9905515588
 30
0.0
 10
9.3501987703
 20
18.9905597185
 30
0.0
 10
9.3503820423
 20
18.9905649811
 30
0.0
 10
9.3505438554
 20
18.9905696713
 30
0.0
 10
9.3506841567
 20
18.9905737596
 30
0.0
 10
9.3508029369
 20
18.9905772323
 30
0.0
 10
9.3509000618
 20
18.9905800353
 30
0.0
 10
9.3509676449
 20
18.9905819917
 30
0.0
 10
9.3510106206
 20
18.990583116
 30
0.0
 10
9.3510352171
 20
18.9905838624
 30
0.0
 10
9.3510530816
 20
18.9905840245
 30
0.0
 10
9.3510685606
 20
18.9905849566
 30
0.0
 10
9.3510728549
 20
18.9905839302
 30
0.0
 10
9.3510799721
 20
18.9905850426
 30
0.0
 10
9.3510793581
 20
18.9905844831
 30
0.0
  0
SPLINE
  5
482
100
AcDbEntity
  8
0
100
AcDbSpline
 62
7
  6
CONTINUOUS
 70
0
 71
3
 72
55
 73
51
 74
0
 42
0.0000001
 43
0.0000001
 44
0.0000000001
 40
0.0
 40
0.0
 40
0.0
 40
0.0
 40
0.0004652875
 40
0.0007441841
 40
0.0010723704
 40
0.0019060735
 40
0.0030038708
 40
0.0043804428
 40
0.0060425173
 40
0.0079931641
 40
0.0102338001
 40
0.0155861969
 40
0.0220956705
 40
0.0297510049
 40
0.038536926
 40
0.0484336246
 40
0.059419106
 40
0.0845495107
 40
0.1136898773
 40
0.1465606059
 40
0.1828447239
 40
0.2221909584
 40
0.2642177622
 40
0.3085178841
 40
0.354661928
 40
0.4022026355
 40
0.4996257096
 40
0.5970336825
 40
0.6445579081
 40
0.6906835807
 40
0.7349675504
 40
0.7769849109
 40
0.8163331771
 40
0.8526353479
 40
0.8855436386
 40
0.9147434044
 40
0.9399562077
 40
0.9609429718
 40
0.9697889498
 40
0.9775091873
 40
0.9840873917
 40
0.9895119797
 40
0.9917896103
 40
0.9937776273
 40
0.9954772493
 40
0.9968912007
 40
0.9980254487
 40
0.9988930945
 40
0.9995247606
 40
1.0
 40
1.0
 40
1.0
 40
1.0
 10
7.1736380296
 20
15.84316261
 30
0.0
 10
7.173651736
 20
15.8431744039
 30
0.0
 10
7.1736665181
 20
15.8432019382
 30
0.0
 10
7.1736706892
 20
15.8432434906
 30
0.0
 10
7.1736664326
 20
15.8432996046
 30
0.0
 10
7.1736416904
 20
15.8433845506
 30
0.0
 10
7.1735897002
 20
15.8435022474
 30
0.0
 10
7.173512292
 20
15.8436433281
 30
0.0
 10
7.1734094767
 20
15.8438077835
 30
0.0
 10
7.1732810819
 20
15.843995622
 30
0.0
 10
7.1730624642
 20
15.8442952805
 30
0.0
 10
7.1727233246
 20
15.8447260047
 30
0.0
 10
7.1722367101
 20
15.8453078885
 30
0.0
 10
7.1716500538
 20
15.8459797895
 30
0.0
 10
7.1709646925
 20
15.8467400544
 30
0.0
 10
7.1701821567
 20
15.8475868328
 30
0.0
 10
7.1689554751
 20
15.8488879208
 30
0.0
 10
7.1671925677
 20
15.8507110962
 30
0.0
 10
7.164810651
 20
15.8531184398
 30
0.0
 10
7.1620996645
 20
15.8558097412
 30
0.0
 10
7.1590858459
 20
15.8587587855
 30
0.0
 10
7.1557983734
 20
15.861936808
 30
0.0
 10
7.152269158
 20
15.8653128653
 30
0.0
 10
7.1485324581
 20
15.8688541132
 30
0.0
 10
7.1446245492
 20
15.8725261468
 30
0.0
 10
7.1391919474
 20
15.877590308
 30
0.0
 10
7.1322656242
 20
15.8839736909
 30
0.0
 10
7.1252941566
 20
15.8903067864
 30
0.0
 10
7.1197700714
 20
15.8952680907
 30
0.0
 10
7.1157677801
 20
15.8988340396
 30
0.0
 10
7.1119107688
 20
15.9022412723
 30
0.0
 10
7.1082361407
 20
15.9054570598
 30
0.0
 10
7.1047792453
 20
15.9084505446
 30
0.0
 10
7.1015733642
 20
15.9111930253
 30
0.0
 10
7.0986494002
 20
15.9136582049
 30
0.0
 10
7.0960356489
 20
15.9158225737
 30
0.0
 10
7.0937573943
 20
15.9176653838
 30
0.0
 10
7.092073404
 20
15.9189848703
 30
0.0
 10
7.0909078717
 20
15.9198632145
 30
0.0
 10
7.0901811349
 20
15.9203932631
 30
0.0
 10
7.0895525441
 20
15.9208319594
 30
0.0
 10
7.0890883777
 20
15.9211364363
 30
0.0
 10
7.0887663202
 20
15.9213316983
 30
0.0
 10
7.0885645761
 20
15.9214459787
 30
0.0
 10
7.0883883194
 20
15.9215369272
 30
0.0
 10
7.0882376178
 20
15.9216045141
 30
0.0
 10
7.0881123233
 20
15.9216492066
 30
0.0
 10
7.088011973
 20
15.9216707477
 30
0.0
 10
7.0879340105
 20
15.9216709507
 30
0.0
 10
7.0878932443
 20
15.9216496108
 30
0.0
 10
7.0878811981
 20
15.9216356112
 30
0.0
  0
LINE
  5
483
100
AcDbEntity
  8
0
100
AcDbLine
 62
9
  6
CONTINUOUS
 10
7.1694675186
 20
15.8391887779
 11
7.2464526911
 21
15.7622070891
  0
SPLINE
  5
484
100
AcDbEntity
  8
0
100
AcDbSpline
 62
7
  6
CONTINUOUS
 70
0
 71
3
 72
27
 73
23
 74
0
 42
0.0000001
 43
0.0000001
 44
0.0000000001
 40
0.0
 40
0.0
 40
0.0
 40
0.0
 40
0.0016235428
 40
0.0030376174
 40
0.0049340338
 40
0.0073328181
 40
0.0102434275
 40
0.0136709002
 40
0.0176180265
 40
0.0386109424
 40
0.0679114784
 40
0.1054322406
 40
0.1510414499
 40
0.2045695093
 40
0.2658180145
 40
0.3345522011
 40
0.4105132908
 40
0.4934092209
 40
0.5829251889
 40
0.6787192117
 40
0.7804252732
 40
1.0
 40
1.0
 40
1.0
 40
1.0
 10
7.3472159224
 20
15.670416511
 30
0.0
 10
7.3472265962
 20
15.6704256955
 30
0.0
 10
7.3472246943
 20
15.6704587875
 30
0.0
 10
7.3472092102
 20
15.6704965552
 30
0.0
 10
7.3471861258
 20
15.6705412556
 30
0.0
 10
7.347152937
 20
15.6705939468
 30
0.0
 10
7.3471096312
 20
15.6706562651
 30
0.0
 10
7.3470561337
 20
15.6707276296
 30
0.0
 10
7.3469034073
 20
15.670920583
 30
0.0
 10
7.346592412
 20
15.6712739413
 30
0.0
 10
7.3460722571
 20
15.6718302742
 30
0.0
 10
7.3453921509
 20
15.6725292023
 30
0.0
 10
7.3445549377
 20
15.6733682293
 30
0.0
 10
7.3435633688
 20
15.6743438941
 30
0.0
 10
7.3424212313
 20
15.6754524364
 30
0.0
 10
7.3411328039
 20
15.6766895787
 30
0.0
 10
7.3397030056
 20
15.678050543
 30
0.0
 10
7.3381372814
 20
15.6795301173
 30
0.0
 10
7.3364416155
 20
15.6811226171
 30
0.0
 10
7.3346224831
 20
15.6828219517
 30
0.0
 10
7.3319732143
 20
15.6852850849
 30
0.0
 10
7.3299263331
 20
15.6871759146
 30
0.0
 10
7.3285252976
 20
15.6884658626
 30
0.0
  0
LINE
  5
485
100
AcDbEntity
  8
0
100
AcDbLine
 62
7
  6
CONTINUOUS
 10
7.3285252976
 20
15.6884658626
 11
7.3284131101
 21
15.6885691456
  0
LINE
  5
486
100
AcDbEntity
  8
0
100
AcDbLine
 62
7
  6
CONTINUOUS
 10
7.4074990529
 20
15.610422559
 11
7.3435994414
 21
15.6673277148
  0
LINE
  5
487
100
AcDbEntity
  8
0
100
AcDbLine
 62
7
  6
CONTINUOUS
 10
5.052703542
 20
18.0064975368
 11
5.0479709256
 21
18.0120048575
  0
SPLINE
  5
488
100
AcDbEntity
  8
0
100
AcDbSpline
 62
7
  6
CONTINUOUS
 70
0
 71
3
 72
32
 73
28
 74
0
 42
0.0000001
 43
0.0000001
 44
0.0000000001
 40
0.0
 40
0.0
 40
0.0
 40
0.0
 40
0.0005566534
 40
0.0010082389
 40
0.0015984345
 40
0.0023337404
 40
0.0032173948
 40
0.0054359391
 40
0.0116955491
 40
0.0203870182
 40
0.0314953671
 40
0.0449924663
 40
0.060843108
 40
0.0790039899
 40
0.0994254771
 40
0.1220515061
 40
0.1468194271
 40
0.1736615283
 40
0.2332665097
 40
0.3002135944
 40
0.3737714988
 40
0.453138886
 40
0.5374542707
 40
0.6258043238
 40
0.7172325151
 40
0.8107503911
 40
1.0
 40
1.0
 40
1.0
 40
1.0
 10
5.1681943655
 20
17.8795881503
 30
0.0
 10
5.1682033653
 20
17.8795958942
 30
0.0
 10
5.1682055663
 20
17.8796214129
 30
0.0
 10
5.1681986156
 20
17.8796536914
 30
0.0
 10
5.1681866639
 20
17.8796901308
 30
0.0
 10
5.1681683099
 20
17.8797334115
 30
0.0
 10
5.1681325373
 20
17.8798071284
 30
0.0
 10
5.1680346653
 20
17.8799812622
 30
0.0
 10
5.1678349268
 20
17.8802885198
 30
0.0
 10
5.167516021
 20
17.8807437462
 30
0.0
 10
5.167095603
 20
17.8813162044
 30
0.0
 10
5.1665749433
 20
17.8820043204
 30
0.0
 10
5.1659551764
 20
17.8828060192
 30
0.0
 10
5.1652380129
 20
17.8837190447
 30
0.0
 10
5.1644253878
 20
17.884740818
 30
0.0
 10
5.1635195419
 20
17.8858684823
 30
0.0
 10
5.1625229704
 20
17.8870989072
 30
0.0
 10
5.1610236981
 20
17.8889371314
 30
0.0
 10
5.1589444418
 20
17.8914632124
 30
0.0
 10
5.1562173494
 20
17.8947465151
 30
0.0
 10
5.153207836
 20
17.8983431459
 30
0.0
 10
5.1499486775
 20
17.9022138784
 30
0.0
 10
5.1464752563
 20
17.9063166216
 30
0.0
 10
5.142825219
 20
17.9106068711
 30
0.0
 10
5.1390380799
 20
17.9150381627
 30
0.0
 10
5.1338399155
 20
17.9210944704
 30
0.0
 10
5.1298978403
 20
17.925659004
 30
0.0
 10
5.127253307
 20
17.9287085575
 30
0.0
  0
SPLINE
  5
489
100
AcDbEntity
  8
0
100
AcDbSpline
 62
7
  6
CONTINUOUS
 70
0
 71
3
 72
33
 73
29
 74
0
 42
0.0000001
 43
0.0000001
 44
0.0000000001
 40
0.0
 40
0.0
 40
0.0
 40
0.0
 40
0.1701656083
 40
0.2583774455
 40
0.3469129455
 40
0.4344358936
 40
0.5196205754
 40
0.6011737852
 40
0.677853317
 40
0.748488593
 40
0.8120009415
 40
0.8674205597
 40
0.91390544
 40
0.9335737626
 40
0.9507586355
 40
0.9653996569
 40
0.9717502753
 40
0.9774480696
 40
0.9824892372
 40
0.9868712862
 40
0.9905945972
 40
0.9936623889
 40
0.9960832789
 40
0.9978798789
 40
0.9985620987
 40
0.9991192235
 40
0.9995814092
 40
1.0
 40
1.0
 40
1.0
 40
1.0
 10
5.2765180313
 20
17.7780255696
 30
0.0
 10
5.2735539884
 20
17.7815153737
 30
0.0
 10
5.269024041
 20
17.7867893591
 30
0.0
 10
5.2628933502
 20
17.7938283148
 30
0.0
 10
5.2581983713
 20
17.7991687844
 30
0.0
 10
5.2535326884
 20
17.8044264501
 30
0.0
 10
5.2489670101
 20
17.8095215765
 30
0.0
 10
5.2445708042
 20
17.8143766832
 30
0.0
 10
5.2404111794
 20
17.818917757
 30
0.0
 10
5.2365518253
 20
17.8230754214
 30
0.0
 10
5.2330520857
 20
17.8267862047
 30
0.0
 10
5.2299657653
 20
17.829993358
 30
0.0
 10
5.2276661682
 20
17.8323200853
 30
0.0
 10
5.2260646342
 20
17.8338896871
 30
0.0
 10
5.2250622591
 20
17.8348463233
 30
0.0
 10
5.2243068759
 20
17.835542576
 30
0.0
 10
5.2237693667
 20
17.8360188504
 30
0.0
 10
5.2234204712
 20
17.8363184164
 30
0.0
 10
5.2231066558
 20
17.8365774181
 30
0.0
 10
5.2228282097
 20
17.8367956792
 30
0.0
 10
5.2225854211
 20
17.8369730682
 30
0.0
 10
5.2223784317
 20
17.8371097996
 30
0.0
 10
5.2222074287
 20
17.8372057733
 30
0.0
 10
5.2220851093
 20
17.8372571598
 30
0.0
 10
5.2220049095
 20
17.837274126
 30
0.0
 10
5.2219587799
 20
17.8372753474
 30
0.0
 10
5.2219205838
 20
17.8372656439
 30
0.0
 10
5.221901074
 20
17.8372508231
 30
0.0
 10
5.2218937278
 20
17.8372422855
 30
0.0
  0
SPLINE
  5
48A
100
AcDbEntity
  8
0
100
AcDbSpline
 62
7
  6
CONTINUOUS
 70
0
 71
3
 72
56
 73
52
 74
0
 42
0.0000001
 43
0.0000001
 44
0.0000000001
 40
0.0
 40
0.0
 40
0.0
 40
0.0
 40
0.0006663247
 40
0.0014514683
 40
0.0024356906
 40
0.0036604014
 40
0.0051467439
 40
0.0069058042
 40
0.0089435594
 40
0.0112633622
 40
0.0167547928
 40
0.0233825691
 40
0.0311391714
 40
0.04001086
 40
0.0499794581
 40
0.0610233634
 40
0.073117273
 40
0.0862336793
 40
0.1154080699
 40
0.1482723893
 40
0.184515298
 40
0.2237924913
 40
0.2657303576
 40
0.3099289678
 40
0.4034006458
 40
0.5006341176
 40
0.5978938016
 40
0.6914249083
 40
0.7776034315
 40
0.816875633
 40
0.8530858635
 40
0.8858836222
 40
0.9149535496
 40
0.928002971
 40
0.9400199711
 40
0.9509775115
 40
0.9608503838
 40
0.969618055
 40
0.9772628113
 40
0.9837724329
 40
0.9865995711
 40
0.9891411618
 40
0.9913982547
 40
0.9933730993
 40
0.9950696496
 40
0.9958157459
 40
0.9964953031
 40
0.9976622067
 40
0.9985955931
 40
0.9993442517
 40
1.0
 40
1.0
 40
1.0
 40
1.0
 10
5.505792117
 20
17.5435799429
 30
0.0
 10
5.5058117736
 20
17.5435968568
 30
0.0
 10
5.505845416
 20
17.5436449403
 30
0.0
 10
5.5058655245
 20
17.5437391008
 30
0.0
 10
5.5058619039
 20
17.543856212
 30
0.0
 10
5.5058353109
 20
17.5439979242
 30
0.0
 10
5.505785813
 20
17.5441649089
 30
0.0
 10
5.50571325
 20
17.544357425
 30
0.0
 10
5.5056175757
 20
17.5445754873
 30
0.0
 10
5.5054493909
 20
17.5449200077
 30
0.0
 10
5.5051781639
 20
17.5454124876
 30
0.0
 10
5.5047778324
 20
17.5460744903
 30
0.0
 10
5.5042867969
 20
17.5468349087
 30
0.0
 10
5.5037061708
 20
17.5476918868
 30
0.0
 10
5.5030371971
 20
17.5486433131
 30
0.0
 10
5.5022814379
 20
17.5496868447
 30
0.0
 10
5.5014406857
 20
17.5508199558
 30
0.0
 10
5.5001629171
 20
17.552507297
 30
0.0
 10
5.498367268
 20
17.5548162347
 30
0.0
 10
5.4959811054
 20
17.557805655
 30
0.0
 10
5.4933158582
 20
17.5610750845
 30
0.0
 10
5.4903969795
 20
17.5645931008
 30
0.0
 10
5.4872523325
 20
17.5683259241
 30
0.0
 10
5.4827131351
 20
17.5736415216
 30
0.0
 10
5.4767123709
 20
17.580538596
 30
0.0
 10
5.4692662018
 20
17.5889144157
 30
0.0
 10
5.4617323031
 20
17.5972145655
 30
0.0
 10
5.4544022195
 20
17.6051178309
 30
0.0
 10
5.4485321507
 20
17.6112965464
 30
0.0
 10
5.4441464161
 20
17.6158075134
 30
0.0
 10
5.4411825171
 20
17.6188031484
 30
0.0
 10
5.4384697631
 20
17.6214884416
 30
0.0
 10
5.4363714246
 20
17.6235129029
 30
0.0
 10
5.4348361683
 20
17.6249558108
 30
0.0
 10
5.433805027
 20
17.6259057302
 30
0.0
 10
5.4328546558
 20
17.6267607494
 30
0.0
 10
5.4319873283
 20
17.6275188398
 30
0.0
 10
5.4312052028
 20
17.6281782984
 30
0.0
 10
5.4305101442
 20
17.6287376195
 30
0.0
 10
5.4299828251
 20
17.6291362812
 30
0.0
 10
5.4296047623
 20
17.6294023847
 30
0.0
 10
5.4293575029
 20
17.6295665998
 30
0.0
 10
5.4291330835
 20
17.6297050228
 30
0.0
 10
5.4289316066
 20
17.6298176177
 30
0.0
 10
5.4287768933
 20
17.6298929222
 30
0.0
 10
5.4286645231
 20
17.6299392777
 30
0.0
 10
5.4285694788
 20
17.6299731906
 30
0.0
 10
5.4284646415
 20
17.6300013047
 30
0.0
 10
5.4283534795
 20
17.6300115005
 30
0.0
 10
5.4282621622
 20
17.6299948132
 30
0.0
 10
5.4282157295
 20
17.6299618406
 30
0.0
 10
5.4281990841
 20
17.629942496
 30
0.0
  0
SPLINE
  5
48B
100
AcDbEntity
  8
0
100
AcDbSpline
 62
7
  6
CONTINUOUS
 70
0
 71
3
 72
52
 73
48
 74
0
 42
0.0000001
 43
0.0000001
 44
0.0000000001
 40
0.0
 40
0.0
 40
0.0
 40
0.0
 40
0.0008069447
 40
0.001708746
 40
0.0027829442
 40
0.0040761426
 40
0.0056149088
 40
0.0074143964
 40
0.0118257715
 40
0.0173482256
 40
0.0239907744
 40
0.0317499463
 40
0.0406152049
 40
0.0505699926
 40
0.0615946498
 40
0.0736647326
 40
0.0867539032
 40
0.115866248
 40
0.1486628635
 40
0.1848365517
 40
0.2240455446
 40
0.310052965
 40
0.4034097877
 40
0.5005355072
 40
0.5976839403
 40
0.6910923273
 40
0.735251982
 40
0.7771368645
 40
0.8163411827
 40
0.8524861618
 40
0.8852248042
 40
0.9142465049
 40
0.9272774918
 40
0.9392811743
 40
0.9502311052
 40
0.9601033987
 40
0.9688790886
 40
0.9765421757
 40
0.9830835951
 40
0.9885010527
 40
0.9928063432
 40
0.9945537449
 40
0.9960423228
 40
0.99728918
 40
0.9983242299
 40
0.9991996917
 40
1.0
 40
1.0
 40
1.0
 40
1.0
 10
5.7759393828
 20
17.2747080344
 30
0.0
 10
5.7759632276
 20
17.274728552
 30
0.0
 10
5.776005301
 20
17.2747825193
 30
0.0
 10
5.7760391763
 20
17.2748871668
 30
0.0
 10
5.776048022
 20
17.2750151409
 30
0.0
 10
5.7760331116
 20
17.275167154
 30
0.0
 10
5.7759947473
 20
17.2753438692
 30
0.0
 10
5.7759059339
 20
17.2756328895
 30
0.0
 10
5.7757295108
 20
17.2760558365
 30
0.0
 10
5.7754382601
 20
17.2766329473
 30
0.0
 10
5.7750540216
 20
17.2773082554
 30
0.0
 10
5.7745775386
 20
17.2780801792
 30
0.0
 10
5.7740095515
 20
17.2789468839
 30
0.0
 10
5.7733513226
 20
17.2799062935
 30
0.0
 10
5.7726043061
 20
17.2809560488
 30
0.0
 10
5.7717702651
 20
17.2820936548
 30
0.0
 10
5.7704989094
 20
17.2837847664
 30
0.0
 10
5.7687052826
 20
17.2860938025
 30
0.0
 10
5.7663130015
 20
17.2890766401
 30
0.0
 10
5.7636330867
 20
17.2923328893
 30
0.0
 10
5.7595835209
 20
17.2971479217
 30
0.0
 10
5.7540077671
 20
17.3035914691
 30
0.0
 10
5.746835908
 20
17.3116378663
 30
0.0
 10
5.7392654808
 20
17.3199095093
 30
0.0
 10
5.7315893189
 20
17.3280858395
 30
0.0
 10
5.7252391269
 20
17.3346738841
 30
0.0
 10
5.7203271107
 20
17.3396549777
 30
0.0
 10
5.7168701383
 20
17.3431030733
 30
0.0
 10
5.7136045798
 20
17.3463003917
 30
0.0
 10
5.7105623735
 20
17.3492158782
 30
0.0
 10
5.7077732265
 20
17.3518212938
 30
0.0
 10
5.7056114459
 20
17.3537779232
 30
0.0
 10
5.7040265979
 20
17.3551668198
 30
0.0
 10
5.7029603689
 20
17.3560784508
 30
0.0
 10
5.7019758261
 20
17.3568959547
 30
0.0
 10
5.7010753091
 20
17.3576174197
 30
0.0
 10
5.7002610334
 20
17.3582412761
 30
0.0
 10
5.6995349129
 20
17.3587661579
 30
0.0
 10
5.6988986835
 20
17.359191306
 30
0.0
 10
5.6983537692
 20
17.3595159204
 30
0.0
 10
5.697952644
 20
17.359715613
 30
0.0
 10
5.6976771605
 20
17.3598190442
 30
0.0
 10
5.6975083984
 20
17.3598656127
 30
0.0
 10
5.6973624329
 20
17.3598868798
 30
0.0
 10
5.6972384764
 20
17.3598825002
 30
0.0
 10
5.6971358818
 20
17.3598508071
 30
0.0
 10
5.6970830763
 20
17.3598092733
 30
0.0
 10
5.6970627274
 20
17.3597856246
 30
0.0
  0
SPLINE
  5
48C
100
AcDbEntity
  8
0
100
AcDbSpline
 62
7
  6
CONTINUOUS
 70
0
 71
3
 72
53
 73
49
 74
0
 42
0.0000001
 43
0.0000001
 44
0.0000000001
 40
0.0
 40
0.0
 40
0.0
 40
0.0
 40
0.0008949507
 40
0.0018699319
 40
0.00300041
 40
0.0043354844
 40
0.0059049343
 40
0.0077265567
 40
0.0121634828
 40
0.0176946018
 40
0.0243344507
 40
0.0320828291
 40
0.0409315095
 40
0.050865435
 40
0.0618662079
 40
0.0739103005
 40
0.0869720696
 40
0.1160278116
 40
0.1487683319
 40
0.1848887429
 40
0.2240484802
 40
0.2658755322
 40
0.3099707585
 40
0.4032530679
 40
0.5003047465
 40
0.5973695906
 40
0.6906816449
 40
0.7347903621
 40
0.7766247615
 40
0.8157816168
 40
0.8518852409
 40
0.884592086
 40
0.9135953333
 40
0.926623454
 40
0.9386292297
 40
0.9495869025
 40
0.9594733399
 40
0.9682705292
 40
0.9759637569
 40
0.9825457254
 40
0.9880169405
 40
0.9923937666
 40
0.9941861374
 40
0.9957276642
 40
0.9970373421
 40
0.9981468564
 40
0.9991082013
 40
1.0
 40
1.0
 40
1.0
 40
1.0
 10
6.0905345963
 20
16.9616018372
 30
0.0
 10
6.090561072
 20
16.9616246186
 30
0.0
 10
6.0906083069
 20
16.961682377
 30
0.0
 10
6.0906504106
 20
16.9617932413
 30
0.0
 10
6.0906667226
 20
16.9619274581
 30
0.0
 10
6.0906585576
 20
16.96208526
 30
0.0
 10
6.0906263563
 20
16.9622672212
 30
0.0
 10
6.0905458427
 20
16.9625622479
 30
0.0
 10
6.090377974
 20
16.9629917924
 30
0.0
 10
6.0900943188
 20
16.9635749465
 30
0.0
 10
6.0897158152
 20
16.9642543651
 30
0.0
 10
6.0892431379
 20
16.9650285131
 30
0.0
 10
6.088676957
 20
16.965895607
 30
0.0
 10
6.088018499
 20
16.9668536033
 30
0.0
 10
6.0872691804
 20
16.9679001639
 30
0.0
 10
6.0864307509
 20
16.9690328226
 30
0.0
 10
6.0851503505
 20
16.9707147795
 30
0.0
 10
6.0833397819
 20
16.9730079405
 30
0.0
 10
6.0809197712
 20
16.9759656864
 30
0.0
 10
6.0782041206
 20
16.9791904841
 30
0.0
 10
6.0752187138
 20
16.9826512741
 30
0.0
 10
6.0719920917
 20
16.986314667
 30
0.0
 10
6.0673212584
 20
16.9915204269
 30
0.0
 10
6.0611248451
 20
16.9982525149
 30
0.0
 10
6.0534081032
 20
17.0063932214
 30
0.0
 10
6.0455757581
 20
17.0144243874
 30
0.0
 10
6.0390904126
 20
17.0208817212
 30
0.0
 10
6.0340703583
 20
17.025754431
 30
0.0
 10
6.0305356765
 20
17.0291225773
 30
0.0
 10
6.0271947252
 20
17.0322408103
 30
0.0
 10
6.0240800555
 20
17.035079009
 30
0.0
 10
6.0212219414
 20
17.0376098609
 30
0.0
 10
6.0190044594
 20
17.0395051801
 30
0.0
 10
6.0173770894
 20
17.0408466578
 30
0.0
 10
6.0162811377
 20
17.0417253701
 30
0.0
 10
6.0152681152
 20
17.0425112648
 30
0.0
 10
6.0143404117
 20
17.0432025191
 30
0.0
 10
6.0135002903
 20
17.0437976603
 30
0.0
 10
6.0127497079
 20
17.0442954092
 30
0.0
 10
6.0120903992
 20
17.044695099
 30
0.0
 10
6.011523809
 20
17.0449960259
 30
0.0
 10
6.0111054397
 20
17.0451759194
 30
0.0
 10
6.0108173316
 20
17.0452639436
 30
0.0
 10
6.0106394372
 20
17.0453003696
 30
0.0
 10
6.0104847119
 20
17.0453117933
 30
0.0
 10
6.0103525332
 20
17.045297729
 30
0.0
 10
6.0102427442
 20
17.0452567035
 30
0.0
 10
6.0101855754
 20
17.0452097621
 30
0.0
 10
6.0101628742
 20
17.0451833795
 30
0.0
  0
SPLINE
  5
48D
100
AcDbEntity
  8
0
100
AcDbSpline
 62
7
  6
CONTINUOUS
 70
0
 71
3
 72
53
 73
49
 74
0
 42
0.0000001
 43
0.0000001
 44
0.0000000001
 40
0.0
 40
0.0
 40
0.0
 40
0.0
 40
0.000923971
 40
0.001919642
 40
0.0030626712
 40
0.0044037776
 40
0.0059744021
 40
0.0077936517
 40
0.0122184467
 40
0.0177313025
 40
0.0243494476
 40
0.0320741096
 40
0.0408982759
 40
0.050807546
 40
0.0617841319
 40
0.0738050005
 40
0.0868446929
 40
0.1158609805
 40
0.1485690151
 40
0.1846640684
 40
0.2238049592
 40
0.2656184804
 40
0.3097038603
 40
0.4029702167
 40
0.4999999909
 40
0.5970297579
 40
0.6902961337
 40
0.7343815171
 40
0.7761950386
 40
0.8153359283
 40
0.8514309806
 40
0.8841390149
 40
0.9131553043
 40
0.9261949977
 40
0.9382158672
 40
0.9491924537
 40
0.9591017244
 40
0.967925891
 40
0.9756505529
 40
0.9822686977
 40
0.9877815532
 40
0.9922063482
 40
0.9940255978
 40
0.9955962223
 40
0.9969373288
 40
0.9980803579
 40
0.999076029
 40
1.0
 40
1.0
 40
1.0
 40
1.0
 10
6.4281393201
 20
16.6255996293
 30
0.0
 10
6.4281666655
 20
16.6256231591
 30
0.0
 10
6.4282155528
 20
16.6256820419
 30
0.0
 10
6.4282600746
 20
16.625794646
 30
0.0
 10
6.4282781885
 20
16.6259302802
 30
0.0
 10
6.4282712361
 20
16.6260890105
 30
0.0
 10
6.4282397149
 20
16.6262713839
 30
0.0
 10
6.4281594889
 20
16.6265661036
 30
0.0
 10
6.4279904639
 20
16.6269941122
 30
0.0
 10
6.4277035231
 20
16.6275737146
 30
0.0
 10
6.4273197606
 20
16.6282477128
 30
0.0
 10
6.4268398384
 20
16.6290146239
 30
0.0
 10
6.4262643982
 20
16.629872698
 30
0.0
 10
6.4255946727
 20
16.6308199355
 30
0.0
 10
6.4248320828
 20
16.6318540312
 30
0.0
 10
6.4239783974
 20
16.6329725541
 30
0.0
 10
6.4226740361
 20
16.6346328949
 30
0.0
 10
6.4208286994
 20
16.6368949996
 30
0.0
 10
6.4183612969
 20
16.6398104116
 30
0.0
 10
6.4155915002
 20
16.6429871502
 30
0.0
 10
6.4125458054
 20
16.6463944949
 30
0.0
 10
6.4092534608
 20
16.6499994147
 30
0.0
 10
6.4044869098
 20
16.6551194932
 30
0.0
 10
6.398163464
 20
16.6617350435
 30
0.0
 10
6.3902892125
 20
16.6697259725
 30
0.0
 10
6.382298283
 20
16.6776002246
 30
0.0
 10
6.3756827323
 20
16.6839236708
 30
0.0
 10
6.3705626531
 20
16.6886902224
 30
0.0
 10
6.3669577333
 20
16.6919825671
 30
0.0
 10
6.3635503885
 20
16.6950282619
 30
0.0
 10
6.36037365
 20
16.6977980585
 30
0.0
 10
6.3574582381
 20
16.7002654611
 30
0.0
 10
6.3551961333
 20
16.7021107978
 30
0.0
 10
6.3535357924
 20
16.7034151592
 30
0.0
 10
6.3524172694
 20
16.7042688447
 30
0.0
 10
6.3513831737
 20
16.7050314346
 30
0.0
 10
6.350435936
 20
16.7057011601
 30
0.0
 10
6.3495778619
 20
16.7062766003
 30
0.0
 10
6.3488109509
 20
16.7067565226
 30
0.0
 10
6.3481369527
 20
16.7071402851
 30
0.0
 10
6.3475573503
 20
16.7074272258
 30
0.0
 10
6.3471293417
 20
16.7075962508
 30
0.0
 10
6.346834622
 20
16.7076764768
 30
0.0
 10
6.3466522485
 20
16.707707998
 30
0.0
 10
6.3464935183
 20
16.7077149505
 30
0.0
 10
6.3463578841
 20
16.7076968365
 30
0.0
 10
6.34624528
 20
16.7076523148
 30
0.0
 10
6.3461863972
 20
16.7076034275
 30
0.0
 10
6.3461628674
 20
16.707576082
 30
0.0
  0
SPLINE
  5
48E
100
AcDbEntity
  8
0
100
AcDbSpline
 62
7
  6
CONTINUOUS
 70
0
 71
3
 72
53
 73
49
 74
0
 42
0.0000001
 43
0.0000001
 44
0.0000000001
 40
0.0
 40
0.0
 40
0.0
 40
0.0
 40
0.000891799
 40
0.001853145
 40
0.0029626611
 40
0.004272341
 40
0.0058138693
 40
0.0076062428
 40
0.0119830756
 40
0.0174542939
 40
0.0240362679
 40
0.031729498
 40
0.0405266892
 40
0.0504131273
 40
0.0613707969
 40
0.073376569
 40
0.0864046816
 40
0.1154079113
 40
0.148114743
 40
0.1842183515
 40
0.2233751847
 40
0.2652095636
 40
0.3093182618
 40
0.4026302629
 40
0.4996950666
 40
0.5967467051
 40
0.6900290105
 40
0.7341242358
 40
0.77595128
 40
0.8151110048
 40
0.8512314234
 40
0.8839719668
 40
0.9130277408
 40
0.9260895236
 40
0.9381336412
 40
0.9491344363
 40
0.9590683829
 40
0.9679170888
 40
0.975665483
 40
0.9823053532
 40
0.9878364838
 40
0.992273425
 40
0.9940950535
 40
0.9956645072
 40
0.9969995849
 40
0.998130066
 40
0.9991050488
 40
1.0
 40
1.0
 40
1.0
 40
1.0
 10
6.7657466176
 20
16.2895996361
 30
0.0
 10
6.7657730002
 20
16.2896223373
 30
0.0
 10
6.7658199415
 20
16.2896795062
 30
0.0
 10
6.7658609669
 20
16.2897892954
 30
0.0
 10
6.7658750311
 20
16.2899214743
 30
0.0
 10
6.7658636074
 20
16.2900761998
 30
0.0
 10
6.7658271814
 20
16.2902540944
 30
0.0
 10
6.765739157
 20
16.2905422029
 30
0.0
 10
6.7655592632
 20
16.2909605726
 30
0.0
 10
6.765258336
 20
16.2915271633
 30
0.0
 10
6.7648586457
 20
16.2921864723
 30
0.0
 10
6.7643608965
 20
16.2929370549
 30
0.0
 10
6.7637657552
 20
16.2937771764
 30
0.0
 10
6.7630745008
 20
16.2947048798
 30
0.0
 10
6.7622886062
 20
16.2957179021
 30
0.0
 10
6.7614098942
 20
16.2968138533
 30
0.0
 10
6.7600684173
 20
16.2984412224
 30
0.0
 10
6.758173099
 20
16.3006587032
 30
0.0
 10
6.7556422484
 20
16.3035168161
 30
0.0
 10
6.752804051
 20
16.3066314843
 30
0.0
 10
6.7496858196
 20
16.3099724339
 30
0.0
 10
6.746317675
 20
16.313507114
 30
0.0
 10
6.7414449679
 20
16.3185271658
 30
0.0
 10
6.7349876373
 20
16.3250125083
 30
0.0
 10
6.7269564752
 20
16.3328448499
 30
0.0
 10
6.7188157715
 20
16.3405615898
 30
0.0
 10
6.7120836849
 20
16.3467580022
 30
0.0
 10
6.7068779256
 20
16.3514288354
 30
0.0
 10
6.7032145336
 20
16.3546554571
 30
0.0
 10
6.6997537441
 20
16.3576408638
 30
0.0
 10
6.6965289462
 20
16.3603565152
 30
0.0
 10
6.6935711986
 20
16.3627765277
 30
0.0
 10
6.6912780359
 20
16.3645870984
 30
0.0
 10
6.6895960768
 20
16.3658675005
 30
0.0
 10
6.6884634165
 20
16.3667059318
 30
0.0
 10
6.6874168539
 20
16.3674552522
 30
0.0
 10
6.6864588555
 20
16.3681137118
 30
0.0
 10
6.6855917599
 20
16.3686798945
 30
0.0
 10
6.6848176097
 20
16.369152573
 30
0.0
 10
6.6841381898
 20
16.3695310782
 30
0.0
 10
6.683555034
 20
16.3698147343
 30
0.0
 10
6.6831254885
 20
16.3699826038
 30
0.0
 10
6.6828304609
 20
16.3700631179
 30
0.0
 10
6.6826484992
 20
16.3700953192
 30
0.0
 10
6.6824906969
 20
16.3701034842
 30
0.0
 10
6.6823564798
 20
16.3700871724
 30
0.0
 10
6.6822456153
 20
16.3700450688
 30
0.0
 10
6.6821878567
 20
16.369997834
 30
0.0
 10
6.6821650752
 20
16.3699713582
 30
0.0
  0
SPLINE
  5
48F
100
AcDbEntity
  8
0
100
AcDbSpline
 62
7
  6
CONTINUOUS
 70
0
 71
3
 72
52
 73
48
 74
0
 42
0.0000001
 43
0.0000001
 44
0.0000000001
 40
0.0
 40
0.0
 40
0.0
 40
0.0
 40
0.0008003082
 40
0.001675769
 40
0.0027108173
 40
0.0039576726
 40
0.0054462485
 40
0.0071936467
 40
0.0114989276
 40
0.0169163778
 40
0.0234577828
 40
0.0311208573
 40
0.0398965288
 40
0.0497688016
 40
0.0607187134
 40
0.0727223672
 40
0.0857533328
 40
0.1147749745
 40
0.147513556
 40
0.1836584723
 40
0.2228627241
 40
0.2647475388
 40
0.3089071287
 40
0.4023153797
 40
0.4994637135
 40
0.5965893466
 40
0.6899461161
 40
0.7759535848
 40
0.8151626595
 40
0.8513364627
 40
0.8841332069
 40
0.9132456866
 40
0.9263349166
 40
0.9384050669
 40
0.9494297861
 40
0.9593846213
 40
0.9682499325
 40
0.9760091365
 40
0.9826517203
 40
0.988174194
 40
0.9925855868
 40
0.9943850812
 40
0.9959238513
 40
0.9972170525
 40
0.9982912527
 40
0.999193055
 40
1.0
 40
1.0
 40
1.0
 40
1.0
 10
7.0803488627
 20
15.9764994894
 30
0.0
 10
7.0803725114
 20
15.9765198382
 30
0.0
 10
7.0804140452
 20
15.9765726436
 30
0.0
 10
7.0804457384
 20
15.9766752381
 30
0.0
 10
7.0804501181
 20
15.9767991944
 30
0.0
 10
7.080428851
 20
15.9769451597
 30
0.0
 10
7.0803822826
 20
15.9771139216
 30
0.0
 10
7.0802788517
 20
15.9773894046
 30
0.0
 10
7.0800791596
 20
15.9777905291
 30
0.0
 10
7.0797545458
 20
15.9783354424
 30
0.0
 10
7.0793293989
 20
15.9789716709
 30
0.0
 10
7.0788045181
 20
15.9796977899
 30
0.0
 10
7.0781806632
 20
15.9805120642
 30
0.0
 10
7.0774591998
 20
15.9814125795
 30
0.0
 10
7.0766416976
 20
15.9823971203
 30
0.0
 10
7.0757300687
 20
15.9834633476
 30
0.0
 10
7.0743411748
 20
15.9850481923
 30
0.0
 10
7.0723845496
 20
15.9872099693
 30
0.0
 10
7.0697791391
 20
15.9899991113
 30
0.0
 10
7.066863658
 20
15.9930413126
 30
0.0
 10
7.0636663454
 20
15.9963068659
 30
0.0
 10
7.0602182555
 20
15.9997638332
 30
0.0
 10
7.0552371698
 20
16.0046758424
 30
0.0
 10
7.0486491342
 20
16.0110260268
 30
0.0
 10
7.0404728139
 20
16.018702181
 30
0.0
 10
7.0322011787
 20
16.0262726029
 30
0.0
 10
7.024154785
 20
16.0334444606
 30
0.0
 10
7.0177112361
 20
16.0390202173
 30
0.0
 10
7.0128961974
 20
16.0430697904
 30
0.0
 10
7.0096399391
 20
16.0457497141
 30
0.0
 10
7.0066570905
 20
16.0481420052
 30
0.0
 10
7.0043480451
 20
16.0499356405
 30
0.0
 10
7.0026569256
 20
16.0512070026
 30
0.0
 10
7.001519314
 20
16.0520410484
 30
0.0
 10
7.0004695534
 20
16.0527880694
 30
0.0
 10
6.9995101387
 20
16.0534463019
 30
0.0
 10
6.9986434301
 20
16.0540142926
 30
0.0
 10
6.9978715023
 20
16.0544907779
 30
0.0
 10
6.9971961917
 20
16.0548750189
 30
0.0
 10
6.9966190784
 20
16.055166271
 30
0.0
 10
6.9961961299
 20
16.055342695
 30
0.0
 10
6.9959071086
 20
16.0554315089
 30
0.0
 10
6.9957303929
 20
16.0554698732
 30
0.0
 10
6.9955783794
 20
16.0554847837
 30
0.0
 10
6.9954504051
 20
16.0554759382
 30
0.0
 10
6.9953457575
 20
16.0554420629
 30
0.0
 10
6.99529179
 20
16.0553999895
 30
0.0
 10
6.9952712724
 20
16.0553761447
 30
0.0
  0
SPLINE
  5
490
100
AcDbEntity
  8
0
100
AcDbSpline
 62
7
  6
CONTINUOUS
 70
0
 71
3
 72
56
 73
52
 74
0
 42
0.0000001
 43
0.0000001
 44
0.0000000001
 40
0.0
 40
0.0
 40
0.0
 40
0.0
 40
0.0006557306
 40
0.0014043881
 40
0.0023377791
 40
0.0035046749
 40
0.0041842179
 40
0.0049303029
 40
0.0066268685
 40
0.0086017498
 40
0.0108588621
 40
0.0134004142
 40
0.0162275225
 40
0.0227372583
 40
0.0303819191
 40
0.0391496464
 40
0.0490224706
 40
0.0599799683
 40
0.0719970833
 40
0.0850464147
 40
0.1141163858
 40
0.1469140526
 40
0.1831243763
 40
0.2223968092
 40
0.3085750202
 40
0.4021062846
 40
0.4993658222
 40
0.5965992699
 40
0.6900710645
 40
0.7342696589
 40
0.7762074229
 40
0.8154848
 40
0.851727812
 40
0.8845920062
 40
0.9137663514
 40
0.9268828054
 40
0.9389766946
 40
0.9500206883
 40
0.9599891587
 40
0.9688609367
 40
0.9766174255
 40
0.983245284
 40
0.9887366499
 40
0.991056454
 40
0.9930942362
 40
0.9948533118
 40
0.9963396309
 40
0.997564329
 40
0.9985485517
 40
0.9993336926
 40
1.0
 40
1.0
 40
1.0
 40
1.0
 10
7.3505057341
 20
15.707635846
 30
0.0
 10
7.3505250782
 20
15.7076524909
 30
0.0
 10
7.3505580491
 20
15.7076989242
 30
0.0
 10
7.3505747334
 20
15.7077902412
 30
0.0
 10
7.3505645372
 20
15.7079014028
 30
0.0
 10
7.3505364247
 20
15.7080062398
 30
0.0
 10
7.3505025146
 20
15.7081012837
 30
0.0
 10
7.3504561615
 20
15.7082136545
 30
0.0
 10
7.3503808563
 20
15.7083683692
 30
0.0
 10
7.3502682593
 20
15.7085698482
 30
0.0
 10
7.3501298354
 20
15.7087942677
 30
0.0
 10
7.3499656225
 20
15.7090415264
 30
0.0
 10
7.3496995184
 20
15.7094195909
 30
0.0
 10
7.3493008522
 20
15.709946906
 30
0.0
 10
7.3487415346
 20
15.710641971
 30
0.0
 10
7.348082075
 20
15.7114240912
 30
0.0
 10
7.3473239868
 20
15.7122914187
 30
0.0
 10
7.3464689674
 20
15.7132417909
 30
0.0
 10
7.3455190463
 20
15.7142729296
 30
0.0
 10
7.3440761403
 20
15.7158081913
 30
0.0
 10
7.3420516812
 20
15.7179065243
 30
0.0
 10
7.3393663873
 20
15.7206192796
 30
0.0
 10
7.336370745
 20
15.7235831837
 30
0.0
 10
7.331859777
 20
15.7279689176
 30
0.0
 10
7.3256810598
 20
15.7338389883
 30
0.0
 10
7.3177778048
 20
15.7411690652
 30
0.0
 10
7.3094776561
 20
15.7487029634
 30
0.0
 10
7.3011018371
 20
15.7561491293
 30
0.0
 10
7.2942047601
 20
15.7621498944
 30
0.0
 10
7.2888891636
 20
15.7666890923
 30
0.0
 10
7.2851563392
 20
15.7698337416
 30
0.0
 10
7.2816383181
 20
15.7727526253
 30
0.0
 10
7.2783688837
 20
15.7754178762
 30
0.0
 10
7.2753794655
 20
15.777804037
 30
0.0
 10
7.2730705306
 20
15.7795996816
 30
0.0
 10
7.2713831908
 20
15.7808774507
 30
0.0
 10
7.2702500746
 20
15.7817182034
 30
0.0
 10
7.2692065475
 20
15.7824739648
 30
0.0
 10
7.2682551164
 20
15.7831429351
 30
0.0
 10
7.2673981466
 20
15.7837235627
 30
0.0
 10
7.2666377223
 20
15.7842145932
 30
0.0
 10
7.2659757259
 20
15.7846149277
 30
0.0
 10
7.2654832444
 20
15.7848861533
 30
0.0
 10
7.2651387253
 20
15.7850543375
 30
0.0
 10
7.2649206617
 20
15.7851500129
 30
0.0
 10
7.264728145
 20
15.7852225768
 30
0.0
 10
7.2645611599
 20
15.7852720706
 30
0.0
 10
7.2644194487
 20
15.7852986612
 30
0.0
 10
7.2643023383
 20
15.785302282
 30
0.0
 10
7.2642081783
 20
15.7852821758
 30
0.0
 10
7.2641600944
 20
15.785248535
 30
0.0
 10
7.264143181
 20
15.7852288789
 30
0.0
  0
SPLINE
  5
491
100
AcDbEntity
  8
0
100
AcDbSpline
 62
7
  6
CONTINUOUS
 70
0
 71
3
 72
33
 73
29
 74
0
 42
0.0000001
 43
0.0000001
 44
0.0000000001
 40
0.0
 40
0.0
 40
0.0
 40
0.0
 40
0.0004185365
 40
0.0008807083
 40
0.0014378759
 40
0.0021201917
 40
0.0039171101
 40
0.0063384536
 40
0.0094069528
 40
0.0131311599
 40
0.0175141719
 40
0.0225564133
 40
0.0282555913
 40
0.0346077128
 40
0.0492518335
 40
0.0664405562
 40
0.0861129208
 40
0.1326073116
 40
0.1880370312
 40
0.2515594805
 40
0.322204371
 40
0.3988912698
 40
0.4804496723
 40
0.5656363479
 40
0.6531563177
 40
0.7416843218
 40
0.8298823614
 40
1.0
 40
1.0
 40
1.0
 40
1.0
 10
7.5578055236
 20
15.5013304897
 30
0.0
 10
7.5578140638
 20
15.5013378383
 30
0.0
 10
7.5578288884
 20
15.5013573572
 30
0.0
 10
7.5578385871
 20
15.501395572
 30
0.0
 10
7.5578373545
 20
15.5014417249
 30
0.0
 10
7.5578203626
 20
15.5015219689
 30
0.0
 10
7.5577689276
 20
15.5016443563
 30
0.0
 10
7.5576728765
 20
15.501815461
 30
0.0
 10
7.5575360346
 20
15.5020225751
 30
0.0
 10
7.5573585075
 20
15.5022655129
 30
0.0
 10
7.5571400836
 20
15.5025441304
 30
0.0
 10
7.5568808918
 20
15.5028581413
 30
0.0
 10
7.5565811045
 20
15.5032072553
 30
0.0
 10
7.5561044877
 20
15.5037451004
 30
0.0
 10
7.5554077463
 20
15.50450096
 30
0.0
 10
7.5544504468
 20
15.5055039574
 30
0.0
 10
7.5528797777
 20
15.507106489
 30
0.0
 10
7.5505515097
 20
15.5094074896
 30
0.0
 10
7.5473422954
 20
15.5124956586
 30
0.0
 10
7.5436292188
 20
15.5159974219
 30
0.0
 10
7.5394691115
 20
15.519858901
 30
0.0
 10
7.5349255172
 20
15.5240206872
 30
0.0
 10
7.5300678977
 20
15.5284190142
 30
0.0
 10
7.5249703544
 20
15.5329866957
 30
0.0
 10
7.51971045
 20
15.5376541923
 30
0.0
 10
7.5143680192
 20
15.5423507104
 30
0.0
 10
7.5073272283
 20
15.5484827364
 30
0.0
 10
7.5020520636
 20
15.5530134746
 30
0.0
 10
7.4985616137
 20
15.5559778884
 30
0.0
  0
SPLINE
  5
492
100
AcDbEntity
  8
0
100
AcDbSpline
 62
7
  6
CONTINUOUS
 70
0
 71
3
 72
32
 73
28
 74
0
 42
0.0000001
 43
0.0000001
 44
0.0000000001
 40
0.0
 40
0.0
 40
0.0
 40
0.0
 40
0.1892488475
 40
0.2827666352
 40
0.3741949438
 40
0.4625452516
 40
0.5468609552
 40
0.6262286614
 40
0.6997868376
 40
0.7667341074
 40
0.8263391486
 40
0.8531812162
 40
0.877949123
 40
0.9005750748
 40
0.9209965233
 40
0.939157305
 40
0.9550078872
 40
0.9685048815
 40
0.9796131645
 40
0.9883045556
 40
0.9945641129
 40
0.996782642
 40
0.9976662876
 40
0.9984015848
 40
0.9989917727
 40
0.9994433519
 40
1.0
 40
1.0
 40
1.0
 40
1.0
 10
7.64927225
 20
15.4066896748
 30
0.0
 10
7.6462226805
 20
15.4093342229
 30
0.0
 10
7.6416581186
 20
15.4132763243
 30
0.0
 10
7.6356017668
 20
15.4184745284
 30
0.0
 10
7.6311704295
 20
15.4222617078
 30
0.0
 10
7.626880129
 20
15.4259117897
 30
0.0
 10
7.6227773332
 20
15.4293852565
 30
0.0
 10
7.6189065499
 20
15.4326444587
 30
0.0
 10
7.615309873
 20
15.4356540115
 30
0.0
 10
7.6120265313
 20
15.4383811369
 30
0.0
 10
7.6095004233
 20
15.4404604161
 30
0.0
 10
7.6076621817
 20
15.4419597027
 30
0.0
 10
7.6064317475
 20
15.4429562821
 30
0.0
 10
7.6053040747
 20
15.4438621347
 30
0.0
 10
7.6042822956
 20
15.4446747648
 30
0.0
 10
7.6033692648
 20
15.4453919324
 30
0.0
 10
7.6025675631
 20
15.4460117019
 30
0.0
 10
7.6018794445
 20
15.4465323634
 30
0.0
 10
7.6013069852
 20
15.4469527823
 30
0.0
 10
7.6008517579
 20
15.4472716887
 30
0.0
 10
7.6005445001
 20
15.4474714274
 30
0.0
 10
7.6003703662
 20
15.4475692998
 30
0.0
 10
7.6002966492
 20
15.4476050724
 30
0.0
 10
7.6002533686
 20
15.4476234263
 30
0.0
 10
7.6002169293
 20
15.4476353779
 30
0.0
 10
7.6001846509
 20
15.4476423284
 30
0.0
 10
7.6001591323
 20
15.4476401272
 30
0.0
 10
7.6001513883
 20
15.4476311274
 30
0.0
  0
LINE
  5
493
100
AcDbEntity
  8
0
100
AcDbLine
 62
7
  6
CONTINUOUS
 10
7.7325680956
 20
15.3274076875
 11
7.7322958459
 21
15.3276416399
  0
LINE
  5
494
100
AcDbEntity
  8
0
100
AcDbLine
 62
7
  6
CONTINUOUS
 10
7.7322958459
 20
15.3276416399
 11
7.7270605676
 21
15.3321404821
  0
LINE
  5
495
100
AcDbEntity
  8
0
100
AcDbLine
 62
9
  6
CONTINUOUS
 10
14.4346220721
 20
7.0506719402
 11
13.696169177
 21
7.8648663401
  0
SPLINE
  5
496
100
AcDbEntity
  8
0
100
AcDbSpline
 62
9
  6
CONTINUOUS
 70
0
 71
3
 72
9
 73
5
 74
0
 42
0.0000001
 43
0.0000001
 44
0.0000000001
 40
0.0
 40
0.0
 40
0.0
 40
0.0
 40
0.501396792
 40
1.0
 40
1.0
 40
1.0
 40
1.0
 10
14.4078397086
 20
7.0624912347
 30
0.0
 10
14.4048843844
 20
7.064209435
 30
0.0
 10
14.3992435419
 20
7.0680848701
 30
0.0
 10
14.3941505296
 20
7.0726430273
 30
0.0
 10
14.3917467748
 20
7.0750468281
 30
0.0
  0
SPLINE
  5
497
100
AcDbEntity
  8
0
100
AcDbSpline
 62
9
  6
CONTINUOUS
 70
0
 71
3
 72
10
 73
6
 74
0
 42
0.0000001
 43
0.0000001
 44
0.0000000001
 40
0.0
 40
0.0
 40
0.0
 40
0.0
 40
0.2500865924
 40
0.5001741704
 40
1.0
 40
1.0
 40
1.0
 40
1.0
 10
14.3899016515
 20
7.0273979557
 30
0.0
 10
14.3874604505
 20
7.0286453689
 30
0.0
 10
14.3826795575
 20
7.0313456429
 30
0.0
 10
14.3735936596
 20
7.0374919333
 30
0.0
 10
14.3673365474
 20
7.0428880177
 30
0.0
 10
14.3634624299
 20
7.0467624832
 30
0.0
  0
SPLINE
  5
498
100
AcDbEntity
  8
0
100
AcDbSpline
 62
9
  6
CONTINUOUS
 70
0
 71
3
 72
16
 73
12
 74
0
 42
0.0000001
 43
0.0000001
 44
0.0000000001
 40
0.0
 40
0.0
 40
0.0
 40
0.0
 40
0.1422165641
 40
0.2119243459
 40
0.280563341
 40
0.4141791885
 40
0.542424635
 40
0.6045475601
 40
0.6653402852
 40
0.7827471445
 40
1.0
 40
1.0
 40
1.0
 40
1.0
 10
14.4078396821
 20
7.0624911829
 30
0.0
 10
14.409041802
 20
7.0617905708
 30
0.0
 10
14.4108560232
 20
7.0607851309
 30
0.0
 10
14.4132972528
 20
7.0595299102
 30
0.0
 10
14.4156869992
 20
7.0583596133
 30
0.0
 10
14.4186249951
 20
7.0570081927
 30
0.0
 10
14.4215344708
 20
7.0557497876
 30
0.0
 10
14.4238052499
 20
7.0548107305
 30
0.0
 10
14.4259865905
 20
7.053933185
 30
0.0
 10
14.4295933524
 20
7.0525328619
 30
0.0
 10
14.432662817
 20
7.0513930546
 30
0.0
 10
14.4346565406
 20
7.0506562765
 30
0.0
  0
SPLINE
  5
499
100
AcDbEntity
  8
0
100
AcDbSpline
 62
9
  6
CONTINUOUS
 70
0
 71
3
 72
28
 73
24
 74
0
 42
0.0000001
 43
0.0000001
 44
0.0000000001
 40
0.0
 40
0.0
 40
0.0
 40
0.0
 40
0.046237795
 40
0.070393806
 40
0.0951608947
 40
0.1465870618
 40
0.2006508763
 40
0.2573235395
 40
0.3165181723
 40
0.3781036008
 40
0.4418981137
 40
0.5076828528
 40
0.5752072361
 40
0.6441935931
 40
0.7143473345
 40
0.7497658489
 40
0.7853549816
 40
0.8210728343
 40
0.856879164
 40
0.8927275063
 40
0.9285629001
 40
0.964326788
 40
1.0
 40
1.0
 40
1.0
 40
1.0
 10
14.4346565406
 20
7.0506562765
 30
0.0
 10
14.4340120486
 20
7.0503713794
 30
0.0
 10
14.4330522248
 20
7.0498871253
 30
0.0
 10
14.4318079812
 20
7.0491413409
 30
0.0
 10
14.4305365971
 20
7.048290364
 30
0.0
 10
14.4289670795
 20
7.0470703705
 30
0.0
 10
14.4271460988
 20
7.0453959724
 30
0.0
 10
14.4253760405
 20
7.0435024759
 30
0.0
 10
14.4236687327
 20
7.0414026852
 30
0.0
 10
14.4220348665
 20
7.0391108431
 30
0.0
 10
14.4204851482
 20
7.0366420712
 30
0.0
 10
14.4190294132
 20
7.0340129612
 30
0.0
 10
14.4176767805
 20
7.0312411394
 30
0.0
 10
14.4164361286
 20
7.0283449907
 30
0.0
 10
14.4155028531
 20
7.0258527891
 30
0.0
 10
14.4148154383
 20
7.0238141666
 30
0.0
 10
14.4143292631
 20
7.022261909
 30
0.0
 10
14.4138755106
 20
7.0206937478
 30
0.0
 10
14.4134479074
 20
7.0191142099
 30
0.0
 10
14.4130391338
 20
7.0175278982
 30
0.0
 10
14.4126397219
 20
7.0159398355
 30
0.0
 10
14.4122759718
 20
7.014345798
 30
0.0
 10
14.412077196
 20
7.0132748403
 30
0.0
 10
14.4119938386
 20
7.0127376174
 30
0.0
  0
SPLINE
  5
49A
100
AcDbEntity
  8
0
100
AcDbSpline
 62
9
  6
CONTINUOUS
 70
0
 71
3
 72
18
 73
14
 74
0
 42
0.0000001
 43
0.0000001
 44
0.0000000001
 40
0.0
 40
0.0
 40
0.0
 40
0.0
 40
0.1142026922
 40
0.1731673149
 40
0.2332320782
 40
0.2942722635
 40
0.3561633834
 40
0.4820435301
 40
0.6100464392
 40
0.6746031945
 40
0.7394220555
 40
0.8695697851
 40
1.0
 40
1.0
 40
1.0
 40
1.0
 10
14.4119933071
 20
7.0127312167
 30
0.0
 10
14.4110624932
 20
7.0131387439
 30
0.0
 10
14.4096537687
 20
7.0137633031
 30
0.0
 10
14.407780819
 20
7.0146572277
 30
0.0
 10
14.406350539
 20
7.0153794783
 30
0.0
 10
14.4049129512
 20
7.0161442006
 30
0.0
 10
14.4029808002
 20
7.0172250766
 30
0.0
 10
14.4005756747
 20
7.0186794993
 30
0.0
 10
14.3982281252
 20
7.0202687382
 30
0.0
 10
14.3963904922
 20
7.021635774
 30
0.0
 10
14.3945800664
 20
7.0230695527
 30
0.0
 10
14.3923875272
 20
7.0249626351
 30
0.0
 10
14.3907156303
 20
7.0265707915
 30
0.0
 10
14.3899016515
 20
7.0273979557
 30
0.0
  0
SPLINE
  5
49B
100
AcDbEntity
  8
0
100
AcDbSpline
 62
9
  6
CONTINUOUS
 70
0
 71
3
 72
27
 73
23
 74
0
 42
0.0000001
 43
0.0000001
 44
0.0000000001
 40
0.0
 40
0.0
 40
0.0
 40
0.0
 40
0.0605018231
 40
0.1212048245
 40
0.2432188972
 40
0.3047614705
 40
0.3666767278
 40
0.4290047831
 40
0.4917708929
 40
0.5549706191
 40
0.6185546175
 40
0.6504985145
 40
0.6824914287
 40
0.7145072367
 40
0.7465208227
 40
0.7785053783
 40
0.8104356891
 40
0.8422933823
 40
0.8740601001
 40
0.9057238371
 40
0.9372788837
 40
1.0
 40
1.0
 40
1.0
 40
1.0
 10
13.678624773
 20
7.7881684629
 30
0.0
 10
13.6771127765
 20
7.7896804853
 30
0.0
 10
13.6741883454
 20
7.7928176483
 30
0.0
 10
13.6688186775
 20
7.7995360527
 30
0.0
 10
13.6642880523
 20
7.8069562896
 30
0.0
 10
13.6609702309
 20
7.8149893893
 30
0.0
 10
13.6591951015
 20
7.8213296126
 30
0.0
 10
13.6582775926
 20
7.8278975969
 30
0.0
 10
13.6583688123
 20
7.8345811341
 30
0.0
 10
13.6596071926
 20
7.8412011201
 30
0.0
 10
13.6616808919
 20
7.8464576797
 30
0.0
 10
13.6639633871
 20
7.8503520329
 30
0.0
 10
13.6659806057
 20
7.8530863405
 30
0.0
 10
13.6682804206
 20
7.8555908164
 30
0.0
 10
13.6708365476
 20
7.8578326852
 30
0.0
 10
13.6736144222
 20
7.8597875358
 30
0.0
 10
13.6765775328
 20
7.8614363738
 30
0.0
 10
13.6796857136
 20
7.8627716142
 30
0.0
 10
13.6829006557
 20
7.8637918187
 30
0.0
 10
13.6861868962
 20
7.8645017455
 30
0.0
 10
13.6906081761
 20
7.865051268
 30
0.0
 10
13.6939590225
 20
7.8650397263
 30
0.0
 10
13.6961688835
 20
7.8648652212
 30
0.0
  0
SPLINE
  5
49C
100
AcDbEntity
  8
0
100
AcDbSpline
 62
9
  6
CONTINUOUS
 70
0
 71
3
 72
34
 73
30
 74
0
 42
0.0000001
 43
0.0000001
 44
0.0000000001
 40
0.0
 40
0.0
 40
0.0
 40
0.0
 40
0.0624881973
 40
0.1249728594
 40
0.187455637
 40
0.2499347678
 40
0.3124099096
 40
0.3436648619
 40
0.3749198602
 40
0.4061747043
 40
0.437429198
 40
0.4686836594
 40
0.4999379616
 40
0.5311920482
 40
0.5624459721
 40
0.5936998257
 40
0.6249534953
 40
0.6562073579
 40
0.6874606678
 40
0.7187144863
 40
0.7499681646
 40
0.7812214517
 40
0.8124757203
 40
0.8437290408
 40
0.8749833752
 40
0.9062379613
 40
0.9374904146
 40
0.9687476379
 40
1.0
 40
1.0
 40
1.0
 40
1.0
 10
13.6503406116
 20
7.7598843015
 30
0.0
 10
13.6474815782
 20
7.7627432903
 30
0.0
 10
13.6420703825
 20
7.7687783944
 30
0.0
 10
13.6350294667
 20
7.7786865705
 30
0.0
 10
13.6292102509
 20
7.789362616
 30
0.0
 10
13.6247614661
 20
7.8006797465
 30
0.0
 10
13.6223247112
 20
7.8105239273
 30
0.0
 10
13.6212035755
 20
7.8185385474
 30
0.0
 10
13.620792651
 20
7.8245970841
 30
0.0
 10
13.6208240014
 20
7.8306693907
 30
0.0
 10
13.6213075687
 20
7.8367227927
 30
0.0
 10
13.6222511201
 20
7.8427219426
 30
0.0
 10
13.6236588699
 20
7.8486296441
 30
0.0
 10
13.625530195
 20
7.8544074412
 30
0.0
 10
13.6278604632
 20
7.8600160655
 30
0.0
 10
13.6306408731
 20
7.8654159018
 30
0.0
 10
13.6338582698
 20
7.8705674549
 30
0.0
 10
13.6374922415
 20
7.875434166
 30
0.0
 10
13.6415211171
 20
7.8799795557
 30
0.0
 10
13.6459176584
 20
7.8841701956
 30
0.0
 10
13.650647998
 20
7.8879800957
 30
0.0
 10
13.6556817404
 20
7.8913790168
 30
0.0
 10
13.6609784382
 20
7.8943510238
 30
0.0
 10
13.6665010184
 20
7.8968788993
 30
0.0
 10
13.6722111682
 20
7.8989476236
 30
0.0
 10
13.6780666254
 20
7.900558736
 30
0.0
 10
13.6840313472
 20
7.9017016492
 30
0.0
 10
13.6900651184
 20
7.9023840414
 30
0.0
 10
13.694111301
 20
7.9025380545
 30
0.0
 10
13.6961334617
 20
7.9025383899
 30
0.0
  0
SPLINE
  5
49D
100
AcDbEntity
  8
0
100
AcDbSpline
 62
9
  6
CONTINUOUS
 70
0
 71
3
 72
25
 73
21
 74
0
 42
0.0000001
 43
0.0000001
 44
0.0000000001
 40
0.0
 40
0.0
 40
0.0
 40
0.0
 40
0.0292866195
 40
0.0454418198
 40
0.0627442737
 40
0.0812768576
 40
0.1010907228
 40
0.1445997887
 40
0.193263641
 40
0.2469382739
 40
0.3054210101
 40
0.3684737209
 40
0.4358484705
 40
0.5073022651
 40
0.5825527748
 40
0.6612537856
 40
0.7429803967
 40
0.8271727319
 40
0.9131268265
 40
1.0
 40
1.0
 40
1.0
 40
1.0
 10
14.4299016515
 20
7.923374274
 30
0.0
 10
14.4299016595
 20
7.9229071387
 30
0.0
 10
14.4297886957
 20
7.9221805132
 30
0.0
 10
14.4294764853
 20
7.9212291653
 30
0.0
 10
14.4291427451
 20
7.9204684894
 30
0.0
 10
14.4287195067
 20
7.9196873587
 30
0.0
 10
14.4280163594
 20
7.9185861172
 30
0.0
 10
14.4269119951
 20
7.9171767917
 30
0.0
 10
14.4253008416
 20
7.9154946728
 30
0.0
 10
14.4233761558
 20
7.9137948689
 30
0.0
 10
14.4211496331
 20
7.9121021054
 30
0.0
 10
14.4186309567
 20
7.91044404
 30
0.0
 10
14.4158287291
 20
7.9088531083
 30
0.0
 10
14.4127557438
 20
7.9073589963
 30
0.0
 10
14.40942592
 20
7.9059963124
 30
0.0
 10
14.405856942
 20
7.9048064285
 30
0.0
 10
14.4020763308
 20
7.9038293129
 30
0.0
 10
14.3981231854
 20
7.9030937789
 30
0.0
 10
14.3940449705
 20
7.9026428064
 30
0.0
 10
14.3912873194
 20
7.9025381761
 30
0.0
 10
14.3899016515
 20
7.9025383899
 30
0.0
  0
SPLINE
  5
49E
100
AcDbEntity
  8
0
100
AcDbSpline
 62
9
  6
CONTINUOUS
 70
0
 71
3
 72
23
 73
19
 74
0
 42
0.0000001
 43
0.0000001
 44
0.0000000001
 40
0.0
 40
0.0
 40
0.0
 40
0.0
 40
0.0620621549
 40
0.1241483363
 40
0.1862609774
 40
0.2484241524
 40
0.3106473568
 40
0.372942117
 40
0.4353161033
 40
0.4977740537
 40
0.5603175418
 40
0.6229448581
 40
0.6856510124
 40
0.7484278653
 40
0.8112656779
 40
0.874147962
 40
0.9370693566
 40
1.0
 40
1.0
 40
1.0
 40
1.0
 10
14.4299016515
 20
7.923374274
 30
0.0
 10
14.4299016515
 20
7.9220839627
 30
0.0
 10
14.4300303536
 20
7.9195010018
 30
0.0
 10
14.430607327
 20
7.9156655863
 30
0.0
 10
14.4315629917
 20
7.9119040361
 30
0.0
 10
14.4328877837
 20
7.9082531918
 30
0.0
 10
14.4345691505
 20
7.904748015
 30
0.0
 10
14.436590788
 20
7.9014223431
 30
0.0
 10
14.4389332187
 20
7.8983081865
 30
0.0
 10
14.4415738338
 20
7.8954355184
 30
0.0
 10
14.444487176
 20
7.8928319759
 30
0.0
 10
14.4476451805
 20
7.8905226111
 30
0.0
 10
14.4510174313
 20
7.8885296572
 30
0.0
 10
14.4545714666
 20
7.8868722555
 30
0.0
 10
14.4582729929
 20
7.8855664196
 30
0.0
 10
14.4620865899
 20
7.8846244703
 30
0.0
 10
14.4659749762
 20
7.8840557952
 30
0.0
 10
14.4685932838
 20
7.8839289574
 30
0.0
 10
14.4699016515
 20
7.8839289575
 30
0.0
  0
SPLINE
  5
49F
100
AcDbEntity
  8
0
100
AcDbSpline
 62
9
  6
CONTINUOUS
 70
0
 71
3
 72
28
 73
24
 74
0
 42
0.0000001
 43
0.0000001
 44
0.0000000001
 40
0.0
 40
0.0
 40
0.0
 40
0.0
 40
0.007808313
 40
0.0167123869
 40
0.0271709481
 40
0.0394429619
 40
0.0536610841
 40
0.0698732527
 40
0.0880834994
 40
0.1082705719
 40
0.1303952514
 40
0.1543974407
 40
0.2077544657
 40
0.2677718022
 40
0.3338162391
 40
0.4052399749
 40
0.4813775932
 40
0.5615654533
 40
0.6451529918
 40
0.7314696362
 40
0.8198302915
 40
0.9095738896
 40
1.0
 40
1.0
 40
1.0
 40
1.0
 10
14.4699016515
 20
7.8839289575
 30
0.0
 10
14.4699016594
 20
7.8837095795
 30
0.0
 10
14.469817316
 20
7.8832385572
 30
0.0
 10
14.469480163
 20
7.8825466588
 30
0.0
 10
14.4689404988
 20
7.8818353601
 30
0.0
 10
14.4682017005
 20
7.8811027145
 30
0.0
 10
14.4672663913
 20
7.8803488426
 30
0.0
 10
14.4661382294
 20
7.8795757711
 30
0.0
 10
14.464821586
 20
7.8787866126
 30
0.0
 10
14.4633212618
 20
7.8779851862
 30
0.0
 10
14.4616427978
 20
7.8771754704
 30
0.0
 10
14.4590840048
 20
7.8760496785
 30
0.0
 10
14.4554805402
 20
7.8746609294
 30
0.0
 10
14.4506935636
 20
7.8730765405
 30
0.0
 10
14.4453569521
 20
7.8715527368
 30
0.0
 10
14.4395274519
 20
7.8701214997
 30
0.0
 10
14.433262901
 20
7.8688121126
 30
0.0
 10
14.4266219432
 20
7.8676512546
 30
0.0
 10
14.4196637516
 20
7.8666656366
 30
0.0
 10
14.4124496499
 20
7.8658755258
 30
0.0
 10
14.4050419662
 20
7.8652967955
 30
0.0
 10
14.3975044994
 20
7.864945844
 30
0.0
 10
14.3924422127
 20
7.8648660695
 30
0.0
 10
14.3899016515
 20
7.8648663401
 30
0.0
  0
SPLINE
  5
4A0
100
AcDbEntity
  8
0
100
AcDbSpline
 62
9
  6
CONTINUOUS
 70
0
 71
3
 72
23
 73
19
 74
0
 42
0.0000001
 43
0.0000001
 44
0.0000000001
 40
0.0
 40
0.0
 40
0.0
 40
0.0
 40
0.0620621535
 40
0.1241483337
 40
0.1862609738
 40
0.2484241481
 40
0.3106473521
 40
0.3729421121
 40
0.4353160983
 40
0.4977740489
 40
0.5603175374
 40
0.6229448543
 40
0.6856510093
 40
0.7484278629
 40
0.8112656762
 40
0.874147961
 40
0.9370693562
 40
1.0
 40
1.0
 40
1.0
 40
1.0
 10
14.4299016515
 20
6.996409334
 30
0.0
 10
14.4299016515
 20
6.9976996453
 30
0.0
 10
14.4300303536
 20
7.0002826062
 30
0.0
 10
14.430607327
 20
7.0041180216
 30
0.0
 10
14.4315629917
 20
7.0078795717
 30
0.0
 10
14.4328877837
 20
7.0115304159
 30
0.0
 10
14.4345691505
 20
7.0150355927
 30
0.0
 10
14.436590788
 20
7.0183612645
 30
0.0
 10
14.4389332187
 20
7.0214754211
 30
0.0
 10
14.4415738338
 20
7.0243480892
 30
0.0
 10
14.444487176
 20
7.0269516317
 30
0.0
 10
14.4476451805
 20
7.0292609966
 30
0.0
 10
14.4510174313
 20
7.0312539505
 30
0.0
 10
14.4545714666
 20
7.0329113523
 30
0.0
 10
14.4582729929
 20
7.0342171882
 30
0.0
 10
14.4620865899
 20
7.0351591376
 30
0.0
 10
14.4659749762
 20
7.0357278127
 30
0.0
 10
14.4685932838
 20
7.0358546506
 30
0.0
 10
14.4699016515
 20
7.0358546506
 30
0.0
  0
SPLINE
  5
4A1
100
AcDbEntity
  8
0
100
AcDbSpline
 62
9
  6
CONTINUOUS
 70
0
 71
3
 72
18
 73
14
 74
0
 42
0.0000001
 43
0.0000001
 44
0.0000000001
 40
0.0
 40
0.0
 40
0.0
 40
0.0
 40
0.1752218881
 40
0.3376326808
 40
0.4862836853
 40
0.6202490414
 40
0.6814419405
 40
0.7386525684
 40
0.7918448338
 40
0.8409848625
 40
0.8861009468
 40
0.9274038467
 40
1.0
 40
1.0
 40
1.0
 40
1.0
 10
14.4119933071
 20
7.0127312167
 30
0.0
 10
14.4133435337
 20
7.0121523766
 30
0.0
 10
14.4158945926
 20
7.0109167289
 30
0.0
 10
14.4194242336
 20
7.0088683343
 30
0.0
 10
14.4224836937
 20
7.0067244424
 30
0.0
 10
14.4246885164
 20
7.0048598468
 30
0.0
 10
14.4261903046
 20
7.0033679615
 30
0.0
 10
14.4271504075
 20
7.0022952743
 30
0.0
 10
14.4279746271
 20
7.0012402516
 30
0.0
 10
14.428659581
 20
7.0002097166
 30
0.0
 10
14.4292025653
 20
6.9992084339
 30
0.0
 10
14.4297083789
 20
6.9979747225
 30
0.0
 10
14.4299016935
 20
6.9970179843
 30
0.0
 10
14.4299016515
 20
6.996409334
 30
0.0
  0
SPLINE
  5
4A2
100
AcDbEntity
  8
0
100
AcDbSpline
 62
9
  6
CONTINUOUS
 70
0
 71
3
 72
24
 73
20
 74
0
 42
0.0000001
 43
0.0000001
 44
0.0000000001
 40
0.0
 40
0.0
 40
0.0
 40
0.0
 40
0.1963961175
 40
0.376804243
 40
0.4601653184
 40
0.5385343413
 40
0.6116069185
 40
0.6790842997
 40
0.7406766781
 40
0.7961355842
 40
0.8452687056
 40
0.8879702171
 40
0.9242558942
 40
0.9400674121
 40
0.9544051442
 40
0.9673776401
 40
0.9791410976
 40
0.9899162934
 40
1.0
 40
1.0
 40
1.0
 40
1.0
 10
14.4346220721
 20
7.0506719402
 30
0.0
 10
14.4371452688
 20
7.050169411
 30
0.0
 10
14.4419672482
 20
7.0491068371
 30
0.0
 10
14.4477958854
 20
7.0475601756
 30
0.0
 10
14.452081675
 20
7.0462471705
 30
0.0
 10
14.454998034
 20
7.0452682458
 30
0.0
 10
14.457689366
 20
7.0442764779
 30
0.0
 10
14.4601430986
 20
7.043279418
 30
0.0
 10
14.4623468389
 20
7.0422843247
 30
0.0
 10
14.4642888954
 20
7.0412986853
 30
0.0
 10
14.4659590327
 20
7.0403296875
 30
0.0
 10
14.4673477324
 20
7.0393843698
 30
0.0
 10
14.4683050705
 20
7.0385880996
 30
0.0
 10
14.4689101705
 20
7.037961417
 30
0.0
 10
14.4692667215
 20
7.0375221873
 30
0.0
 10
14.4695466524
 20
7.037092315
 30
0.0
 10
14.4697490686
 20
7.0366717049
 30
0.0
 10
14.4698726391
 20
7.0362605755
 30
0.0
 10
14.4699016807
 20
7.0359867453
 30
0.0
 10
14.4699016515
 20
7.0358546506
 30
0.0
  0
LINE
  5
4A3
100
AcDbEntity
  8
0
100
AcDbLine
 62
7
  6
CONTINUOUS
 10
8.0631996771
 20
15.049672517
 11
8.0245832255
 21
15.0816870029
  0
LINE
  5
4A4
100
AcDbEntity
  8
0
100
AcDbLine
 62
7
  6
CONTINUOUS
 10
4.8022501904
 20
18.3040200484
 11
4.7702357551
 21
18.3426364391
  0
SPLINE
  5
4A5
100
AcDbEntity
  8
0
100
AcDbSpline
 62
7
  6
CONTINUOUS
 70
0
 71
3
 72
59
 73
55
 74
0
 42
0.0000001
 43
0.0000001
 44
0.0000000001
 40
0.0
 40
0.0
 40
0.0
 40
0.0
 40
0.0002831717
 40
0.0005079909
 40
0.0007997717
 40
0.0015956225
 40
0.002683061
 40
0.0057448818
 40
0.0099918884
 40
0.0154179972
 40
0.0220117021
 40
0.0297571463
 40
0.0386361525
 40
0.0486263504
 40
0.0597038755
 40
0.0718408668
 40
0.0850079177
 40
0.1142998654
 40
0.1472936413
 40
0.1836687647
 40
0.2230733037
 40
0.2651278224
 40
0.3094294129
 40
0.3555546455
 40
0.4030634461
 40
0.5004140882
 40
0.5977812288
 40
0.6453079848
 40
0.6914533093
 40
0.7357726882
 40
0.7778378304
 40
0.8172406758
 40
0.8535969467
 40
0.8865507359
 40
0.915778908
 40
0.9289046737
 40
0.9409942284
 40
0.9520181517
 40
0.9619488738
 40
0.9707629109
 40
0.9784382608
 40
0.9849574198
 40
0.990305106
 40
0.9925361364
 40
0.9944708285
 40
0.9961086651
 40
0.9974496431
 40
0.9984952476
 40
0.9989086196
 40
0.9992503365
 40
0.999522448
 40
0.9997291358
 40
0.9998801869
 40
1.0
 40
1.0
 40
1.0
 40
1.0
 10
4.8798489262
 20
18.2178382293
 30
0.0
 10
4.8798572781
 20
18.2178454158
 30
0.0
 10
4.8798601789
 20
18.2178684802
 30
0.0
 10
4.8798549139
 20
18.2178982862
 30
0.0
 10
4.8798404024
 20
18.2179477673
 30
0.0
 10
4.8798063055
 20
18.218025171
 30
0.0
 10
4.8797169832
 20
18.218195806
 30
0.0
 10
4.8795454277
 20
18.2184740718
 30
0.0
 10
4.8792707801
 20
18.2188865341
 30
0.0
 10
4.8789075302
 20
18.2194049345
 30
0.0
 10
4.8784568968
 20
18.2200281647
 30
0.0
 10
4.8779196297
 20
18.2207544879
 30
0.0
 10
4.8772970854
 20
18.221582064
 30
0.0
 10
4.876590748
 20
18.2225088165
 30
0.0
 10
4.8758023646
 20
18.2235324041
 30
0.0
 10
4.8749338737
 20
18.224650302
 30
0.0
 10
4.8736246461
 20
18.2263232516
 30
0.0
 10
4.871804541
 20
18.2286268817
 30
0.0
 10
4.8694108813
 20
18.2316281672
 30
0.0
 10
4.8667596076
 20
18.2349272562
 30
0.0
 10
4.8638763681
 20
18.2384921908
 30
0.0
 10
4.8607889131
 20
18.2422886037
 30
0.0
 10
4.857526851
 20
18.2462800603
 30
0.0
 10
4.854121375
 20
18.2504283798
 30
0.0
 10
4.8493944045
 20
18.2561624267
 30
0.0
 10
4.8433778461
 20
18.2634173326
 30
0.0
 10
4.8373339719
 20
18.2706504087
 30
0.0
 10
4.8325509112
 20
18.2763405249
 30
0.0
 10
4.8290875643
 20
18.2804434965
 30
0.0
 10
4.8257526231
 20
18.2843767399
 30
0.0
 10
4.8225783361
 20
18.2881022209
 30
0.0
 10
4.8195955351
 20
18.2915837703
 30
0.0
 10
4.8168333371
 20
18.2947874513
 30
0.0
 10
4.8143188108
 20
18.2976819066
 30
0.0
 10
4.8123869136
 20
18.2998851229
 30
0.0
 10
4.8109827928
 20
18.301471347
 30
0.0
 10
4.810044391
 20
18.3025238327
 30
0.0
 10
4.8091846643
 20
18.3034798926
 30
0.0
 10
4.8084057293
 20
18.3043371825
 30
0.0
 10
4.8077095514
 20
18.3050935955
 30
0.0
 10
4.8070978634
 20
18.305747329
 30
0.0
 10
4.8065722161
 20
18.3062967945
 30
0.0
 10
4.8061869461
 20
18.306687335
 30
0.0
 10
4.8059219459
 20
18.3069458097
 30
0.0
 10
4.8057577433
 20
18.3071008452
 30
0.0
 10
4.8056159041
 20
18.3072290772
 30
0.0
 10
4.805496511
 20
18.3073304309
 30
0.0
 10
4.8054102334
 20
18.3073971025
 30
0.0
 10
4.8053520327
 20
18.3074361749
 30
0.0
 10
4.8053175338
 20
18.3074564021
 30
0.0
 10
4.8052885796
 20
18.3074700725
 30
0.0
 10
4.805265056
 20
18.3074771877
 30
0.0
 10
4.8052460137
 20
18.3074780526
 30
0.0
 10
4.8052361179
 20
18.3074725494
 30
0.0
 10
4.8052330771
 20
18.3074690156
 30
0.0
  0
SPLINE
  5
4A6
100
AcDbEntity
  8
0
100
AcDbSpline
 62
7
  6
CONTINUOUS
 70
0
 71
3
 72
55
 73
51
 74
0
 42
0.0000001
 43
0.0000001
 44
0.0000000001
 40
0.0
 40
0.0
 40
0.0
 40
0.0
 40
0.0011108479
 40
0.001523813
 40
0.0020009853
 40
0.0031577648
 40
0.004594807
 40
0.0063180262
 40
0.0083300146
 40
0.0106318572
 40
0.0161053175
 40
0.0227329446
 40
0.0305020279
 40
0.0393962435
 40
0.0604738462
 40
0.0857663782
 40
0.1150304752
 40
0.1479843046
 40
0.184311294
 40
0.2236631142
 40
0.2656635241
 40
0.3099122911
 40
0.3559879895
 40
0.4034517719
 40
0.5007266692
 40
0.5980311469
 40
0.6455269002
 40
0.6916382459
 40
0.7359182788
 40
0.7779366191
 40
0.8172837228
 40
0.8535746815
 40
0.886454041
 40
0.9156004651
 40
0.9286836686
 40
0.9407303001
 40
0.9517117274
 40
0.9616013844
 40
0.970377094
 40
0.978018604
 40
0.9845109187
 40
0.9898426285
 40
0.9920718383
 40
0.9940104481
 40
0.9956600085
 40
0.9970238603
 40
0.9981093507
 40
0.998932367
 40
0.9995305821
 40
1.0
 40
1.0
 40
1.0
 40
1.0
 10
4.9838068624
 20
18.1143694906
 30
0.0
 10
4.9838396777
 20
18.114397727
 30
0.0
 10
4.9838475798
 20
18.1144686665
 30
0.0
 10
4.9838385891
 20
18.1145444613
 30
0.0
 10
4.9838227383
 20
18.1146231931
 30
0.0
 10
4.9837870005
 20
18.1147373891
 30
0.0
 10
4.9837245182
 20
18.1148938043
 30
0.0
 10
4.9836396126
 20
18.1150766656
 30
0.0
 10
4.9835323308
 20
18.1152861129
 30
0.0
 10
4.983348462
 20
18.1156203373
 30
0.0
 10
4.9830605634
 20
18.1161023615
 30
0.0
 10
4.9826444427
 20
18.1167554906
 30
0.0
 10
4.9821407901
 20
18.1175106842
 30
0.0
 10
4.9813055201
 20
18.1187213656
 30
0.0
 10
4.9800489896
 20
18.1204707694
 30
0.0
 10
4.9782921795
 20
18.1228376651
 30
0.0
 10
4.9762278583
 20
18.1255524189
 30
0.0
 10
4.9738760149
 20
18.1285885458
 30
0.0
 10
4.9712591934
 20
18.1319165494
 30
0.0
 10
4.9684025213
 20
18.1355043335
 30
0.0
 10
4.9653333348
 20
18.1393174472
 30
0.0
 10
4.9620809438
 20
18.1433193993
 30
0.0
 10
4.9586763728
 20
18.1474719709
 30
0.0
 10
4.9539385049
 20
18.1532035942
 30
0.0
 10
4.9478868559
 20
18.160439362
 30
0.0
 10
4.9417818966
 20
18.1676318426
 30
0.0
 10
4.9369346347
 20
18.1732762473
 30
0.0
 10
4.9334172273
 20
18.1773387839
 30
0.0
 10
4.9300226949
 20
18.1812252904
 30
0.0
 10
4.9267840957
 20
18.184897918
 30
0.0
 10
4.9237331
 20
18.1883207886
 30
0.0
 10
4.9208996746
 20
18.1914603866
 30
0.0
 10
4.9183117139
 20
18.1942858892
 30
0.0
 10
4.9163151281
 20
18.1964264365
 30
0.0
 10
4.9148580926
 20
18.1979598229
 30
0.0
 10
4.9138815116
 20
18.1989731548
 30
0.0
 10
4.9129836062
 20
18.1998894055
 30
0.0
 10
4.9121665715
 20
18.2007063567
 30
0.0
 10
4.911432469
 20
18.201422057
 30
0.0
 10
4.9107831113
 20
18.2020348868
 30
0.0
 10
4.9102201338
 20
18.202543435
 30
0.0
 10
4.9098026691
 20
18.2028981896
 30
0.0
 10
4.9095116656
 20
18.2031271183
 30
0.0
 10
4.9093290934
 20
18.2032615986
 30
0.0
 10
4.9091689472
 20
18.2033694588
 30
0.0
 10
4.9090313115
 20
18.203450698
 30
0.0
 10
4.9089159052
 20
18.203505824
 30
0.0
 10
4.9088223537
 20
18.2035347962
 30
0.0
 10
4.9087469291
 20
18.2035391371
 30
0.0
 10
4.9087075686
 20
18.203517765
 30
0.0
 10
4.9086956366
 20
18.2035038981
 30
0.0
  0
SPLINE
  5
4A7
100
AcDbEntity
  8
0
100
AcDbSpline
 62
7
  6
CONTINUOUS
 70
0
 71
3
 72
54
 73
50
 74
0
 42
0.0000001
 43
0.0000001
 44
0.0000000001
 40
0.0
 40
0.0
 40
0.0
 40
0.0
 40
0.0006850857
 40
0.0014918386
 40
0.0024980414
 40
0.00374433
 40
0.0052517276
 40
0.0070313716
 40
0.0090892882
 40
0.0114288633
 40
0.0169587523
 40
0.0236236014
 40
0.0314156486
 40
0.0403210301
 40
0.0503212073
 40
0.0613944097
 40
0.0735149831
 40
0.0866552268
 40
0.1158676398
 40
0.1487562067
 40
0.1850093222
 40
0.2242828702
 40
0.2662041343
 40
0.3103754963
 40
0.4037708896
 40
0.5009181336
 40
0.5981029902
 40
0.6915841445
 40
0.7777376134
 40
0.8170039464
 40
0.8532096106
 40
0.8860016635
 40
0.9150626383
 40
0.9281057117
 40
0.940114759
 40
0.951062629
 40
0.9609240685
 40
0.969678568
 40
0.9773085854
 40
0.9838022053
 40
0.9891537549
 40
0.9914025944
 40
0.9933695283
 40
0.9950588696
 40
0.9964781591
 40
0.9976413135
 40
0.9985747378
 40
0.9993296787
 40
1.0
 40
1.0
 40
1.0
 40
1.0
 10
5.152014846
 20
17.9469539929
 30
0.0
 10
5.1520351254
 20
17.9469714427
 30
0.0
 10
5.1520700396
 20
17.9470207208
 30
0.0
 10
5.1520926069
 20
17.9471170997
 30
0.0
 10
5.1520918728
 20
17.9472372148
 30
0.0
 10
5.1520685822
 20
17.9473825617
 30
0.0
 10
5.1520228325
 20
17.9475537914
 30
0.0
 10
5.1519544797
 20
17.9477511479
 30
0.0
 10
5.1518634873
 20
17.9479746444
 30
0.0
 10
5.1517026874
 20
17.9483274899
 30
0.0
 10
5.1514418016
 20
17.948831904
 30
0.0
 10
5.1510550621
 20
17.9495099985
 30
0.0
 10
5.1505795213
 20
17.9502887161
 30
0.0
 10
5.1500162736
 20
17.9511661237
 30
0.0
 10
5.1493665451
 20
17.9521400455
 30
0.0
 10
5.1486318694
 20
17.9532080546
 30
0.0
 10
5.1478140107
 20
17.9543675495
 30
0.0
 10
5.1465705856
 20
17.9560935823
 30
0.0
 10
5.1448219606
 20
17.958455028
 30
0.0
 10
5.142496582
 20
17.9615120376
 30
0.0
 10
5.1398980577
 20
17.9648546192
 30
0.0
 10
5.1370511919
 20
17.9684506799
 30
0.0
 10
5.1339830895
 20
17.9722657904
 30
0.0
 10
5.1295532104
 20
17.9776977355
 30
0.0
 10
5.1236933716
 20
17.984746116
 30
0.0
 10
5.1164159912
 20
17.9933073298
 30
0.0
 10
5.1090462628
 20
18.0017936443
 30
0.0
 10
5.1018686596
 20
18.0098773193
 30
0.0
 10
5.0961145784
 20
18.0161995119
 30
0.0
 10
5.0918112619
 20
18.0208168153
 30
0.0
 10
5.0889010476
 20
18.0238837196
 30
0.0
 10
5.0862356235
 20
18.0266332178
 30
0.0
 10
5.0841722702
 20
18.0287063067
 30
0.0
 10
5.0826615311
 20
18.0301839169
 30
0.0
 10
5.0816464429
 20
18.03115658
 30
0.0
 10
5.0807103765
 20
18.0320320027
 30
0.0
 10
5.0798555895
 20
18.0328081066
 30
0.0
 10
5.0790842155
 20
18.0334830984
 30
0.0
 10
5.0783981317
 20
18.034055552
 30
0.0
 10
5.0777990111
 20
18.0345242238
 30
0.0
 10
5.0773508639
 20
18.0348443275
 30
0.0
 10
5.0770355265
 20
18.0350448783
 30
0.0
 10
5.0768355214
 20
18.0351598581
 30
0.0
 10
5.0766580438
 20
18.0352484474
 30
0.0
 10
5.0765030258
 20
18.0353107376
 30
0.0
 10
5.0763701021
 20
18.0353468898
 30
0.0
 10
5.0762583703
 20
18.0353569082
 30
0.0
 10
5.0761660343
 20
18.0353391235
 30
0.0
 10
5.0761191036
 20
18.0353051762
 30
0.0
 10
5.07610203
 20
18.0352853339
 30
0.0
  0
SPLINE
  5
4A8
100
AcDbEntity
  8
0
100
AcDbSpline
 62
7
  6
CONTINUOUS
 70
0
 71
3
 72
52
 73
48
 74
0
 42
0.0000001
 43
0.0000001
 44
0.0000000001
 40
0.0
 40
0.0
 40
0.0
 40
0.0
 40
0.0008551899
 40
0.0018064792
 40
0.0029276703
 40
0.0042644002
 40
0.0058434285
 40
0.0076803416
 40
0.0121596888
 40
0.017743005
 40
0.02444042
 40
0.0322493433
 40
0.0411592299
 40
0.0511539801
 40
0.0622135822
 40
0.0743138506
 40
0.0874282541
 40
0.1165762087
 40
0.1493888748
 40
0.1855598894
 40
0.2247492006
 40
0.3106770031
 40
0.4039225169
 40
0.5009323277
 40
0.5979815085
 40
0.6913163528
 40
0.7354478652
 40
0.7773080607
 40
0.816488949
 40
0.852609416
 40
0.8853203136
 40
0.9143093433
 40
0.9273220486
 40
0.9393057941
 40
0.9502346812
 40
0.9600849888
 40
0.9688381465
 40
0.9764792109
 40
0.9829999593
 40
0.9884004161
 40
0.992695432
 40
0.9944422676
 40
0.9959349706
 40
0.997192574
 40
0.9982477014
 40
0.9991553323
 40
1.0
 40
1.0
 40
1.0
 40
1.0
 10
5.3771220535
 20
17.7229091756
 30
0.0
 10
5.3771474205
 20
17.722931003
 30
0.0
 10
5.3771925598
 20
17.7229876124
 30
0.0
 10
5.377231782
 20
17.7230967744
 30
0.0
 10
5.3772464864
 20
17.7232302176
 30
0.0
 10
5.3772378516
 20
17.7233884359
 30
0.0
 10
5.3772062294
 20
17.7235720113
 30
0.0
 10
5.3771279618
 20
17.72387117
 30
0.0
 10
5.3769658465
 20
17.7243086828
 30
0.0
 10
5.376692648
 20
17.7249052279
 30
0.0
 10
5.3763286269
 20
17.7256023441
 30
0.0
 10
5.3758744781
 20
17.7263983665
 30
0.0
 10
5.3753309268
 20
17.7272914237
 30
0.0
 10
5.3746991813
 20
17.7282793344
 30
0.0
 10
5.3739806614
 20
17.7293596758
 30
0.0
 10
5.3731770704
 20
17.730529846
 30
0.0
 10
5.3719507609
 20
17.732268187
 30
0.0
 10
5.3702175683
 20
17.7346405443
 30
0.0
 10
5.3679017599
 20
17.7377039087
 30
0.0
 10
5.3653042637
 20
17.7410464226
 30
0.0
 10
5.3613757028
 20
17.74598636
 30
0.0
 10
5.3559581533
 20
17.7525950495
 30
0.0
 10
5.3489776222
 20
17.7608463272
 30
0.0
 10
5.341597289
 20
17.7693280107
 30
0.0
 10
5.3341014997
 20
17.7777124767
 30
0.0
 10
5.3278901453
 20
17.7844685307
 30
0.0
 10
5.3230786627
 20
17.7895768094
 30
0.0
 10
5.319689061
 20
17.7931129275
 30
0.0
 10
5.3164840084
 20
17.7963914049
 30
0.0
 10
5.313495088
 20
17.7993801409
 30
0.0
 10
5.310751732
 20
17.8020499363
 30
0.0
 10
5.3086225917
 20
17.8040538625
 30
0.0
 10
5.3070597754
 20
17.8054753772
 30
0.0
 10
5.3060075741
 20
17.80640777
 30
0.0
 10
5.3050350518
 20
17.8072432814
 30
0.0
 10
5.3041445229
 20
17.8079799549
 30
0.0
 10
5.3033381804
 20
17.8086161853
 30
0.0
 10
5.3026179394
 20
17.8091506038
 30
0.0
 10
5.3019854769
 20
17.8095824486
 30
0.0
 10
5.3014422197
 20
17.8099109616
 30
0.0
 10
5.3010407406
 20
17.8101116165
 30
0.0
 10
5.3007639198
 20
17.8102140277
 30
0.0
 10
5.3005934741
 20
17.810259227
 30
0.0
 10
5.3004452121
 20
17.8102783562
 30
0.0
 10
5.3003183707
 20
17.8102709503
 30
0.0
 10
5.3002126454
 20
17.8102352505
 30
0.0
 10
5.3001579514
 20
17.8101910311
 30
0.0
 10
5.3001363925
 20
17.8101659762
 30
0.0
  0
SPLINE
  5
4A9
100
AcDbEntity
  8
0
100
AcDbSpline
 62
7
  6
CONTINUOUS
 70
0
 71
3
 72
53
 73
49
 74
0
 42
0.0000001
 43
0.0000001
 44
0.0000000001
 40
0.0
 40
0.0
 40
0.0
 40
0.0
 40
0.0009895247
 40
0.0020578186
 40
0.0032745303
 40
0.0046872404
 40
0.0063262882
 40
0.0082105842
 40
0.0127559471
 40
0.0183781685
 40
0.0250955029
 40
0.0329099514
 40
0.0418146201
 40
0.051795363
 40
0.0628343467
 40
0.0749085198
 40
0.0879926102
 40
0.1170709639
 40
0.149807189
 40
0.1858995485
 40
0.2250111698
 40
0.2667741717
 40
0.3107938303
 40
0.4039077922
 40
0.5007934086
 40
0.5977134601
 40
0.6909053218
 40
0.734960272
 40
0.776742347
 40
0.8158460899
 40
0.8518938758
 40
0.884540989
 40
0.9134806514
 40
0.9264760583
 40
0.9384490238
 40
0.9493744277
 40
0.9592300469
 40
0.9679991425
 40
0.9756687793
 40
0.9822343036
 40
0.9877002541
 40
0.992089753
 40
0.9938989175
 40
0.9954670116
 40
0.996816118
 40
0.9979814408
 40
0.9990173124
 40
1.0
 40
1.0
 40
1.0
 40
1.0
 10
5.6492909956
 20
17.4520275398
 30
0.0
 10
5.6493204009
 20
17.452052842
 30
0.0
 10
5.6493734758
 20
17.4521155355
 30
0.0
 10
5.6494253649
 20
17.4522344527
 30
0.0
 10
5.6494520996
 20
17.4523778732
 30
0.0
 10
5.6494547718
 20
17.4525457514
 30
0.0
 10
5.6494338713
 20
17.4527384977
 30
0.0
 10
5.649370492
 20
17.4530487495
 30
0.0
 10
5.6492251441
 20
17.453499565
 30
0.0
 10
5.6489688601
 20
17.4541102995
 30
0.0
 10
5.6486201035
 20
17.4548196919
 30
0.0
 10
5.6481794797
 20
17.4556261502
 30
0.0
 10
5.6476476011
 20
17.4565278462
 30
0.0
 10
5.6470256225
 20
17.4575226499
 30
0.0
 10
5.6463148786
 20
17.4586081336
 30
0.0
 10
5.6455170385
 20
17.4597817343
 30
0.0
 10
5.6442958336
 20
17.4615223958
 30
0.0
 10
5.6425630327
 20
17.4638932106
 30
0.0
 10
5.6402392068
 20
17.4669482968
 30
0.0
 10
5.6376251004
 20
17.4702761085
 30
0.0
 10
5.6347454511
 20
17.4738447871
 30
0.0
 10
5.6316275647
 20
17.4776201392
 30
0.0
 10
5.6271069409
 20
17.4829822728
 30
0.0
 10
5.6210954249
 20
17.4899133405
 30
0.0
 10
5.6135882415
 20
17.4982903893
 30
0.0
 10
5.605948382
 20
17.5065507786
 30
0.0
 10
5.5996059515
 20
17.5131883937
 30
0.0
 10
5.5946860554
 20
17.5181939826
 30
0.0
 10
5.5912169762
 20
17.521651996
 30
0.0
 10
5.5879332785
 20
17.5248509331
 30
0.0
 10
5.5848672476
 20
17.5277596153
 30
0.0
 10
5.5820489547
 20
17.5303498119
 30
0.0
 10
5.5798578613
 20
17.5322862565
 30
0.0
 10
5.578246803
 20
17.5336541497
 30
0.0
 10
5.5771604628
 20
17.5345486522
 30
0.0
 10
5.5761547353
 20
17.5353471212
 30
0.0
 10
5.5752319905
 20
17.5360477149
 30
0.0
 10
5.5743944745
 20
17.5366489688
 30
0.0
 10
5.5736441181
 20
17.5371496233
 30
0.0
 10
5.572982597
 20
17.5375490715
 30
0.0
 10
5.5724113038
 20
17.5378466791
 30
0.0
 10
5.5719869729
 20
17.5380207123
 30
0.0
 10
5.5716931135
 20
17.5381019026
 30
0.0
 10
5.5715100013
 20
17.538132856
 30
0.0
 10
5.571349382
 20
17.5381378895
 30
0.0
 10
5.5712107805
 20
17.5381163796
 30
0.0
 10
5.5710944718
 20
17.5380669687
 30
0.0
 10
5.5710331581
 20
17.5380146173
 30
0.0
 10
5.5710080307
 20
17.5379854152
 30
0.0
  0
SPLINE
  5
4AA
100
AcDbEntity
  8
0
100
AcDbSpline
 62
7
  6
CONTINUOUS
 70
0
 71
3
 72
51
 73
47
 74
0
 42
0.0000001
 43
0.0000001
 44
0.0000000001
 40
0.0
 40
0.0
 40
0.0
 40
0.0
 40
0.0010820199
 40
0.0022304616
 40
0.0035122693
 40
0.0049759554
 40
0.0085633973
 40
0.0131457519
 40
0.0187843056
 40
0.0255036213
 40
0.0333096543
 40
0.042198273
 40
0.0521572506
 40
0.0631702793
 40
0.0752154816
 40
0.0882684948
 40
0.1172813924
 40
0.1499515938
 40
0.1859804306
 40
0.2250327546
 40
0.2667413277
 40
0.3107111189
 40
0.4037342707
 40
0.500530191
 40
0.5973495589
 40
0.6904255732
 40
0.7344192312
 40
0.7761405585
 40
0.8151872434
 40
0.8511854888
 40
0.883794897
 40
0.9127134628
 40
0.925706257
 40
0.9376828472
 40
0.9486189484
 40
0.9584933212
 40
0.9672904142
 40
0.9749988787
 40
0.981616226
 40
0.9871502567
 40
0.9916291814
 40
0.9951207002
 40
0.9965436133
 40
0.9977931383
 40
0.9989217624
 40
1.0
 40
1.0
 40
1.0
 40
1.0
 10
5.9566273306
 20
17.1461485557
 30
0.0
 10
5.9566595277
 20
17.1461762601
 30
0.0
 10
5.9567180276
 20
17.1462431927
 30
0.0
 10
5.9567783696
 20
17.1463686399
 30
0.0
 10
5.9568130978
 20
17.1465185023
 30
0.0
 10
5.9568272157
 20
17.1467675971
 30
0.0
 10
5.9567727614
 20
17.1471448419
 30
0.0
 10
5.9566190201
 20
17.1476653825
 30
0.0
 10
5.9563712237
 20
17.1482833618
 30
0.0
 10
5.9560294628
 20
17.1489977031
 30
0.0
 10
5.9555938001
 20
17.1498073422
 30
0.0
 10
5.9550649479
 20
17.1507103597
 30
0.0
 10
5.9544439645
 20
17.151704718
 30
0.0
 10
5.953732158
 20
17.1527880018
 30
0.0
 10
5.9529311702
 20
17.1539576861
 30
0.0
 10
5.9517026461
 20
17.1556906599
 30
0.0
 10
5.9499549699
 20
17.1580475592
 30
0.0
 10
5.9476056909
 20
17.161079986
 30
0.0
 10
5.9449579964
 20
17.1643789439
 30
0.0
 10
5.9420369395
 20
17.1679127853
 30
0.0
 10
5.9388702724
 20
17.171647526
 30
0.0
 10
5.9342738734
 20
17.1769471799
 30
0.0
 10
5.9281539026
 20
17.1837871839
 30
0.0
 10
5.9205019911
 20
17.1920378796
 30
0.0
 10
5.9127071741
 20
17.200156579
 30
0.0
 10
5.9062303249
 20
17.2066652202
 30
0.0
 10
5.9012029337
 20
17.2115629614
 30
0.0
 10
5.897656546
 20
17.2149409977
 30
0.0
 10
5.8942978103
 20
17.2180604642
 30
0.0
 10
5.8911595974
 20
17.2208911619
 30
0.0
 10
5.8882725111
 20
17.2234058401
 30
0.0
 10
5.8860258092
 20
17.2252799244
 30
0.0
 10
5.8843722596
 20
17.2265994358
 30
0.0
 10
5.8832561158
 20
17.2274603283
 30
0.0
 10
5.8822217713
 20
17.2282264693
 30
0.0
 10
5.8812716353
 20
17.2288961172
 30
0.0
 10
5.8804080119
 20
17.2294678877
 30
0.0
 10
5.8796328078
 20
17.2299406678
 30
0.0
 10
5.8789478583
 20
17.2303137492
 30
0.0
 10
5.8783540565
 20
17.2305871
 30
0.0
 10
5.877852377
 20
17.2307607354
 30
0.0
 10
5.877486501
 20
17.2308279722
 30
0.0
 10
5.8772436652
 20
17.2308205795
 30
0.0
 10
5.8770967462
 20
17.2307889906
 30
0.0
 10
5.8769729175
 20
17.2307301325
 30
0.0
 10
5.8769068104
 20
17.2306720859
 30
0.0
 10
5.8768792028
 20
17.2306400014
 30
0.0
  0
SPLINE
  5
4AB
100
AcDbEntity
  8
0
100
AcDbSpline
 62
7
  6
CONTINUOUS
 70
0
 71
3
 72
51
 73
47
 74
0
 42
0.0000001
 43
0.0000001
 44
0.0000000001
 40
0.0
 40
0.0
 40
0.0
 40
0.0
 40
0.0011286798
 40
0.0023150747
 40
0.0036252588
 40
0.0051086413
 40
0.0087151185
 40
0.013298419
 40
0.0189264484
 40
0.025627868
 40
0.0334110999
 40
0.0422738636
 40
0.0522051347
 40
0.063189594
 40
0.0752061484
 40
0.0882309189
 40
0.1171904588
 40
0.1498133071
 40
0.1858018736
 40
0.2248209991
 40
0.2665025582
 40
0.3104499727
 40
0.4034342786
 40
0.5001861804
 40
0.5969463748
 40
0.6899493542
 40
0.7339051889
 40
0.7755912237
 40
0.8146083017
 40
0.8505859744
 40
0.8831872368
 40
0.9121133377
 40
0.925116788
 40
0.9371090601
 40
0.9480663181
 40
0.9579677011
 40
0.9667981585
 40
0.9745469973
 40
0.9812125297
 40
0.986803873
 40
0.9913510254
 40
0.9949242281
 40
0.9963935995
 40
0.9976927922
 40
0.9988725247
 40
1.0
 40
1.0
 40
1.0
 40
1.0
 10
6.285699576
 20
16.8186411104
 30
0.0
 10
6.2857331854
 20
16.8186700301
 30
0.0
 10
6.2857943785
 20
16.8187390236
 30
0.0
 10
6.2858587636
 20
16.8188675294
 30
0.0
 10
6.2858970291
 20
16.8190201567
 30
0.0
 10
6.2859153426
 20
16.8192718475
 30
0.0
 10
6.2858647264
 20
16.8196516824
 30
0.0
 10
6.285712982
 20
16.8201737098
 30
0.0
 10
6.2854652942
 20
16.8207911523
 30
0.0
 10
6.2851216692
 20
16.8215030381
 30
0.0
 10
6.2846821668
 20
16.8223083999
 30
0.0
 10
6.2841474512
 20
16.8232053583
 30
0.0
 10
6.2835185725
 20
16.8241919262
 30
0.0
 10
6.2827968258
 20
16.8252657223
 30
0.0
 10
6.2819838572
 20
16.8264242582
 30
0.0
 10
6.2807358173
 20
16.8281397632
 30
0.0
 10
6.2789585823
 20
16.8304707651
 30
0.0
 10
6.2765675271
 20
16.8334668107
 30
0.0
 10
6.2738707912
 20
16.8367235888
 30
0.0
 10
6.2708939731
 20
16.8402097239
 30
0.0
 10
6.2676654866
 20
16.843891511
 30
0.0
 10
6.2629777328
 20
16.8491126277
 30
0.0
 10
6.2567344931
 20
16.8558436976
 30
0.0
 10
6.2489273083
 20
16.8639511151
 30
0.0
 10
6.2409741508
 20
16.8719164248
 30
0.0
 10
6.2343658154
 20
16.878291439
 30
0.0
 10
6.2292366135
 20
16.8830814073
 30
0.0
 10
6.2256183771
 20
16.8863815932
 30
0.0
 10
6.222191296
 20
16.8894257115
 30
0.0
 10
6.2189887105
 20
16.8921845115
 30
0.0
 10
6.2160416544
 20
16.8946316445
 30
0.0
 10
6.2137477768
 20
16.8964517286
 30
0.0
 10
6.2120590224
 20
16.8977305984
 30
0.0
 10
6.2109185307
 20
16.8985638554
 30
0.0
 10
6.2098612293
 20
16.8993039984
 30
0.0
 10
6.2088895674
 20
16.8999493486
 30
0.0
 10
6.2080058884
 20
16.9004985863
 30
0.0
 10
6.2072121352
 20
16.9009506443
 30
0.0
 10
6.206510157
 20
16.9013048618
 30
0.0
 10
6.2059008602
 20
16.9015611895
 30
0.0
 10
6.2053851775
 20
16.9017196609
 30
0.0
 10
6.2050091535
 20
16.9017745728
 30
0.0
 10
6.204759573
 20
16.9017585094
 30
0.0
 10
6.2046079373
 20
16.9017212912
 30
0.0
 10
6.2044799802
 20
16.9016574004
 30
0.0
 10
6.2044112615
 20
16.9015963608
 30
0.0
 10
6.2043823726
 20
16.9015627872
 30
0.0
  0
SPLINE
  5
4AC
100
AcDbEntity
  8
0
100
AcDbSpline
 62
7
  6
CONTINUOUS
 70
0
 71
3
 72
51
 73
47
 74
0
 42
0.0000001
 43
0.0000001
 44
0.0000000001
 40
0.0
 40
0.0
 40
0.0
 40
0.0
 40
0.0011274754
 40
0.0023072084
 40
0.0036064017
 40
0.0050757739
 40
0.0086489783
 40
0.0131961331
 40
0.0187874776
 40
0.0254530122
 40
0.033201852
 40
0.0420323104
 40
0.0519336939
 40
0.062890951
 40
0.0748832218
 40
0.0878866682
 40
0.1168127615
 40
0.149414021
 40
0.1853916904
 40
0.2244087611
 40
0.2660947893
 40
0.3100506181
 40
0.4030535729
 40
0.4998137568
 40
0.5965656388
 40
0.6895499567
 40
0.7334973727
 40
0.7751789288
 40
0.814198049
 40
0.8501866154
 40
0.8828094692
 40
0.9117690204
 40
0.9247937957
 40
0.9368103585
 40
0.947794824
 40
0.9577261021
 40
0.9665888734
 40
0.9743721103
 40
0.9810735365
 40
0.9867015694
 40
0.9912848749
 40
0.9948913556
 40
0.9963747394
 40
0.9976849245
 40
0.99887132
 40
1.0
 40
1.0
 40
1.0
 40
1.0
 10
6.6221260253
 20
16.4838191345
 30
0.0
 10
6.6221595989
 20
16.4838480234
 30
0.0
 10
6.6222206385
 20
16.4839167421
 30
0.0
 10
6.6222845293
 20
16.4840446994
 30
0.0
 10
6.6223217474
 20
16.4841963351
 30
0.0
 10
6.6223378108
 20
16.4844459157
 30
0.0
 10
6.622282899
 20
16.4848219399
 30
0.0
 10
6.6221244273
 20
16.4853376227
 30
0.0
 10
6.6218680995
 20
16.4859469198
 30
0.0
 10
6.6215138818
 20
16.4866488981
 30
0.0
 10
6.6210618237
 20
16.4874426514
 30
0.0
 10
6.620512586
 20
16.4883263305
 30
0.0
 10
6.6198672356
 20
16.4892979923
 30
0.0
 10
6.6191270927
 20
16.4903552937
 30
0.0
 10
6.6182938358
 20
16.4914957852
 30
0.0
 10
6.6170149663
 20
16.4931845392
 30
0.0
 10
6.6151948826
 20
16.4954784163
 30
0.0
 10
6.6127477499
 20
16.4984254721
 30
0.0
 10
6.6099889503
 20
16.5016280571
 30
0.0
 10
6.6069448324
 20
16.5050551377
 30
0.0
 10
6.6036446471
 20
16.5086733735
 30
0.0
 10
6.5988546798
 20
16.5138025744
 30
0.0
 10
6.5924796668
 20
16.5204109087
 30
0.0
 10
6.5845143587
 20
16.5283640648
 30
0.0
 10
6.5764069418
 20
16.5361712491
 30
0.0
 10
6.5696758722
 20
16.5424144888
 30
0.0
 10
6.5644547553
 20
16.547102243
 30
0.0
 10
6.5607729685
 20
16.5503307294
 30
0.0
 10
6.5572868337
 20
16.5533075473
 30
0.0
 10
6.5540300557
 20
16.5560042834
 30
0.0
 10
6.5510340097
 20
16.5583953391
 30
0.0
 10
6.5487030073
 20
16.5601725749
 30
0.0
 10
6.5469875016
 20
16.5614206153
 30
0.0
 10
6.5458289651
 20
16.5622335845
 30
0.0
 10
6.5447551683
 20
16.5629553317
 30
0.0
 10
6.5437685998
 20
16.5635842109
 30
0.0
 10
6.5428716409
 20
16.5641189271
 30
0.0
 10
6.5420662784
 20
16.5645584298
 30
0.0
 10
6.5413543922
 20
16.5649020554
 30
0.0
 10
6.5407369491
 20
16.5651497434
 30
0.0
 10
6.5402149214
 20
16.5653014882
 30
0.0
 10
6.539835086
 20
16.5653521045
 30
0.0
 10
6.539583395
 20
16.5653337909
 30
0.0
 10
6.5394307676
 20
16.5652955254
 30
0.0
 10
6.5393022617
 20
16.5652311404
 30
0.0
 10
6.5392332682
 20
16.5651699474
 30
0.0
 10
6.5392043484
 20
16.5651363379
 30
0.0
  0
SPLINE
  5
4AD
100
AcDbEntity
  8
0
100
AcDbSpline
 62
7
  6
CONTINUOUS
 70
0
 71
3
 72
51
 73
47
 74
0
 42
0.0000001
 43
0.0000001
 44
0.0000000001
 40
0.0
 40
0.0
 40
0.0
 40
0.0
 40
0.0010782375
 40
0.0022068613
 40
0.0034563857
 40
0.0048792982
 40
0.008370815
 40
0.0128497364
 40
0.0183837644
 40
0.0250011066
 40
0.0327095668
 40
0.0415066537
 40
0.0513810198
 40
0.0623171145
 40
0.0742936945
 40
0.0872864798
 40
0.1162050226
 40
0.1488144128
 40
0.1848126385
 40
0.2238592975
 40
0.2655806026
 40
0.3095742425
 40
0.4026502058
 40
0.4994695457
 40
0.596265439
 40
0.6892886011
 40
0.7332583987
 40
0.7749669708
 40
0.8140192881
 40
0.8500481391
 40
0.8827183703
 40
0.9117313048
 40
0.9247843332
 40
0.936829563
 40
0.947842615
 40
0.9578016157
 40
0.9666902609
 40
0.9744963106
 40
0.9812156479
 40
0.9868542135
 40
0.9914365834
 40
0.9950240356
 40
0.9964877254
 40
0.9977695362
 40
0.9989179797
 40
1.0
 40
1.0
 40
1.0
 40
1.0
 10
6.9512032395
 20
16.1563159647
 30
0.0
 10
6.951235324
 20
16.1563435723
 30
0.0
 10
6.9512933706
 20
16.1564096794
 30
0.0
 10
6.9513522287
 20
16.156533508
 30
0.0
 10
6.9513838176
 20
16.156680427
 30
0.0
 10
6.9513912103
 20
16.1569232626
 30
0.0
 10
6.9513239736
 20
16.1572891384
 30
0.0
 10
6.9511503385
 20
16.1577908176
 30
0.0
 10
6.9508769878
 20
16.158384619
 30
0.0
 10
6.9505039068
 20
16.1590695682
 30
0.0
 10
6.950031127
 20
16.1598447718
 30
0.0
 10
6.949459357
 20
16.1607083948
 30
0.0
 10
6.9487897096
 20
16.1616585302
 30
0.0
 10
6.9480235692
 20
16.162692874
 30
0.0
 10
6.9471626775
 20
16.163809017
 30
0.0
 10
6.945843167
 20
16.1654625654
 30
0.0
 10
6.9439690843
 20
16.1677092659
 30
0.0
 10
6.9414544078
 20
16.1705963505
 30
0.0
 10
6.9386237119
 20
16.1737345617
 30
0.0
 10
6.9355042474
 20
16.1770932956
 30
0.0
 10
6.932126213
 20
16.1806396816
 30
0.0
 10
6.9272284745
 20
16.1856670704
 30
0.0
 10
6.9207198362
 20
16.1921439171
 30
0.0
 10
6.9126011402
 20
16.1999387317
 30
0.0
 10
6.9043504463
 20
16.2075906425
 30
0.0
 10
6.8975104429
 20
16.2137106133
 30
0.0
 10
6.8922107888
 20
16.2183070131
 30
0.0
 10
6.8884760484
 20
16.2214736804
 30
0.0
 10
6.8849422071
 20
16.2243947378
 30
0.0
 10
6.8816432484
 20
16.2270424336
 30
0.0
 10
6.8786108195
 20
16.229391715
 30
0.0
 10
6.876253918
 20
16.2311393937
 30
0.0
 10
6.8745209417
 20
16.2323679197
 30
0.0
 10
6.8733512556
 20
16.2331689094
 30
0.0
 10
6.8722679696
 20
16.2338807178
 30
0.0
 10
6.8712736089
 20
16.2345017029
 30
0.0
 10
6.8703705896
 20
16.235030557
 30
0.0
 10
6.8695609482
 20
16.2354662208
 30
0.0
 10
6.8688466055
 20
16.2358079834
 30
0.0
 10
6.8682286244
 20
16.2360557806
 30
0.0
 10
6.8677080826
 20
16.2362095229
 30
0.0
 10
6.8673308367
 20
16.2362639774
 30
0.0
 10
6.8670817412
 20
16.2362498595
 30
0.0
 10
6.8669318784
 20
16.2362151314
 30
0.0
 10
6.8668064309
 20
16.2361547895
 30
0.0
 10
6.8667394982
 20
16.2360962896
 30
0.0
 10
6.8667117938
 20
16.2360640926
 30
0.0
  0
SPLINE
  5
4AE
100
AcDbEntity
  8
0
100
AcDbSpline
 62
7
  6
CONTINUOUS
 70
0
 71
3
 72
53
 73
49
 74
0
 42
0.0000001
 43
0.0000001
 44
0.0000000001
 40
0.0
 40
0.0
 40
0.0
 40
0.0
 40
0.0009826874
 40
0.0020185583
 40
0.0031838798
 40
0.0045329846
 40
0.0061010769
 40
0.0079102385
 40
0.0122997296
 40
0.0177656743
 40
0.0243311871
 40
0.0320008137
 40
0.0407698941
 40
0.0506254963
 40
0.0615508842
 40
0.0735238258
 40
0.0865192146
 40
0.1154588277
 40
0.1481058914
 40
0.1841536256
 40
0.2232573123
 40
0.2650393313
 40
0.3090942293
 40
0.4022859777
 40
0.4992059503
 40
0.5960914958
 40
0.6892054167
 40
0.7332250792
 40
0.7749881174
 40
0.8140998049
 40
0.8501922589
 40
0.8829285901
 40
0.912007055
 40
0.9250911929
 40
0.9371654227
 40
0.9482044553
 40
0.9581852382
 40
0.9670899493
 40
0.9749044241
 40
0.981621787
 40
0.9872440241
 40
0.9917894017
 40
0.9936737033
 40
0.9953127544
 40
0.9967254669
 40
0.9979421803
 40
0.9990104751
 40
1.0
 40
1.0
 40
1.0
 40
1.0
 10
7.2585486533
 20
15.8504447926
 30
0.0
 10
7.2585778554
 20
15.85046992
 30
0.0
 10
7.2586302068
 20
15.8505312336
 30
0.0
 10
7.2586796178
 20
15.8506475423
 30
0.0
 10
7.2587011277
 20
15.8507861436
 30
0.0
 10
7.2586960943
 20
15.8509467627
 30
0.0
 10
7.2586651408
 20
15.8511298747
 30
0.0
 10
7.2585839508
 20
15.8514237336
 30
0.0
 10
7.258409918
 20
15.851848064
 30
0.0
 10
7.2581123109
 20
15.8524193564
 30
0.0
 10
7.2577128637
 20
15.8530808767
 30
0.0
 10
7.2572122099
 20
15.8538312319
 30
0.0
 10
7.2566109572
 20
15.8546687468
 30
0.0
 10
7.2559103649
 20
15.8555914902
 30
0.0
 10
7.2551118973
 20
15.8565972159
 30
0.0
 10
7.2542173965
 20
15.8576835547
 30
0.0
 10
7.2528495057
 20
15.8592946102
 30
0.0
 10
7.2509130645
 20
15.8614857005
 30
0.0
 10
7.2483228722
 20
15.8643039894
 30
0.0
 10
7.2454141946
 20
15.8673700162
 30
0.0
 10
7.2422152623
 20
15.8706537096
 30
0.0
 10
7.2387572537
 20
15.8741227845
 30
0.0
 10
7.2337516715
 20
15.879042675
 30
0.0
 10
7.2271140638
 20
15.8853850994
 30
0.0
 10
7.2188536829
 20
15.8930249528
 30
0.0
 10
7.2104766406
 20
15.9005321322
 30
0.0
 10
7.2035455768
 20
15.9065436463
 30
0.0
 10
7.1981834439
 20
15.9110642709
 30
0.0
 10
7.1944080892
 20
15.9141821606
 30
0.0
 10
7.1908394052
 20
15.9170618155
 30
0.0
 10
7.187511586
 20
15.9196759293
 30
0.0
 10
7.1844564907
 20
15.9219997633
 30
0.0
 10
7.1820856681
 20
15.9237325712
 30
0.0
 10
7.1803449999
 20
15.9249537812
 30
0.0
 10
7.1791713946
 20
15.9257516253
 30
0.0
 10
7.1780859064
 20
15.9264623728
 30
0.0
 10
7.1770910984
 20
15.9270843542
 30
0.0
 10
7.1761893992
 20
15.9276162357
 30
0.0
 10
7.1753829375
 20
15.9280568613
 30
0.0
 10
7.174673543
 20
15.9284056197
 30
0.0
 10
7.1740628063
 20
15.9286619047
 30
0.0
 10
7.1736119896
 20
15.9288072534
 30
0.0
 10
7.1733017369
 20
15.9288706331
 30
0.0
 10
7.1731089902
 20
15.9288915336
 30
0.0
 10
7.1729411117
 20
15.9288888614
 30
0.0
 10
7.172797691
 20
15.9288621268
 30
0.0
 10
7.1726787736
 20
15.9288102378
 30
0.0
 10
7.1726160801
 20
15.9287571628
 30
0.0
 10
7.1725907778
 20
15.9287277575
 30
0.0
  0
SPLINE
  5
4AF
100
AcDbEntity
  8
0
100
AcDbSpline
 62
7
  6
CONTINUOUS
 70
0
 71
3
 72
52
 73
48
 74
0
 42
0.0000001
 43
0.0000001
 44
0.0000000001
 40
0.0
 40
0.0
 40
0.0
 40
0.0
 40
0.0008446438
 40
0.0017522687
 40
0.0028073997
 40
0.0040649988
 40
0.0055576824
 40
0.0073045352
 40
0.0115996026
 40
0.0169999776
 40
0.0235208204
 40
0.0311617886
 40
0.0399150196
 40
0.0497652874
 40
0.060694146
 40
0.07267798
 40
0.0856905457
 40
0.1146795816
 40
0.1473904687
 40
0.1835109741
 40
0.2226919358
 40
0.2645521323
 40
0.3086835268
 40
0.4020183033
 40
0.4990674083
 40
0.5960771489
 40
0.6893225403
 40
0.7752504444
 40
0.8144398911
 40
0.8506110052
 40
0.8834237132
 40
0.9125717023
 40
0.9256861036
 40
0.9377863773
 40
0.9488460782
 40
0.9588407426
 40
0.967750746
 40
0.9755595728
 40
0.9822570666
 40
0.9878403087
 40
0.99231969
 40
0.9941566226
 40
0.9957356344
 40
0.9970723571
 40
0.9981935498
 40
0.9991448331
 40
1.0
 40
1.0
 40
1.0
 40
1.0
 10
7.5307292143
 20
15.5795731545
 30
0.0
 10
7.5307542685
 20
15.5795947127
 30
0.0
 10
7.5307984861
 20
15.5796494069
 30
0.0
 10
7.5308341826
 20
15.5797551321
 30
0.0
 10
7.5308415876
 20
15.579881973
 30
0.0
 10
7.5308224608
 20
15.5800302344
 30
0.0
 10
7.5307772672
 20
15.5802006813
 30
0.0
 10
7.5306748547
 20
15.5804775039
 30
0.0
 10
7.5304741981
 20
15.5808789813
 30
0.0
 10
7.5301456881
 20
15.5814222434
 30
0.0
 10
7.5297138374
 20
15.5820546979
 30
0.0
 10
7.5291794246
 20
15.5827749463
 30
0.0
 10
7.5285431912
 20
15.5835812835
 30
0.0
 10
7.5278065199
 20
15.5844718142
 30
0.0
 10
7.5269710079
 20
15.585444337
 30
0.0
 10
7.5260386147
 20
15.5864965336
 30
0.0
 10
7.5246171061
 20
15.588059353
 30
0.0
 10
7.5226131817
 20
15.5901884871
 30
0.0
 10
7.5199433864
 20
15.5929318446
 30
0.0
 10
7.5169546464
 20
15.5959207664
 30
0.0
 10
7.5136761653
 20
15.5991258211
 30
0.0
 10
7.5101400484
 20
15.6025154213
 30
0.0
 10
7.5050317755
 20
15.6073268989
 30
0.0
 10
7.4982757311
 20
15.6135382479
 30
0.0
 10
7.489891273
 20
15.6210340324
 30
0.0
 10
7.4814095965
 20
15.6284143567
 30
0.0
 10
7.473158321
 20
15.635394884
 30
0.0
 10
7.46654963
 20
15.640812438
 30
0.0
 10
7.4616096841
 20
15.6447410089
 30
0.0
 10
7.4582671622
 20
15.647338512
 30
0.0
 10
7.4552037923
 20
15.6496543242
 30
0.0
 10
7.4528314324
 20
15.6513875178
 30
0.0
 10
7.4510930904
 20
15.6526138282
 30
0.0
 10
7.4499229156
 20
15.6534174195
 30
0.0
 10
7.4488425767
 20
15.6541359442
 30
0.0
 10
7.4478546581
 20
15.6547676867
 30
0.0
 10
7.446961607
 20
15.6553112431
 30
0.0
 10
7.4461655768
 20
15.6557653858
 30
0.0
 10
7.4454684674
 20
15.6561294121
 30
0.0
 10
7.4448719194
 20
15.6564026081
 30
0.0
 10
7.4444344079
 20
15.6565647241
 30
0.0
 10
7.4441352479
 20
15.656642993
 30
0.0
 10
7.4439516718
 20
15.6566746102
 30
0.0
 10
7.4437934544
 20
15.6566832424
 30
0.0
 10
7.4436600117
 20
15.6566685386
 30
0.0
 10
7.4435508501
 20
15.6566293193
 30
0.0
 10
7.4434942405
 20
15.6565841817
 30
0.0
 10
7.4434724137
 20
15.6565588154
 30
0.0
  0
SPLINE
  5
4B0
100
AcDbEntity
  8
0
100
AcDbSpline
 62
7
  6
CONTINUOUS
 70
0
 71
3
 72
54
 73
50
 74
0
 42
0.0000001
 43
0.0000001
 44
0.0000000001
 40
0.0
 40
0.0
 40
0.0
 40
0.0
 40
0.0006703028
 40
0.0014252419
 40
0.0023586699
 40
0.0035218157
 40
0.0049410787
 40
0.0066304334
 40
0.0085973996
 40
0.0108462506
 40
0.0161977056
 40
0.022691402
 40
0.0303213105
 40
0.039075877
 40
0.0489372702
 40
0.0598851106
 40
0.0718942302
 40
0.0849371427
 40
0.1139980656
 40
0.1467900891
 40
0.1829957865
 40
0.2222621369
 40
0.30841546
 40
0.4018964757
 40
0.4990812273
 40
0.5962283804
 40
0.6896238787
 40
0.7337953622
 40
0.775716823
 40
0.8149906036
 40
0.8512438646
 40
0.8841324795
 40
0.913344911
 40
0.9264851312
 40
0.9386056949
 40
0.9496789599
 40
0.9596790347
 40
0.9685845024
 40
0.9763764358
 40
0.9830413482
 40
0.9885711506
 40
0.9909107266
 40
0.9929686693
 40
0.9947483267
 40
0.9962556997
 40
0.9975019769
 40
0.9985081811
 40
0.9993149318
 40
1.0
 40
1.0
 40
1.0
 40
1.0
 10
7.7558485719
 20
15.3555387919
 30
0.0
 10
7.7558684137
 20
15.3555558651
 30
0.0
 10
7.7559023593
 20
15.3556027963
 30
0.0
 10
7.755920141
 20
15.355695132
 30
0.0
 10
7.7559101222
 20
15.3558068632
 30
0.0
 10
7.7558739723
 20
15.3559397861
 30
0.0
 10
7.7558116869
 20
15.3560948052
 30
0.0
 10
7.7557230969
 20
15.3562722834
 30
0.0
 10
7.7556081153
 20
15.35647229
 30
0.0
 10
7.7554075651
 20
15.3567876253
 30
0.0
 10
7.7550874644
 20
15.3572357744
 30
0.0
 10
7.75461879
 20
15.3578348868
 30
0.0
 10
7.7540463412
 20
15.3585209759
 30
0.0
 10
7.7533713483
 20
15.3592923446
 30
0.0
 10
7.7525952466
 20
15.3601471329
 30
0.0
 10
7.751719824
 20
15.3610831991
 30
0.0
 10
7.7507471623
 20
15.3620982823
 30
0.0
 10
7.7492695597
 20
15.3636090209
 30
0.0
 10
7.7471964762
 20
15.365672366
 30
0.0
 10
7.7444469803
 20
15.3683377895
 30
0.0
 10
7.7413800747
 20
15.3712480033
 30
0.0
 10
7.7367627736
 20
15.3755513165
 30
0.0
 10
7.7304405895
 20
15.3813053907
 30
0.0
 10
7.7223569281
 20
15.3884829855
 30
0.0
 10
7.713870625
 20
15.3958527061
 30
0.0
 10
7.7053094134
 20
15.4031300829
 30
0.0
 10
7.698261029
 20
15.4089899243
 30
0.0
 10
7.6928290723
 20
15.4134198149
 30
0.0
 10
7.6890139459
 20
15.4164879315
 30
0.0
 10
7.6854178687
 20
15.4193348121
 30
0.0
 10
7.6820752742
 20
15.4219333466
 30
0.0
 10
7.6790182578
 20
15.4242587297
 30
0.0
 10
7.6766568105
 20
15.426007355
 30
0.0
 10
7.674930778
 20
15.4272507794
 30
0.0
 10
7.6737712814
 20
15.4280686374
 30
0.0
 10
7.6727032758
 20
15.4288033149
 30
0.0
 10
7.6717293498
 20
15.4294530402
 30
0.0
 10
7.6708519494
 20
15.4300162896
 30
0.0
 10
7.6700732269
 20
15.430491825
 30
0.0
 10
7.6693951401
 20
15.430878567
 30
0.0
 10
7.6688907255
 20
15.43113945
 30
0.0
 10
7.6685378823
 20
15.4313002491
 30
0.0
 10
7.6683143846
 20
15.4313912427
 30
0.0
 10
7.6681170276
 20
15.4314595961
 30
0.0
 10
7.6679457977
 20
15.4315053415
 30
0.0
 10
7.6678004518
 20
15.4315286298
 30
0.0
 10
7.6676803374
 20
15.4315293642
 30
0.0
 10
7.6675839588
 20
15.4315067994
 30
0.0
 10
7.6675346803
 20
15.4314718868
 30
0.0
 10
7.667517231
 20
15.431451608
 30
0.0
  0
SPLINE
  5
4B1
100
AcDbEntity
  8
0
100
AcDbSpline
 62
7
  6
CONTINUOUS
 70
0
 71
3
 72
55
 73
51
 74
0
 42
0.0000001
 43
0.0000001
 44
0.0000000001
 40
0.0
 40
0.0
 40
0.0
 40
0.0
 40
0.0004694177
 40
0.0010676316
 40
0.0018906459
 40
0.0029761342
 40
0.004339984
 40
0.0059895402
 40
0.0079281441
 40
0.0101573478
 40
0.0154890473
 40
0.0219813423
 40
0.0296228369
 40
0.0383985257
 40
0.0482881606
 40
0.0592695679
 40
0.0713161685
 40
0.0843993491
 40
0.1135457081
 40
0.1464249977
 40
0.1827158843
 40
0.2220629163
 40
0.2640811844
 40
0.3083611483
 40
0.3544724221
 40
0.4019680952
 40
0.4992724115
 40
0.596547258
 40
0.6440111038
 40
0.6900869184
 40
0.7343358444
 40
0.7763364443
 40
0.8156884594
 40
0.852015619
 40
0.8849695698
 40
0.9142337353
 40
0.9395262907
 40
0.9606038836
 40
0.9694980808
 40
0.9772671497
 40
0.98389475
 40
0.9893681951
 40
0.9916700262
 40
0.9936820025
 40
0.9954052124
 40
0.99684225
 40
0.9979990242
 40
0.9984761938
 40
0.9988891564
 40
1.0
 40
1.0
 40
1.0
 40
1.0
 10
7.9240671361
 20
15.1881323985
 30
0.0
 10
7.9240810031
 20
15.1881443305
 30
0.0
 10
7.9241023752
 20
15.1881836909
 30
0.0
 10
7.9240980345
 20
15.1882591154
 30
0.0
 10
7.9240690624
 20
15.1883526668
 30
0.0
 10
7.9240139366
 20
15.1884680728
 30
0.0
 10
7.9239326974
 20
15.1886057082
 30
0.0
 10
7.9238248375
 20
15.188765854
 30
0.0
 10
7.9236903577
 20
15.1889484258
 30
0.0
 10
7.9234614296
 20
15.1892394287
 30
0.0
 10
7.923106676
 20
15.1896568923
 30
0.0
 10
7.9225981292
 20
15.1902198688
 30
0.0
 10
7.9219853009
 20
15.1908692248
 30
0.0
 10
7.9212696023
 20
15.1916033259
 30
0.0
 10
7.9204526529
 20
15.192420359
 30
0.0
 10
7.9195364043
 20
15.1933182624
 30
0.0
 10
7.9185230747
 20
15.1942948416
 30
0.0
 10
7.9169896916
 20
15.1957518738
 30
0.0
 10
7.914849149
 20
15.1977484558
 30
0.0
 10
7.9120236525
 20
15.2003364112
 30
0.0
 10
7.9088840609
 20
15.2031698313
 30
0.0
 10
7.9054611968
 20
15.2062208215
 30
0.0
 10
7.9017885756
 20
15.2094594155
 30
0.0
 10
7.8979020755
 20
15.2128539427
 30
0.0
 10
7.8938395456
 20
15.2163713447
 30
0.0
 10
7.8881951504
 20
15.2212185989
 30
0.0
 10
7.881002679
 20
15.2273235514
 30
0.0
 10
7.873766916
 20
15.2333751972
 30
0.0
 10
7.8680352892
 20
15.2381130687
 30
0.0
 10
7.8638827075
 20
15.2415176484
 30
0.0
 10
7.8598807416
 20
15.2447700511
 30
0.0
 10
7.8560676116
 20
15.2478392511
 30
0.0
 10
7.8524798108
 20
15.250695937
 30
0.0
 10
7.8491517923
 20
15.2533127703
 30
0.0
 10
7.8461156543
 20
15.2556646223
 30
0.0
 10
7.8434008938
 20
15.2577289485
 30
0.0
 10
7.8410339954
 20
15.2594857603
 30
0.0
 10
7.8392845917
 20
15.2607422906
 30
0.0
 10
7.8380739114
 20
15.2615775593
 30
0.0
 10
7.8373187198
 20
15.2620812107
 30
0.0
 10
7.8366655922
 20
15.2624973297
 30
0.0
 10
7.8361835698
 20
15.2627852272
 30
0.0
 10
7.8358493466
 20
15.2629690951
 30
0.0
 10
7.8356399003
 20
15.2630763761
 30
0.0
 10
7.8354570399
 20
15.2631612811
 30
0.0
 10
7.8353006255
 20
15.2632237633
 30
0.0
 10
7.8351864299
 20
15.2632595009
 30
0.0
 10
7.8351076984
 20
15.2632753515
 30
0.0
 10
7.8350319039
 20
15.263284342
 30
0.0
 10
7.834960965
 20
15.2632764395
 30
0.0
 10
7.8349327287
 20
15.2632436243
 30
0.0
  0
SPLINE
  5
4B2
100
AcDbEntity
  8
0
100
AcDbSpline
 62
7
  6
CONTINUOUS
 70
0
 71
3
 72
59
 73
55
 74
0
 42
0.0000001
 43
0.0000001
 44
0.0000000001
 40
0.0
 40
0.0
 40
0.0
 40
0.0
 40
0.0001198131
 40
0.0002708639
 40
0.0004775511
 40
0.0007496619
 40
0.0010913779
 40
0.001504749
 40
0.0025503516
 40
0.0038913278
 40
0.0055291605
 40
0.0074638472
 40
0.0096948721
 40
0.0150425495
 40
0.0215616914
 40
0.0292370271
 40
0.0380510431
 40
0.0479817426
 40
0.0590056449
 40
0.0710951695
 40
0.0842209143
 40
0.1134490279
 40
0.1464027507
 40
0.1827589543
 40
0.2221617353
 40
0.264226798
 40
0.3085460864
 40
0.3546913269
 40
0.4022180247
 40
0.4995851801
 40
0.5969360566
 40
0.6444450461
 40
0.690570492
 40
0.7348722924
 40
0.7769269817
 40
0.8163316345
 40
0.8527068206
 40
0.8857006075
 40
0.9149925153
 40
0.9281595452
 40
0.9402964876
 40
0.9513739747
 40
0.9613641264
 40
0.9702430778
 40
0.9779884822
 40
0.984582128
 40
0.9900082045
 40
0.9942551675
 40
0.9973169644
 40
0.9984043943
 40
0.9992002364
 40
0.9994920136
 40
0.9997168301
 40
1.0
 40
1.0
 40
1.0
 40
1.0
 10
8.0280322537
 20
15.0846698391
 30
0.0
 10
8.0280357875
 20
15.0846728798
 30
0.0
 10
8.0280412907
 20
15.0846827756
 30
0.0
 10
8.0280404259
 20
15.0847018179
 30
0.0
 10
8.0280333107
 20
15.0847253414
 30
0.0
 10
8.0280196404
 20
15.0847542955
 30
0.0
 10
8.0279994132
 20
15.0847887944
 30
0.0
 10
8.0279603409
 20
15.0848469949
 30
0.0
 10
8.0278936694
 20
15.0849332724
 30
0.0
 10
8.0277923159
 20
15.0850526653
 30
0.0
 10
8.0276640842
 20
15.0851945042
 30
0.0
 10
8.0275090492
 20
15.0853587064
 30
0.0
 10
8.027250575
 20
15.0856237061
 30
0.0
 10
8.0268600354
 20
15.0860089752
 30
0.0
 10
8.0263105711
 20
15.0865346216
 30
0.0
 10
8.0256568391
 20
15.0871463081
 30
0.0
 10
8.0249004278
 20
15.0878424846
 30
0.0
 10
8.0240431398
 20
15.088621418
 30
0.0
 10
8.0230870821
 20
15.0894811428
 30
0.0
 10
8.0220345986
 20
15.0904195429
 30
0.0
 10
8.0204483776
 20
15.0918236608
 30
0.0
 10
8.0182451657
 20
15.0937555544
 30
0.0
 10
8.0153507161
 20
15.0962700759
 30
0.0
 10
8.012147041
 20
15.099032269
 30
0.0
 10
8.0086654979
 20
15.1020150648
 30
0.0
 10
8.004940024
 20
15.1051893459
 30
0.0
 10
8.0010067882
 20
15.1085242808
 30
0.0
 10
7.9969038236
 20
15.111987622
 30
0.0
 10
7.9912137114
 20
15.1167706797
 30
0.0
 10
7.9839806297
 20
15.122814559
 30
0.0
 10
7.9767257108
 20
15.1288311284
 30
0.0
 10
7.9709916449
 20
15.1335581147
 30
0.0
 10
7.966843307
 20
15.1369636059
 30
0.0
 10
7.9628518325
 20
15.1402256826
 30
0.0
 10
7.9590554046
 20
15.1433131498
 30
0.0
 10
7.9554904594
 20
15.1461963976
 30
0.0
 10
7.9521913647
 20
15.1488476758
 30
0.0
 10
7.9491900779
 20
15.1512413361
 30
0.0
 10
7.9468864491
 20
15.1530614398
 30
0.0
 10
7.9452135029
 20
15.1543706647
 30
0.0
 10
7.9440956081
 20
15.1552391528
 30
0.0
 10
7.9430720246
 20
15.156027533
 30
0.0
 10
7.9421452762
 20
15.1567338669
 30
0.0
 10
7.9413177043
 20
15.1573564077
 30
0.0
 10
7.940591386
 20
15.1578936713
 30
0.0
 10
7.9399681596
 20
15.1583443012
 30
0.0
 10
7.9394497635
 20
15.1587075481
 30
0.0
 10
7.9390373041
 20
15.1589821931
 30
0.0
 10
7.9387590409
 20
15.1591537471
 30
0.0
 10
7.9385884073
 20
15.1592430686
 30
0.0
 10
7.9385110043
 20
15.1592771651
 30
0.0
 10
7.9384615237
 20
15.1592916762
 30
0.0
 10
7.9384317179
 20
15.159296941
 30
0.0
 10
7.9384086539
 20
15.15929404
 30
0.0
 10
7.9384014673
 20
15.1592856881
 30
0.0
  0
SPLINE
  5
4B3
100
AcDbEntity
  8
0
100
AcDbSpline
 62
7
  6
CONTINUOUS
 70
0
 71
3
 72
25
 73
21
 74
0
 42
0.0000001
 43
0.0000001
 44
0.0000000001
 40
0.0
 40
0.0
 40
0.0
 40
0.0
 40
0.0312533384
 40
0.0625085716
 40
0.0937624757
 40
0.1250177846
 40
0.1562736147
 40
0.18753018
 40
0.2500032575
 40
0.3124883125
 40
0.3749817272
 40
0.4374804767
 40
0.499982705
 40
0.5624870932
 40
0.6249929641
 40
0.6874999221
 40
0.750007805
 40
0.8125156745
 40
0.8750225759
 40
1.0
 40
1.0
 40
1.0
 40
1.0
 10
8.3398516368
 20
18.4430428314
 30
0.0
 10
8.3386561068
 20
18.4418473014
 30
0.0
 10
8.3361458485
 20
18.4395720132
 30
0.0
 10
8.3320681949
 20
18.4365426028
 30
0.0
 10
8.3277209965
 20
18.4339142977
 30
0.0
 10
8.3231520235
 20
18.431695549
 30
0.0
 10
8.3184070293
 20
18.429884372
 30
0.0
 10
8.3119068112
 20
18.428000195
 30
0.0
 10
8.3035398009
 20
18.426597784
 30
0.0
 10
8.2933789709
 20
18.426277059
 30
0.0
 10
8.2832532513
 20
18.4271361638
 30
0.0
 10
8.2732698945
 20
18.4290115974
 30
0.0
 10
8.2634943499
 20
18.4317629555
 30
0.0
 10
8.2539674637
 20
18.4352742887
 30
0.0
 10
8.2447145448
 20
18.4394510963
 30
0.0
 10
8.2357519071
 20
18.4442169762
 30
0.0
 10
8.2270912709
 20
18.4495101872
 30
0.0
 10
8.218741587
 20
18.4552812257
 30
0.0
 10
8.2080395952
 20
18.4635566304
 30
0.0
 10
8.2005017868
 20
18.4703770575
 30
0.0
 10
8.1957210412
 20
18.4751578031
 30
0.0
  0
SPLINE
  5
4B4
100
AcDbEntity
  8
0
100
AcDbSpline
 62
7
  6
CONTINUOUS
 70
0
 71
3
 72
25
 73
21
 74
0
 42
0.0000001
 43
0.0000001
 44
0.0000000001
 40
0.0
 40
0.0
 40
0.0
 40
0.0
 40
0.1249774729
 40
0.1874844534
 40
0.2499923879
 40
0.3125003153
 40
0.3750073087
 40
0.4375132423
 40
0.5000176966
 40
0.5625199733
 40
0.6250188444
 40
0.6875123937
 40
0.7499975336
 40
0.8124705054
 40
0.8437270196
 40
0.8749826981
 40
0.906237899
 40
0.9374917469
 40
0.9687467654
 40
1.0
 40
1.0
 40
1.0
 40
1.0
 10
8.1957210412
 20
18.4751578031
 30
0.0
 10
8.1909402938
 20
18.4799385506
 30
0.0
 10
8.1841198604
 20
18.4874763628
 30
0.0
 10
8.1758444531
 20
18.4981783657
 30
0.0
 10
8.1700734071
 20
18.5065280567
 30
0.0
 10
8.1647801946
 20
18.5151887013
 30
0.0
 10
8.1600143145
 20
18.5241513477
 30
0.0
 10
8.1558375076
 20
18.5334042766
 30
0.0
 10
8.1523261749
 20
18.5429311732
 30
0.0
 10
8.1495748178
 20
18.5527067314
 30
0.0
 10
8.1476993895
 20
18.562690106
 30
0.0
 10
8.1468402941
 20
18.5728158452
 30
0.0
 10
8.1471610355
 20
18.5829766807
 30
0.0
 10
8.1485634551
 20
18.591343686
 30
0.0
 10
8.150447645
 20
18.5978438829
 30
0.0
 10
8.1522588183
 20
18.6025888604
 30
0.0
 10
8.1544775669
 20
18.6071578145
 30
0.0
 10
8.1571058638
 20
18.6115049937
 30
0.0
 10
8.1601352656
 20
18.6155826284
 30
0.0
 10
8.1624105435
 20
18.6180928727
 30
0.0
 10
8.1636060695
 20
18.6192883987
 30
0.0
  0
ELLIPSE
  5
4B5
100
AcDbEntity
  8
0
100
AcDbEllipse
 62
7
  6
CONTINUOUS
 10
8.083527843
 20
18.362964605
 30
0.0
 11
0.3199658185
 21
-0.3199658185
 31
0.0
 40
1.0
 41
7.5749622205
 42
8.1330010474
  0
ENDSEC
  0
SECTION
  2
OBJECTS
  0
DICTIONARY
  5
C
100
AcDbDictionary
280
0
281
1
  3
ACAD_GROUP
350
D
  3
ACAD_MLINESTYLE
350
17
  3
ACAD_LAYOUT
350
1A
  3
ACAD_PLOTSETTINGS
350
19
  3
ACAD_PLOTSTYLENAME
350
E
  0
DICTIONARY
  5
D
102
{ACAD_REACTORS
330
C
102
}
100
AcDbDictionary
280
0
281
1
  0
ACDBDICTIONARYWDFLT
  5
E
102
{ACAD_REACTORS
330
C
102
}
100
AcDbDictionary
281
1
  3
Normal
350
F
100
AcDbDictionaryWithDefault
340
F
  0
DICTIONARY
  5
17
102
{ACAD_REACTORS
330
C
102
}
100
AcDbDictionary
280
0
281
1
  3
Standard
350
18
  0
DICTIONARY
  5
19
102
{ACAD_REACTORS
330
C
102
}
100
AcDbDictionary
281
1
  0
DICTIONARY
  5
1A
102
{ACAD_REACTORS
330
C
102
}
100
AcDbDictionary
281
1
  3
Model
350
4B6
  3
Layout1
350
4B7
  0
ACDBPLACEHOLDER
  5
F
102
{ACAD_REACTORS
330
E
102
}
  0
MLINESTYLE
  5
18
102
{ACAD_REACTORS
330
17
102
}
100
AcDbMlineStyle
  2
STANDARD
 70
0
  3

 62
256
 51
90.0
 52
90.0
 71
2
 49
0.5
 62
256
  6
BYLAYER
 49
-0.5
 62
256
  6
BYLAYER
  0
LAYOUT
  5
4B6
102
{ACAD_REACTORS
330
1A
102
}
100
AcDbPlotSettings
  1

  2
none_device
  4
ANSI_C_(22.00_x_17.00_Inches)
  6

 40
0.0
 41
0.0
 42
0.0
 43
0.0
 44
558.8
 45
431.8
 46
0.0
 47
0.0
 48
0.0
 49
0.0
140
0.0
141
0.0
142
1.0
143
1.0
 70
1024
 72
0
 73
0
 74
0
  7

 75
0
147
1.0
148
0.0
149
0.0
100
AcDbLayout
  1
Model
 70
0
 71
0
 10
0.0
 20
0.0
 11
22.0
 21
17.0
 12
0.0
 22
0.0
 32
0.0
 14
0.0
 24
0.0
 34
0.0
 15
0.0
 25
0.0
 35
0.0
146
0.0
 13
0.0
 23
0.0
 33
0.0
 16
1.0
 26
0.0
 36
0.0
 17
0.0
 27
1.0
 37
0.0
 76
0
330
205
345
0
346
0
  0
LAYOUT
  5
4B7
102
{ACAD_REACTORS
330
1A
102
}
100
AcDbPlotSettings
  1

  2
none_device
  4
ANSI_C_(22.00_x_17.00_Inches)
  6

 40
0.0
 41
0.0
 42
0.0
 43
0.0
 44
558.8
 45
431.8
 46
0.0
 47
0.0
 48
0.0
 49
0.0
140
0.0
141
0.0
142
1.0
143
1.0
 70
0
 72
0
 73
0
 74
0
  7

 75
0
147
1.0
148
0.0
149
0.0
100
AcDbLayout
  1
Layout1
 70
0
 71
1
 10
0.0
 20
0.0
 11
22.0
 21
17.0
 12
0.0
 22
0.0
 32
0.0
 14
0.0
 24
0.0
 34
0.0
 15
0.0
 25
0.0
 35
0.0
146
0.0
 13
0.0
 23
0.0
 33
0.0
 16
1.0
 26
0.0
 36
0.0
 17
0.0
 27
1.0
 37
0.0
 76
0
330
206
345
0
346
0
  0
ENDSEC
  0
EOF
