999
DXF file: E:\BT Custom\CADOUTPUT\_TOP.dxf
999
Pro/ENGINEER 2018400 by Parametric Technology Corporation
  0
SECTION
  2
HEADER
  9
$ACADVER
  1
AC1018
  9
$DWGCODEPAGE
  3
ANSI_1252
  9
$EXTMAX
 10
22.0
 20
17.0
 30
0.0
  9
$EXTMIN
 10
0.0
 20
0.0
 30
0.0
  9
$LIMMIN
 10
0.0
 20
0.0
  9
$LIMMAX
 10
22.0
 20
17.0
  9
$VIEWCTR
 10
11.0
 20
8.5
  9
$VIEWSIZE
 40
17.0
  9
$CLAYER
  8
0
  9
$LTSCALE
 40
1.21
  9
$CELTYPE
  6
BYLAYER
  9
$DIMSCALE
 40
1.0
  9
$DIMASZ
 40
0.1
  9
$DIMEXO
 40
0.0625
  9
$DIMDLI
 40
0.836
  9
$DIMEXE
 40
0.125
  9
$DIMCEN
 40
0.198
  9
$DIMLFAC
 40
1.0
  9
$DIMBLK
  1
_FILLED
  9
$DIMALT
 70
1
  9
$DIMALTD
 70
2
  9
$DIMALTTD
 70
2
  9
$DIMALTF
 40
25.4
  9
$DIMTXT
 40
0.08
  9
$DIMTOL
 70
1
  9
$DIMLIM
 70
0
  9
$DIMTFAC
 40
1.0
  9
$DIMTP
 40
0.001
  9
$DIMTM
 40
0.001
  9
$DIMGAP
 40
0.09
  9
$DIMDSEP
 70
46
  9
$AUNITS
 70
0
  9
$PDMODE
 70
3
  9
$PDSIZE
 40
0.06
  9
$HANDSEED
  5
26D
  9
$TILEMODE
 70
1
  9
$MEASUREMENT
 70
0
  9
$INSUNITS
 70
1
  0
ENDSEC
  0
SECTION
  2
CLASSES
  0
CLASS
  1
ACDBDICTIONARYWDFLT
  2
AcDbDictionaryWithDefault
  3
AutoCAD 2000
 90
0
 91
1
280
0
281
0
  0
CLASS
  1
ACDBPLACEHOLDER
  2
AcDbPlaceHolder
  3
AutoCAD 2000
 90
0
 91
1
280
0
281
0
  0
CLASS
  1
LAYOUT
  2
AcDbLayout
  3
AutoCAD 2000
 90
0
 91
0
280
0
281
0
  0
ENDSEC
  0
SECTION
  2
TABLES
  0
TABLE
  2
VPORT
  5
8
100
AcDbSymbolTable
 70
2
  0
VPORT
  5
1F4
100
AcDbSymbolTableRecord
100
AcDbViewportTableRecord
  2
*ACTIVE
 70
0
 10
0.0
 20
0.0
 11
1.0
 21
1.0
 12
11.0
 22
8.5
 13
0.0
 23
0.0
 14
1.0
 24
1.0
 15
0.0
 25
0.0
 16
0.0
 26
0.0
 36
1.0
 17
0.0
 27
0.0
 37
0.0
 40
17.0
 41
1.2941176471
 42
50.0
 43
0.0
 44
0.0
 50
0.0
 51
0.0
 71
0
 72
100
 73
1
 74
1
 75
0
 76
0
 77
0
 78
0
  0
ENDTAB
  0
TABLE
  2
LTYPE
  5
5
100
AcDbSymbolTable
 70
6
  0
LTYPE
  5
14
100
AcDbSymbolTableRecord
100
AcDbLinetypeTableRecord
  2
BYBLOCK
 70
0
  3

 72
65
 73
0
 40
0.0
  0
LTYPE
  5
15
100
AcDbSymbolTableRecord
100
AcDbLinetypeTableRecord
  2
BYLAYER
 70
0
  3

 72
65
 73
0
 40
0.0
  0
LTYPE
  5
16
100
AcDbSymbolTableRecord
100
AcDbLinetypeTableRecord
  2
CONTINUOUS
 70
64
  3
Solid line
 72
65
 73
0
 40
0.0
  0
LTYPE
  5
1F5
100
AcDbSymbolTableRecord
100
AcDbLinetypeTableRecord
  2
CENTER
 70
64
  3
____ _ ____ _ ____ _ ____ _ ____ _ ____ _ ____
 72
65
 73
4
 40
0.6
 49
0.375
 74
0
 49
-0.075
 74
0
 49
0.075
 74
0
 49
-0.075
 74
0
  0
LTYPE
  5
1F6
100
AcDbSymbolTableRecord
100
AcDbLinetypeTableRecord
  2
HIDDEN
 70
64
  3
- - - - - - - - - - - - - - - - - - - -
 72
65
 73
2
 40
0.2
 49
0.1
 74
0
 49
-0.1
 74
0
  0
LTYPE
  5
1F7
100
AcDbSymbolTableRecord
100
AcDbLinetypeTableRecord
  2
PHANTOM
 70
64
  3
_____ _ _ _____ _ _ _____ _ _ _____
 72
65
 73
6
 40
0.8
 49
0.45
 74
0
 49
-0.05
 74
0
 49
0.1
 74
0
 49
-0.05
 74
0
 49
0.1
 74
0
 49
-0.05
 74
0
  0
LTYPE
  5
1F8
100
AcDbSymbolTableRecord
100
AcDbLinetypeTableRecord
  2
DOT
 70
64
  3
. . . . . . . . . . . . . . . . . . . .
 72
65
 73
2
 40
0.2
 49
0.1
 74
0
 49
-0.1
 74
0
  0
LTYPE
  5
1F9
100
AcDbSymbolTableRecord
100
AcDbLinetypeTableRecord
  2
DASHED
 70
64
  3
- - - - - - - - - - - - - - - - - - - -
 72
65
 73
2
 40
0.2
 49
0.1
 74
0
 49
-0.1
 74
0
  0
ENDTAB
  0
TABLE
  2
LAYER
  5
2
100
AcDbSymbolTable
 70
36
  0
LAYER
  5
10
100
AcDbSymbolTableRecord
100
AcDbLayerTableRecord
  2
0
 70
0
 62
7
  6
CONTINUOUS
370
-3
390
F
  0
LAYER
  5
1FA
100
AcDbSymbolTableRecord
100
AcDbLayerTableRecord
  2
DEFAULT_1
 70
0
 62
7
  6
CENTER
370
-3
390
F
  0
LAYER
  5
1FB
100
AcDbSymbolTableRecord
100
AcDbLayerTableRecord
  2
DEFAULT_2
 70
0
 62
8
  6
HIDDEN
370
-3
390
F
  0
LAYER
  5
1FC
100
AcDbSymbolTableRecord
100
AcDbLayerTableRecord
  2
DEFAULT_3
 70
0
 62
7
  6
PHANTOM
370
-3
390
F
  0
LAYER
  5
1FD
100
AcDbSymbolTableRecord
100
AcDbLayerTableRecord
  2
ALL_FEATURES
 70
0
 62
7
  6
CONTINUOUS
370
-3
390
F
  0
LAYER
  5
1FE
100
AcDbSymbolTableRecord
100
AcDbLayerTableRecord
  2
AXES_FEATURES
 70
0
 62
7
  6
CONTINUOUS
370
-3
390
F
  0
LAYER
  5
1FF
100
AcDbSymbolTableRecord
100
AcDbLayerTableRecord
  2
DEFAULT_COORDINATE_SYSTEM
 70
0
 62
7
  6
CONTINUOUS
370
-3
390
F
  0
LAYER
  5
200
100
AcDbSymbolTableRecord
100
AcDbLayerTableRecord
  2
DEFAULT_DATUM_AXES
 70
0
 62
7
  6
CONTINUOUS
370
-3
390
F
  0
LAYER
  5
201
100
AcDbSymbolTableRecord
100
AcDbLayerTableRecord
  2
DEFAULT_DATUM_PLANES
 70
0
 62
7
  6
CONTINUOUS
370
-3
390
F
  0
LAYER
  5
202
100
AcDbSymbolTableRecord
100
AcDbLayerTableRecord
  2
DIMENSIONS
 70
0
 62
7
  6
CONTINUOUS
370
-3
390
F
  0
ENDTAB
  0
TABLE
  2
STYLE
  5
3
100
AcDbSymbolTable
 70
1
  0
STYLE
  5
11
100
AcDbSymbolTableRecord
100
AcDbTextStyleTableRecord
  2
STANDARD
 70
0
 40
0.0
 41
0.8
 50
0.0
 71
0
 42
0.2
  3
txt
  4

  0
STYLE
  5
203
100
AcDbSymbolTableRecord
100
AcDbTextStyleTableRecord
  2
TEXTSTYLE_1
 70
0
 40
0.0
 41
0.8
 50
0.0
 71
0
 42
0.2
  3
gdt
  4

  0
ENDTAB
  0
TABLE
  2
VIEW
  5
6
100
AcDbSymbolTable
 70
0
  0
ENDTAB
  0
TABLE
  2
UCS
  5
7
100
AcDbSymbolTable
 70
0
  0
ENDTAB
  0
TABLE
  2
APPID
  5
9
100
AcDbSymbolTable
 70
1
  0
APPID
  5
204
100
AcDbSymbolTableRecord
100
AcDbRegAppTableRecord
  2
ACAD
 70
0
  0
ENDTAB
  0
TABLE
  2
BLOCK_RECORD
  5
1
100
AcDbSymbolTable
 70
0
  0
BLOCK_RECORD
  5
205
100
AcDbSymbolTableRecord
100
AcDbBlockTableRecord
  2
*Model_Space
  0
BLOCK_RECORD
  5
206
100
AcDbSymbolTableRecord
100
AcDbBlockTableRecord
  2
*Paper_Space
  0
BLOCK_RECORD
  5
207
100
AcDbSymbolTableRecord
100
AcDbBlockTableRecord
  2
_FILLED
  0
ENDTAB
  0
TABLE
  2
DIMSTYLE
  5
A
100
AcDbSymbolTable
 70
1
100
AcDbDimStyleTable
 71
0
  0
DIMSTYLE
105
208
100
AcDbSymbolTableRecord
100
AcDbDimStyleTableRecord
  2
STANDARD
 70
0
  3

  4

 40
1.0
 41
0.1
 42
0.0625
 43
0.38
 44
0.125
 45
0.0
 46
0.0
 47
0.001
 48
0.001
140
0.08
141
0.09
142
0.0
143
25.4
144
1.0
145
0.0
146
1.0
147
0.09
 71
1.0
 72
0.0
 73
1
 74
1
 75
0
 76
0
 77
0
 78
4
 79
1
170
1
171
2
172
0
173
0
174
0
175
0
176
0
177
0
178
0
270
2
179
3
271
3
272
3
273
2
274
2
275
0
280
0
281
0
282
0
283
1
284
4
285
0
286
0
287
3
288
0
340
11
278
46
341
207
342
207
343
207
344
207
  0
ENDTAB
  0
ENDSEC
  0
SECTION
  2
BLOCKS
  0
BLOCK
  5
20
100
AcDbEntity
  8
0
100
AcDbBlockBegin
  2
*Model_Space
 70
0
 10
0.0
 20
0.0
 30
0.0
  3
*Model_Space
  1

  0
ENDBLK
  5
21
100
AcDbEntity
  8
0
100
AcDbBlockEnd
  0
BLOCK
  5
1C
100
AcDbEntity
  8
0
100
AcDbBlockBegin
  2
*Paper_Space
 70
0
 10
0.0
 20
0.0
 30
0.0
  3
*Paper_Space
  1

  0
ENDBLK
  5
1D
100
AcDbEntity
  8
0
100
AcDbBlockEnd
  0
BLOCK
  5
209
100
AcDbEntity
  8
0
100
AcDbBlockBegin
  2
_FILLED
 70
64
 10
0.0
 20
0.0
  3
_FILLED
  1

  0
SOLID
  5
20A
100
AcDbEntity
  8
0
  6
BYBLOCK
 62
0
100
AcDbTrace
 10
0.0
 20
0.0
 11
-1.0
 21
0.2
 12
-1.0
 22
-0.2
 13
-1.0
 23
-0.2
  0
ENDBLK
  5
20B
100
AcDbEntity
  8
0
  6
BYBLOCK
 62
0
100
AcDbBlockEnd
  0
ENDSEC
  0
SECTION
  2
ENTITIES
  0
LINE
  5
20C
100
AcDbEntity
  8
0
100
AcDbLine
 62
7
  6
CONTINUOUS
 10
7.1723183383
 20
13.4482500228
 11
7.1723183383
 21
13.7282500228
  0
LINE
  5
20D
100
AcDbEntity
  8
0
100
AcDbLine
 62
9
  6
CONTINUOUS
 10
7.2023183383
 20
13.4182500228
 11
7.2023183383
 21
13.7282500228
  0
LINE
  5
20E
100
AcDbEntity
  8
0
100
AcDbLine
 62
7
  6
CONTINUOUS
 10
11.3071259594
 20
4.0366314333
 11
10.7875107171
 21
4.0366314333
  0
LINE
  5
20F
100
AcDbEntity
  8
0
100
AcDbLine
 62
7
  6
CONTINUOUS
 10
8.0923183383
 20
3.334701033
 11
8.0923183383
 21
3.9560212602
  0
LINE
  5
210
100
AcDbEntity
  8
0
100
AcDbLine
 62
7
  6
CONTINUOUS
 10
10.7875107171
 20
4.2841188067
 11
11.3071259594
 21
4.2841188067
  0
LINE
  5
211
100
AcDbEntity
  8
0
100
AcDbLine
 62
7
  6
CONTINUOUS
 10
11.0466544036
 20
4.649047873
 11
11.0479317628
 21
4.6490478156
  0
LINE
  5
212
100
AcDbEntity
  8
0
100
AcDbLine
 62
7
  6
CONTINUOUS
 10
11.8623183383
 20
4.7282500228
 11
10.2323183383
 21
4.7282500228
  0
LINE
  5
213
100
AcDbEntity
  8
0
100
AcDbLine
 62
9
  6
CONTINUOUS
 10
10.1723183383
 20
4.7882500228
 11
11.9223183383
 21
4.7882500228
  0
LINE
  5
214
100
AcDbEntity
  8
0
100
AcDbLine
 62
7
  6
CONTINUOUS
 10
9.5873183383
 20
3.9984476671
 11
9.5873183383
 21
4.1617893335
  0
LINE
  5
215
100
AcDbEntity
  8
0
100
AcDbLine
 62
7
  6
CONTINUOUS
 10
9.7973183383
 20
5.857061425
 11
9.7973183383
 21
13.4182500228
  0
LINE
  5
216
100
AcDbEntity
  8
0
100
AcDbLine
 62
9
  6
CONTINUOUS
 10
9.8573183383
 20
5.8767959808
 11
9.8573183383
 21
13.4182500228
  0
LINE
  5
217
100
AcDbEntity
  8
0
100
AcDbLine
 62
7
  6
CONTINUOUS
 10
10.1723183383
 20
4.7882500228
 11
10.1723183383
 21
13.7282500228
  0
LINE
  5
218
100
AcDbEntity
  8
0
100
AcDbLine
 62
9
  6
CONTINUOUS
 10
10.2323183383
 20
4.7282500228
 11
10.2323183383
 21
13.7282500228
  0
LINE
  5
219
100
AcDbEntity
  8
0
100
AcDbLine
 62
7
  6
CONTINUOUS
 10
10.3473183383
 20
4.7282500228
 11
10.3473183383
 21
4.3626076594
  0
LINE
  5
21A
100
AcDbEntity
  8
0
100
AcDbLine
 62
7
  6
CONTINUOUS
 10
10.3473183383
 20
4.2042157404
 11
10.3473183383
 21
4.3343233881
  0
LINE
  5
21B
100
AcDbEntity
  8
0
100
AcDbLine
 62
7
  6
CONTINUOUS
 10
10.7875107171
 20
4.0366314333
 11
10.7875107171
 21
4.2841188067
  0
LINE
  5
21C
100
AcDbEntity
  8
0
100
AcDbLine
 62
7
  6
CONTINUOUS
 10
11.3071259594
 20
4.0366314333
 11
11.3071259594
 21
4.2841188067
  0
LINE
  5
21D
100
AcDbEntity
  8
0
100
AcDbLine
 62
7
  6
CONTINUOUS
 10
11.7473183383
 20
4.7282500228
 11
11.7473183383
 21
4.3626076594
  0
LINE
  5
21E
100
AcDbEntity
  8
0
100
AcDbLine
 62
7
  6
CONTINUOUS
 10
11.7473183383
 20
4.2042157404
 11
11.7473183383
 21
4.3343233881
  0
LINE
  5
21F
100
AcDbEntity
  8
0
100
AcDbLine
 62
9
  6
CONTINUOUS
 10
11.8623183383
 20
4.7282500228
 11
11.8623183383
 21
13.7282500228
  0
LINE
  5
220
100
AcDbEntity
  8
0
100
AcDbLine
 62
7
  6
CONTINUOUS
 10
11.9223183383
 20
13.7282500228
 11
11.9223183383
 21
4.7882500228
  0
LINE
  5
221
100
AcDbEntity
  8
0
100
AcDbLine
 62
9
  6
CONTINUOUS
 10
12.2373183383
 20
13.4182500228
 11
12.2373183383
 21
5.8767938608
  0
LINE
  5
222
100
AcDbEntity
  8
0
100
AcDbLine
 62
7
  6
CONTINUOUS
 10
12.2973183383
 20
13.4182500228
 11
12.2973183383
 21
5.8570617545
  0
LINE
  5
223
100
AcDbEntity
  8
0
100
AcDbLine
 62
7
  6
CONTINUOUS
 10
12.5073183383
 20
3.9984476671
 11
12.5073183383
 21
4.1617893335
  0
LINE
  5
224
100
AcDbEntity
  8
0
100
AcDbLine
 62
7
  6
CONTINUOUS
 10
14.0023183383
 20
3.334701033
 11
14.0023183383
 21
3.9560212602
  0
LINE
  5
225
100
AcDbEntity
  8
0
100
AcDbLine
 62
9
  6
CONTINUOUS
 10
14.8923183383
 20
13.4182500228
 11
14.8923183383
 21
13.7282500228
  0
LINE
  5
226
100
AcDbEntity
  8
0
100
AcDbLine
 62
7
  6
CONTINUOUS
 10
14.9223183383
 20
13.4482500228
 11
14.9223183383
 21
13.7282500228
  0
LINE
  5
227
100
AcDbEntity
  8
0
100
AcDbLine
 62
7
  6
CONTINUOUS
 10
14.8923183383
 20
13.4182500228
 11
11.9223183383
 21
13.4182500228
  0
LINE
  5
228
100
AcDbEntity
  8
0
100
AcDbLine
 62
7
  6
CONTINUOUS
 10
10.1723183383
 20
13.4182500228
 11
7.2023183383
 21
13.4182500228
  0
LINE
  5
229
100
AcDbEntity
  8
0
100
AcDbLine
 62
9
  6
CONTINUOUS
 10
14.9223183383
 20
13.4482500228
 11
11.9223183383
 21
13.4482500228
  0
LINE
  5
22A
100
AcDbEntity
  8
0
100
AcDbLine
 62
9
  6
CONTINUOUS
 10
10.1723183383
 20
13.4482500228
 11
7.1723183383
 21
13.4482500228
  0
LINE
  5
22B
100
AcDbEntity
  8
0
100
AcDbLine
 62
7
  6
CONTINUOUS
 10
7.1723183383
 20
13.7282500228
 11
14.9223183383
 21
13.7282500228
  0
ARC
  5
22C
100
AcDbEntity
  8
0
100
AcDbCircle
 62
9
  6
CONTINUOUS
 10
11.0464888208
 20
6.0180885488
 40
4.1515628466
100
AcDbArc
 50
263.4261945924
 51
270.0114481691
  0
ARC
  5
22D
100
AcDbEntity
  8
0
100
AcDbCircle
 62
9
  6
CONTINUOUS
 10
11.0483403257
 20
6.0140478772
 40
4.1475272813
100
AcDbArc
 50
269.9858818133
 51
276.5775544225
  0
ARC
  5
22E
100
AcDbEntity
  8
0
100
AcDbCircle
 62
9
  6
CONTINUOUS
 10
11.0401174687
 20
5.9559611721
 40
4.0891151734
100
AcDbArc
 50
262.5958194523
 51
263.415222446
  0
ARC
  5
22F
100
AcDbEntity
  8
0
100
AcDbCircle
 62
9
  6
CONTINUOUS
 10
11.0549243564
 20
5.9526588708
 40
4.0857881969
100
AcDbArc
 50
276.5844439365
 51
277.4045141652
  0
ARC
  5
230
100
AcDbEntity
  8
0
100
AcDbCircle
 62
9
  6
CONTINUOUS
 10
11.0284044358
 20
5.8712613642
 40
4.0036122393
100
AcDbArc
 50
256.9886440223
 51
262.605841117
  0
ARC
  5
231
100
AcDbEntity
  8
0
100
AcDbCircle
 62
9
  6
CONTINUOUS
 10
11.0721082532
 20
5.8386128752
 40
3.970479368
100
AcDbArc
 50
277.3707026525
 51
283.034812208
  0
ARC
  5
232
100
AcDbEntity
  8
0
100
AcDbCircle
 62
9
  6
CONTINUOUS
 10
12.5098843434
 20
3.3358454802
 40
1.4924828878
100
AcDbArc
 50
352.215226521
 51
354.2173262365
  0
ARC
  5
233
100
AcDbEntity
  8
0
100
AcDbCircle
 62
9
  6
CONTINUOUS
 10
12.5167441915
 20
3.3351548841
 40
1.4855883666
100
AcDbArc
 50
354.2171686768
 51
355.7066849691
  0
ARC
  5
234
100
AcDbEntity
  8
0
100
AcDbCircle
 62
9
  6
CONTINUOUS
 10
12.5211282957
 20
3.3348375069
 40
1.4811928052
100
AcDbArc
 50
355.7062316986
 51
357.5069069406
  0
ARC
  5
235
100
AcDbEntity
  8
0
100
AcDbCircle
 62
9
  6
CONTINUOUS
 10
12.5243766768
 20
3.3347027683
 40
1.4779416378
100
AcDbArc
 50
357.5066475814
 51
359.9999327257
  0
ARC
  5
236
100
AcDbEntity
  8
0
100
AcDbCircle
 62
7
  6
CONTINUOUS
 10
10.7088699355
 20
4.3626873614
 40
0.3615538723
100
AcDbArc
 50
184.4921470386
 51
184.7868792936
  0
ARC
  5
237
100
AcDbEntity
  8
0
100
AcDbCircle
 62
7
  6
CONTINUOUS
 10
11.3857685612
 20
4.3626872284
 40
0.3615520475
100
AcDbArc
 50
355.2175096939
 51
355.5078446526
  0
ARC
  5
238
100
AcDbEntity
  8
0
100
AcDbCircle
 62
7
  6
CONTINUOUS
 10
10.7079749808
 20
4.3626232163
 40
0.3606566428
100
AcDbArc
 50
180.0024714451
 51
184.4931235701
  0
ARC
  5
239
100
AcDbEntity
  8
0
100
AcDbCircle
 62
7
  6
CONTINUOUS
 10
11.3869392598
 20
4.36261232
 40
0.3603790785
100
AcDbArc
 50
355.5051396528
 51
359.9992590178
  0
ARC
  5
23A
100
AcDbEntity
  8
0
100
AcDbCircle
 62
7
  6
CONTINUOUS
 10
10.7074916965
 20
4.3343201708
 40
0.3601733582
100
AcDbArc
 50
177.7480120633
 51
179.9994881907
  0
ARC
  5
23B
100
AcDbEntity
  8
0
100
AcDbCircle
 62
7
  6
CONTINUOUS
 10
11.3872572531
 20
4.3343223828
 40
0.3600610852
100
AcDbArc
 50
0.0001599849
 51
2.2523361257
  0
ARC
  5
23C
100
AcDbEntity
  8
0
100
AcDbCircle
 62
7
  6
CONTINUOUS
 10
11.8623183383
 20
4.7882500228
 40
0.06
100
AcDbArc
 50
270.0
 51
360.0
  0
ARC
  5
23D
100
AcDbEntity
  8
0
100
AcDbCircle
 62
7
  6
CONTINUOUS
 10
10.2323183383
 20
4.7882500228
 40
0.06
100
AcDbArc
 50
180.0
 51
270.0
  0
ARC
  5
23E
100
AcDbEntity
  8
0
100
AcDbCircle
 62
7
  6
CONTINUOUS
 10
14.8923183383
 20
13.4482500228
 40
0.03
100
AcDbArc
 50
270.0
 51
360.0
  0
ARC
  5
23F
100
AcDbEntity
  8
0
100
AcDbCircle
 62
7
  6
CONTINUOUS
 10
7.2023183383
 20
13.4482500228
 40
0.03
100
AcDbArc
 50
180.0
 51
270.0
  0
SPLINE
  5
240
100
AcDbEntity
  8
0
100
AcDbSpline
 62
7
  6
CONTINUOUS
 70
0
 71
3
 72
15
 73
11
 74
0
 42
0.0000001
 43
0.0000001
 44
0.0000000001
 40
0.0
 40
0.0
 40
0.0
 40
0.0
 40
0.1271749346
 40
0.2540979802
 40
0.3805369138
 40
0.5062894753
 40
0.6311942145
 40
0.7551414037
 40
0.8780758416
 40
1.0
 40
1.0
 40
1.0
 40
1.0
 10
11.0466544035
 20
4.6490478779
 30
0.0
 10
11.0341550878
 20
4.6490626557
 30
0.0
 10
11.0091741311
 20
4.6499252239
 30
0.0
 10
10.9719388566
 20
4.6537155056
 30
0.0
 10
10.9351802088
 20
4.6599897756
 30
0.0
 10
10.8991319232
 20
4.6687291568
 30
0.0
 10
10.8640197634
 20
4.6799087101
 30
0.0
 10
10.8300641392
 20
4.6934992003
 30
0.0
 10
10.7974846591
 20
4.7094647829
 30
0.0
 10
10.7767372933
 20
4.721718738
 30
0.0
 10
10.7666756472
 20
4.7282273221
 30
0.0
  0
SPLINE
  5
241
100
AcDbEntity
  8
0
100
AcDbSpline
 62
7
  6
CONTINUOUS
 70
0
 71
3
 72
15
 73
11
 74
0
 42
0.0000001
 43
0.0000001
 44
0.0000000001
 40
0.0
 40
0.0
 40
0.0
 40
0.0
 40
0.1219291286
 40
0.2448674736
 40
0.368817114
 40
0.4937227258
 40
0.6194744309
 40
0.7459108309
 40
0.8728299652
 40
1.0
 40
1.0
 40
1.0
 40
1.0
 10
11.3276916285
 20
4.7280532057
 30
0.0
 10
11.3176340691
 20
4.7215576189
 30
0.0
 10
11.296896802
 20
4.7093284111
 30
0.0
 10
11.2643370841
 20
4.6933956836
 30
0.0
 10
11.2304053989
 20
4.6798338439
 30
0.0
 10
11.1953207458
 20
4.6686785828
 30
0.0
 10
11.1593029414
 20
4.6599589959
 30
0.0
 10
11.1225771381
 20
4.6536999167
 30
0.0
 10
11.0853764241
 20
4.6499201701
 30
0.0
 10
11.0604191504
 20
4.6490614351
 30
0.0
 10
11.0479317628
 20
4.6490478192
 30
0.0
  0
SPLINE
  5
242
100
AcDbEntity
  8
0
100
AcDbSpline
 62
7
  6
CONTINUOUS
 70
0
 71
3
 72
30
 73
26
 74
0
 42
0.0000001
 43
0.0000001
 44
0.0000000001
 40
0.0
 40
0.0
 40
0.0
 40
0.0
 40
0.0260929792
 40
0.0522967287
 40
0.0786586725
 40
0.105223961
 40
0.1320353638
 40
0.1591325926
 40
0.1865519514
 40
0.2143259606
 40
0.2424830686
 40
0.2710474577
 40
0.3000389268
 40
0.3294728267
 40
0.3593600417
 40
0.389707053
 40
0.4517692711
 40
0.515645301
 40
0.5812428664
 40
0.648415914
 40
0.7169721464
 40
0.7866807935
 40
0.8572803831
 40
0.9284863737
 40
1.0
 40
1.0
 40
1.0
 40
1.0
 10
11.7460618235
 20
4.3325434377
 30
0.0
 10
11.7453949953
 20
4.3245731656
 30
0.0
 10
11.7435276661
 20
4.308638211
 30
0.0
 10
11.7391500834
 20
4.2849115613
 30
0.0
 10
11.7332046219
 20
4.261378379
 30
0.0
 10
11.7257089821
 20
4.2380971653
 30
0.0
 10
11.7166848128
 20
4.2151228855
 30
0.0
 10
11.7061574216
 20
4.1925089621
 30
0.0
 10
11.6941554914
 20
4.1703065838
 30
0.0
 10
11.6807106693
 20
4.1485649045
 30
0.0
 10
11.6658573343
 20
4.1273310534
 30
0.0
 10
11.6496323983
 20
4.1066502552
 30
0.0
 10
11.6320751548
 20
4.0865658417
 30
0.0
 10
11.6132273536
 20
4.0671195182
 30
0.0
 10
11.5931323419
 20
4.048350865
 30
0.0
 10
11.5645279989
 20
4.0241031443
 30
0.0
 10
11.5258402789
 20
3.9957295731
 30
0.0
 10
11.4755893519
 20
3.9652380573
 30
0.0
 10
11.4216004568
 20
3.9382868615
 30
0.0
 10
11.3643478737
 20
3.9150959936
 30
0.0
 10
11.3043291164
 20
3.8958539644
 30
0.0
 10
11.2420671673
 20
3.8807193548
 30
0.0
 10
11.178103587
 20
3.8698176345
 30
0.0
 10
11.1130002047
 20
3.8632398381
 30
0.0
 10
11.0692389644
 20
3.8617750482
 30
0.0
 10
11.0473183383
 20
3.8617750482
 30
0.0
  0
SPLINE
  5
243
100
AcDbEntity
  8
0
100
AcDbSpline
 62
7
  6
CONTINUOUS
 70
0
 71
3
 72
30
 73
26
 74
0
 42
0.0000001
 43
0.0000001
 44
0.0000000001
 40
0.0
 40
0.0
 40
0.0
 40
0.0
 40
0.0715132228
 40
0.1427188261
 40
0.2133180723
 40
0.2830264386
 40
0.3515824697
 40
0.4187554085
 40
0.4843529643
 40
0.5482290844
 40
0.6102914847
 40
0.6406386159
 40
0.6705259671
 40
0.699960016
 40
0.7289516429
 40
0.757516194
 40
0.7856734635
 40
0.8134476281
 40
0.8408671307
 40
0.8679644854
 40
0.8947759902
 40
0.9213413507
 40
0.9477033305
 40
0.9739070737
 40
1.0
 40
1.0
 40
1.0
 40
1.0
 10
11.0473183383
 20
3.8617750482
 30
0.0
 10
11.025398496
 20
3.8617750482
 30
0.0
 10
10.981638817
 20
3.8632397336
 30
0.0
 10
10.916537721
 20
3.8698170607
 30
0.0
 10
10.8525763098
 20
3.8807180077
 30
0.0
 10
10.7903163517
 20
3.8958515493
 30
0.0
 10
10.7302993528
 20
3.915092237
 30
0.0
 10
10.6730482408
 20
3.9382815061
 30
0.0
 10
10.6190604819
 20
3.965230876
 30
0.0
 10
10.5688103091
 20
3.9957203644
 30
0.0
 10
10.5301228825
 20
4.0240920828
 30
0.0
 10
10.5015185339
 20
4.0483382562
 30
0.0
 10
10.4814233917
 20
4.0671057365
 30
0.0
 10
10.4625753371
 20
4.086550866
 30
0.0
 10
10.4450177144
 20
4.1066340698
 30
0.0
 10
10.4287922702
 20
4.1273136489
 30
0.0
 10
10.4139382953
 20
4.1485462772
 30
0.0
 10
10.4004926999
 20
4.1702867371
 30
0.0
 10
10.3884898615
 20
4.1924879066
 30
0.0
 10
10.3779614263
 20
4.2151006391
 30
0.0
 10
10.368936077
 20
4.2380737536
 30
0.0
 10
10.3614391223
 20
4.2613538359
 30
0.0
 10
10.355492213
 20
4.2848859288
 30
0.0
 10
10.3511130518
 20
4.3086115395
 30
0.0
 10
10.3492445821
 20
4.3245458545
 30
0.0
 10
10.3485771648
 20
4.3325158192
 30
0.0
  0
SPLINE
  5
244
100
AcDbEntity
  8
0
100
AcDbSpline
 62
7
  6
CONTINUOUS
 70
0
 71
3
 72
22
 73
18
 74
0
 42
0.0000001
 43
0.0000001
 44
0.0000000001
 40
0.0
 40
0.0
 40
0.0
 40
0.0
 40
0.1404851015
 40
0.2088981845
 40
0.2760455015
 40
0.3419246574
 40
0.4065506321
 40
0.4699564663
 40
0.5321937179
 40
0.5933325228
 40
0.6534613235
 40
0.7126861801
 40
0.7711295314
 40
0.8289284569
 40
0.8862325472
 40
0.9432009142
 40
1.0
 40
1.0
 40
1.0
 40
1.0
 10
10.172240335
 20
4.9956158719
 30
0.0
 10
10.1280212317
 20
4.9720382103
 30
0.0
 10
10.0639152498
 20
4.9337031033
 30
0.0
 10
9.9837551875
 20
4.8764546288
 30
0.0
 10
9.9276700845
 20
4.8314704707
 30
0.0
 10
9.8752952043
 20
4.7842109746
 30
0.0
 10
9.8268056296
 20
4.7348216198
 30
0.0
 10
9.7823699335
 20
4.6834579554
 30
0.0
 10
9.7421444941
 20
4.6302822799
 30
0.0
 10
9.7062744815
 20
4.5754647895
 30
0.0
 10
9.6748928559
 20
4.5191836782
 30
0.0
 10
9.6481195696
 20
4.4616255641
 30
0.0
 10
9.6260603265
 20
4.4029854985
 30
0.0
 10
9.6088050124
 20
4.3434674848
 30
0.0
 10
9.596426156
 20
4.2832815971
 30
0.0
 10
9.5889769672
 20
4.2226512374
 30
0.0
 10
9.5873183383
 20
4.1820500488
 30
0.0
 10
9.5873183383
 20
4.1617893335
 30
0.0
  0
SPLINE
  5
245
100
AcDbEntity
  8
0
100
AcDbSpline
 62
7
  6
CONTINUOUS
 70
0
 71
3
 72
22
 73
18
 74
0
 42
0.0000001
 43
0.0000001
 44
0.0000000001
 40
0.0
 40
0.0
 40
0.0
 40
0.0
 40
0.0567991002
 40
0.1137674834
 40
0.1710715902
 40
0.2288705316
 40
0.2873138972
 40
0.3465387656
 40
0.4066675749
 40
0.4678063847
 40
0.5300436373
 40
0.5934494682
 40
0.6580754352
 40
0.7239545793
 40
0.7911018806
 40
0.8595149445
 40
1.0
 40
1.0
 40
1.0
 40
1.0
 10
12.5073183383
 20
4.1617893335
 30
0.0
 10
12.5073183383
 20
4.1820499849
 30
0.0
 10
12.5056597197
 20
4.222651046
 30
0.0
 10
12.4982105775
 20
4.2832812184
 30
0.0
 10
12.4858317976
 20
4.3434669254
 30
0.0
 10
12.4685765886
 20
4.4029847668
 30
0.0
 10
12.4465174777
 20
4.4616246698
 30
0.0
 10
12.4197443497
 20
4.5191826323
 30
0.0
 10
12.3883629072
 20
4.5754636044
 30
0.0
 10
12.3524931008
 20
4.630280969
 30
0.0
 10
12.3122678894
 20
4.6834565331
 30
0.0
 10
12.2678324416
 20
4.7348201014
 30
0.0
 10
12.2193431341
 20
4.7842093766
 30
0.0
 10
12.1669685384
 20
4.8314688103
 30
0.0
 10
12.1108837353
 20
4.876452924
 30
0.0
 10
12.030724096
 20
4.9337013638
 30
0.0
 10
11.9666184414
 20
4.9720364759
 30
0.0
 10
11.9223995599
 20
4.9956141557
 30
0.0
  0
SPLINE
  5
246
100
AcDbEntity
  8
0
100
AcDbSpline
 62
7
  6
CONTINUOUS
 70
0
 71
3
 72
35
 73
31
 74
0
 42
0.0000001
 43
0.0000001
 44
0.0000000001
 40
0.0
 40
0.0
 40
0.0
 40
0.0
 40
0.0730177436
 40
0.1091488901
 40
0.1449943619
 40
0.2157336392
 40
0.2505971568
 40
0.2850968762
 40
0.3192174646
 40
0.3529455283
 40
0.4191700821
 40
0.451661542
 40
0.4837288659
 40
0.5465737759
 40
0.577368689
 40
0.6077486742
 40
0.6377231423
 40
0.667304469
 40
0.6965080188
 40
0.7253521397
 40
0.7538581232
 40
0.7820501314
 40
0.809955082
 40
0.8376024915
 40
0.8650242787
 40
0.8922545144
 40
0.9193291545
 40
0.946285673
 40
0.9731628117
 40
1.0
 40
1.0
 40
1.0
 40
1.0
 10
10.1721704047
 20
5.9602866212
 30
0.0
 10
10.0981113942
 20
5.9439988735
 30
0.0
 10
9.9880777178
 20
5.9164116886
 30
0.0
 10
9.8438159014
 20
5.87320017
 30
0.0
 10
9.7031892122
 20
5.8263393858
 30
0.0
 10
9.5660277142
 20
5.7734322862
 30
0.0
 10
9.4329720309
 20
5.7145139021
 30
0.0
 10
9.3361784146
 20
5.6677722586
 30
0.0
 10
9.2420596923
 20
5.6183387103
 30
0.0
 10
9.1210841477
 20
5.5493687808
 30
0.0
 10
9.0052297009
 20
5.474968029
 30
0.0
 10
8.8952243063
 20
5.3952614304
 30
0.0
 10
8.7911088883
 20
5.3135789198
 30
0.0
 10
8.6931585465
 20
5.2270191287
 30
0.0
 10
8.6021581167
 20
5.1358335718
 30
0.0
 10
8.5381915759
 20
5.066016544
 30
0.0
 10
8.4781607763
 20
4.9944257789
 30
0.0
 10
8.4221611349
 20
4.9211693205
 30
0.0
 10
8.3702845442
 20
4.8463602147
 30
0.0
 10
8.3226163874
 20
4.7701139414
 30
0.0
 10
8.2792360998
 20
4.6925490415
 30
0.0
 10
8.2402167638
 20
4.6137869004
 30
0.0
 10
8.2056249249
 20
4.5339517338
 30
0.0
 10
8.1755203094
 20
4.4531704755
 30
0.0
 10
8.1499555498
 20
4.3715726789
 30
0.0
 10
8.1289758584
 20
4.2892902088
 30
0.0
 10
8.1126187774
 20
4.2064574195
 30
0.0
 10
8.1009137946
 20
4.1232092699
 30
0.0
 10
8.0938822547
 20
4.0396866165
 30
0.0
 10
8.0923183383
 20
3.9838916842
 30
0.0
 10
8.0923183383
 20
3.9560212602
 30
0.0
  0
SPLINE
  5
247
100
AcDbEntity
  8
0
100
AcDbSpline
 62
7
  6
CONTINUOUS
 70
0
 71
3
 72
35
 73
31
 74
0
 42
0.0000001
 43
0.0000001
 44
0.0000000001
 40
0.0
 40
0.0
 40
0.0
 40
0.0
 40
0.026837188
 40
0.0537143264
 40
0.0806708449
 40
0.107745485
 40
0.1349757208
 40
0.1623975082
 40
0.190044918
 40
0.2179498689
 40
0.2461418775
 40
0.2746478613
 40
0.3034919827
 40
0.3326955329
 40
0.36227686
 40
0.3922513285
 40
0.422631314
 40
0.4534262274
 40
0.5162711378
 40
0.5483384618
 40
0.5808299218
 40
0.6470544755
 40
0.6807825391
 40
0.7149031274
 40
0.7494028465
 40
0.7842663638
 40
0.8550056402
 40
0.8908511116
 40
0.9269822576
 40
1.0
 40
1.0
 40
1.0
 40
1.0
 10
14.0023183383
 20
3.9560212602
 30
0.0
 10
14.0023183383
 20
3.9838916811
 30
0.0
 10
14.0007544223
 20
4.0396866071
 30
0.0
 10
13.9937228839
 20
4.1232092514
 30
0.0
 10
13.9820179036
 20
4.2064573924
 30
0.0
 10
13.9656608259
 20
4.2892901738
 30
0.0
 10
13.9446811387
 20
4.3715726364
 30
0.0
 10
13.9191163839
 20
4.4531704262
 30
0.0
 10
13.889011774
 20
4.5339516782
 30
0.0
 10
13.8544199412
 20
4.613786839
 30
0.0
 10
13.8154006119
 20
4.6925489747
 30
0.0
 10
13.7720203314
 20
4.7701138698
 30
0.0
 10
13.7243521824
 20
4.8463601387
 30
0.0
 10
13.6724755998
 20
4.9211692405
 30
0.0
 10
13.6164759671
 20
4.9944256953
 30
0.0
 10
13.5564451766
 20
5.0660164573
 30
0.0
 10
13.4924786453
 20
5.1358334822
 30
0.0
 10
13.4014782291
 20
5.2270190359
 30
0.0
 10
13.3035279017
 20
5.3135788245
 30
0.0
 10
13.1994124986
 20
5.3952613336
 30
0.0
 10
13.0894071199
 20
5.474967931
 30
0.0
 10
12.9735526896
 20
5.5493686826
 30
0.0
 10
12.8525771622
 20
5.6183386129
 30
0.0
 10
12.7584584531
 20
5.6677721622
 30
0.0
 10
12.6616648506
 20
5.7145138073
 30
0.0
 10
12.5286091861
 20
5.7734321941
 30
0.0
 10
12.3914477073
 20
5.8263392976
 30
0.0
 10
12.2508210375
 20
5.8732000868
 30
0.0
 10
12.1065592411
 20
5.9164116114
 30
0.0
 10
11.9965255798
 20
5.9439988018
 30
0.0
 10
11.9224665793
 20
5.9602865535
 30
0.0
  0
SPLINE
  5
248
100
AcDbEntity
  8
0
100
AcDbSpline
 62
7
  6
CONTINUOUS
 70
0
 71
3
 72
40
 73
36
 74
0
 42
0.0000001
 43
0.0000001
 44
0.0000000001
 40
0.0
 40
0.0
 40
0.0
 40
0.0
 40
0.0723823855
 40
0.1084716911
 40
0.144432816
 40
0.1802243518
 40
0.215805915
 40
0.2511384886
 40
0.2861846901
 40
0.3209090508
 40
0.3552783012
 40
0.3892616561
 40
0.4228311087
 40
0.4559617218
 40
0.4886319241
 40
0.5208238007
 40
0.5525233876
 40
0.5837209535
 40
0.6144112797
 40
0.644593911
 40
0.6594973052
 40
0.6742759116
 40
0.70346197
 40
0.732169685
 40
0.7463518119
 40
0.7604225086
 40
0.7882405234
 40
0.8156580211
 40
0.8427115701
 40
0.8694426767
 40
0.8958973907
 40
0.9221257786
 40
0.9481813237
 40
0.9741200332
 40
1.0
 40
1.0
 40
1.0
 40
1.0
 10
11.0473183383
 20
1.236413698
 30
0.0
 10
11.1437638456
 20
1.236413698
 30
0.0
 10
11.2883638789
 20
1.241430789
 30
0.0
 10
11.4801100552
 20
1.2581658948
 30
0.0
 10
11.6227645695
 20
1.275681238
 30
0.0
 10
11.7640385601
 20
1.2981297096
 30
0.0
 10
11.9035982246
 20
1.3254586588
 30
0.0
 10
12.0411086636
 20
1.3576035992
 30
0.0
 10
12.1762413672
 20
1.3944888614
 30
0.0
 10
12.3086732207
 20
1.4360277098
 30
0.0
 10
12.4380877251
 20
1.4821226135
 30
0.0
 10
12.5641756033
 20
1.5326655162
 30
0.0
 10
12.6866355311
 20
1.5875381255
 30
0.0
 10
12.8051748101
 20
1.646612211
 30
0.0
 10
12.9195099589
 20
1.7097499622
 30
0.0
 10
13.029367343
 20
1.7768043815
 30
0.0
 10
13.1344835157
 20
1.847619444
 30
0.0
 10
13.2346063978
 20
1.922031126
 30
0.0
 10
13.329493229
 20
1.9998652296
 30
0.0
 10
13.4043277024
 20
2.0677160522
 30
0.0
 10
13.4613153769
 20
2.1235401251
 30
0.0
 10
13.5159043401
 20
2.1798769392
 30
0.0
 10
13.5805136031
 20
2.2520685492
 30
0.0
 10
13.6405697371
 20
2.3270797686
 30
0.0
 10
13.6854344765
 20
2.3883080128
 30
0.0
 10
13.7278406934
 20
2.4498287011
 30
0.0
 10
13.7768999967
 20
2.5281358478
 30
0.0
 10
13.8294170563
 20
2.6244631018
 30
0.0
 10
13.8752231275
 20
2.7225657389
 30
0.0
 10
13.914195737
 20
2.8222041563
 30
0.0
 10
13.9462303448
 20
2.9231347613
 30
0.0
 10
13.9712393426
 20
3.0251068002
 30
0.0
 10
13.9891533131
 20
3.1278665923
 30
0.0
 10
13.9999221204
 20
3.2311480768
 30
0.0
 10
14.0023183383
 20
3.300217415
 30
0.0
 10
14.0023183383
 20
3.334701033
 30
0.0
  0
SPLINE
  5
249
100
AcDbEntity
  8
0
100
AcDbSpline
 62
7
  6
CONTINUOUS
 70
0
 71
3
 72
40
 73
36
 74
0
 42
0.0000001
 43
0.0000001
 44
0.0000000001
 40
0.0
 40
0.0
 40
0.0
 40
0.0
 40
0.0258799662
 40
0.0518186753
 40
0.0778742201
 40
0.1041026079
 40
0.1305573219
 40
0.1572884287
 40
0.184341978
 40
0.211759476
 40
0.2395774912
 40
0.2536481881
 40
0.2678303153
 40
0.2965380308
 40
0.3257240897
 40
0.3405026964
 40
0.3554060909
 40
0.3855887227
 40
0.4162790493
 40
0.4474766157
 40
0.479176203
 40
0.5113680801
 40
0.5440382826
 40
0.577168896
 40
0.6107383486
 40
0.6447217036
 40
0.6790909539
 40
0.7138153146
 40
0.7488615158
 40
0.7841940891
 40
0.8197756518
 40
0.8555671871
 40
0.8915283114
 40
0.9276176162
 40
1.0
 40
1.0
 40
1.0
 40
1.0
 10
8.0923183383
 20
3.334701033
 30
0.0
 10
8.0923183383
 20
3.3002174158
 30
0.0
 10
8.0947145561
 20
3.231148079
 30
0.0
 10
8.1054833629
 20
3.1278665962
 30
0.0
 10
8.123397333
 20
3.0251068051
 30
0.0
 10
8.1484063303
 20
2.9231347665
 30
0.0
 10
8.1804409378
 20
2.8222041613
 30
0.0
 10
8.2194135472
 20
2.7225657433
 30
0.0
 10
8.2652196186
 20
2.6244631052
 30
0.0
 10
8.3177366787
 20
2.5281358498
 30
0.0
 10
8.3667959826
 20
2.449828702
 30
0.0
 10
8.4092022002
 20
2.3883080127
 30
0.0
 10
8.4540669403
 20
2.3270797675
 30
0.0
 10
8.5141230755
 20
2.2520685468
 30
0.0
 10
8.5787323398
 20
2.1798769356
 30
0.0
 10
8.6333213042
 20
2.1235401206
 30
0.0
 10
8.6903089798
 20
2.0677160469
 30
0.0
 10
8.7651434548
 20
1.9998652234
 30
0.0
 10
8.8600302879
 20
1.922031119
 30
0.0
 10
8.9601531717
 20
1.8476194363
 30
0.0
 10
9.0652693461
 20
1.7768043733
 30
0.0
 10
9.1751267318
 20
1.709749954
 30
0.0
 10
9.289461882
 20
1.6466122028
 30
0.0
 10
9.4080011622
 20
1.5875381177
 30
0.0
 10
9.5304610907
 20
1.5326655088
 30
0.0
 10
9.6565489693
 20
1.4821226066
 30
0.0
 10
9.7859634738
 20
1.4360277037
 30
0.0
 10
9.918395327
 20
1.3944888562
 30
0.0
 10
10.0535280299
 20
1.357603595
 30
0.0
 10
10.1910384678
 20
1.3254586555
 30
0.0
 10
10.3305981306
 20
1.2981297071
 30
0.0
 10
10.4718721192
 20
1.2756812362
 30
0.0
 10
10.6145266311
 20
1.2581658938
 30
0.0
 10
10.8062728033
 20
1.2414307888
 30
0.0
 10
10.9508728333
 20
1.236413698
 30
0.0
 10
11.0473183383
 20
1.236413698
 30
0.0
  0
SPLINE
  5
24A
100
AcDbEntity
  8
0
100
AcDbSpline
 62
9
  6
CONTINUOUS
 70
0
 71
3
 72
29
 73
25
 74
0
 42
0.0000001
 43
0.0000001
 44
0.0000000001
 40
0.0
 40
0.0
 40
0.0
 40
0.0
 40
0.0257102026
 40
0.0514821199
 40
0.0773764341
 40
0.1034518056
 40
0.1297639637
 40
0.1563649055
 40
0.1833022207
 40
0.2106185647
 40
0.2383512761
 40
0.2665321258
 40
0.2951871864
 40
0.324336803
 40
0.3841532707
 40
0.4460555014
 40
0.5100143852
 40
0.575928077
 40
0.6436315643
 40
0.7129063046
 40
0.7834897586
 40
0.8550846719
 40
0.9273678772
 40
1.0
 40
1.0
 40
1.0
 40
1.0
 10
10.3473183383
 20
4.3626076594
 30
0.0
 10
10.3473183383
 20
4.3545070287
 30
0.0
 10
10.3478822746
 20
4.338280706
 30
0.0
 10
10.3504168095
 20
4.3140149055
 30
0.0
 10
10.3546338966
 20
4.2898665711
 30
0.0
 10
10.3605229116
 20
4.26589609
 30
0.0
 10
10.3680690866
 20
4.2421613197
 30
0.0
 10
10.3772535997
 20
4.2187199247
 30
0.0
 10
10.3880536195
 20
4.1956285383
 30
0.0
 10
10.4004424162
 20
4.1729428361
 30
0.0
 10
10.4143895461
 20
4.1507173275
 30
0.0
 10
10.4298607146
 20
4.1290054806
 30
0.0
 10
10.446818742
 20
4.1078587892
 30
0.0
 10
10.4715652293
 20
4.0802514583
 30
0.0
 10
10.5060936862
 20
4.0474474417
 30
0.0
 10
10.5523452285
 20
4.0114839316
 30
0.0
 10
10.6033322476
 20
3.9789086131
 30
0.0
 10
10.6585621925
 20
3.9500294991
 30
0.0
 10
10.7175076585
 20
3.9251163002
 30
0.0
 10
10.7796052126
 20
3.904403701
 30
0.0
 10
10.8442613567
 20
3.8880869182
 30
0.0
 10
10.9108594062
 20
3.8763204067
 30
0.0
 10
10.9787586793
 20
3.8692155149
 30
0.0
 10
11.0244338046
 20
3.8676329126
 30
0.0
 10
11.0473183383
 20
3.8676329126
 30
0.0
  0
SPLINE
  5
24B
100
AcDbEntity
  8
0
100
AcDbSpline
 62
7
  6
CONTINUOUS
 70
0
 71
3
 72
27
 73
23
 74
0
 42
0.0000001
 43
0.0000001
 44
0.0000000001
 40
0.0
 40
0.0
 40
0.0
 40
0.0
 40
0.0269225088
 40
0.0539104324
 40
0.0809981382
 40
0.1082190917
 40
0.1356055816
 40
0.163188445
 40
0.1909968737
 40
0.219058157
 40
0.2760233304
 40
0.3342752296
 40
0.3939519826
 40
0.455153336
 40
0.5179409757
 40
0.582340061
 40
0.6483413633
 40
0.7159039309
 40
0.7849578919
 40
0.8554077142
 40
0.9271341097
 40
1.0
 40
1.0
 40
1.0
 40
1.0
 10
10.3476614397
 20
4.7282431774
 30
0.0
 10
10.3479262274
 20
4.7222650749
 30
0.0
 10
10.3487633022
 20
4.7103056899
 30
0.0
 10
10.3509356938
 20
4.692426649
 30
0.0
 10
10.3540229631
 20
4.674614955
 30
0.0
 10
10.3580208719
 20
4.6568947377
 30
0.0
 10
10.3629242261
 20
4.6392892212
 30
0.0
 10
10.3687262095
 20
4.6218217016
 30
0.0
 10
10.3754194384
 20
4.6045148177
 30
0.0
 10
10.3855688578
 20
4.5815723342
 30
0.0
 10
10.4004884505
 20
4.5533823191
 30
0.0
 10
10.4216932167
 20
4.520744954
 30
0.0
 10
10.4461772164
 20
4.4892898977
 30
0.0
 10
10.4738083268
 20
4.4591821221
 30
0.0
 10
10.5044399268
 20
4.430576285
 30
0.0
 10
10.5379102083
 20
4.4036199622
 30
0.0
 10
10.5740432419
 20
4.3784520289
 30
0.0
 10
10.6126496608
 20
4.3552023362
 30
0.0
 10
10.6535273376
 20
4.3339909437
 30
0.0
 10
10.6964629412
 20
4.3149275027
 30
0.0
 10
10.7412304356
 20
4.2981110481
 30
0.0
 10
10.7719256162
 20
4.2885236772
 30
0.0
 10
10.7875107171
 20
4.2841188067
 30
0.0
  0
SPLINE
  5
24C
100
AcDbEntity
  8
0
100
AcDbSpline
 62
7
  6
CONTINUOUS
 70
0
 71
3
 72
27
 73
23
 74
0
 42
0.0000001
 43
0.0000001
 44
0.0000000001
 40
0.0
 40
0.0
 40
0.0
 40
0.0
 40
0.0269225088
 40
0.0539104324
 40
0.0809981382
 40
0.1082190917
 40
0.1356055815
 40
0.163188445
 40
0.1909968737
 40
0.219058157
 40
0.2760233303
 40
0.3342752296
 40
0.3939519826
 40
0.455153336
 40
0.5179409757
 40
0.5823400609
 40
0.6483413632
 40
0.7159039308
 40
0.7849578919
 40
0.8554077141
 40
0.9271341096
 40
1.0
 40
1.0
 40
1.0
 40
1.0
 10
11.7469752368
 20
4.7282431774
 30
0.0
 10
11.7467104492
 20
4.7222650749
 30
0.0
 10
11.7458733743
 20
4.7103056899
 30
0.0
 10
11.7437009828
 20
4.692426649
 30
0.0
 10
11.7406137134
 20
4.674614955
 30
0.0
 10
11.7366158047
 20
4.6568947378
 30
0.0
 10
11.7317124505
 20
4.6392892212
 30
0.0
 10
11.7259104671
 20
4.6218217016
 30
0.0
 10
11.7192172381
 20
4.6045148178
 30
0.0
 10
11.7090678188
 20
4.5815723342
 30
0.0
 10
11.6941482261
 20
4.5533823191
 30
0.0
 10
11.6729434599
 20
4.520744954
 30
0.0
 10
11.6484594602
 20
4.4892898977
 30
0.0
 10
11.6208283498
 20
4.4591821221
 30
0.0
 10
11.5901967498
 20
4.430576285
 30
0.0
 10
11.5567264683
 20
4.4036199622
 30
0.0
 10
11.5205934347
 20
4.378452029
 30
0.0
 10
11.4819870158
 20
4.3552023363
 30
0.0
 10
11.441109339
 20
4.3339909437
 30
0.0
 10
11.3981737354
 20
4.3149275027
 30
0.0
 10
11.353406241
 20
4.2981110481
 30
0.0
 10
11.3227110604
 20
4.2885236772
 30
0.0
 10
11.3071259594
 20
4.2841188067
 30
0.0
  0
SPLINE
  5
24D
100
AcDbEntity
  8
0
100
AcDbSpline
 62
9
  6
CONTINUOUS
 70
0
 71
3
 72
32
 73
28
 74
0
 42
0.0000001
 43
0.0000001
 44
0.0000000001
 40
0.0
 40
0.0
 40
0.0
 40
0.0
 40
0.0284202168
 40
0.0568613278
 40
0.0853441187
 40
0.1138891619
 40
0.1425167158
 40
0.1712466187
 40
0.2000981992
 40
0.2290901918
 40
0.258240642
 40
0.2875668452
 40
0.3170852794
 40
0.3468115325
 40
0.3767602712
 40
0.4069451921
 40
0.4680648733
 40
0.5302684267
 40
0.5618036621
 40
0.5936354373
 40
0.6582057555
 40
0.7240250057
 40
0.7574136036
 40
0.7911212211
 40
0.8594876166
 40
0.9291215507
 40
1.0
 40
1.0
 40
1.0
 40
1.0
 10
14.0023183146
 20
3.9560212602
 30
0.0
 10
14.0023183146
 20
3.9371241612
 30
0.0
 10
14.001592685
 20
3.8993120587
 30
0.0
 10
13.998328442
 20
3.8426459969
 30
0.0
 10
13.9928907335
 20
3.7860628798
 30
0.0
 10
13.9852837124
 20
3.7296056075
 30
0.0
 10
13.9755129198
 20
3.6733156164
 30
0.0
 10
13.9635857245
 20
3.6172345532
 30
0.0
 10
13.9495110694
 20
3.561403785
 30
0.0
 10
13.9332993098
 20
3.5058645569
 30
0.0
 10
13.9149626281
 20
3.4506578035
 30
0.0
 10
13.8945146755
 20
3.3958242327
 30
0.0
 10
13.8719705148
 20
3.3414042552
 30
0.0
 10
13.8473471235
 20
3.2874380629
 30
0.0
 10
13.820662324
 20
3.2339648009
 30
0.0
 10
13.7822048365
 20
3.1630895319
 30
0.0
 10
13.7289894974
 20
3.0758945418
 30
0.0
 10
13.6696912578
 20
2.9916249495
 30
0.0
 10
13.6184837755
 20
2.9256631349
 30
0.0
 10
13.5642619325
 20
2.8600997522
 30
0.0
 10
13.491752768
 20
2.7801512916
 30
0.0
 10
13.4139734334
 20
2.7038431874
 30
0.0
 10
13.3483441749
 20
2.6446389145
 30
0.0
 10
13.2798218986
 20
2.5861637495
 30
0.0
 10
13.189984826
 20
2.5156089339
 30
0.0
 10
13.0763980056
 20
2.4355887175
 30
0.0
 10
12.9973785227
 20
2.3856554341
 30
0.0
 10
12.9569447
 20
2.3614441862
 30
0.0
  0
SPLINE
  5
24E
100
AcDbEntity
  8
0
100
AcDbSpline
 62
9
  6
CONTINUOUS
 70
0
 71
3
 72
13
 73
9
 74
0
 42
0.0000001
 43
0.0000001
 44
0.0000000001
 40
0.0
 40
0.0
 40
0.0
 40
0.0
 40
0.2408922391
 40
0.3638722824
 40
0.4884112977
 40
0.614410753
 40
0.7417621435
 40
1.0
 40
1.0
 40
1.0
 40
1.0
 10
12.9569447
 20
2.3614441862
 30
0.0
 10
12.8833754553
 20
2.3173918779
 30
0.0
 10
12.7692734283
 20
2.2556700771
 30
0.0
 10
12.6116001108
 20
2.1823501697
 30
0.0
 10
12.4888755719
 20
2.1310951308
 30
0.0
 10
12.3628043034
 20
2.084084732
 30
0.0
 10
12.1898583684
 20
2.0269496705
 30
0.0
 10
12.0571732521
 20
1.9911931764
 30
0.0
 10
11.9676221925
 20
1.9704400254
 30
0.0
  0
SPLINE
  5
24F
100
AcDbEntity
  8
0
100
AcDbSpline
 62
9
  6
CONTINUOUS
 70
0
 71
3
 72
38
 73
34
 74
0
 42
0.0000001
 43
0.0000001
 44
0.0000000001
 40
0.0
 40
0.0
 40
0.0
 40
0.0
 40
0.0255857602
 40
0.0513342748
 40
0.0772944574
 40
0.1035122653
 40
0.1300301657
 40
0.1568867021
 40
0.184116164
 40
0.2117483559
 40
0.2398084581
 40
0.2683169709
 40
0.2972897281
 40
0.3267379704
 40
0.3566684648
 40
0.3870836618
 40
0.4179818799
 40
0.4493575108
 40
0.4812012369
 40
0.5135002588
 40
0.5462385261
 40
0.5793969711
 40
0.6129537413
 40
0.6468844308
 40
0.6811623088
 40
0.7157585445
 40
0.7506424296
 40
0.7857815969
 40
0.8211422343
 40
0.856689303
 40
0.8923867225
 40
0.9281976653
 40
1.0
 40
1.0
 40
1.0
 40
1.0
 10
13.9886123183
 20
3.1336852798
 30
0.0
 10
13.9842358912
 20
3.1016668001
 30
0.0
 10
13.973371426
 20
3.0376919269
 30
0.0
 10
13.9508960192
 20
2.9426231989
 30
0.0
 10
13.9222478227
 20
2.8483915288
 30
0.0
 10
13.8874904111
 20
2.7552034677
 30
0.0
 10
13.8466994992
 20
2.6632561066
 30
0.0
 10
13.7999638546
 20
2.572745268
 30
0.0
 10
13.747384681
 20
2.4838628041
 30
0.0
 10
13.6890754143
 20
2.3967968938
 30
0.0
 10
13.625161407
 20
2.3117315475
 30
0.0
 10
13.5557796428
 20
2.2288463413
 30
0.0
 10
13.4810784388
 20
2.1483160957
 30
0.0
 10
13.401217142
 20
2.0703105705
 30
0.0
 10
13.3163658126
 20
1.994994155
 30
0.0
 10
13.2267048953
 20
1.9225255527
 30
0.0
 10
13.1324248606
 20
1.8530574777
 30
0.0
 10
13.0337258306
 20
1.7867363496
 30
0.0
 10
12.9308171819
 20
1.723701993
 30
0.0
 10
12.8239171277
 20
1.6640873466
 30
0.0
 10
12.7132522765
 20
1.6080181813
 30
0.0
 10
12.5990571703
 20
1.5556128307
 30
0.0
 10
12.4815738025
 20
1.5069819355
 30
0.0
 10
12.361051117
 20
1.4622282029
 30
0.0
 10
12.237744489
 20
1.4214461822
 30
0.0
 10
12.1119151989
 20
1.3847220518
 30
0.0
 10
11.9838298533
 20
1.3521334335
 30
0.0
 10
11.8537599267
 20
1.3237492311
 30
0.0
 10
11.7219807957
 20
1.2996294473
 30
0.0
 10
11.5887726346
 20
1.279825162
 30
0.0
 10
11.4544142653
 20
1.2643780347
 30
0.0
 10
11.2739856314
 20
1.2496240133
 30
0.0
 10
11.1380085466
 20
1.2452004946
 30
0.0
 10
11.0473183383
 20
1.2452004946
 30
0.0
  0
SPLINE
  5
250
100
AcDbEntity
  8
0
100
AcDbSpline
 62
9
  6
CONTINUOUS
 70
0
 71
3
 72
37
 73
33
 74
0
 42
0.0000001
 43
0.0000001
 44
0.0000000001
 40
0.0
 40
0.0
 40
0.0
 40
0.0
 40
0.0257071849
 40
0.0514760775
 40
0.0773673536
 40
0.103439667
 40
0.129748739
 40
0.1563465578
 40
0.1832807092
 40
0.2105938468
 40
0.2383233063
 40
0.2665008525
 40
0.2951525507
 40
0.3242987427
 40
0.3539541126
 40
0.3841278235
 40
0.41482371
 40
0.4460405117
 40
0.4777721368
 40
0.5100079444
 40
0.5427330404
 40
0.575928579
 40
0.6095720663
 40
0.6436376638
 40
0.6780964891
 40
0.7129169117
 40
0.7480648459
 40
0.7835040366
 40
0.8550905673
 40
0.891168533
 40
0.9273766215
 40
1.0
 40
1.0
 40
1.0
 40
1.0
 10
12.5073183148
 20
4.1617893335
 30
0.0
 10
12.5073183148
 20
4.144893733
 30
0.0
 10
12.5061421232
 20
4.1110502605
 30
0.0
 10
12.5008558379
 20
4.0604387306
 30
0.0
 10
12.492060204
 20
4.0100722018
 30
0.0
 10
12.479777378
 20
3.9600766294
 30
0.0
 10
12.4640381805
 20
3.9105726896
 30
0.0
 10
12.4448819208
 20
3.8616806348
 30
0.0
 10
12.4223562012
 20
3.813518592
 30
0.0
 10
12.3965167106
 20
3.7662026802
 30
0.0
 10
12.3674270178
 20
3.7198466704
 30
0.0
 10
12.3351583664
 20
3.6745617957
 30
0.0
 10
12.2997894737
 20
3.6304565362
 30
0.0
 10
12.2614063294
 20
3.5876364175
 30
0.0
 10
12.2201019924
 20
3.5462038075
 30
0.0
 10
12.1759763805
 20
3.506257712
 30
0.0
 10
12.1291360491
 20
3.467893569
 30
0.0
 10
12.0796939582
 20
3.4312030422
 30
0.0
 10
12.0277692227
 20
3.3962738152
 30
0.0
 10
11.9734868482
 20
3.3631893899
 30
0.0
 10
11.9169774483
 20
3.3320288889
 30
0.0
 10
11.8583769502
 20
3.3028668654
 30
0.0
 10
11.7978262704
 20
3.2757731196
 30
0.0
 10
11.7354710286
 20
3.2508125361
 30
0.0
 10
11.6714610461
 20
3.2280448851
 30
0.0
 10
11.6059505991
 20
3.2075248189
 30
0.0
 10
11.5390957514
 20
3.1893011825
 30
0.0
 10
11.448085578
 20
3.1680550206
 30
0.0
 10
11.3553734138
 20
3.1516743883
 30
0.0
 10
11.2615030395
 20
3.1401641398
 30
0.0
 10
11.1666091949
 20
3.1318929452
 30
0.0
 10
11.0950487919
 20
3.129413433
 30
0.0
 10
11.0473183383
 20
3.129413433
 30
0.0
  0
SPLINE
  5
251
100
AcDbEntity
  8
0
100
AcDbSpline
 62
9
  6
CONTINUOUS
 70
0
 71
3
 72
29
 73
25
 74
0
 42
0.0000001
 43
0.0000001
 44
0.0000000001
 40
0.0
 40
0.0
 40
0.0
 40
0.0
 40
0.0257102026
 40
0.0514821199
 40
0.0773764341
 40
0.1034518057
 40
0.1297639637
 40
0.1563649055
 40
0.1833022207
 40
0.2106185647
 40
0.2383512762
 40
0.2665321258
 40
0.2951871864
 40
0.3243368032
 40
0.3841532709
 40
0.4460555015
 40
0.5100143852
 40
0.5759280769
 40
0.6436315641
 40
0.7129063044
 40
0.7834897584
 40
0.8550846718
 40
0.9273678772
 40
1.0
 40
1.0
 40
1.0
 40
1.0
 10
11.7473183383
 20
4.3343233881
 30
0.0
 10
11.7473183383
 20
4.3262227575
 30
0.0
 10
11.746754402
 20
4.3099964348
 30
0.0
 10
11.7442198671
 20
4.2857306343
 30
0.0
 10
11.74000278
 20
4.2615822998
 30
0.0
 10
11.734113765
 20
4.2376118188
 30
0.0
 10
11.7265675899
 20
4.2138770484
 30
0.0
 10
11.7173830768
 20
4.1904356534
 30
0.0
 10
11.7065830571
 20
4.167344267
 30
0.0
 10
11.6941942603
 20
4.1446585649
 30
0.0
 10
11.6802471304
 20
4.1224330562
 30
0.0
 10
11.6647759619
 20
4.1007212093
 30
0.0
 10
11.6478179345
 20
4.0795745179
 30
0.0
 10
11.6230714471
 20
4.051967187
 30
0.0
 10
11.5885429903
 20
4.0191631704
 30
0.0
 10
11.542291448
 20
3.9831996603
 30
0.0
 10
11.491304429
 20
3.9506243419
 30
0.0
 10
11.4360744842
 20
3.9217452279
 30
0.0
 10
11.3771290182
 20
3.896832029
 30
0.0
 10
11.3150314641
 20
3.8761194298
 30
0.0
 10
11.25037532
 20
3.8598026469
 30
0.0
 10
11.1837772704
 20
3.8480361354
 30
0.0
 10
11.1158779973
 20
3.8409312436
 30
0.0
 10
11.070202872
 20
3.8393486413
 30
0.0
 10
11.0473183383
 20
3.8393486413
 30
0.0
  0
SPLINE
  5
252
100
AcDbEntity
  8
0
100
AcDbSpline
 62
9
  6
CONTINUOUS
 70
0
 71
3
 72
37
 73
33
 74
0
 42
0.0000001
 43
0.0000001
 44
0.0000000001
 40
0.0
 40
0.0
 40
0.0
 40
0.0
 40
0.0257071849
 40
0.0514760775
 40
0.0773673536
 40
0.103439667
 40
0.129748739
 40
0.1563465578
 40
0.1832807092
 40
0.2105938468
 40
0.2383233063
 40
0.2665008525
 40
0.2951525507
 40
0.3242987427
 40
0.3539541126
 40
0.3841278235
 40
0.41482371
 40
0.4460405117
 40
0.4777721368
 40
0.5100079444
 40
0.5427330404
 40
0.575928579
 40
0.6095720663
 40
0.6436376638
 40
0.6780964891
 40
0.7129169117
 40
0.7480648459
 40
0.7835040366
 40
0.8550905673
 40
0.891168533
 40
0.9273766215
 40
1.0
 40
1.0
 40
1.0
 40
1.0
 10
9.5873183618
 20
3.9984476671
 30
0.0
 10
9.5873183618
 20
3.9815520665
 30
0.0
 10
9.5884945534
 20
3.9477085941
 30
0.0
 10
9.5937808386
 20
3.8970970642
 30
0.0
 10
9.6025764726
 20
3.8467305353
 30
0.0
 10
9.6148592985
 20
3.7967349629
 30
0.0
 10
9.6305984961
 20
3.7472310231
 30
0.0
 10
9.6497547557
 20
3.6983389684
 30
0.0
 10
9.6722804754
 20
3.6501769256
 30
0.0
 10
9.698119966
 20
3.6028610138
 30
0.0
 10
9.7272096588
 20
3.5565050039
 30
0.0
 10
9.7594783102
 20
3.5112201292
 30
0.0
 10
9.7948472029
 20
3.4671148697
 30
0.0
 10
9.8332303472
 20
3.424294751
 30
0.0
 10
9.8745346841
 20
3.382862141
 30
0.0
 10
9.9186602961
 20
3.3429160456
 30
0.0
 10
9.9655006274
 20
3.3045519026
 30
0.0
 10
10.0149427184
 20
3.2678613757
 30
0.0
 10
10.0668674538
 20
3.2329321487
 30
0.0
 10
10.1211498284
 20
3.1998477235
 30
0.0
 10
10.1776592283
 20
3.1686872224
 30
0.0
 10
10.2362597263
 20
3.139525199
 30
0.0
 10
10.2968104061
 20
3.1124314531
 30
0.0
 10
10.359165648
 20
3.0874708697
 30
0.0
 10
10.4231756305
 20
3.0647032186
 30
0.0
 10
10.4886860775
 20
3.0441831525
 30
0.0
 10
10.5555409252
 20
3.0259595161
 30
0.0
 10
10.6465510986
 20
3.0047133541
 30
0.0
 10
10.7392632627
 20
2.9883327218
 30
0.0
 10
10.8331336371
 20
2.9768224733
 30
0.0
 10
10.9280274817
 20
2.9685512788
 30
0.0
 10
10.9995878847
 20
2.9660717665
 30
0.0
 10
11.0473183383
 20
2.9660717665
 30
0.0
  0
SPLINE
  5
253
100
AcDbEntity
  8
0
100
AcDbSpline
 62
9
  6
CONTINUOUS
 70
0
 71
3
 72
29
 73
25
 74
0
 42
0.0000001
 43
0.0000001
 44
0.0000000001
 40
0.0
 40
0.0
 40
0.0
 40
0.0
 40
0.0257102026
 40
0.0514821199
 40
0.0773764341
 40
0.1034518057
 40
0.1297639637
 40
0.1563649055
 40
0.1833022208
 40
0.2106185647
 40
0.2383512762
 40
0.2665321258
 40
0.2951871865
 40
0.3243368032
 40
0.3841532709
 40
0.4460555015
 40
0.5100143852
 40
0.5759280769
 40
0.6436315642
 40
0.7129063045
 40
0.7834897585
 40
0.8550846719
 40
0.9273678772
 40
1.0
 40
1.0
 40
1.0
 40
1.0
 10
10.3473183383
 20
4.2042157404
 30
0.0
 10
10.3473183383
 20
4.1961151098
 30
0.0
 10
10.3478822746
 20
4.179888787
 30
0.0
 10
10.3504168095
 20
4.1556229865
 30
0.0
 10
10.3546338966
 20
4.1314746521
 30
0.0
 10
10.3605229116
 20
4.107504171
 30
0.0
 10
10.3680690867
 20
4.0837694007
 30
0.0
 10
10.3772535997
 20
4.0603280056
 30
0.0
 10
10.3880536195
 20
4.0372366192
 30
0.0
 10
10.4004424163
 20
4.0145509171
 30
0.0
 10
10.4143895462
 20
3.9923254084
 30
0.0
 10
10.4298607147
 20
3.9706135616
 30
0.0
 10
10.4468187421
 20
3.9494668701
 30
0.0
 10
10.4715652294
 20
3.9218595392
 30
0.0
 10
10.5060936863
 20
3.8890555226
 30
0.0
 10
10.5523452286
 20
3.8530920126
 30
0.0
 10
10.6033322476
 20
3.8205166941
 30
0.0
 10
10.6585621924
 20
3.7916375801
 30
0.0
 10
10.7175076584
 20
3.7667243812
 30
0.0
 10
10.7796052126
 20
3.7460117821
 30
0.0
 10
10.8442613567
 20
3.7296949992
 30
0.0
 10
10.9108594062
 20
3.7179284877
 30
0.0
 10
10.9787586793
 20
3.7108235959
 30
0.0
 10
11.0244338045
 20
3.7092409936
 30
0.0
 10
11.0473183383
 20
3.7092409936
 30
0.0
  0
SPLINE
  5
254
100
AcDbEntity
  8
0
100
AcDbSpline
 62
9
  6
CONTINUOUS
 70
0
 71
3
 72
29
 73
25
 74
0
 42
0.0000001
 43
0.0000001
 44
0.0000000001
 40
0.0
 40
0.0
 40
0.0
 40
0.0
 40
0.0726321228
 40
0.1449153282
 40
0.2165102416
 40
0.2870936956
 40
0.3563684359
 40
0.4240719232
 40
0.4899856148
 40
0.5539444985
 40
0.6158467291
 40
0.6756631969
 40
0.7048128136
 40
0.7334678742
 40
0.7616487238
 40
0.7893814353
 40
0.8166977793
 40
0.8436350945
 40
0.8702360363
 40
0.8965481943
 40
0.9226235659
 40
0.9485178801
 40
0.9742897974
 40
1.0
 40
1.0
 40
1.0
 40
1.0
 10
11.0473183383
 20
3.8393486413
 30
0.0
 10
11.0244338045
 20
3.8393486413
 30
0.0
 10
10.9787586793
 20
3.8409312436
 30
0.0
 10
10.9108594061
 20
3.8480361354
 30
0.0
 10
10.8442613566
 20
3.8598026469
 30
0.0
 10
10.7796052125
 20
3.8761194298
 30
0.0
 10
10.7175076584
 20
3.896832029
 30
0.0
 10
10.6585621923
 20
3.9217452279
 30
0.0
 10
10.6033322476
 20
3.9506243419
 30
0.0
 10
10.5523452286
 20
3.9831996603
 30
0.0
 10
10.5060936863
 20
4.0191631704
 30
0.0
 10
10.4715652294
 20
4.051967187
 30
0.0
 10
10.446818742
 20
4.0795745179
 30
0.0
 10
10.4298607147
 20
4.1007212093
 30
0.0
 10
10.4143895462
 20
4.1224330562
 30
0.0
 10
10.4004424162
 20
4.1446585649
 30
0.0
 10
10.3880536195
 20
4.167344267
 30
0.0
 10
10.3772535997
 20
4.1904356534
 30
0.0
 10
10.3680690867
 20
4.2138770484
 30
0.0
 10
10.3605229116
 20
4.2376118188
 30
0.0
 10
10.3546338966
 20
4.2615822998
 30
0.0
 10
10.3504168095
 20
4.2857306343
 30
0.0
 10
10.3478822746
 20
4.3099964348
 30
0.0
 10
10.3473183383
 20
4.3262227575
 30
0.0
 10
10.3473183383
 20
4.3343233881
 30
0.0
  0
SPLINE
  5
255
100
AcDbEntity
  8
0
100
AcDbSpline
 62
9
  6
CONTINUOUS
 70
0
 71
3
 72
52
 73
48
 74
0
 42
0.0000001
 43
0.0000001
 44
0.0000000001
 40
0.0
 40
0.0
 40
0.0
 40
0.0
 40
0.0375548818
 40
0.0749968777
 40
0.1122152025
 40
0.1491021527
 40
0.1855552555
 40
0.2214789911
 40
0.256786596
 40
0.2914018959
 40
0.3252612356
 40
0.3583154026
 40
0.390531614
 40
0.4218954056
 40
0.4524124601
 40
0.4821101508
 40
0.4966703095
 40
0.5110464245
 40
0.5252484168
 40
0.5392876414
 40
0.5531768496
 40
0.5669301292
 40
0.5805628172
 40
0.594091394
 40
0.6075333559
 40
0.6209070662
 40
0.6342315837
 40
0.6475264754
 40
0.6608116176
 40
0.6741069893
 40
0.6874324617
 40
0.7008075918
 40
0.7142514238
 40
0.7277823023
 40
0.7414177008
 40
0.7551740736
 40
0.7690667287
 40
0.7831097225
 40
0.7973157738
 40
0.8116962035
 40
0.8262608973
 40
0.8410182855
 40
0.8711306957
 40
0.9020792754
 40
0.9338801244
 40
0.9665283913
 40
1.0
 40
1.0
 40
1.0
 40
1.0
 10
11.0473183383
 20
3.1718398399
 30
0.0
 10
11.0103553885
 20
3.1718398399
 30
0.0
 10
10.9365244878
 20
3.1738630513
 30
0.0
 10
10.826399253
 20
3.1829539422
 30
0.0
 10
10.7175939715
 20
3.1980452099
 30
0.0
 10
10.6107645635
 20
3.2190469046
 30
0.0
 10
10.5065497643
 20
3.2458339826
 30
0.0
 10
10.4055739385
 20
3.2782470875
 30
0.0
 10
10.3084415669
 20
3.3160935236
 30
0.0
 10
10.2157343189
 20
3.3591488294
 30
0.0
 10
10.1280074223
 20
3.407157717
 30
0.0
 10
10.0457867591
 20
3.4598364863
 30
0.0
 10
9.9695660675
 20
3.5168735489
 30
0.0
 10
9.899803414
 20
3.5779339301
 30
0.0
 10
9.8369235664
 20
3.6426531897
 30
0.0
 10
9.7902643288
 20
3.6997032838
 30
0.0
 10
9.7568418011
 20
3.7467706024
 30
0.0
 10
9.733878013
 20
3.7825021343
 30
0.0
 10
9.7128912177
 20
3.8188384575
 30
0.0
 10
9.6939128034
 20
3.8557256865
 30
0.0
 10
9.6769719122
 20
3.8931081557
 30
0.0
 10
9.6620943971
 20
3.9309295983
 30
0.0
 10
9.649303094
 20
3.9691329626
 30
0.0
 10
9.638617691
 20
4.007660557
 30
0.0
 10
9.6300547064
 20
4.0464541164
 30
0.0
 10
9.6236273409
 20
4.0854548807
 30
0.0
 10
9.6193455288
 20
4.1246037191
 30
0.0
 10
9.6172159114
 20
4.1638412282
 30
0.0
 10
9.6172418293
 20
4.2031078367
 30
0.0
 10
9.6194232463
 20
4.2423439124
 30
0.0
 10
9.6237567385
 20
4.2814898865
 30
0.0
 10
9.6302355834
 20
4.3204863609
 30
0.0
 10
9.6388497642
 20
4.3592742137
 30
0.0
 10
9.6495860052
 20
4.3977946943
 30
0.0
 10
9.6624277143
 20
4.4359895505
 30
0.0
 10
9.6773551205
 20
4.4738011021
 30
0.0
 10
9.6943453254
 20
4.5111723302
 30
0.0
 10
9.7133723468
 20
4.5480469286
 30
0.0
 10
9.7344071786
 20
4.5843694758
 30
0.0
 10
9.757417593
 20
4.6200852478
 30
0.0
 10
9.7823692164
 20
4.6551412874
 30
0.0
 10
9.8184127775
 20
4.7012365007
 30
0.0
 10
9.8682362611
 20
4.7569251923
 30
0.0
 10
9.9346890631
 20
4.8198156901
 30
0.0
 10
10.0078146358
 20
4.8788604293
 30
0.0
 10
10.0871637477
 20
4.933704593
 30
0.0
 10
10.1432329682
 20
4.9668599597
 30
0.0
 10
10.1721329609
 20
4.9826745087
 30
0.0
  0
SPLINE
  5
256
100
AcDbEntity
  8
0
100
AcDbSpline
 62
9
  6
CONTINUOUS
 70
0
 71
3
 72
52
 73
48
 74
0
 42
0.0000001
 43
0.0000001
 44
0.0000000001
 40
0.0
 40
0.0
 40
0.0
 40
0.0
 40
0.0334716087
 40
0.0661198756
 40
0.0979207246
 40
0.1288693043
 40
0.1589817145
 40
0.1737391027
 40
0.1883037965
 40
0.2026842262
 40
0.2168902775
 40
0.2309332713
 40
0.2448259264
 40
0.2585822992
 40
0.2722176977
 40
0.2857485762
 40
0.2991924082
 40
0.3125675383
 40
0.3258930107
 40
0.3391883824
 40
0.3524735246
 40
0.3657684163
 40
0.3790929338
 40
0.3924666441
 40
0.405908606
 40
0.4194371828
 40
0.4330698707
 40
0.4468231503
 40
0.4607123586
 40
0.4747515832
 40
0.4889535755
 40
0.5033296905
 40
0.5178898492
 40
0.5475875399
 40
0.5781045944
 40
0.609468386
 40
0.6416845974
 40
0.6747387644
 40
0.7085981041
 40
0.743213404
 40
0.7785210089
 40
0.8144447445
 40
0.8508978473
 40
0.8877847975
 40
0.9250031223
 40
0.9624451182
 40
1.0
 40
1.0
 40
1.0
 40
1.0
 10
11.9225037157
 20
4.9826745086
 30
0.0
 10
11.9514037084
 20
4.9668599597
 30
0.0
 10
12.0074729289
 20
4.933704593
 30
0.0
 10
12.0868220408
 20
4.8788604293
 30
0.0
 10
12.1599476135
 20
4.81981569
 30
0.0
 10
12.2264004155
 20
4.7569251923
 30
0.0
 10
12.2762238991
 20
4.7012365006
 30
0.0
 10
12.3122674602
 20
4.6551412874
 30
0.0
 10
12.3372190836
 20
4.6200852478
 30
0.0
 10
12.360229498
 20
4.5843694757
 30
0.0
 10
12.3812643297
 20
4.5480469286
 30
0.0
 10
12.4002913512
 20
4.5111723301
 30
0.0
 10
12.4172815561
 20
4.4738011021
 30
0.0
 10
12.4322089622
 20
4.4359895505
 30
0.0
 10
12.4450506714
 20
4.3977946943
 30
0.0
 10
12.4557869124
 20
4.3592742137
 30
0.0
 10
12.4644010931
 20
4.3204863609
 30
0.0
 10
12.4708799381
 20
4.2814898865
 30
0.0
 10
12.4752134303
 20
4.2423439124
 30
0.0
 10
12.4773948472
 20
4.2031078366
 30
0.0
 10
12.4774207652
 20
4.1638412282
 30
0.0
 10
12.4752911478
 20
4.124603719
 30
0.0
 10
12.4710093357
 20
4.0854548807
 30
0.0
 10
12.4645819701
 20
4.0464541164
 30
0.0
 10
12.4560189856
 20
4.007660557
 30
0.0
 10
12.4453335825
 20
3.9691329626
 30
0.0
 10
12.4325422794
 20
3.9309295983
 30
0.0
 10
12.4176647643
 20
3.8931081557
 30
0.0
 10
12.4007238731
 20
3.8557256865
 30
0.0
 10
12.3817454589
 20
3.8188384574
 30
0.0
 10
12.3607586636
 20
3.7825021343
 30
0.0
 10
12.3377948755
 20
3.7467706024
 30
0.0
 10
12.3043723478
 20
3.6997032838
 30
0.0
 10
12.2577131101
 20
3.6426531897
 30
0.0
 10
12.1948332625
 20
3.5779339301
 30
0.0
 10
12.125070609
 20
3.5168735489
 30
0.0
 10
12.0488499175
 20
3.4598364863
 30
0.0
 10
11.9666292543
 20
3.407157717
 30
0.0
 10
11.8789023576
 20
3.3591488294
 30
0.0
 10
11.7861951096
 20
3.3160935236
 30
0.0
 10
11.6890627381
 20
3.2782470875
 30
0.0
 10
11.5880869123
 20
3.2458339826
 30
0.0
 10
11.4838721131
 20
3.2190469046
 30
0.0
 10
11.3770427051
 20
3.1980452099
 30
0.0
 10
11.2682374236
 20
3.1829539422
 30
0.0
 10
11.1581121888
 20
3.1738630513
 30
0.0
 10
11.0842812881
 20
3.1718398399
 30
0.0
 10
11.0473183383
 20
3.1718398399
 30
0.0
  0
SPLINE
  5
257
100
AcDbEntity
  8
0
100
AcDbSpline
 62
9
  6
CONTINUOUS
 70
0
 71
3
 72
36
 73
32
 74
0
 42
0.0000001
 43
0.0000001
 44
0.0000000001
 40
0.0
 40
0.0
 40
0.0
 40
0.0
 40
0.0272199188
 40
0.0541109237
 40
0.0807500577
 40
0.1072199914
 40
0.1336072773
 40
0.160000395
 40
0.1864876873
 40
0.2131553046
 40
0.2400852721
 40
0.2673537781
 40
0.2950297552
 40
0.3231737904
 40
0.3518373707
 40
0.3810624432
 40
0.4108812521
 40
0.441316405
 40
0.5040532292
 40
0.536381191
 40
0.569326325
 40
0.6028689328
 40
0.636982514
 40
0.6716343779
 40
0.7067862537
 40
0.7423948923
 40
0.7784126513
 40
0.8514497113
 40
0.8883736264
 40
0.9254835207
 40
1.0
 40
1.0
 40
1.0
 40
1.0
 10
10.3470470027
 20
4.3288106812
 30
0.0
 10
10.3430862528
 20
4.3192996004
 30
0.0
 10
10.3359235336
 20
4.300086225
 30
0.0
 10
10.3275073645
 20
4.2706720123
 30
0.0
 10
10.3215203193
 20
4.2409557025
 30
0.0
 10
10.3179846537
 20
4.2110409796
 30
0.0
 10
10.3169128477
 20
4.1810298467
 30
0.0
 10
10.3183088228
 20
4.1510255219
 30
0.0
 10
10.3221675343
 20
4.1211309982
 30
0.0
 10
10.3284751279
 20
4.0914487473
 30
0.0
 10
10.3372090714
 20
4.062080156
 30
0.0
 10
10.348338388
 20
4.0331251086
 30
0.0
 10
10.3618239326
 20
4.0046816091
 30
0.0
 10
10.3776186382
 20
3.9768455119
 30
0.0
 10
10.3956679229
 20
3.9497101544
 30
0.0
 10
10.4159094366
 20
3.923366582
 30
0.0
 10
10.4382752655
 20
3.897901621
 30
0.0
 10
10.4711505379
 20
3.8649078518
 30
0.0
 10
10.5077090741
 20
3.8343774072
 30
0.0
 10
10.5473482729
 20
3.8064869563
 30
0.0
 10
10.5790616985
 20
3.7866226535
 30
0.0
 10
10.6123460338
 20
3.7680945921
 30
0.0
 10
10.6470916028
 20
3.7509627908
 30
0.0
 10
10.6831811763
 20
3.7352848868
 30
0.0
 10
10.7204934218
 20
3.7211131888
 30
0.0
 10
10.7589041646
 20
3.7084947522
 30
0.0
 10
10.8116463514
 20
3.6937316688
 30
0.0
 10
10.8657946203
 20
3.6823382785
 30
0.0
 10
10.9208939814
 20
3.674320543
 30
0.0
 10
10.9768354748
 20
3.6685453384
 30
0.0
 10
11.0191136169
 20
3.6668145867
 30
0.0
 10
11.0473183383
 20
3.6668145867
 30
0.0
  0
SPLINE
  5
258
100
AcDbEntity
  8
0
100
AcDbSpline
 62
9
  6
CONTINUOUS
 70
0
 71
3
 72
36
 73
32
 74
0
 42
0.0000001
 43
0.0000001
 44
0.0000000001
 40
0.0
 40
0.0
 40
0.0
 40
0.0
 40
0.0745164793
 40
0.1116263736
 40
0.1485502886
 40
0.2215873486
 40
0.2576051077
 40
0.2932137462
 40
0.3283656221
 40
0.363017486
 40
0.3971310672
 40
0.430673675
 40
0.463618809
 40
0.4959467708
 40
0.558683595
 40
0.5891187479
 40
0.6189375568
 40
0.6481626293
 40
0.6768262096
 40
0.7049702448
 40
0.7326462219
 40
0.759914728
 40
0.7868446955
 40
0.8135123128
 40
0.839999605
 40
0.8663927227
 40
0.8927800086
 40
0.9192499423
 40
0.9458890763
 40
0.9727800812
 40
1.0
 40
1.0
 40
1.0
 40
1.0
 10
11.0473183383
 20
3.6668145867
 30
0.0
 10
11.0755230597
 20
3.6668145867
 30
0.0
 10
11.1178012017
 20
3.6685453384
 30
0.0
 10
11.173742695
 20
3.674320543
 30
0.0
 10
11.2288420561
 20
3.6823382785
 30
0.0
 10
11.2829903249
 20
3.6937316688
 30
0.0
 10
11.3357325117
 20
3.7084947521
 30
0.0
 10
11.3741432544
 20
3.7211131887
 30
0.0
 10
11.4114555
 20
3.7352848867
 30
0.0
 10
11.4475450734
 20
3.7509627907
 30
0.0
 10
11.4822906424
 20
3.7680945919
 30
0.0
 10
11.5155749777
 20
3.7866226533
 30
0.0
 10
11.5472884033
 20
3.806486956
 30
0.0
 10
11.586927602
 20
3.8343774069
 30
0.0
 10
11.6234861382
 20
3.8649078515
 30
0.0
 10
11.6563614107
 20
3.8979016206
 30
0.0
 10
11.6787272396
 20
3.9233665815
 30
0.0
 10
11.6989687533
 20
3.9497101539
 30
0.0
 10
11.717018038
 20
3.9768455114
 30
0.0
 10
11.7328127437
 20
4.0046816085
 30
0.0
 10
11.7462982883
 20
4.033125108
 30
0.0
 10
11.757427605
 20
4.0620801553
 30
0.0
 10
11.7661615485
 20
4.0914487466
 30
0.0
 10
11.7724691421
 20
4.1211309974
 30
0.0
 10
11.7763278537
 20
4.1510255211
 30
0.0
 10
11.7777238288
 20
4.1810298459
 30
0.0
 10
11.7766520229
 20
4.2110409788
 30
0.0
 10
11.7731163574
 20
4.2409557016
 30
0.0
 10
11.7671293123
 20
4.2706720114
 30
0.0
 10
11.7587131433
 20
4.3000862241
 30
0.0
 10
11.7515504241
 20
4.3192995995
 30
0.0
 10
11.7475896742
 20
4.3288106803
 30
0.0
  0
SPLINE
  5
259
100
AcDbEntity
  8
0
100
AcDbSpline
 62
9
  6
CONTINUOUS
 70
0
 71
3
 72
37
 73
33
 74
0
 42
0.0000001
 43
0.0000001
 44
0.0000000001
 40
0.0
 40
0.0
 40
0.0
 40
0.0
 40
0.0726233785
 40
0.108831467
 40
0.1449094327
 40
0.2164959634
 40
0.2519351541
 40
0.2870830883
 40
0.3219035109
 40
0.3563623362
 40
0.3904279337
 40
0.424071421
 40
0.4572669596
 40
0.4899920556
 40
0.5222278632
 40
0.5539594883
 40
0.58517629
 40
0.6158721765
 40
0.6460458874
 40
0.6757012573
 40
0.7048474493
 40
0.7334991475
 40
0.7616766937
 40
0.7894061532
 40
0.8167192908
 40
0.8436534422
 40
0.870251261
 40
0.896560333
 40
0.9226326464
 40
0.9485239225
 40
0.9742928151
 40
1.0
 40
1.0
 40
1.0
 40
1.0
 10
11.0473183383
 20
3.129413433
 30
0.0
 10
10.9995878847
 20
3.129413433
 30
0.0
 10
10.9280274817
 20
3.1318929452
 30
0.0
 10
10.8331336371
 20
3.1401641398
 30
0.0
 10
10.7392632627
 20
3.1516743883
 30
0.0
 10
10.6465510986
 20
3.1680550206
 30
0.0
 10
10.5555409252
 20
3.1893011825
 30
0.0
 10
10.4886860775
 20
3.2075248189
 30
0.0
 10
10.4231756305
 20
3.2280448851
 30
0.0
 10
10.359165648
 20
3.2508125361
 30
0.0
 10
10.2968104061
 20
3.2757731196
 30
0.0
 10
10.2362597263
 20
3.3028668654
 30
0.0
 10
10.1776592283
 20
3.3320288889
 30
0.0
 10
10.1211498284
 20
3.3631893899
 30
0.0
 10
10.0668674538
 20
3.3962738152
 30
0.0
 10
10.0149427184
 20
3.4312030422
 30
0.0
 10
9.9655006274
 20
3.467893569
 30
0.0
 10
9.9186602961
 20
3.506257712
 30
0.0
 10
9.8745346841
 20
3.5462038075
 30
0.0
 10
9.8332303472
 20
3.5876364175
 30
0.0
 10
9.7948472029
 20
3.6304565362
 30
0.0
 10
9.7594783102
 20
3.6745617957
 30
0.0
 10
9.7272096588
 20
3.7198466704
 30
0.0
 10
9.698119966
 20
3.7662026802
 30
0.0
 10
9.6722804754
 20
3.813518592
 30
0.0
 10
9.6497547557
 20
3.8616806348
 30
0.0
 10
9.6305984961
 20
3.9105726896
 30
0.0
 10
9.6148592985
 20
3.9600766294
 30
0.0
 10
9.6025764726
 20
4.0100722018
 30
0.0
 10
9.5937808386
 20
4.0604387306
 30
0.0
 10
9.5884945534
 20
4.1110502605
 30
0.0
 10
9.5873183618
 20
4.144893733
 30
0.0
 10
9.5873183618
 20
4.1617893335
 30
0.0
  0
SPLINE
  5
25A
100
AcDbEntity
  8
0
100
AcDbSpline
 62
9
  6
CONTINUOUS
 70
0
 71
3
 72
13
 73
9
 74
0
 42
0.0000001
 43
0.0000001
 44
0.0000000001
 40
0.0
 40
0.0
 40
0.0
 40
0.0
 40
0.2522471538
 40
0.378098959
 40
0.5036086984
 40
0.6286648598
 40
0.7531579396
 40
1.0
 40
1.0
 40
1.0
 40
1.0
 10
11.0473183383
 20
1.9089471287
 30
0.0
 10
10.9642030064
 20
1.9089471287
 30
0.0
 10
10.8395759098
 20
1.9127012164
 30
0.0
 10
10.6740928035
 20
1.9252214682
 30
0.0
 10
10.5507380358
 20
1.9383351466
 30
0.0
 10
10.4282851439
 20
1.9551551058
 30
0.0
 10
10.2669926058
 20
1.9824011443
 30
0.0
 10
10.1473218631
 20
2.0083973348
 30
0.0
 10
10.0684367979
 20
2.0282070277
 30
0.0
  0
SPLINE
  5
25B
100
AcDbEntity
  8
0
100
AcDbSpline
 62
9
  6
CONTINUOUS
 70
0
 71
3
 72
64
 73
60
 74
0
 42
0.0000001
 43
0.0000001
 44
0.0000000001
 40
0.0
 40
0.0
 40
0.0
 40
0.0
 40
0.0365073849
 40
0.0545539406
 40
0.0724463792
 40
0.1077243964
 40
0.12509626
 40
0.1422778231
 40
0.1760382965
 40
0.1926114352
 40
0.2089727263
 40
0.22511954
 40
0.2410504718
 40
0.2567653994
 40
0.272265537
 40
0.287553484
 40
0.3026332672
 40
0.3175103753
 40
0.3321917821
 40
0.3466859578
 40
0.3610028656
 40
0.3751539411
 40
0.389152052
 40
0.4030114372
 40
0.4167476228
 40
0.4303773146
 40
0.4439182674
 40
0.4573891311
 40
0.470809277
 40
0.4841986066
 40
0.4975773465
 40
0.5109658358
 40
0.5243843099
 40
0.537852688
 40
0.5513903671
 40
0.5650160305
 40
0.5787474734
 40
0.5926014475
 40
0.6065935302
 40
0.6207380153
 40
0.6350478287
 40
0.6495344661
 40
0.664207952
 40
0.6790768188
 40
0.6941481019
 40
0.7094273509
 40
0.7249186525
 40
0.7565404935
 40
0.772678399
 40
0.7890308645
 40
0.80559531
 40
0.8223679875
 40
0.856512686
 40
0.8738768292
 40
0.8914237838
 40
0.9270264242
 40
0.9450668177
 40
0.9632509235
 40
1.0
 40
1.0
 40
1.0
 40
1.0
 10
10.0684367979
 20
2.0282070277
 30
0.0
 10
9.997266349
 20
2.0460794188
 30
0.0
 10
9.8916518317
 20
2.0758805886
 30
0.0
 10
9.7534221134
 20
2.1217297178
 30
0.0
 10
9.6189779726
 20
2.1709323587
 30
0.0
 10
9.4881250176
 20
2.2258332783
 30
0.0
 10
9.3614751376
 20
2.2863920546
 30
0.0
 10
9.2396056552
 20
2.3496972755
 30
0.0
 10
9.1223707144
 20
2.4183078319
 30
0.0
 10
9.0104404957
 20
2.4921262571
 30
0.0
 10
8.9300963221
 20
2.5494152279
 30
0.0
 10
8.8529710006
 20
2.6088769746
 30
0.0
 10
8.7791803378
 20
2.6704225037
 30
0.0
 10
8.7088370995
 20
2.7339584016
 30
0.0
 10
8.6420483584
 20
2.7993885789
 30
0.0
 10
8.5789159942
 20
2.8666139852
 30
0.0
 10
8.5195363747
 20
2.935532858
 30
0.0
 10
8.46400026
 20
3.0060408318
 30
0.0
 10
8.4123926585
 20
3.0780310887
 30
0.0
 10
8.3647927016
 20
3.1513944966
 30
0.0
 10
8.321273518
 20
3.2260197534
 30
0.0
 10
8.2819021134
 20
3.3017935308
 30
0.0
 10
8.2467392516
 20
3.3786006242
 30
0.0
 10
8.2158393388
 20
3.4563241054
 30
0.0
 10
8.18925031
 20
3.5348454849
 30
0.0
 10
8.1670135204
 20
3.6140448821
 30
0.0
 10
8.1491636419
 20
3.6938012073
 30
0.0
 10
8.1357285692
 20
3.7739923564
 30
0.0
 10
8.1267293386
 20
3.854495418
 30
0.0
 10
8.1221800613
 20
3.9351868926
 30
0.0
 10
8.1220878787
 20
4.0159429216
 30
0.0
 10
8.1264529345
 20
4.0966395224
 30
0.0
 10
8.1352683768
 20
4.1771528266
 30
0.0
 10
8.1485203816
 20
4.2573593153
 30
0.0
 10
8.1661881982
 20
4.3371360485
 30
0.0
 10
8.1882442142
 20
4.4163608845
 30
0.0
 10
8.214654036
 20
4.4949126877
 30
0.0
 10
8.2453765831
 20
4.5726715238
 30
0.0
 10
8.2803641904
 20
4.6495188422
 30
0.0
 10
8.3195627179
 20
4.7253376473
 30
0.0
 10
8.3629116604
 20
4.8000126582
 30
0.0
 10
8.410344276
 20
4.8734304732
 30
0.0
 10
8.4617876565
 20
4.9454796763
 30
0.0
 10
8.5171630322
 20
5.0160511456
 30
0.0
 10
8.5763851942
 20
5.0850375728
 30
0.0
 10
8.6393652973
 20
5.1523359803
 30
0.0
 10
8.7288200289
 20
5.2402701599
 30
0.0
 10
8.8248912882
 20
5.3237810456
 30
0.0
 10
8.9268413781
 20
5.4026363617
 30
0.0
 10
9.0070551631
 20
5.460017472
 30
0.0
 10
9.0903687944
 20
5.5151408899
 30
0.0
 10
9.2060950752
 20
5.5859323665
 30
0.0
 10
9.3268661174
 20
5.6513955191
 30
0.0
 10
9.4520255715
 20
5.7114496183
 30
0.0
 10
9.581748169
 20
5.7686014439
 30
0.0
 10
9.7154054672
 20
5.8200078452
 30
0.0
 10
9.8523969958
 20
5.8656367142
 30
0.0
 10
9.9929054825
 20
5.9077864324
 30
0.0
 10
10.1000548836
 20
5.9347875872
 30
0.0
 10
10.1721695794
 20
5.9507769091
 30
0.0
  0
SPLINE
  5
25C
100
AcDbEntity
  8
0
100
AcDbSpline
 62
9
  6
CONTINUOUS
 70
0
 71
3
 72
64
 73
60
 74
0
 42
0.0000001
 43
0.0000001
 44
0.0000000001
 40
0.0
 40
0.0
 40
0.0
 40
0.0
 40
0.0367490765
 40
0.0549331823
 40
0.0729735758
 40
0.1085762162
 40
0.1261231708
 40
0.143487314
 40
0.1776320125
 40
0.19440469
 40
0.2109691355
 40
0.227321601
 40
0.2434595065
 40
0.2750813475
 40
0.2905726491
 40
0.3058518981
 40
0.3209231812
 40
0.335792048
 40
0.3504655339
 40
0.3649521713
 40
0.3792619847
 40
0.3934064698
 40
0.4073985525
 40
0.4212525266
 40
0.4349839695
 40
0.4486096329
 40
0.462147312
 40
0.4756156901
 40
0.4890341642
 40
0.5024226535
 40
0.5158013934
 40
0.529190723
 40
0.5426108689
 40
0.5560817326
 40
0.5696226854
 40
0.5832523772
 40
0.5969885628
 40
0.610847948
 40
0.6248460589
 40
0.6389971344
 40
0.6533140422
 40
0.6678082179
 40
0.6824896247
 40
0.6973667328
 40
0.712446516
 40
0.727734463
 40
0.7432346006
 40
0.7589495282
 40
0.77488046
 40
0.7910272737
 40
0.8073885648
 40
0.8239617035
 40
0.8577221769
 40
0.87490374
 40
0.8922756036
 40
0.9275536208
 40
0.9454460594
 40
0.9634926151
 40
1.0
 40
1.0
 40
1.0
 40
1.0
 10
11.9224670971
 20
5.9507769091
 30
0.0
 10
11.9945817929
 20
5.9347875872
 30
0.0
 10
12.101731194
 20
5.9077864324
 30
0.0
 10
12.2422396807
 20
5.8656367142
 30
0.0
 10
12.3792312094
 20
5.8200078452
 30
0.0
 10
12.5128885075
 20
5.7686014439
 30
0.0
 10
12.6426111051
 20
5.7114496183
 30
0.0
 10
12.7677705592
 20
5.6513955191
 30
0.0
 10
12.8885416014
 20
5.5859323665
 30
0.0
 10
13.0042678822
 20
5.5151408899
 30
0.0
 10
13.0875815134
 20
5.460017472
 30
0.0
 10
13.1677952984
 20
5.4026363617
 30
0.0
 10
13.2697453884
 20
5.3237810456
 30
0.0
 10
13.3658166477
 20
5.2402701599
 30
0.0
 10
13.4552713793
 20
5.1523359803
 30
0.0
 10
13.5182514824
 20
5.0850375728
 30
0.0
 10
13.5774736444
 20
5.0160511456
 30
0.0
 10
13.6328490201
 20
4.9454796763
 30
0.0
 10
13.6842924006
 20
4.8734304732
 30
0.0
 10
13.7317250162
 20
4.8000126582
 30
0.0
 10
13.7750739586
 20
4.7253376473
 30
0.0
 10
13.8142724861
 20
4.6495188422
 30
0.0
 10
13.8492600934
 20
4.5726715238
 30
0.0
 10
13.8799826406
 20
4.4949126877
 30
0.0
 10
13.9063924624
 20
4.4163608845
 30
0.0
 10
13.9284484783
 20
4.3371360486
 30
0.0
 10
13.946116295
 20
4.2573593154
 30
0.0
 10
13.9593682998
 20
4.1771528266
 30
0.0
 10
13.968183742
 20
4.0966395224
 30
0.0
 10
13.9725487979
 20
4.0159429216
 30
0.0
 10
13.9724566152
 20
3.9351868927
 30
0.0
 10
13.967907338
 20
3.854495418
 30
0.0
 10
13.9589081073
 20
3.7739923564
 30
0.0
 10
13.9454730347
 20
3.6938012073
 30
0.0
 10
13.9276231562
 20
3.6140448821
 30
0.0
 10
13.9053863665
 20
3.5348454849
 30
0.0
 10
13.8787973378
 20
3.4563241054
 30
0.0
 10
13.8478974249
 20
3.3786006242
 30
0.0
 10
13.8127345632
 20
3.3017935308
 30
0.0
 10
13.7733631586
 20
3.2260197534
 30
0.0
 10
13.729843975
 20
3.1513944966
 30
0.0
 10
13.682244018
 20
3.0780310887
 30
0.0
 10
13.6306364166
 20
3.0060408318
 30
0.0
 10
13.5751003019
 20
2.935532858
 30
0.0
 10
13.5157206824
 20
2.8666139852
 30
0.0
 10
13.4525883181
 20
2.7993885789
 30
0.0
 10
13.385799577
 20
2.7339584016
 30
0.0
 10
13.3154563388
 20
2.6704225037
 30
0.0
 10
13.241665676
 20
2.6088769746
 30
0.0
 10
13.1645403545
 20
2.5494152279
 30
0.0
 10
13.0841961809
 20
2.4921262571
 30
0.0
 10
12.9722659622
 20
2.4183078319
 30
0.0
 10
12.8550310213
 20
2.3496972755
 30
0.0
 10
12.733161539
 20
2.2863920546
 30
0.0
 10
12.606511659
 20
2.2258332783
 30
0.0
 10
12.475658704
 20
2.1709323587
 30
0.0
 10
12.3412145632
 20
2.1217297178
 30
0.0
 10
12.2029848448
 20
2.0758805886
 30
0.0
 10
12.0973703276
 20
2.0460794188
 30
0.0
 10
12.0261998787
 20
2.0282070277
 30
0.0
  0
SPLINE
  5
25D
100
AcDbEntity
  8
0
100
AcDbSpline
 62
9
  6
CONTINUOUS
 70
0
 71
3
 72
13
 73
9
 74
0
 42
0.0000001
 43
0.0000001
 44
0.0000000001
 40
0.0
 40
0.0
 40
0.0
 40
0.0
 40
0.2468420604
 40
0.3713351403
 40
0.4963913016
 40
0.621901041
 40
0.7477528462
 40
1.0
 40
1.0
 40
1.0
 40
1.0
 10
12.0261998787
 20
2.0282070277
 30
0.0
 10
11.9473148135
 20
2.0083973348
 30
0.0
 10
11.8276440708
 20
1.9824011443
 30
0.0
 10
11.6663515326
 20
1.9551551058
 30
0.0
 10
11.5438986408
 20
1.9383351466
 30
0.0
 10
11.420543873
 20
1.9252214682
 30
0.0
 10
11.2550607668
 20
1.9127012164
 30
0.0
 10
11.1304336702
 20
1.9089471287
 30
0.0
 10
11.0473183383
 20
1.9089471287
 30
0.0
  0
SPLINE
  5
25E
100
AcDbEntity
  8
0
100
AcDbSpline
 62
9
  6
CONTINUOUS
 70
0
 71
3
 72
39
 73
35
 74
0
 42
0.0000001
 43
0.0000001
 44
0.0000000001
 40
0.0
 40
0.0
 40
0.0
 40
0.0
 40
0.0266090603
 40
0.0530097089
 40
0.0792783907
 40
0.1054943321
 40
0.1317378847
 40
0.1580888102
 40
0.1846245964
 40
0.2114188879
 40
0.2385401049
 40
0.2660502971
 40
0.2940042602
 40
0.3224489165
 40
0.3514229445
 40
0.3809566285
 40
0.3959422027
 40
0.411075213
 40
0.4417858069
 40
0.473097597
 40
0.5050089499
 40
0.5375111668
 40
0.5705889557
 40
0.6042209234
 40
0.6383800765
 40
0.6730343241
 40
0.7081469784
 40
0.7436772502
 40
0.7795807343
 40
0.8158098808
 40
0.8523144646
 40
0.8890420118
 40
0.9259383834
 40
1.0
 40
1.0
 40
1.0
 40
1.0
 10
9.58780899
 20
4.189286807
 30
0.0
 10
9.5822970232
 20
4.1703179528
 30
0.0
 10
9.5727296369
 20
4.1321002671
 30
0.0
 10
9.5628516618
 20
4.074025338
 30
0.0
 10
9.5575438171
 20
4.0156446461
 30
0.0
 10
9.5568246205
 20
3.9571447311
 30
0.0
 10
9.5606961065
 20
3.898707402
 30
0.0
 10
9.5691457273
 20
3.8405155863
 30
0.0
 10
9.5821459548
 20
3.7827507087
 30
0.0
 10
9.5996546957
 20
3.7255923971
 30
0.0
 10
9.6216156092
 20
3.6692176849
 30
0.0
 10
9.6479585592
 20
3.6138004398
 30
0.0
 10
9.6785999453
 20
3.5595109793
 30
0.0
 10
9.7134435116
 20
3.5065152376
 30
0.0
 10
9.7523792874
 20
3.4549759985
 30
0.0
 10
9.7879639662
 20
3.4135703484
 30
0.0
 10
9.818318772
 20
3.3813199608
 30
0.0
 10
9.8502351734
 20
3.3493663834
 30
0.0
 10
9.8924763737
 20
3.3106334892
 30
0.0
 10
9.9464557701
 20
3.2664339651
 30
0.0
 10
10.0038090302
 20
3.2244193321
 30
0.0
 10
10.0643589127
 20
3.1847184057
 30
0.0
 10
10.1279200072
 20
3.1474516067
 30
0.0
 10
10.1942973929
 20
3.1127324129
 30
0.0
 10
10.2632877108
 20
3.0806665093
 30
0.0
 10
10.3346796168
 20
3.051351594
 30
0.0
 10
10.4082544416
 20
3.0248770301
 30
0.0
 10
10.4837868571
 20
3.0013235575
 30
0.0
 10
10.561045473
 20
2.9807630474
 30
0.0
 10
10.6397938705
 20
2.9632582432
 30
0.0
 10
10.7197900378
 20
2.9488626697
 30
0.0
 10
10.800791938
 20
2.9376200587
 30
0.0
 10
10.9099183752
 20
2.9268681096
 30
0.0
 10
10.9923380718
 20
2.9236453597
 30
0.0
 10
11.0473183383
 20
2.9236453597
 30
0.0
  0
SPLINE
  5
25F
100
AcDbEntity
  8
0
100
AcDbSpline
 62
9
  6
CONTINUOUS
 70
0
 71
3
 72
39
 73
35
 74
0
 42
0.0000001
 43
0.0000001
 44
0.0000000001
 40
0.0
 40
0.0
 40
0.0
 40
0.0
 40
0.0740616021
 40
0.1109579669
 40
0.1476855078
 40
0.1841900858
 40
0.2204192274
 40
0.2563227075
 40
0.2918529764
 40
0.3269656289
 40
0.3616198758
 40
0.3957790295
 40
0.4294109991
 40
0.4624887912
 40
0.4949910124
 40
0.5269023708
 40
0.5582141676
 40
0.5889247689
 40
0.6040577833
 40
0.6190433616
 40
0.6485770543
 40
0.6775510912
 40
0.7059957563
 40
0.7339497277
 40
0.7614599273
 40
0.7885811505
 40
0.8153754466
 40
0.8419112352
 40
0.8682621609
 40
0.8945057109
 40
0.9207216465
 40
0.9469903193
 40
0.9733909556
 40
1.0
 40
1.0
 40
1.0
 40
1.0
 10
11.0473183383
 20
2.9236453597
 30
0.0
 10
11.1022985295
 20
2.9236453597
 30
0.0
 10
11.1847181133
 20
2.9268681008
 30
0.0
 10
11.2938444033
 20
2.9376200204
 30
0.0
 10
11.3748461966
 20
2.9488626008
 30
0.0
 10
11.454842261
 20
2.9632581353
 30
0.0
 10
11.5335905608
 20
2.9807628922
 30
0.0
 10
11.610849085
 20
3.001323347
 30
0.0
 10
11.6863814157
 20
3.0248767569
 30
0.0
 10
11.7599561638
 20
3.0513512509
 30
0.0
 10
11.8313480016
 20
3.0806660895
 30
0.0
 10
11.9003382609
 20
3.1127319101
 30
0.0
 10
11.9667155984
 20
3.1474510153
 30
0.0
 10
12.0302766556
 20
3.1847177203
 30
0.0
 10
12.0908265123
 20
3.2244185483
 30
0.0
 10
12.1481797591
 20
3.2664330787
 30
0.0
 10
12.2021591548
 20
3.3106324971
 30
0.0
 10
12.2444003653
 20
3.3493653002
 30
0.0
 10
12.2763167819
 20
3.3813188038
 30
0.0
 10
12.3066716078
 20
3.4135691183
 30
0.0
 10
12.3422563201
 20
3.4549746761
 30
0.0
 10
12.3811921503
 20
3.5065138032
 30
0.0
 10
12.4160357854
 20
3.5595094334
 30
0.0
 10
12.4466772547
 20
3.6137987834
 30
0.0
 10
12.4730203026
 20
3.66921592
 30
0.0
 10
12.4949813284
 20
3.7255905265
 30
0.0
 10
12.5124901959
 20
3.7827487359
 30
0.0
 10
12.5254905642
 20
3.8405135158
 30
0.0
 10
12.5339403395
 20
3.898705239
 30
0.0
 10
12.5378119933
 20
3.9571424818
 30
0.0
 10
12.5370929774
 20
4.0156423172
 30
0.0
 10
12.5317853258
 20
4.0740229372
 30
0.0
 10
12.5219075552
 20
4.1320978028
 30
0.0
 10
12.5123403112
 20
4.1703154547
 30
0.0
 10
12.506828417
 20
4.1892842935
 30
0.0
  0
SPLINE
  5
260
100
AcDbEntity
  8
0
100
AcDbSpline
 62
9
  6
CONTINUOUS
 70
0
 71
3
 72
45
 73
41
 74
0
 42
0.0000001
 43
0.0000001
 44
0.0000000001
 40
0.0
 40
0.0
 40
0.0
 40
0.0
 40
0.0726207478
 40
0.1088275896
 40
0.1449042537
 40
0.180808648
 40
0.2164996804
 40
0.2519376052
 40
0.2870842835
 40
0.3219034624
 40
0.3563610574
 40
0.3904254391
 40
0.4240677251
 40
0.4572620776
 40
0.4899860044
 40
0.5222206609
 40
0.5539511535
 40
0.5851668415
 40
0.615861632
 40
0.6460342647
 40
0.6609270091
 40
0.6756910942
 40
0.7048362457
 40
0.7334869216
 40
0.7476344133
 40
0.7616663988
 40
0.789394868
 40
0.8167070299
 40
0.8436402192
 40
0.8702370886
 40
0.8834258842
 40
0.8965488291
 40
0.909612552
 40
0.9226239183
 40
0.9355899994
 40
0.9485180547
 40
0.9614154967
 40
0.9742898661
 40
0.9871488002
 40
1.0
 40
1.0
 40
1.0
 40
1.0
 10
11.0473183383
 20
1.2452004946
 30
0.0
 10
10.950713257
 20
1.2452004946
 30
0.0
 10
10.8058758918
 20
1.2502191263
 30
0.0
 10
10.6138161684
 20
1.2669594146
 30
0.0
 10
10.4709350456
 20
1.2844793052
 30
0.0
 10
10.3294432384
 20
1.3069324302
 30
0.0
 10
10.1896767976
 20
1.3342652116
 30
0.0
 10
10.0519728965
 20
1.3664120071
 30
0.0
 10
9.9166623312
 20
1.4032957168
 30
0.0
 10
9.7840705029
 20
1.4448278847
 30
0.0
 10
9.6545161743
 20
1.4909089491
 30
0.0
 10
9.5283108329
 20
1.5414284833
 30
0.0
 10
9.4057579222
 20
1.5962654764
 30
0.0
 10
9.2871521205
 20
1.6552886229
 30
0.0
 10
9.1727786536
 20
1.7183566235
 30
0.0
 10
9.0629125934
 20
1.7853186124
 30
0.0
 10
8.9578184154
 20
1.8560143339
 30
0.0
 10
8.8577487046
 20
1.9302752017
 30
0.0
 10
8.7629461098
 20
2.0079222451
 30
0.0
 10
8.6881979887
 20
2.0755905441
 30
0.0
 10
8.631293852
 20
2.1312468168
 30
0.0
 10
8.5768116107
 20
2.1873861964
 30
0.0
 10
8.5123511268
 20
2.2592976894
 30
0.0
 10
8.4524448228
 20
2.3340017716
 30
0.0
 10
8.4077092133
 20
2.3949558754
 30
0.0
 10
8.365449008
 20
2.456165783
 30
0.0
 10
8.3165771665
 20
2.5340452597
 30
0.0
 10
8.2642793992
 20
2.6298107586
 30
0.0
 10
8.2186883036
 20
2.727287822
 30
0.0
 10
8.1862860609
 20
2.8099888443
 30
0.0
 10
8.1638689261
 20
2.8767172918
 30
0.0
 10
8.148838731
 20
2.9269050186
 30
0.0
 10
8.1355554414
 20
2.9773386593
 30
0.0
 10
8.1240267081
 20
3.0279883478
 30
0.0
 10
8.1142598298
 20
3.0788233791
 30
0.0
 10
8.106260523
 20
3.1298130631
 30
0.0
 10
8.100033829
 20
3.1809265524
 30
0.0
 10
8.0955834753
 20
3.2321331658
 30
0.0
 10
8.0929121281
 20
3.2834011404
 30
0.0
 10
8.092318362
 20
3.3176054888
 30
0.0
 10
8.092318362
 20
3.334701033
 30
0.0
  0
SPLINE
  5
261
100
AcDbEntity
  8
0
100
AcDbSpline
 62
9
  6
CONTINUOUS
 70
0
 71
3
 72
13
 73
9
 74
0
 42
0.0000001
 43
0.0000001
 44
0.0000000001
 40
0.0
 40
0.0
 40
0.0
 40
0.0
 40
0.2582378565
 40
0.385589247
 40
0.5115887023
 40
0.6361277176
 40
0.7591077609
 40
1.0
 40
1.0
 40
1.0
 40
1.0
 10
10.1270144841
 20
1.9704400254
 30
0.0
 10
10.0374634244
 20
1.9911931764
 30
0.0
 10
9.9047783081
 20
2.0269496705
 30
0.0
 10
9.7318323731
 20
2.084084732
 30
0.0
 10
9.6057611047
 20
2.1310951308
 30
0.0
 10
9.4830365657
 20
2.1823501697
 30
0.0
 10
9.3253632482
 20
2.2556700771
 30
0.0
 10
9.2112612212
 20
2.3173918779
 30
0.0
 10
9.1376919765
 20
2.3614441862
 30
0.0
  0
SPLINE
  5
262
100
AcDbEntity
  8
0
100
AcDbSpline
 62
9
  6
CONTINUOUS
 70
0
 71
3
 72
32
 73
28
 74
0
 42
0.0000001
 43
0.0000001
 44
0.0000000001
 40
0.0
 40
0.0
 40
0.0
 40
0.0
 40
0.0708784493
 40
0.1405123834
 40
0.2088787789
 40
0.2425863964
 40
0.2759749943
 40
0.3417942445
 40
0.4063645627
 40
0.4381963379
 40
0.4697315733
 40
0.5319351267
 40
0.5930548079
 40
0.6232397288
 40
0.6531884675
 40
0.6829147206
 40
0.7124331548
 40
0.741759358
 40
0.7709098082
 40
0.7999018008
 40
0.8287533813
 40
0.8574832842
 40
0.8861108381
 40
0.9146558813
 40
0.9431386722
 40
0.9715797832
 40
1.0
 40
1.0
 40
1.0
 40
1.0
 10
9.1376919765
 20
2.3614441862
 30
0.0
 10
9.0972581538
 20
2.3856554341
 30
0.0
 10
9.018238671
 20
2.4355887175
 30
0.0
 10
8.9046518505
 20
2.5156089339
 30
0.0
 10
8.814814778
 20
2.5861637495
 30
0.0
 10
8.7462925017
 20
2.6446389145
 30
0.0
 10
8.6806632431
 20
2.7038431874
 30
0.0
 10
8.6028839086
 20
2.7801512916
 30
0.0
 10
8.5303747441
 20
2.8600997522
 30
0.0
 10
8.476152901
 20
2.9256631349
 30
0.0
 10
8.4249454188
 20
2.9916249495
 30
0.0
 10
8.3656471792
 20
3.0758945418
 30
0.0
 10
8.31243184
 20
3.1630895319
 30
0.0
 10
8.2739743526
 20
3.2339648009
 30
0.0
 10
8.2472895531
 20
3.2874380629
 30
0.0
 10
8.2226661618
 20
3.3414042552
 30
0.0
 10
8.200122001
 20
3.3958242327
 30
0.0
 10
8.1796740485
 20
3.4506578035
 30
0.0
 10
8.1613373668
 20
3.5058645569
 30
0.0
 10
8.1451256072
 20
3.561403785
 30
0.0
 10
8.1310509521
 20
3.6172345532
 30
0.0
 10
8.1191237568
 20
3.6733156164
 30
0.0
 10
8.1093529641
 20
3.7296056075
 30
0.0
 10
8.1017459431
 20
3.7860628798
 30
0.0
 10
8.0963082345
 20
3.8426459969
 30
0.0
 10
8.0930439915
 20
3.8993120587
 30
0.0
 10
8.092318362
 20
3.9371241612
 30
0.0
 10
8.092318362
 20
3.9560212602
 30
0.0
  0
SPLINE
  5
263
100
AcDbEntity
  8
0
100
AcDbSpline
 62
9
  6
CONTINUOUS
 70
0
 71
3
 72
29
 73
25
 74
0
 42
0.0000001
 43
0.0000001
 44
0.0000000001
 40
0.0
 40
0.0
 40
0.0
 40
0.0
 40
0.0726321228
 40
0.1449153281
 40
0.2165102415
 40
0.2870936955
 40
0.3563684358
 40
0.4240719231
 40
0.4899856148
 40
0.5539444985
 40
0.6158467291
 40
0.6756631968
 40
0.7048128135
 40
0.7334678742
 40
0.7616487238
 40
0.7893814353
 40
0.8166977792
 40
0.8436350945
 40
0.8702360363
 40
0.8965481943
 40
0.9226235659
 40
0.9485178801
 40
0.9742897974
 40
1.0
 40
1.0
 40
1.0
 40
1.0
 10
11.0473183383
 20
3.7092409936
 30
0.0
 10
11.070202872
 20
3.7092409936
 30
0.0
 10
11.1158779973
 20
3.7108235959
 30
0.0
 10
11.1837772704
 20
3.7179284877
 30
0.0
 10
11.2503753199
 20
3.7296949992
 30
0.0
 10
11.315031464
 20
3.7460117821
 30
0.0
 10
11.3771290181
 20
3.7667243812
 30
0.0
 10
11.4360744842
 20
3.7916375801
 30
0.0
 10
11.4913044289
 20
3.8205166941
 30
0.0
 10
11.5422914479
 20
3.8530920126
 30
0.0
 10
11.5885429903
 20
3.8890555226
 30
0.0
 10
11.6230714471
 20
3.9218595392
 30
0.0
 10
11.6478179345
 20
3.9494668701
 30
0.0
 10
11.6647759619
 20
3.9706135616
 30
0.0
 10
11.6802471304
 20
3.9923254084
 30
0.0
 10
11.6941942603
 20
4.0145509171
 30
0.0
 10
11.7065830571
 20
4.0372366192
 30
0.0
 10
11.7173830768
 20
4.0603280056
 30
0.0
 10
11.7265675899
 20
4.0837694007
 30
0.0
 10
11.7341137649
 20
4.107504171
 30
0.0
 10
11.74000278
 20
4.1314746521
 30
0.0
 10
11.7442198671
 20
4.1556229865
 30
0.0
 10
11.746754402
 20
4.179888787
 30
0.0
 10
11.7473183383
 20
4.1961151098
 30
0.0
 10
11.7473183383
 20
4.2042157404
 30
0.0
  0
SPLINE
  5
264
100
AcDbEntity
  8
0
100
AcDbSpline
 62
9
  6
CONTINUOUS
 70
0
 71
3
 72
37
 73
33
 74
0
 42
0.0000001
 43
0.0000001
 44
0.0000000001
 40
0.0
 40
0.0
 40
0.0
 40
0.0
 40
0.0726233785
 40
0.108831467
 40
0.1449094327
 40
0.2164959634
 40
0.2519351541
 40
0.2870830883
 40
0.3219035109
 40
0.3563623362
 40
0.3904279337
 40
0.424071421
 40
0.4572669596
 40
0.4899920556
 40
0.5222278632
 40
0.5539594883
 40
0.58517629
 40
0.6158721765
 40
0.6460458874
 40
0.6757012573
 40
0.7048474493
 40
0.7334991475
 40
0.7616766937
 40
0.7894061532
 40
0.8167192908
 40
0.8436534422
 40
0.870251261
 40
0.896560333
 40
0.9226326464
 40
0.9485239225
 40
0.9742928151
 40
1.0
 40
1.0
 40
1.0
 40
1.0
 10
11.0473183383
 20
2.9660717665
 30
0.0
 10
11.0950487919
 20
2.9660717665
 30
0.0
 10
11.1666091949
 20
2.9685512788
 30
0.0
 10
11.2615030395
 20
2.9768224733
 30
0.0
 10
11.3553734138
 20
2.9883327218
 30
0.0
 10
11.448085578
 20
3.0047133541
 30
0.0
 10
11.5390957514
 20
3.0259595161
 30
0.0
 10
11.6059505991
 20
3.0441831525
 30
0.0
 10
11.6714610461
 20
3.0647032186
 30
0.0
 10
11.7354710286
 20
3.0874708697
 30
0.0
 10
11.7978262704
 20
3.1124314531
 30
0.0
 10
11.8583769502
 20
3.139525199
 30
0.0
 10
11.9169774483
 20
3.1686872224
 30
0.0
 10
11.9734868482
 20
3.1998477235
 30
0.0
 10
12.0277692227
 20
3.2329321487
 30
0.0
 10
12.0796939582
 20
3.2678613757
 30
0.0
 10
12.1291360491
 20
3.3045519026
 30
0.0
 10
12.1759763805
 20
3.3429160456
 30
0.0
 10
12.2201019924
 20
3.382862141
 30
0.0
 10
12.2614063294
 20
3.424294751
 30
0.0
 10
12.2997894737
 20
3.4671148697
 30
0.0
 10
12.3351583664
 20
3.5112201292
 30
0.0
 10
12.3674270178
 20
3.5565050039
 30
0.0
 10
12.3965167106
 20
3.6028610138
 30
0.0
 10
12.4223562012
 20
3.6501769256
 30
0.0
 10
12.4448819208
 20
3.6983389684
 30
0.0
 10
12.4640381805
 20
3.7472310231
 30
0.0
 10
12.479777378
 20
3.7967349629
 30
0.0
 10
12.492060204
 20
3.8467305353
 30
0.0
 10
12.5008558379
 20
3.8970970642
 30
0.0
 10
12.5061421232
 20
3.9477085941
 30
0.0
 10
12.5073183148
 20
3.9815520665
 30
0.0
 10
12.5073183148
 20
3.9984476671
 30
0.0
  0
SPLINE
  5
265
100
AcDbEntity
  8
0
100
AcDbSpline
 62
9
  6
CONTINUOUS
 70
0
 71
3
 72
29
 73
25
 74
0
 42
0.0000001
 43
0.0000001
 44
0.0000000001
 40
0.0
 40
0.0
 40
0.0
 40
0.0
 40
0.0726321228
 40
0.1449153281
 40
0.2165102414
 40
0.2870936954
 40
0.3563684357
 40
0.424071923
 40
0.4899856148
 40
0.5539444986
 40
0.6158467293
 40
0.675663197
 40
0.7048128136
 40
0.7334678742
 40
0.7616487239
 40
0.7893814353
 40
0.8166977793
 40
0.8436350945
 40
0.8702360363
 40
0.8965481944
 40
0.9226235659
 40
0.9485178801
 40
0.9742897974
 40
1.0
 40
1.0
 40
1.0
 40
1.0
 10
11.0473183383
 20
3.8676329126
 30
0.0
 10
11.070202872
 20
3.8676329126
 30
0.0
 10
11.1158779973
 20
3.8692155149
 30
0.0
 10
11.1837772703
 20
3.8763204067
 30
0.0
 10
11.2503753198
 20
3.8880869182
 30
0.0
 10
11.3150314639
 20
3.904403701
 30
0.0
 10
11.377129018
 20
3.9251163002
 30
0.0
 10
11.4360744841
 20
3.9500294991
 30
0.0
 10
11.491304429
 20
3.9789086131
 30
0.0
 10
11.542291448
 20
4.0114839316
 30
0.0
 10
11.5885429904
 20
4.0474474417
 30
0.0
 10
11.6230714472
 20
4.0802514583
 30
0.0
 10
11.6478179346
 20
4.1078587892
 30
0.0
 10
11.6647759619
 20
4.1290054806
 30
0.0
 10
11.6802471304
 20
4.1507173275
 30
0.0
 10
11.6941942603
 20
4.1729428361
 30
0.0
 10
11.7065830571
 20
4.1956285383
 30
0.0
 10
11.7173830769
 20
4.2187199247
 30
0.0
 10
11.7265675899
 20
4.2421613197
 30
0.0
 10
11.734113765
 20
4.26589609
 30
0.0
 10
11.74000278
 20
4.2898665711
 30
0.0
 10
11.7442198671
 20
4.3140149055
 30
0.0
 10
11.746754402
 20
4.338280706
 30
0.0
 10
11.7473183383
 20
4.3545070287
 30
0.0
 10
11.7473183383
 20
4.3626076594
 30
0.0
  0
SPLINE
  5
266
100
AcDbEntity
  8
0
100
AcDbSpline
 62
7
  6
CONTINUOUS
 70
0
 71
3
 72
11
 73
7
 74
0
 42
0.0000001
 43
0.0000001
 44
0.0000000001
 40
0.0
 40
0.0
 40
0.0
 40
0.0
 40
0.2461238816
 40
0.4329608744
 40
0.6212168249
 40
1.0
 40
1.0
 40
1.0
 40
1.0
 10
11.3071259594
 20
4.0366314333
 30
0.0
 10
11.2863656514
 20
4.0307638762
 30
0.0
 10
11.2494567957
 20
4.021766298
 30
0.0
 10
11.1958436996
 20
4.0121178291
 30
0.0
 10
11.1302718562
 20
4.0037750992
 30
0.0
 10
11.0805199219
 20
4.0012760942
 30
0.0
 10
11.0473183383
 20
4.0012760942
 30
0.0
  0
SPLINE
  5
267
100
AcDbEntity
  8
0
100
AcDbSpline
 62
7
  6
CONTINUOUS
 70
0
 71
3
 72
13
 73
9
 74
0
 42
0.0000001
 43
0.0000001
 44
0.0000000001
 40
0.0
 40
0.0
 40
0.0
 40
0.0
 40
0.1264782389
 40
0.2528155535
 40
0.4417305399
 40
0.6295344909
 40
0.8157688623
 40
1.0
 40
1.0
 40
1.0
 40
1.0
 10
11.0473183383
 20
4.0012760942
 30
0.0
 10
11.0362303491
 20
4.0012760942
 30
0.0
 10
11.0140647875
 20
4.0016484463
 30
0.0
 10
10.9753824668
 20
4.0036008132
 30
0.0
 10
10.9314496996
 20
4.0076794055
 30
0.0
 10
10.8825839498
 20
4.0147469152
 30
0.0
 10
10.8345528413
 20
4.0242547617
 30
0.0
 10
10.8030528972
 20
4.0322386936
 30
0.0
 10
10.7875107171
 20
4.0366314333
 30
0.0
  0
SPLINE
  5
268
100
AcDbEntity
  8
0
100
AcDbSpline
 62
7
  6
CONTINUOUS
 70
0
 71
3
 72
51
 73
47
 74
0
 42
0.0000001
 43
0.0000001
 44
0.0000000001
 40
0.0
 40
0.0
 40
0.0
 40
0.0
 40
0.0128104782
 40
0.0256798909
 40
0.0386363083
 40
0.0517054651
 40
0.0649115927
 40
0.0782770592
 40
0.0918219604
 40
0.1055640226
 40
0.1195185122
 40
0.1336981546
 40
0.1481130665
 40
0.1627708139
 40
0.1928238815
 40
0.2238791032
 40
0.2559129785
 40
0.2888704726
 40
0.3226691567
 40
0.3572034036
 40
0.3923485653
 40
0.4279648686
 40
0.4639014566
 40
0.5
 40
0.5360985434
 40
0.5720351314
 40
0.6076514347
 40
0.6427965964
 40
0.6773308433
 40
0.7111295274
 40
0.7440870215
 40
0.7761208968
 40
0.8071761185
 40
0.8372291861
 40
0.8518869335
 40
0.8663018454
 40
0.8804814878
 40
0.8944359774
 40
0.9081780396
 40
0.9217229408
 40
0.9350884073
 40
0.9482945349
 40
0.9613636917
 40
0.9743201091
 40
0.9871895218
 40
1.0
 40
1.0
 40
1.0
 40
1.0
 10
11.4685399458
 20
4.7282434686
 30
0.0
 10
11.4681927939
 20
4.7235243744
 30
0.0
 10
11.4671791124
 20
4.7140848376
 30
0.0
 10
11.4647135409
 20
4.700018171
 30
0.0
 10
11.4613062009
 20
4.6860506623
 30
0.0
 10
11.4569649996
 20
4.672214688
 30
0.0
 10
11.4517001113
 20
4.6585414204
 30
0.0
 10
11.4455237435
 20
4.645061821
 30
0.0
 10
11.4384500838
 20
4.6318062889
 30
0.0
 10
11.4304954901
 20
4.6188046126
 30
0.0
 10
11.4216781322
 20
4.6060859555
 30
0.0
 10
11.4120181275
 20
4.5936789386
 30
0.0
 10
11.4015372049
 20
4.5816110172
 30
0.0
 10
11.3863761686
 20
4.5658801303
 30
0.0
 10
11.3654498334
 20
4.5472248794
 30
0.0
 10
11.3377032269
 20
4.526806514
 30
0.0
 10
11.307358237
 20
4.5083436522
 30
0.0
 10
11.2746887617
 20
4.4919998487
 30
0.0
 10
11.2399865271
 20
4.4779181502
 30
0.0
 10
11.2035617998
 20
4.466222912
 30
0.0
 10
11.165740111
 20
4.4570172993
 30
0.0
 10
11.1268594858
 20
4.4503829319
 30
0.0
 10
11.0872675511
 20
4.4463786205
 30
0.0
 10
11.0473183383
 20
4.4450398435
 30
0.0
 10
11.0073691255
 20
4.4463786205
 30
0.0
 10
10.9677771908
 20
4.4503829319
 30
0.0
 10
10.9288965656
 20
4.4570172993
 30
0.0
 10
10.8910748767
 20
4.466222912
 30
0.0
 10
10.8546501494
 20
4.4779181502
 30
0.0
 10
10.8199479149
 20
4.4919998487
 30
0.0
 10
10.7872784396
 20
4.5083436522
 30
0.0
 10
10.7569334497
 20
4.526806514
 30
0.0
 10
10.7291868432
 20
4.5472248794
 30
0.0
 10
10.708260508
 20
4.5658801303
 30
0.0
 10
10.6930994717
 20
4.5816110172
 30
0.0
 10
10.682618549
 20
4.5936789386
 30
0.0
 10
10.6729585444
 20
4.6060859555
 30
0.0
 10
10.6641411865
 20
4.6188046126
 30
0.0
 10
10.6561865928
 20
4.6318062889
 30
0.0
 10
10.649112933
 20
4.645061821
 30
0.0
 10
10.6429365653
 20
4.6585414204
 30
0.0
 10
10.637671677
 20
4.672214688
 30
0.0
 10
10.6333304756
 20
4.6860506623
 30
0.0
 10
10.6299231356
 20
4.700018171
 30
0.0
 10
10.6274575642
 20
4.7140848376
 30
0.0
 10
10.6264438827
 20
4.7235243744
 30
0.0
 10
10.6260967308
 20
4.7282434686
 30
0.0
  0
SPLINE
  5
269
100
AcDbEntity
  8
0
100
AcDbSpline
 62
9
  6
CONTINUOUS
 70
0
 71
3
 72
37
 73
33
 74
0
 42
0.0000001
 43
0.0000001
 44
0.0000000001
 40
0.0
 40
0.0
 40
0.0
 40
0.0
 40
0.0262873057
 40
0.0532271974
 40
0.0808783039
 40
0.1092791238
 40
0.1683467506
 40
0.1990379706
 40
0.23044965
 40
0.2625357954
 40
0.2952381894
 40
0.3284880338
 40
0.3622075593
 40
0.3963115959
 40
0.4307091045
 40
0.4653046754
 40
0.5
 40
0.5346953246
 40
0.5692908955
 40
0.6036884041
 40
0.6377924407
 40
0.6715119662
 40
0.7047618106
 40
0.7374642046
 40
0.76955035
 40
0.8009620294
 40
0.8316532494
 40
0.8907208762
 40
0.9191216961
 40
0.9467728026
 40
0.9737126943
 40
1.0
 40
1.0
 40
1.0
 40
1.0
 10
11.3712784036
 20
4.72824674
 30
0.0
 10
11.3681961687
 20
4.7223837246
 30
0.0
 10
11.3613759019
 20
4.7108080645
 30
0.0
 10
11.3494559715
 20
4.694246948
 30
0.0
 10
11.3357965716
 20
4.6783775284
 30
0.0
 10
11.315111171
 20
4.6580046058
 30
0.0
 10
11.2914763727
 20
4.6396828244
 30
0.0
 10
11.2655220616
 20
4.6235733785
 30
0.0
 10
11.2445482979
 20
4.6124253559
 30
0.0
 10
11.2224450842
 20
4.6024358691
 30
0.0
 10
11.1993367408
 20
4.5936598329
 30
0.0
 10
11.1753564826
 20
4.5861476627
 30
0.0
 10
11.1506416497
 20
4.5799420004
 30
0.0
 10
11.1253340472
 20
4.5750782614
 30
0.0
 10
11.0995788323
 20
4.5715841861
 30
0.0
 10
11.073523766
 20
4.5694797262
 30
0.0
 10
11.0473183383
 20
4.5687769009
 30
0.0
 10
11.0211129105
 20
4.5694797262
 30
0.0
 10
10.9950578442
 20
4.5715841861
 30
0.0
 10
10.9693026294
 20
4.5750782614
 30
0.0
 10
10.9439950269
 20
4.5799420004
 30
0.0
 10
10.919280194
 20
4.5861476627
 30
0.0
 10
10.8952999358
 20
4.5936598329
 30
0.0
 10
10.8721915924
 20
4.6024358691
 30
0.0
 10
10.8500883787
 20
4.6124253559
 30
0.0
 10
10.829114615
 20
4.6235733785
 30
0.0
 10
10.8031603039
 20
4.6396828244
 30
0.0
 10
10.7795255055
 20
4.6580046058
 30
0.0
 10
10.758840105
 20
4.6783775284
 30
0.0
 10
10.745180705
 20
4.694246948
 30
0.0
 10
10.7332607747
 20
4.7108080645
 30
0.0
 10
10.7264405079
 20
4.7223837246
 30
0.0
 10
10.7233582729
 20
4.72824674
 30
0.0
  0
SPLINE
  5
26A
100
AcDbEntity
  8
0
100
AcDbSpline
 62
9
  6
CONTINUOUS
 70
0
 71
3
 72
15
 73
11
 74
0
 42
0.0000001
 43
0.0000001
 44
0.0000000001
 40
0.0
 40
0.0
 40
0.0
 40
0.0
 40
0.1229589348
 40
0.2476530234
 40
0.3735277687
 40
0.5000000001
 40
0.6264722314
 40
0.7523469767
 40
0.8770410652
 40
1.0
 40
1.0
 40
1.0
 40
1.0
 10
10.8754250498
 20
4.7280967107
 30
0.0
 10
10.889130106
 20
4.7241170294
 30
0.0
 10
10.9170432506
 20
4.7171313395
 30
0.0
 10
10.9597794855
 20
4.7096413901
 30
0.0
 10
11.0033422051
 20
4.7051187012
 30
0.0
 10
11.0473183389
 20
4.7036065899
 30
0.0
 10
11.0912944728
 20
4.7051187013
 30
0.0
 10
11.1348571924
 20
4.7096413903
 30
0.0
 10
11.1775934272
 20
4.7171313398
 30
0.0
 10
11.2055065718
 20
4.7241170297
 30
0.0
 10
11.219211628
 20
4.728096711
 30
0.0
  0
ENDSEC
  0
SECTION
  2
OBJECTS
  0
DICTIONARY
  5
C
100
AcDbDictionary
280
0
281
1
  3
ACAD_GROUP
350
D
  3
ACAD_MLINESTYLE
350
17
  3
ACAD_LAYOUT
350
1A
  3
ACAD_PLOTSETTINGS
350
19
  3
ACAD_PLOTSTYLENAME
350
E
  0
DICTIONARY
  5
D
102
{ACAD_REACTORS
330
C
102
}
100
AcDbDictionary
280
0
281
1
  0
ACDBDICTIONARYWDFLT
  5
E
102
{ACAD_REACTORS
330
C
102
}
100
AcDbDictionary
281
1
  3
Normal
350
F
100
AcDbDictionaryWithDefault
340
F
  0
DICTIONARY
  5
17
102
{ACAD_REACTORS
330
C
102
}
100
AcDbDictionary
280
0
281
1
  3
Standard
350
18
  0
DICTIONARY
  5
19
102
{ACAD_REACTORS
330
C
102
}
100
AcDbDictionary
281
1
  0
DICTIONARY
  5
1A
102
{ACAD_REACTORS
330
C
102
}
100
AcDbDictionary
281
1
  3
Model
350
26B
  3
Layout1
350
26C
  0
ACDBPLACEHOLDER
  5
F
102
{ACAD_REACTORS
330
E
102
}
  0
MLINESTYLE
  5
18
102
{ACAD_REACTORS
330
17
102
}
100
AcDbMlineStyle
  2
STANDARD
 70
0
  3

 62
256
 51
90.0
 52
90.0
 71
2
 49
0.5
 62
256
  6
BYLAYER
 49
-0.5
 62
256
  6
BYLAYER
  0
LAYOUT
  5
26B
102
{ACAD_REACTORS
330
1A
102
}
100
AcDbPlotSettings
  1

  2
none_device
  4
ANSI_C_(22.00_x_17.00_Inches)
  6

 40
0.0
 41
0.0
 42
0.0
 43
0.0
 44
558.8
 45
431.8
 46
0.0
 47
0.0
 48
0.0
 49
0.0
140
0.0
141
0.0
142
1.0
143
1.0
 70
1024
 72
0
 73
0
 74
0
  7

 75
0
147
1.0
148
0.0
149
0.0
100
AcDbLayout
  1
Model
 70
0
 71
0
 10
0.0
 20
0.0
 11
22.0
 21
17.0
 12
0.0
 22
0.0
 32
0.0
 14
0.0
 24
0.0
 34
0.0
 15
0.0
 25
0.0
 35
0.0
146
0.0
 13
0.0
 23
0.0
 33
0.0
 16
1.0
 26
0.0
 36
0.0
 17
0.0
 27
1.0
 37
0.0
 76
0
330
205
345
0
346
0
  0
LAYOUT
  5
26C
102
{ACAD_REACTORS
330
1A
102
}
100
AcDbPlotSettings
  1

  2
none_device
  4
ANSI_C_(22.00_x_17.00_Inches)
  6

 40
0.0
 41
0.0
 42
0.0
 43
0.0
 44
558.8
 45
431.8
 46
0.0
 47
0.0
 48
0.0
 49
0.0
140
0.0
141
0.0
142
1.0
143
1.0
 70
0
 72
0
 73
0
 74
0
  7

 75
0
147
1.0
148
0.0
149
0.0
100
AcDbLayout
  1
Layout1
 70
0
 71
1
 10
0.0
 20
0.0
 11
22.0
 21
17.0
 12
0.0
 22
0.0
 32
0.0
 14
0.0
 24
0.0
 34
0.0
 15
0.0
 25
0.0
 35
0.0
146
0.0
 13
0.0
 23
0.0
 33
0.0
 16
1.0
 26
0.0
 36
0.0
 17
0.0
 27
1.0
 37
0.0
 76
0
330
206
345
0
346
0
  0
ENDSEC
  0
EOF
