999
DXF file: 3-2544bp_RIGHT.dxf
999
Pro/ENGINEER 2018400 by Parametric Technology Corporation
  0
SECTION
  2
HEADER
  9
$ACADVER
  1
AC1027
  9
$DWGCODEPAGE
  3
ANSI_1252
  9
$EXTMAX
 10
11.0
 20
8.5
 30
0.0
  9
$EXTMIN
 10
0.0
 20
0.0
 30
0.0
  9
$LIMMIN
 10
0.0
 20
0.0
  9
$LIMMAX
 10
11.0
 20
8.5
  9
$VIEWCTR
 10
5.5
 20
4.25
  9
$VIEWSIZE
 40
8.5
  9
$CLAYER
  8
0
  9
$LTSCALE
 40
0.605
  9
$CELTYPE
  6
BYLAYER
  9
$DIMSCALE
 40
1.0
  9
$DIMASZ
 40
0.1
  9
$DIMEXO
 40
0.0625
  9
$DIMDLI
 40
0.418
  9
$DIMEXE
 40
0.125
  9
$DIMCEN
 40
0.099
  9
$DIMLFAC
 40
1.0
  9
$DIMBLK
  1
_FILLED
  9
$DIMALT
 70
1
  9
$DIMALTD
 70
1
  9
$DIMALTTD
 70
2
  9
$DIMALTF
 40
25.4
  9
$DIMTXT
 40
0.08
  9
$DIMTOL
 70
1
  9
$DIMLIM
 70
0
  9
$DIMTFAC
 40
1.0
  9
$DIMTP
 40
0.01
  9
$DIMTM
 40
0.01
  9
$DIMGAP
 40
0.09
  9
$DIMDSEP
 70
46
  9
$AUNITS
 70
0
  9
$PDMODE
 70
3
  9
$PDSIZE
 40
0.3125
  9
$HANDSEED
  5
4F7
  9
$TILEMODE
 70
1
  9
$MEASUREMENT
 70
0
  9
$INSUNITS
 70
1
  0
ENDSEC
  0
SECTION
  2
CLASSES
  0
CLASS
  1
ACDBDICTIONARYWDFLT
  2
AcDbDictionaryWithDefault
  3
AutoCAD 2000
 90
0
 91
1
280
0
281
0
  0
CLASS
  1
ACDBPLACEHOLDER
  2
AcDbPlaceHolder
  3
AutoCAD 2000
 90
0
 91
1
280
0
281
0
  0
CLASS
  1
LAYOUT
  2
AcDbLayout
  3
AutoCAD 2000
 90
0
 91
0
280
0
281
0
  0
ENDSEC
  0
SECTION
  2
TABLES
  0
TABLE
  2
VPORT
  5
8
100
AcDbSymbolTable
 70
2
  0
VPORT
  5
1F4
100
AcDbSymbolTableRecord
100
AcDbViewportTableRecord
  2
*ACTIVE
 70
0
 10
0.0
 20
0.0
 11
1.0
 21
1.0
 12
5.5
 22
4.25
 13
0.0
 23
0.0
 14
1.0
 24
1.0
 15
0.0
 25
0.0
 16
0.0
 26
0.0
 36
1.0
 17
0.0
 27
0.0
 37
0.0
 40
8.5
 41
1.2941176471
 42
50.0
 43
0.0
 44
0.0
 50
0.0
 51
0.0
 71
0
 72
100
 73
1
 74
1
 75
0
 76
0
 77
0
 78
0
  0
ENDTAB
  0
TABLE
  2
LTYPE
  5
5
100
AcDbSymbolTable
 70
6
  0
LTYPE
  5
14
100
AcDbSymbolTableRecord
100
AcDbLinetypeTableRecord
  2
BYBLOCK
 70
0
  3

 72
65
 73
0
 40
0.0
  0
LTYPE
  5
15
100
AcDbSymbolTableRecord
100
AcDbLinetypeTableRecord
  2
BYLAYER
 70
0
  3

 72
65
 73
0
 40
0.0
  0
LTYPE
  5
16
100
AcDbSymbolTableRecord
100
AcDbLinetypeTableRecord
  2
CONTINUOUS
 70
64
  3
Solid line
 72
65
 73
0
 40
0.0
  0
LTYPE
  5
1F5
100
AcDbSymbolTableRecord
100
AcDbLinetypeTableRecord
  2
CENTER
 70
64
  3
____ _ ____ _ ____ _ ____ _ ____ _ ____ _ ____
 72
65
 73
4
 40
0.6
 49
0.375
 74
0
 49
-0.075
 74
0
 49
0.075
 74
0
 49
-0.075
 74
0
  0
LTYPE
  5
1F6
100
AcDbSymbolTableRecord
100
AcDbLinetypeTableRecord
  2
HIDDEN
 70
64
  3
- - - - - - - - - - - - - - - - - - - -
 72
65
 73
2
 40
0.2
 49
0.1
 74
0
 49
-0.1
 74
0
  0
LTYPE
  5
1F7
100
AcDbSymbolTableRecord
100
AcDbLinetypeTableRecord
  2
PHANTOM
 70
64
  3
_____ _ _ _____ _ _ _____ _ _ _____
 72
65
 73
6
 40
0.8
 49
0.45
 74
0
 49
-0.05
 74
0
 49
0.1
 74
0
 49
-0.05
 74
0
 49
0.1
 74
0
 49
-0.05
 74
0
  0
LTYPE
  5
1F8
100
AcDbSymbolTableRecord
100
AcDbLinetypeTableRecord
  2
DOT
 70
64
  3
. . . . . . . . . . . . . . . . . . . .
 72
65
 73
2
 40
0.2
 49
0.1
 74
0
 49
-0.1
 74
0
  0
LTYPE
  5
1F9
100
AcDbSymbolTableRecord
100
AcDbLinetypeTableRecord
  2
DASHED
 70
64
  3
- - - - - - - - - - - - - - - - - - - -
 72
65
 73
2
 40
0.2
 49
0.1
 74
0
 49
-0.1
 74
0
  0
ENDTAB
  0
TABLE
  2
LAYER
  5
2
100
AcDbSymbolTable
 70
36
  0
LAYER
  5
10
100
AcDbSymbolTableRecord
100
AcDbLayerTableRecord
  2
0
 70
0
 62
7
  6
CONTINUOUS
370
-3
390
F
  0
LAYER
  5
1FA
100
AcDbSymbolTableRecord
100
AcDbLayerTableRecord
  2
DEFAULT_1
 70
0
 62
7
  6
CENTER
370
-3
390
F
  0
LAYER
  5
1FB
100
AcDbSymbolTableRecord
100
AcDbLayerTableRecord
  2
DEFAULT_2
 70
0
 62
8
  6
HIDDEN
370
-3
390
F
  0
LAYER
  5
1FC
100
AcDbSymbolTableRecord
100
AcDbLayerTableRecord
  2
DEFAULT_3
 70
0
 62
7
  6
PHANTOM
370
-3
390
F
  0
LAYER
  5
1FD
100
AcDbSymbolTableRecord
100
AcDbLayerTableRecord
  2
DEFAULT_COORDINATE_SYSTEM
 70
0
 62
7
  6
CONTINUOUS
370
-3
390
F
  0
LAYER
  5
1FE
100
AcDbSymbolTableRecord
100
AcDbLayerTableRecord
  2
DEFAULT_DATUM_AXES
 70
0
 62
7
  6
CONTINUOUS
370
-3
390
F
  0
LAYER
  5
1FF
100
AcDbSymbolTableRecord
100
AcDbLayerTableRecord
  2
DEFAULT_DATUM_PLANES
 70
0
 62
7
  6
CONTINUOUS
370
-3
390
F
  0
ENDTAB
  0
TABLE
  2
STYLE
  5
3
100
AcDbSymbolTable
 70
1
  0
STYLE
  5
11
100
AcDbSymbolTableRecord
100
AcDbTextStyleTableRecord
  2
STANDARD
 70
0
 40
0.0
 41
0.8
 50
0.0
 71
0
 42
0.2
  3
txt
  4

  0
STYLE
  5
200
100
AcDbSymbolTableRecord
100
AcDbTextStyleTableRecord
  2
TEXTSTYLE_1
 70
0
 40
0.0
 41
0.8
 50
0.0
 71
0
 42
0.2
  3
gdt
  4

  0
ENDTAB
  0
TABLE
  2
VIEW
  5
6
100
AcDbSymbolTable
 70
0
  0
ENDTAB
  0
TABLE
  2
UCS
  5
7
100
AcDbSymbolTable
 70
0
  0
ENDTAB
  0
TABLE
  2
APPID
  5
9
100
AcDbSymbolTable
 70
1
  0
APPID
  5
201
100
AcDbSymbolTableRecord
100
AcDbRegAppTableRecord
  2
ACAD
 70
0
  0
ENDTAB
  0
TABLE
  2
BLOCK_RECORD
  5
1
100
AcDbSymbolTable
 70
0
  0
BLOCK_RECORD
  5
202
100
AcDbSymbolTableRecord
100
AcDbBlockTableRecord
  2
*Model_Space
  0
BLOCK_RECORD
  5
203
100
AcDbSymbolTableRecord
100
AcDbBlockTableRecord
  2
*Paper_Space
  0
BLOCK_RECORD
  5
204
100
AcDbSymbolTableRecord
100
AcDbBlockTableRecord
  2
_FILLED
  0
ENDTAB
  0
TABLE
  2
DIMSTYLE
  5
A
100
AcDbSymbolTable
 70
1
100
AcDbDimStyleTable
 71
0
  0
DIMSTYLE
105
205
100
AcDbSymbolTableRecord
100
AcDbDimStyleTableRecord
  2
STANDARD
 70
0
  3

  4

 40
1.0
 41
0.1
 42
0.0625
 43
0.38
 44
0.125
 45
0.0
 46
0.0
 47
0.01
 48
0.01
140
0.08
141
0.09
142
0.0
143
25.4
144
1.0
145
0.0
146
1.0
147
0.09
 71
1.0
 72
0.0
 73
1
 74
1
 75
0
 76
0
 77
0
 78
4
 79
1
170
1
171
1
172
0
173
0
174
0
175
0
176
0
177
0
178
0
270
2
179
2
271
2
272
2
273
2
274
2
275
0
280
0
281
0
282
0
283
1
284
4
285
0
286
0
287
3
288
0
340
11
278
46
341
204
342
204
343
204
344
204
  0
ENDTAB
  0
ENDSEC
  0
SECTION
  2
BLOCKS
  0
BLOCK
  5
20
100
AcDbEntity
  8
0
100
AcDbBlockBegin
  2
*Model_Space
 70
0
 10
0.0
 20
0.0
 30
0.0
  3
*Model_Space
  1

  0
ENDBLK
  5
21
100
AcDbEntity
  8
0
100
AcDbBlockEnd
  0
BLOCK
  5
1C
100
AcDbEntity
  8
0
100
AcDbBlockBegin
  2
*Paper_Space
 70
0
 10
0.0
 20
0.0
 30
0.0
  3
*Paper_Space
  1

  0
ENDBLK
  5
1D
100
AcDbEntity
  8
0
100
AcDbBlockEnd
  0
BLOCK
  5
206
100
AcDbEntity
  8
0
100
AcDbBlockBegin
  2
_FILLED
 70
64
 10
0.0
 20
0.0
  3
_FILLED
  1

  0
SOLID
  5
207
100
AcDbEntity
  8
0
  6
BYBLOCK
 62
0
100
AcDbTrace
 10
0.0
 20
0.0
 11
-1.0
 21
0.2
 12
-1.0
 22
-0.2
 13
-1.0
 23
-0.2
  0
ENDBLK
  5
208
100
AcDbEntity
  8
0
  6
BYBLOCK
 62
0
100
AcDbBlockEnd
  0
ENDSEC
  0
SECTION
  2
ENTITIES
  0
MTEXT
  5
209
100
AcDbEntity
  8
0
100
AcDbMText
 62
2
  6
CONTINUOUS
  7
STANDARD
 71
3
 72
1
 10
6.0259314116
 20
1.2616576087
 30
0.0
 11
1.0
 21
0.0
 31
0.0
 73
2
 44
0.9
  1
SCALE  .250
 40
0.08
 41
0.704
  0
LINE
  5
20A
100
AcDbEntity
  8
0
100
AcDbLine
 62
7
  6
CONTINUOUS
 10
0.0
 20
0.0
 11
0.0
 21
8.5
  0
LINE
  5
20B
100
AcDbEntity
  8
0
100
AcDbLine
 62
7
  6
CONTINUOUS
 10
0.0
 20
0.0
 11
11.0
 21
0.0
  0
LINE
  5
20C
100
AcDbEntity
  8
0
100
AcDbLine
 62
7
  6
CONTINUOUS
 10
0.0
 20
8.5
 11
11.0
 21
8.5
  0
LINE
  5
20D
100
AcDbEntity
  8
0
100
AcDbLine
 62
7
  6
CONTINUOUS
 10
11.0
 20
0.0
 11
11.0
 21
8.5
  0
LINE
  5
20E
100
AcDbEntity
  8
0
100
AcDbLine
 62
7
  6
CONTINUOUS
 10
3.8020466949
 20
7.0992019603
 11
3.6467166381
 21
6.9438719034
  0
LINE
  5
20F
100
AcDbEntity
  8
0
100
AcDbLine
 62
7
  6
CONTINUOUS
 10
3.7196752943
 20
6.7909299406
 11
3.7143315164
 21
6.7847196042
  0
LINE
  5
210
100
AcDbEntity
  8
0
100
AcDbLine
 62
7
  6
CONTINUOUS
 10
3.7371471899
 20
6.7735228528
 11
3.7317734384
 21
6.7672776822
  0
LINE
  5
211
100
AcDbEntity
  8
0
100
AcDbLine
 62
7
  6
CONTINUOUS
 10
3.7558796005
 20
6.7511579862
 11
3.751586875
 21
6.7474642457
  0
LINE
  5
212
100
AcDbEntity
  8
0
100
AcDbLine
 62
7
  6
CONTINUOUS
 10
3.7565249716
 20
6.7501186919
 11
3.7565280093
 21
6.750123244
  0
LINE
  5
213
100
AcDbEntity
  8
0
100
AcDbLine
 62
7
  6
CONTINUOUS
 10
3.7712568961
 20
6.7393875421
 11
3.7658949867
 21
6.7331561339
  0
LINE
  5
214
100
AcDbEntity
  8
0
100
AcDbLine
 62
7
  6
CONTINUOUS
 10
3.7868803966
 20
6.7104349635
 11
3.7819600403
 21
6.7047167117
  0
LINE
  5
215
100
AcDbEntity
  8
0
100
AcDbLine
 62
7
  6
CONTINUOUS
 10
3.7980117575
 20
6.6994075691
 11
3.7930433168
 21
6.6936334352
  0
LINE
  5
216
100
AcDbEntity
  8
0
100
AcDbLine
 62
7
  6
CONTINUOUS
 10
3.8205141644
 20
6.6900164773
 11
3.8152048859
 21
6.6838462347
  0
LINE
  5
217
100
AcDbEntity
  8
0
100
AcDbLine
 62
7
  6
CONTINUOUS
 10
3.8289916511
 20
6.6651528022
 11
3.8255378392
 21
6.6611389127
  0
LINE
  5
218
100
AcDbEntity
  8
0
100
AcDbLine
 62
7
  6
CONTINUOUS
 10
3.8614494742
 20
6.6254142115
 11
3.8564574641
 21
6.6196126862
  0
LINE
  5
219
100
AcDbEntity
  8
0
100
AcDbLine
 62
7
  6
CONTINUOUS
 10
4.1177698727
 20
6.8863628191
 11
4.0769344561
 21
6.8455274025
  0
LINE
  5
21A
100
AcDbEntity
  8
0
100
AcDbLine
 62
7
  6
CONTINUOUS
 10
3.7901670435
 20
6.7171791846
 11
3.7857084232
 21
6.7133426974
  0
LINE
  5
21B
100
AcDbEntity
  8
0
100
AcDbLine
 62
7
  6
CONTINUOUS
 10
3.8168706428
 20
6.6772738106
 11
3.8128567533
 21
6.6738199987
  0
LINE
  5
21C
100
AcDbEntity
  8
0
100
AcDbLine
 62
7
  6
CONTINUOUS
 10
3.8396712068
 20
6.6680364429
 11
3.8350183224
 21
6.6640327982
  0
LINE
  5
21D
100
AcDbEntity
  8
0
100
AcDbLine
 62
7
  6
CONTINUOUS
 10
3.8496845158
 20
6.6450540781
 11
3.8453512757
 21
6.6413254762
  0
LINE
  5
21E
100
AcDbEntity
  8
0
100
AcDbLine
 62
7
  6
CONTINUOUS
 10
3.8793346154
 20
6.6024354693
 11
3.8762709006
 21
6.5997992496
  0
LINE
  5
21F
100
AcDbEntity
  8
0
100
AcDbLine
 62
7
  6
CONTINUOUS
 10
3.9022287323
 20
6.6058777166
 11
3.8973614933
 21
6.6016896273
  0
LINE
  5
220
100
AcDbEntity
  8
0
100
AcDbLine
 62
7
  6
CONTINUOUS
 10
3.9015760881
 20
6.5935350675
 11
3.8970425962
 21
6.5896341558
  0
LINE
  5
221
100
AcDbEntity
  8
0
100
AcDbLine
 62
7
  6
CONTINUOUS
 10
6.6917400413
 20
2.3827833851
 11
6.7617400413
 21
2.3827833851
  0
LINE
  5
222
100
AcDbEntity
  8
0
100
AcDbLine
 62
7
  6
CONTINUOUS
 10
6.6842400413
 20
2.3902833851
 11
6.7617400413
 21
2.3902833851
  0
LINE
  5
223
100
AcDbEntity
  8
0
100
AcDbLine
 62
7
  6
CONTINUOUS
 10
6.1202400413
 20
2.4302833851
 11
5.8942400413
 21
2.4302833851
  0
LINE
  5
224
100
AcDbEntity
  8
0
100
AcDbLine
 62
7
  6
CONTINUOUS
 10
5.8842400413
 20
2.4402833851
 11
6.1302400413
 21
2.4402833851
  0
LINE
  5
225
100
AcDbEntity
  8
0
100
AcDbLine
 62
7
  6
CONTINUOUS
 10
3.8827666575
 20
6.6275679241
 11
3.8775480568
 21
6.6215030638
  0
LINE
  5
226
100
AcDbEntity
  8
0
100
AcDbLine
 62
7
  6
CONTINUOUS
 10
3.8806829715
 20
6.6134614818
 11
3.8772291596
 21
6.6094475923
  0
LINE
  5
227
100
AcDbEntity
  8
0
100
AcDbLine
 62
7
  6
CONTINUOUS
 10
3.8887007949
 20
6.5930692898
 11
3.8860645752
 21
6.590005575
  0
LINE
  5
228
100
AcDbEntity
  8
0
100
AcDbLine
 62
7
  6
CONTINUOUS
 10
3.9297013172
 20
6.5492835922
 11
3.92426528
 21
6.5429660355
  0
LINE
  5
229
100
AcDbEntity
  8
0
100
AcDbLine
 62
7
  6
CONTINUOUS
 10
3.955293928
 20
6.5547715156
 11
3.9501998036
 21
6.548851317
  0
LINE
  5
22A
100
AcDbEntity
  8
0
100
AcDbLine
 62
7
  6
CONTINUOUS
 10
3.9493968585
 20
6.5476631552
 11
3.9445946
 21
6.542082152
  0
LINE
  5
22B
100
AcDbEntity
  8
0
100
AcDbLine
 62
7
  6
CONTINUOUS
 10
3.9443787903
 20
6.5374665976
 11
3.9417077429
 21
6.5343624073
  0
LINE
  5
22C
100
AcDbEntity
  8
0
100
AcDbLine
 62
7
  6
CONTINUOUS
 10
3.9492938221
 20
6.5218696609
 11
3.9474751946
 21
6.5197561208
  0
LINE
  5
22D
100
AcDbEntity
  8
0
100
AcDbLine
 62
7
  6
CONTINUOUS
 10
4.3988448182
 20
6.8987371878
 11
4.2954304515
 21
6.795322821
  0
LINE
  5
22E
100
AcDbEntity
  8
0
100
AcDbLine
 62
7
  6
CONTINUOUS
 10
4.2883593837
 20
6.7882517532
 11
4.2627267628
 21
6.7626191324
  0
LINE
  5
22F
100
AcDbEntity
  8
0
100
AcDbLine
 62
7
  6
CONTINUOUS
 10
3.9105826149
 20
6.5742402854
 11
3.9058780117
 21
6.5701921385
  0
LINE
  5
230
100
AcDbEntity
  8
0
100
AcDbLine
 62
7
  6
CONTINUOUS
 10
3.9461922566
 20
6.5249712264
 11
3.9440787165
 21
6.5231525989
  0
LINE
  5
231
100
AcDbEntity
  8
0
100
AcDbLine
 62
7
  6
CONTINUOUS
 10
3.9751059399
 20
6.5334199709
 11
3.9700132402
 21
6.5290378805
  0
LINE
  5
232
100
AcDbEntity
  8
0
100
AcDbLine
 62
7
  6
CONTINUOUS
 10
3.9691644409
 20
6.5263614355
 11
3.9644080365
 21
6.5222687155
  0
LINE
  5
233
100
AcDbEntity
  8
0
100
AcDbLine
 62
7
  6
CONTINUOUS
 10
3.9664345111
 20
6.5187767214
 11
3.9615211794
 21
6.5145489708
  0
LINE
  5
234
100
AcDbEntity
  8
0
100
AcDbLine
 62
7
  6
CONTINUOUS
 10
3.9728603405
 20
6.5047369458
 11
3.9672886312
 21
6.4999426843
  0
LINE
  5
235
100
AcDbEntity
  8
0
100
AcDbLine
 62
7
  6
CONTINUOUS
 10
4.0332797723
 20
6.438752427
 11
4.0306992972
 21
6.4365320182
  0
LINE
  5
236
100
AcDbEntity
  8
0
100
AcDbLine
 62
7
  6
CONTINUOUS
 10
4.0403610748
 20
6.4429129049
 11
4.0364890165
 21
6.4395811338
  0
LINE
  5
237
100
AcDbEntity
  8
0
100
AcDbLine
 62
7
  6
CONTINUOUS
 10
4.0162545641
 20
6.4625847587
 11
4.0108858607
 21
6.4563454548
  0
LINE
  5
238
100
AcDbEntity
  8
0
100
AcDbLine
 62
7
  6
CONTINUOUS
 10
4.0214770988
 20
6.4649747139
 11
4.0166755799
 21
6.4593945703
  0
LINE
  5
239
100
AcDbEntity
  8
0
100
AcDbLine
 62
7
  6
CONTINUOUS
 10
4.0277016462
 20
6.4690471694
 11
4.0230433168
 21
6.4636334352
  0
LINE
  5
23A
100
AcDbEntity
  8
0
100
AcDbLine
 62
7
  6
CONTINUOUS
 10
4.0349261407
 20
6.4748087511
 11
4.0299848965
 21
6.4690662241
  0
LINE
  5
23B
100
AcDbEntity
  8
0
100
AcDbLine
 62
7
  6
CONTINUOUS
 10
4.1003039582
 20
6.3732627072
 11
4.0957386744
 21
6.3679571071
  0
LINE
  5
23C
100
AcDbEntity
  8
0
100
AcDbLine
 62
7
  6
CONTINUOUS
 10
4.1027036195
 20
6.3757648378
 11
4.0975064414
 21
6.3697248741
  0
LINE
  5
23D
100
AcDbEntity
  8
0
100
AcDbLine
 62
7
  6
CONTINUOUS
 10
4.1065536706
 20
6.3795225592
 11
4.1019258588
 21
6.3741442915
  0
LINE
  5
23E
100
AcDbEntity
  8
0
100
AcDbLine
 62
7
  6
CONTINUOUS
 10
4.1117134457
 20
6.3846590599
 11
4.1072291596
 21
6.3794475923
  0
LINE
  5
23F
100
AcDbEntity
  8
0
100
AcDbLine
 62
7
  6
CONTINUOUS
 10
4.1181829678
 20
6.3911743665
 11
4.113416344
 21
6.3856347767
  0
LINE
  5
240
100
AcDbEntity
  8
0
100
AcDbLine
 62
7
  6
CONTINUOUS
 10
4.5436465892
 20
6.9560344946
 11
4.5443954797
 21
6.9567833851
  0
LINE
  5
241
100
AcDbEntity
  8
0
100
AcDbLine
 62
7
  6
CONTINUOUS
 10
4.5436465892
 20
6.9498473102
 11
4.4947970263
 21
6.9009977473
  0
LINE
  5
242
100
AcDbEntity
  8
0
100
AcDbLine
 62
7
  6
CONTINUOUS
 10
4.4147887289
 20
6.7590495904
 11
4.4766605722
 21
6.8209214338
  0
LINE
  5
243
100
AcDbEntity
  8
0
100
AcDbLine
 62
7
  6
CONTINUOUS
 10
4.5066445942
 20
6.667193725
 11
4.5685164376
 21
6.7290655684
  0
LINE
  5
244
100
AcDbEntity
  8
0
100
AcDbLine
 62
7
  6
CONTINUOUS
 10
4.0478441749
 20
6.448111501
 11
4.0428567533
 21
6.4438199987
  0
LINE
  5
245
100
AcDbEntity
  8
0
100
AcDbLine
 62
7
  6
CONTINUOUS
 10
4.0551182974
 20
6.4538304313
 11
4.049798333
 21
6.4492527876
  0
LINE
  5
246
100
AcDbEntity
  8
0
100
AcDbLine
 62
7
  6
CONTINUOUS
 10
4.0363925715
 20
6.4366830621
 11
4.0313509011
 21
6.4323448805
  0
LINE
  5
247
100
AcDbEntity
  8
0
100
AcDbLine
 62
7
  6
CONTINUOUS
 10
4.138769411
 20
6.370587999
 11
4.1332297805
 21
6.3658213401
  0
LINE
  5
248
100
AcDbEntity
  8
0
100
AcDbLine
 62
7
  6
CONTINUOUS
 10
4.1322540086
 20
6.3641183944
 11
4.1270425962
 21
6.3596341558
  0
LINE
  5
249
100
AcDbEntity
  8
0
100
AcDbLine
 62
7
  6
CONTINUOUS
 10
4.1271176199
 20
6.3589587156
 11
4.1217392953
 21
6.3543308549
  0
LINE
  5
24A
100
AcDbEntity
  8
0
100
AcDbLine
 62
7
  6
CONTINUOUS
 10
4.1233598061
 20
6.3551085851
 11
4.1173198779
 21
6.3499114375
  0
LINE
  5
24B
100
AcDbEntity
  8
0
100
AcDbLine
 62
7
  6
CONTINUOUS
 10
4.1208577013
 20
6.352708946
 11
4.115552111
 21
6.3481436706
  0
LINE
  5
24C
100
AcDbEntity
  8
0
100
AcDbLine
 62
7
  6
CONTINUOUS
 10
4.1842780628
 20
6.288797564
 11
4.1799398843
 21
6.2837558972
  0
LINE
  5
24D
100
AcDbEntity
  8
0
100
AcDbLine
 62
7
  6
CONTINUOUS
 10
4.2014254442
 20
6.307523304
 11
4.1968477914
 21
6.3022033292
  0
LINE
  5
24E
100
AcDbEntity
  8
0
100
AcDbLine
 62
7
  6
CONTINUOUS
 10
4.1957064834
 20
6.3002491462
 11
4.1914150025
 21
6.2952617494
  0
LINE
  5
24F
100
AcDbEntity
  8
0
100
AcDbLine
 62
7
  6
CONTINUOUS
 10
4.1905079087
 20
6.2927660709
 11
4.1871761376
 21
6.2888940126
  0
LINE
  5
250
100
AcDbEntity
  8
0
100
AcDbLine
 62
7
  6
CONTINUOUS
 10
4.1863474308
 20
6.2856847684
 11
4.1841270221
 21
6.2831042934
  0
LINE
  5
251
100
AcDbEntity
  8
0
100
AcDbLine
 62
7
  6
CONTINUOUS
 10
4.2523319495
 20
6.2252653364
 11
4.2475376881
 21
6.2196936273
  0
LINE
  5
252
100
AcDbEntity
  8
0
100
AcDbLine
 62
7
  6
CONTINUOUS
 10
4.2663717543
 20
6.2188395411
 11
4.2621439747
 21
6.2139261756
  0
LINE
  5
253
100
AcDbEntity
  8
0
100
AcDbLine
 62
7
  6
CONTINUOUS
 10
4.2739564608
 20
6.2215694619
 11
4.2698637193
 21
6.2168130326
  0
LINE
  5
254
100
AcDbEntity
  8
0
100
AcDbLine
 62
7
  6
CONTINUOUS
 10
4.2810150473
 20
6.2275110203
 11
4.2766328843
 21
6.2224182363
  0
LINE
  5
255
100
AcDbEntity
  8
0
100
AcDbLine
 62
7
  6
CONTINUOUS
 10
4.6485927512
 20
6.7472020224
 11
4.6974423141
 21
6.7960515853
  0
LINE
  5
256
100
AcDbEntity
  8
0
100
AcDbLine
 62
7
  6
CONTINUOUS
 10
4.7036294984
 20
6.7960515853
 11
4.860534468
 21
6.9529565549
  0
LINE
  5
257
100
AcDbEntity
  8
0
100
AcDbLine
 62
7
  6
CONTINUOUS
 10
4.6463321916
 20
6.6512498144
 11
4.5429178249
 21
6.5478354476
  0
LINE
  5
258
100
AcDbEntity
  8
0
100
AcDbLine
 62
7
  6
CONTINUOUS
 10
4.5358467571
 20
6.5407643798
 11
4.5102141363
 21
6.515131759
  0
LWPOLYLINE
  5
259
100
AcDbEntity
  8
0
100
AcDbPolyline
 62
7
  6
CONTINUOUS
 90
46
 70
0
 10
4.8605344539
 20
6.9529565503
 10
4.8606174379
 20
6.9530387955
 10
4.8607835529
 20
6.953199107
 10
4.8609524727
 20
6.9533564571
 10
4.8611241442
 20
6.9535107962
 10
4.8612985141
 20
6.9536620768
 10
4.8614755293
 20
6.9538102529
 10
4.8616551345
 20
6.9539552783
 10
4.8618372738
 20
6.9540971076
 10
4.8620218918
 20
6.9542356979
 10
4.862208931
 20
6.9543710057
 10
4.8623983329
 20
6.9545029888
 10
4.8625900397
 20
6.9546316066
 10
4.8627839928
 20
6.9547568197
 10
4.8629801307
 20
6.9548785879
 10
4.8631783895
 20
6.9549968717
 10
4.8633787081
 20
6.9551116345
 10
4.8635810233
 20
6.9552228399
 10
4.8637852669
 20
6.9553304509
 10
4.8639913751
 20
6.955434434
 10
4.8641992834
 20
6.955534757
 10
4.8644089223
 20
6.9556313869
 10
4.8646202225
 20
6.9557242923
 10
4.8648331213
 20
6.9558134466
 10
4.8650475591
 20
6.9558988251
 10
4.865263465
 20
6.9559803998
 10
4.8654807754
 20
6.956058147
 10
4.8656994406
 20
6.9561320486
 10
4.8659193928
 20
6.9562020807
 10
4.8661405635
 20
6.9562682206
 10
4.8663629024
 20
6.9563304519
 10
4.8665863581
 20
6.9563887576
 10
4.8668108439
 20
6.9564431128
 10
4.8670362556
 20
6.9564934913
 10
4.8672625533
 20
6.9565398833
 10
4.867489636
 20
6.9565822671
 10
4.8677173062
 20
6.9566206095
 10
4.8679454953
 20
6.9566549056
 10
4.8681741274
 20
6.9566851508
 10
4.8684029927
 20
6.9567113279
 10
4.8686320162
 20
6.9567334425
 10
4.8688611277
 20
6.9567515021
 10
4.8690901226
 20
6.9567655081
 10
4.8693188847
 20
6.9567754757
 10
4.869547387
 20
6.9567814259
 10
4.8697732655
 20
6.9567833781
  0
LINE
  5
25A
100
AcDbEntity
  8
0
100
AcDbLine
 62
7
  6
CONTINUOUS
 10
4.222403722
 20
6.2873311085
 11
4.216661228
 21
6.2823898927
  0
LINE
  5
25B
100
AcDbEntity
  8
0
100
AcDbLine
 62
7
  6
CONTINUOUS
 10
4.2166421747
 20
6.2801066436
 11
4.211228439
 21
6.2754483129
  0
LINE
  5
25C
100
AcDbEntity
  8
0
100
AcDbLine
 62
7
  6
CONTINUOUS
 10
4.2125697142
 20
6.273882092
 11
4.2069895741
 21
6.2690805761
  0
LINE
  5
25D
100
AcDbEntity
  8
0
100
AcDbLine
 62
7
  6
CONTINUOUS
 10
4.2101797751
 20
6.268659571
 11
4.2039404586
 21
6.2632908569
  0
LINE
  5
25E
100
AcDbEntity
  8
0
100
AcDbLine
 62
7
  6
CONTINUOUS
 10
4.2694646647
 20
6.2016988183
 11
4.2673511247
 21
6.1998801908
  0
LINE
  5
25F
100
AcDbEntity
  8
0
100
AcDbLine
 62
7
  6
CONTINUOUS
 10
4.2850616014
 20
6.1967837865
 11
4.2819574112
 21
6.1941127391
  0
LINE
  5
260
100
AcDbEntity
  8
0
100
AcDbLine
 62
7
  6
CONTINUOUS
 10
4.2952582133
 20
6.2018019014
 11
4.2896771558
 21
6.1969995961
  0
LINE
  5
261
100
AcDbEntity
  8
0
100
AcDbLine
 62
7
  6
CONTINUOUS
 10
4.3023664296
 20
6.2076988469
 11
4.2964463208
 21
6.2026047998
  0
LINE
  5
262
100
AcDbEntity
  8
0
100
AcDbLine
 62
7
  6
CONTINUOUS
 10
4.2968785963
 20
6.1821063136
 11
4.2905610393
 21
6.1766702762
  0
LINE
  5
263
100
AcDbEntity
  8
0
100
AcDbLine
 62
7
  6
CONTINUOUS
 10
6.6842400413
 20
2.9627833851
 11
6.5902400413
 21
2.9627833851
  0
LINE
  5
264
100
AcDbEntity
  8
0
100
AcDbLine
 62
7
  6
CONTINUOUS
 10
6.5777400413
 20
2.9627833851
 11
6.1402400413
 21
2.9627833851
  0
LINE
  5
265
100
AcDbEntity
  8
0
100
AcDbLine
 62
7
  6
CONTINUOUS
 10
6.5902400413
 20
2.9852833851
 11
6.5777400413
 21
2.9852833851
  0
LINE
  5
266
100
AcDbEntity
  8
0
100
AcDbLine
 62
7
  6
CONTINUOUS
 10
4.2725662303
 20
6.1985972527
 11
4.2707476028
 21
6.1964837127
  0
LINE
  5
267
100
AcDbEntity
  8
0
100
AcDbLine
 62
7
  6
CONTINUOUS
 10
4.3218352763
 20
6.162987596
 11
4.3177871424
 21
6.1582830079
  0
LINE
  5
268
100
AcDbEntity
  8
0
100
AcDbLine
 62
7
  6
CONTINUOUS
 10
4.3411300982
 20
6.1539811156
 11
4.3372291596
 21
6.1494475923
  0
LINE
  5
269
100
AcDbEntity
  8
0
100
AcDbLine
 62
7
  6
CONTINUOUS
 10
4.3534727186
 20
6.1546337263
 11
4.3492846312
 21
6.1497664895
  0
LINE
  5
26A
100
AcDbEntity
  8
0
100
AcDbLine
 62
7
  6
CONTINUOUS
 10
4.3500304732
 20
6.1317396115
 11
4.3473942535
 21
6.1286758967
  0
LINE
  5
26B
100
AcDbEntity
  8
0
100
AcDbLine
 62
7
  6
CONTINUOUS
 10
4.3926490953
 20
6.1020895274
 11
4.3889204801
 21
6.0977562719
  0
LINE
  5
26C
100
AcDbEntity
  8
0
100
AcDbLine
 62
7
  6
CONTINUOUS
 10
4.4156314352
 20
6.0920761896
 11
4.411627802
 21
6.0874233186
  0
LINE
  5
26D
100
AcDbEntity
  8
0
100
AcDbLine
 62
7
  6
CONTINUOUS
 10
4.633957823
 20
6.3701748688
 11
4.5931224063
 21
6.3293394522
  0
LINE
  5
26E
100
AcDbEntity
  8
0
100
AcDbLine
 62
7
  6
CONTINUOUS
 10
4.3406642937
 20
6.141105791
 11
4.3376005789
 21
6.1384695713
  0
LINE
  5
26F
100
AcDbEntity
  8
0
100
AcDbLine
 62
7
  6
CONTINUOUS
 10
4.3610564857
 20
6.1330879677
 11
4.3570425962
 21
6.1296341558
  0
LINE
  5
270
100
AcDbEntity
  8
0
100
AcDbLine
 62
7
  6
CONTINUOUS
 10
4.3751629427
 20
6.1351716663
 11
4.3690980677
 21
6.1299530529
  0
LINE
  5
271
100
AcDbEntity
  8
0
100
AcDbLine
 62
7
  6
CONTINUOUS
 10
4.3730092182
 20
6.1138544729
 11
4.36720769
 21
6.1088624602
  0
LINE
  5
272
100
AcDbEntity
  8
0
100
AcDbLine
 62
7
  6
CONTINUOUS
 10
4.4127478061
 20
6.0813966473
 11
4.4087339166
 21
6.0779428354
  0
LINE
  5
273
100
AcDbEntity
  8
0
100
AcDbLine
 62
7
  6
CONTINUOUS
 10
4.4376115482
 20
6.0729192183
 11
4.4314412386
 21
6.0676098821
  0
LINE
  5
274
100
AcDbEntity
  8
0
100
AcDbLine
 62
7
  6
CONTINUOUS
 10
4.4470025729
 20
6.0504167537
 11
4.441228439
 21
6.0454483129
  0
LINE
  5
275
100
AcDbEntity
  8
0
100
AcDbLine
 62
7
  6
CONTINUOUS
 10
6.5902400413
 20
3.1552833851
 11
6.5777400413
 21
3.1552833851
  0
LINE
  5
276
100
AcDbEntity
  8
0
100
AcDbLine
 62
7
  6
CONTINUOUS
 10
6.1202400415
 20
3.1715270191
 11
5.9468068918
 21
3.1715270191
  0
LINE
  5
277
100
AcDbEntity
  8
0
100
AcDbLine
 62
7
  6
CONTINUOUS
 10
6.6842400413
 20
3.1777833851
 11
6.5902400413
 21
3.1777833851
  0
LINE
  5
278
100
AcDbEntity
  8
0
100
AcDbLine
 62
7
  6
CONTINUOUS
 10
6.5777400413
 20
3.1777833851
 11
6.1402400413
 21
3.1777833851
  0
LINE
  5
279
100
AcDbEntity
  8
0
100
AcDbLine
 62
7
  6
CONTINUOUS
 10
6.1202400413
 20
3.1809450316
 11
5.9467979938
 21
3.1809450316
  0
LINE
  5
27A
100
AcDbEntity
  8
0
100
AcDbLine
 62
7
  6
CONTINUOUS
 10
6.1302400413
 20
3.2170333851
 11
5.8842400413
 21
3.2170333851
  0
LINE
  5
27B
100
AcDbEntity
  8
0
100
AcDbLine
 62
7
  6
CONTINUOUS
 10
6.1202400413
 20
3.2270333851
 11
5.8942400413
 21
3.2270333851
  0
LINE
  5
27C
100
AcDbEntity
  8
0
100
AcDbLine
 62
7
  6
CONTINUOUS
 10
4.4248688144
 20
6.069275639
 11
4.4214150025
 21
6.0652617494
  0
LINE
  5
27D
100
AcDbEntity
  8
0
100
AcDbLine
 62
7
  6
CONTINUOUS
 10
4.464774187
 20
6.042572038
 11
4.4609377012
 21
6.0381134194
  0
LINE
  5
27E
100
AcDbEntity
  8
0
100
AcDbLine
 62
7
  6
CONTINUOUS
 10
4.4987529969
 20
6.0082846046
 11
4.4950592495
 21
6.0039918711
  0
LINE
  5
27F
100
AcDbEntity
  8
0
100
AcDbLine
 62
7
  6
CONTINUOUS
 10
4.4580299671
 20
6.0392853925
 11
4.4523117155
 21
6.0343650364
  0
LINE
  5
280
100
AcDbEntity
  8
0
100
AcDbLine
 62
7
  6
CONTINUOUS
 10
4.4869825725
 20
6.0236619151
 11
4.4807511378
 21
6.0182999829
  0
LINE
  5
281
100
AcDbEntity
  8
0
100
AcDbLine
 62
7
  6
CONTINUOUS
 10
4.5211178652
 20
5.9895521934
 11
4.514872686
 21
5.9841784346
  0
LINE
  5
282
100
AcDbEntity
  8
0
100
AcDbLine
 62
7
  6
CONTINUOUS
 10
4.5385249463
 20
5.972080292
 11
4.532314608
 21
5.9667365126
  0
LINE
  5
283
100
AcDbEntity
  8
0
100
AcDbLine
 62
7
  6
CONTINUOUS
 10
4.4977182478
 20
6.0089330055
 11
4.4977136958
 21
6.0089299678
  0
LINE
  5
284
100
AcDbEntity
  8
0
100
AcDbLine
 62
7
  6
CONTINUOUS
 10
4.8467969641
 20
6.054451691
 11
4.6914669073
 21
5.8991216342
  0
LINE
  5
285
100
AcDbEntity
  8
0
100
AcDbLine
 62
7
  6
CONTINUOUS
 10
6.6842400413
 20
3.7502833851
 11
6.7617400413
 21
3.7502833851
  0
LINE
  5
286
100
AcDbEntity
  8
0
100
AcDbLine
 62
7
  6
CONTINUOUS
 10
6.6917400413
 20
3.7577833851
 11
6.7617400413
 21
3.7577833851
  0
LINE
  5
287
100
AcDbEntity
  8
0
100
AcDbLine
 62
7
  6
CONTINUOUS
 10
3.6447754952
 20
6.9366274597
 11
3.6661341073
 21
6.8569160344
  0
LINE
  5
288
100
AcDbEntity
  8
0
100
AcDbLine
 62
7
  6
CONTINUOUS
 10
4.4919394058
 20
6.8665302326
 11
4.4919394058
 21
6.8848592738
  0
LINE
  5
289
100
AcDbEntity
  8
0
100
AcDbLine
 62
7
  6
CONTINUOUS
 10
4.5117400413
 20
7.1052833851
 11
4.5117400413
 21
6.9717833851
  0
LINE
  5
28A
100
AcDbEntity
  8
0
100
AcDbLine
 62
7
  6
CONTINUOUS
 10
4.5267400413
 20
6.9567833851
 11
4.5267400413
 21
7.1202833851
  0
LINE
  5
28B
100
AcDbEntity
  8
0
100
AcDbLine
 62
7
  6
CONTINUOUS
 10
4.5436465892
 20
6.9498473102
 11
4.5436465892
 21
6.9560344946
  0
LINE
  5
28C
100
AcDbEntity
  8
0
100
AcDbLine
 62
7
  6
CONTINUOUS
 10
6.1136302359
 20
2.9670010549
 11
5.9353497813
 21
3.1452815095
  0
LINE
  5
28D
100
AcDbEntity
  8
0
100
AcDbLine
 62
7
  6
CONTINUOUS
 10
6.1207013009
 20
2.9740721255
 11
5.9424208466
 21
3.1523525798
  0
LINE
  5
28E
100
AcDbEntity
  8
0
100
AcDbLine
 62
7
  6
CONTINUOUS
 10
3.7861943628
 20
6.7112346845
 11
3.7971838528
 21
6.6984453711
  0
LINE
  5
28F
100
AcDbEntity
  8
0
100
AcDbLine
 62
7
  6
CONTINUOUS
 10
4.0767995412
 20
6.3946119146
 11
4.0703561422
 21
6.4021889746
  0
LINE
  5
290
100
AcDbEntity
  8
0
100
AcDbLine
 62
7
  6
CONTINUOUS
 10
3.8613752247
 20
6.6253279216
 11
3.8613669302
 21
6.6253377082
  0
LINE
  5
291
100
AcDbEntity
  8
0
100
AcDbLine
 62
7
  6
CONTINUOUS
 10
3.8613113415
 20
6.6254034846
 11
3.8613048778
 21
6.6254111329
  0
LINE
  5
292
100
AcDbEntity
  8
0
100
AcDbLine
 62
7
  6
CONTINUOUS
 10
4.2829452403
 20
6.1949627316
 11
4.2977759405
 21
6.1812791322
  0
LINE
  5
293
100
AcDbEntity
  8
0
100
AcDbLine
 62
7
  6
CONTINUOUS
 10
4.1946557633
 20
6.264133351
 11
4.1801307747
 21
6.2786583396
  0
LINE
  5
294
100
AcDbEntity
  8
0
100
AcDbLine
 62
7
  6
CONTINUOUS
 10
4.1104545534
 20
6.3483345609
 11
4.0959295648
 21
6.3628595495
  0
LINE
  5
295
100
AcDbEntity
  8
0
100
AcDbLine
 62
7
  6
CONTINUOUS
 10
4.0262533435
 20
6.4325357709
 11
4.0117283549
 21
6.4470607594
  0
LINE
  5
296
100
AcDbEntity
  8
0
100
AcDbLine
 62
7
  6
CONTINUOUS
 10
4.2854634817
 20
6.1768611665
 11
4.2709384931
 21
6.1913861551
  0
LINE
  5
297
100
AcDbEntity
  8
0
100
AcDbLine
 62
7
  6
CONTINUOUS
 10
4.2622535671
 20
6.2000710812
 11
4.2477285785
 21
6.2145960697
  0
LINE
  5
298
100
AcDbEntity
  8
0
100
AcDbLine
 62
7
  6
CONTINUOUS
 10
4.198842901
 20
6.2634817472
 11
4.1843179124
 21
6.2780067358
  0
LINE
  5
299
100
AcDbEntity
  8
0
100
AcDbLine
 62
7
  6
CONTINUOUS
 10
4.1122223203
 20
6.3501023279
 11
4.0976973317
 21
6.3646273165
  0
LINE
  5
29A
100
AcDbEntity
  8
0
100
AcDbLine
 62
7
  6
CONTINUOUS
 10
4.0256017396
 20
6.4367229086
 11
4.011076751
 21
6.4512478972
  0
LINE
  5
29B
100
AcDbEntity
  8
0
100
AcDbLine
 62
7
  6
CONTINUOUS
 10
3.9621910736
 20
6.5001335746
 11
3.947666085
 21
6.5146585632
  0
LINE
  5
29C
100
AcDbEntity
  8
0
100
AcDbLine
 62
7
  6
CONTINUOUS
 10
3.9389811589
 20
6.5233434893
 11
3.9244561704
 21
6.5378684779
  0
LINE
  5
29D
100
AcDbEntity
  8
0
100
AcDbLine
 62
7
  6
CONTINUOUS
 10
4.1832245266
 20
6.280471255
 11
4.1799398843
 21
6.2837558972
  0
LINE
  5
29E
100
AcDbEntity
  8
0
100
AcDbLine
 62
7
  6
CONTINUOUS
 10
4.115552111
 20
6.3481436706
 11
4.1146868395
 21
6.3490089421
  0
LINE
  5
29F
100
AcDbEntity
  8
0
100
AcDbLine
 62
7
  6
CONTINUOUS
 10
4.0966039459
 20
6.3670918357
 11
4.0957386744
 21
6.3679571071
  0
LINE
  5
2A0
100
AcDbEntity
  8
0
100
AcDbLine
 62
7
  6
CONTINUOUS
 10
4.0313509011
 20
6.4323448805
 11
4.0280662588
 21
6.4356295228
  0
LINE
  5
2A1
100
AcDbEntity
  8
0
100
AcDbLine
 62
7
  6
CONTINUOUS
 10
4.2905610393
 20
6.1766702762
 11
4.2707476028
 21
6.1964837127
  0
LINE
  5
2A2
100
AcDbEntity
  8
0
100
AcDbLine
 62
7
  6
CONTINUOUS
 10
4.2673511247
 20
6.1998801908
 11
4.2475376881
 21
6.2196936273
  0
LINE
  5
2A3
100
AcDbEntity
  8
0
100
AcDbLine
 62
7
  6
CONTINUOUS
 10
4.2039404586
 20
6.2632908569
 11
4.1841270221
 21
6.2831042934
  0
LINE
  5
2A4
100
AcDbEntity
  8
0
100
AcDbLine
 62
7
  6
CONTINUOUS
 10
4.1173198779
 20
6.3499114375
 11
4.0975064414
 21
6.3697248741
  0
LINE
  5
2A5
100
AcDbEntity
  8
0
100
AcDbLine
 62
7
  6
CONTINUOUS
 10
4.0306992972
 20
6.4365320182
 11
4.0108858607
 21
6.4563454548
  0
LINE
  5
2A6
100
AcDbEntity
  8
0
100
AcDbLine
 62
7
  6
CONTINUOUS
 10
3.9672886312
 20
6.4999426843
 11
3.9474751946
 21
6.5197561208
  0
LINE
  5
2A7
100
AcDbEntity
  8
0
100
AcDbLine
 62
7
  6
CONTINUOUS
 10
3.9440787165
 20
6.5231525989
 11
3.92426528
 21
6.5429660355
  0
LINE
  5
2A8
100
AcDbEntity
  8
0
100
AcDbLine
 62
7
  6
CONTINUOUS
 10
4.3621101324
 20
6.1090533506
 11
4.3475851438
 21
6.1235783391
  0
LINE
  5
2A9
100
AcDbEntity
  8
0
100
AcDbLine
 62
7
  6
CONTINUOUS
 10
4.3325030213
 20
6.1386604617
 11
4.3179780327
 21
6.1531854503
  0
LINE
  5
2AA
100
AcDbEntity
  8
0
100
AcDbLine
 62
7
  6
CONTINUOUS
 10
4.2768598536
 20
6.1943036294
 11
4.262334865
 21
6.208828618
  0
LINE
  5
2AB
100
AcDbEntity
  8
0
100
AcDbLine
 62
7
  6
CONTINUOUS
 10
4.2018920165
 20
6.2692714664
 11
4.187367028
 21
6.283796455
  0
LINE
  5
2AC
100
AcDbEntity
  8
0
100
AcDbLine
 62
7
  6
CONTINUOUS
 10
4.1166417377
 20
6.3545217453
 11
4.1021167491
 21
6.3690467338
  0
LINE
  5
2AD
100
AcDbEntity
  8
0
100
AcDbLine
 62
7
  6
CONTINUOUS
 10
4.0313914589
 20
6.4397720241
 11
4.0168664703
 21
6.4542970127
  0
LINE
  5
2AE
100
AcDbEntity
  8
0
100
AcDbLine
 62
7
  6
CONTINUOUS
 10
3.9564236218
 20
6.5147398612
 11
3.9418986332
 21
6.5292648497
  0
LINE
  5
2AF
100
AcDbEntity
  8
0
100
AcDbLine
 62
7
  6
CONTINUOUS
 10
3.9007804541
 20
6.5703830289
 11
3.8862554655
 21
6.5849080174
  0
LINE
  5
2B0
100
AcDbEntity
  8
0
100
AcDbLine
 62
7
  6
CONTINUOUS
 10
3.871173343
 20
6.59999014
 11
3.8566483544
 21
6.6145151286
  0
LINE
  5
2B1
100
AcDbEntity
  8
0
100
AcDbLine
 62
7
  6
CONTINUOUS
 10
4.1196992858
 20
6.3517121699
 11
4.1422069184
 21
6.3292045373
  0
LINE
  5
2B2
100
AcDbEntity
  8
0
100
AcDbLine
 62
7
  6
CONTINUOUS
 10
4.0993071737
 20
6.372104282
 11
4.0767995412
 21
6.3946119146
  0
LINE
  5
2B3
100
AcDbEntity
  8
0
100
AcDbLine
 62
7
  6
CONTINUOUS
 10
4.0361074187
 20
6.436437698
 11
4.099831492
 21
6.3727136248
  0
LINE
  5
2B4
100
AcDbEntity
  8
0
100
AcDbLine
 62
7
  6
CONTINUOUS
 10
4.1203086286
 20
6.3522364881
 11
4.1840327019
 21
6.2885124149
  0
LINE
  5
2B5
100
AcDbEntity
  8
0
100
AcDbLine
 62
7
  6
CONTINUOUS
 10
4.0361391564
 20
6.4364650072
 11
4.0998588012
 21
6.3727453625
  0
LINE
  5
2B6
100
AcDbEntity
  8
0
100
AcDbLine
 62
7
  6
CONTINUOUS
 10
4.1203403663
 20
6.3522637973
 11
4.1840600111
 21
6.2885441526
  0
LINE
  5
2B7
100
AcDbEntity
  8
0
100
AcDbLine
 62
7
  6
CONTINUOUS
 10
4.2195250505
 20
6.2543820495
 11
4.2075286928
 21
6.2663784072
  0
LINE
  5
2B8
100
AcDbEntity
  8
0
100
AcDbLine
 62
7
  6
CONTINUOUS
 10
4.1864166493
 20
6.2874904507
 11
4.1209081121
 21
6.3529989879
  0
LINE
  5
2B9
100
AcDbEntity
  8
0
100
AcDbLine
 62
7
  6
CONTINUOUS
 10
4.1005939917
 20
6.3733131083
 11
4.0350854545
 21
6.4388216455
  0
LINE
  5
2BA
100
AcDbEntity
  8
0
100
AcDbLine
 62
7
  6
CONTINUOUS
 10
4.013973411
 20
6.459933689
 11
4.0019770533
 21
6.4719300467
  0
LINE
  5
2BB
100
AcDbEntity
  8
0
100
AcDbLine
 62
7
  6
CONTINUOUS
 10
4.36720769
 20
6.1088624602
 11
4.3473942535
 21
6.1286758967
  0
LINE
  5
2BC
100
AcDbEntity
  8
0
100
AcDbLine
 62
7
  6
CONTINUOUS
 10
4.3376005789
 20
6.1384695713
 11
4.3177871424
 21
6.1582830079
  0
LINE
  5
2BD
100
AcDbEntity
  8
0
100
AcDbLine
 62
7
  6
CONTINUOUS
 10
4.2819574112
 20
6.1941127391
 11
4.2621439747
 21
6.2139261756
  0
LINE
  5
2BE
100
AcDbEntity
  8
0
100
AcDbLine
 62
7
  6
CONTINUOUS
 10
4.2069895741
 20
6.2690805761
 11
4.1871761376
 21
6.2888940126
  0
LINE
  5
2BF
100
AcDbEntity
  8
0
100
AcDbLine
 62
7
  6
CONTINUOUS
 10
4.1217392953
 20
6.3543308549
 11
4.1019258588
 21
6.3741442915
  0
LINE
  5
2C0
100
AcDbEntity
  8
0
100
AcDbLine
 62
7
  6
CONTINUOUS
 10
4.0364890165
 20
6.4395811338
 11
4.0166755799
 21
6.4593945703
  0
LINE
  5
2C1
100
AcDbEntity
  8
0
100
AcDbLine
 62
7
  6
CONTINUOUS
 10
3.9615211794
 20
6.5145489708
 11
3.9417077429
 21
6.5343624073
  0
LINE
  5
2C2
100
AcDbEntity
  8
0
100
AcDbLine
 62
7
  6
CONTINUOUS
 10
3.9058780117
 20
6.5701921385
 11
3.8860645752
 21
6.590005575
  0
LINE
  5
2C3
100
AcDbEntity
  8
0
100
AcDbLine
 62
7
  6
CONTINUOUS
 10
3.8762709006
 20
6.5997992496
 11
3.8564574641
 21
6.6196126862
  0
LINE
  5
2C4
100
AcDbEntity
  8
0
100
AcDbLine
 62
7
  6
CONTINUOUS
 10
3.9726155174
 20
6.5045262841
 11
4.0154694605
 21
6.461672341
  0
LINE
  5
2C5
100
AcDbEntity
  8
0
100
AcDbLine
 62
7
  6
CONTINUOUS
 10
4.0370650291
 20
6.4400767725
 11
4.1020900412
 21
6.3750517603
  0
LINE
  5
2C6
100
AcDbEntity
  8
0
100
AcDbLine
 62
7
  6
CONTINUOUS
 10
4.1226467642
 20
6.3544950374
 11
4.1876717763
 21
6.2894700252
  0
LINE
  5
2C7
100
AcDbEntity
  8
0
100
AcDbLine
 62
7
  6
CONTINUOUS
 10
4.2092673449
 20
6.2678744567
 11
4.252121288
 21
6.2250205136
  0
LINE
  5
2C8
100
AcDbEntity
  8
0
100
AcDbLine
 62
7
  6
CONTINUOUS
 10
3.9735085556
 20
6.5038887413
 11
4.0155876271
 21
6.4618096698
  0
LINE
  5
2C9
100
AcDbEntity
  8
0
100
AcDbLine
 62
7
  6
CONTINUOUS
 10
4.0372023578
 20
6.4401949391
 11
4.1022082078
 21
6.3751890891
  0
LINE
  5
2CA
100
AcDbEntity
  8
0
100
AcDbLine
 62
7
  6
CONTINUOUS
 10
4.122784093
 20
6.354613204
 11
4.187789943
 21
6.289607354
  0
LINE
  5
2CB
100
AcDbEntity
  8
0
100
AcDbLine
 62
7
  6
CONTINUOUS
 10
4.2094046737
 20
6.2679926233
 11
4.2514837452
 21
6.2259135518
  0
LINE
  5
2CC
100
AcDbEntity
  8
0
100
AcDbLine
 62
7
  6
CONTINUOUS
 10
4.2977759405
 20
6.1812791322
 11
4.283561807
 21
6.1954932657
  0
LINE
  5
2CD
100
AcDbEntity
  8
0
100
AcDbLine
 62
7
  6
CONTINUOUS
 10
4.2635245013
 20
6.2155305714
 11
4.20859397
 21
6.2704611027
  0
LINE
  5
2CE
100
AcDbEntity
  8
0
100
AcDbLine
 62
7
  6
CONTINUOUS
 10
4.1885566642
 20
6.2904984084
 11
4.1233436911
 21
6.3557113816
  0
LINE
  5
2CF
100
AcDbEntity
  8
0
100
AcDbLine
 62
7
  6
CONTINUOUS
 10
4.1033063854
 20
6.3757486873
 11
4.0380934123
 21
6.4409616604
  0
LINE
  5
2D0
100
AcDbEntity
  8
0
100
AcDbLine
 62
7
  6
CONTINUOUS
 10
4.0180561066
 20
6.4609989661
 11
3.9631255752
 21
6.5159294974
  0
LINE
  5
2D1
100
AcDbEntity
  8
0
100
AcDbLine
 62
7
  6
CONTINUOUS
 10
3.9430882695
 20
6.5359668032
 11
3.9288741361
 21
6.5501809366
  0
LINE
  5
2D2
100
AcDbEntity
  8
0
100
AcDbLine
 62
7
  6
CONTINUOUS
 10
4.4472141579
 20
6.0345559268
 11
4.43619874
 21
6.0455713447
  0
LINE
  5
2D3
100
AcDbEntity
  8
0
100
AcDbLine
 62
7
  6
CONTINUOUS
 10
4.4361308814
 20
6.0456392033
 11
4.4216058929
 21
6.0601641918
  0
LINE
  5
2D4
100
AcDbEntity
  8
0
100
AcDbLine
 62
7
  6
CONTINUOUS
 10
4.403636359
 20
6.0781337257
 11
4.3891113704
 21
6.0926587143
  0
LINE
  5
2D5
100
AcDbEntity
  8
0
100
AcDbLine
 62
7
  6
CONTINUOUS
 10
4.3519450386
 20
6.1298250461
 11
4.33742005
 21
6.1443500347
  0
LINE
  5
2D6
100
AcDbEntity
  8
0
100
AcDbLine
 62
7
  6
CONTINUOUS
 10
4.2845795982
 20
6.1971904865
 11
4.2700546097
 21
6.211715475
  0
LINE
  5
2D7
100
AcDbEntity
  8
0
100
AcDbLine
 62
7
  6
CONTINUOUS
 10
4.2061308814
 20
6.2756392033
 11
4.1916058929
 21
6.2901641918
  0
LINE
  5
2D8
100
AcDbEntity
  8
0
100
AcDbLine
 62
7
  6
CONTINUOUS
 10
4.1219450386
 20
6.3598250461
 11
4.10742005
 21
6.3743500347
  0
LINE
  5
2D9
100
AcDbEntity
  8
0
100
AcDbLine
 62
7
  6
CONTINUOUS
 10
4.0377591957
 20
6.444010889
 11
4.0232342071
 21
6.4585358776
  0
LINE
  5
2DA
100
AcDbEntity
  8
0
100
AcDbLine
 62
7
  6
CONTINUOUS
 10
3.9593104789
 20
6.5224596058
 11
3.9447854903
 21
6.5369845944
  0
LINE
  5
2DB
100
AcDbEntity
  8
0
100
AcDbLine
 62
7
  6
CONTINUOUS
 10
3.8919450386
 20
6.5898250461
 11
3.87742005
 21
6.6043500347
  0
LINE
  5
2DC
100
AcDbEntity
  8
0
100
AcDbLine
 62
7
  6
CONTINUOUS
 10
3.8402537181
 20
6.6415163666
 11
3.8257287296
 21
6.6560413551
  0
LINE
  5
2DD
100
AcDbEntity
  8
0
100
AcDbLine
 62
7
  6
CONTINUOUS
 10
3.8077591957
 20
6.674010889
 11
3.7932342071
 21
6.6885358776
  0
LINE
  5
2DE
100
AcDbEntity
  8
0
100
AcDbLine
 62
7
  6
CONTINUOUS
 10
3.7931663535
 20
6.6886037311
 11
3.7821509306
 21
6.6996191541
  0
LINE
  5
2DF
100
AcDbEntity
  8
0
100
AcDbLine
 62
7
  6
CONTINUOUS
 10
3.910105858
 20
6.5738300528
 11
3.9437308176
 21
6.5402050931
  0
LINE
  5
2E0
100
AcDbEntity
  8
0
100
AcDbLine
 62
7
  6
CONTINUOUS
 10
3.9657490257
 20
6.5181868851
 11
4.0203134942
 21
6.4636224166
  0
LINE
  5
2E1
100
AcDbEntity
  8
0
100
AcDbLine
 62
7
  6
CONTINUOUS
 10
4.0409796945
 20
6.4429562163
 11
4.105563773
 21
6.3783721377
  0
LINE
  5
2E2
100
AcDbEntity
  8
0
100
AcDbLine
 62
7
  6
CONTINUOUS
 10
4.1259671416
 20
6.3579687692
 11
4.1905512202
 21
6.2933846906
  0
LINE
  5
2E3
100
AcDbEntity
  8
0
100
AcDbLine
 62
7
  6
CONTINUOUS
 10
4.2112174204
 20
6.2727184903
 11
4.2657818889
 21
6.2181540219
  0
LINE
  5
2E4
100
AcDbEntity
  8
0
100
AcDbLine
 62
7
  6
CONTINUOUS
 10
4.287800097
 20
6.1961358138
 11
4.3214250566
 21
6.1625108542
  0
LINE
  5
2E5
100
AcDbEntity
  8
0
100
AcDbLine
 62
7
  6
CONTINUOUS
 10
3.9112256448
 20
6.5732561212
 11
3.9438281002
 21
6.5406536658
  0
LINE
  5
2E6
100
AcDbEntity
  8
0
100
AcDbLine
 62
7
  6
CONTINUOUS
 10
3.9660840712
 20
6.5183976948
 11
4.0205659522
 21
6.4639158138
  0
LINE
  5
2E7
100
AcDbEntity
  8
0
100
AcDbLine
 62
7
  6
CONTINUOUS
 10
4.0414282671
 20
6.4430534989
 11
4.1058162311
 21
6.3786655349
  0
LINE
  5
2E8
100
AcDbEntity
  8
0
100
AcDbLine
 62
7
  6
CONTINUOUS
 10
4.1262605388
 20
6.3582212272
 11
4.1906485027
 21
6.2938332633
  0
LINE
  5
2E9
100
AcDbEntity
  8
0
100
AcDbLine
 62
7
  6
CONTINUOUS
 10
4.2115108176
 20
6.2729709484
 11
4.2659926986
 21
6.2184890674
  0
LINE
  5
2EA
100
AcDbEntity
  8
0
100
AcDbLine
 62
7
  6
CONTINUOUS
 10
4.2882486696
 20
6.1962330964
 11
4.3208511251
 21
6.163630641
  0
LINE
  5
2EB
100
AcDbEntity
  8
0
100
AcDbLine
 62
7
  6
CONTINUOUS
 10
4.4523117155
 20
6.0343650364
 11
4.4214150025
 21
6.0652617494
  0
LINE
  5
2EC
100
AcDbEntity
  8
0
100
AcDbLine
 62
7
  6
CONTINUOUS
 10
4.4087339166
 20
6.0779428354
 11
4.3889204801
 21
6.0977562719
  0
LINE
  5
2ED
100
AcDbEntity
  8
0
100
AcDbLine
 62
7
  6
CONTINUOUS
 10
4.3570425962
 20
6.1296341558
 11
4.3372291596
 21
6.1494475923
  0
LINE
  5
2EE
100
AcDbEntity
  8
0
100
AcDbLine
 62
7
  6
CONTINUOUS
 10
4.2896771558
 20
6.1969995961
 11
4.2698637193
 21
6.2168130326
  0
LINE
  5
2EF
100
AcDbEntity
  8
0
100
AcDbLine
 62
7
  6
CONTINUOUS
 10
4.211228439
 20
6.2754483129
 11
4.1914150025
 21
6.2952617494
  0
LINE
  5
2F0
100
AcDbEntity
  8
0
100
AcDbLine
 62
7
  6
CONTINUOUS
 10
4.1270425962
 20
6.3596341558
 11
4.1072291596
 21
6.3794475923
  0
LINE
  5
2F1
100
AcDbEntity
  8
0
100
AcDbLine
 62
7
  6
CONTINUOUS
 10
4.0428567533
 20
6.4438199987
 11
4.0230433168
 21
6.4636334352
  0
LINE
  5
2F2
100
AcDbEntity
  8
0
100
AcDbLine
 62
7
  6
CONTINUOUS
 10
3.9644080365
 20
6.5222687155
 11
3.9445946
 21
6.542082152
  0
LINE
  5
2F3
100
AcDbEntity
  8
0
100
AcDbLine
 62
7
  6
CONTINUOUS
 10
3.8970425962
 20
6.5896341558
 11
3.8772291596
 21
6.6094475923
  0
LINE
  5
2F4
100
AcDbEntity
  8
0
100
AcDbLine
 62
7
  6
CONTINUOUS
 10
3.8453512757
 20
6.6413254762
 11
3.8255378392
 21
6.6611389127
  0
LINE
  5
2F5
100
AcDbEntity
  8
0
100
AcDbLine
 62
7
  6
CONTINUOUS
 10
3.8128567533
 20
6.6738199987
 11
3.7819600403
 21
6.7047167117
  0
LINE
  5
2F6
100
AcDbEntity
  8
0
100
AcDbLine
 62
7
  6
CONTINUOUS
 10
4.3773674183
 20
6.1094997554
 11
4.3737479576
 21
6.1131192161
  0
LINE
  5
2F7
100
AcDbEntity
  8
0
100
AcDbLine
 62
7
  6
CONTINUOUS
 10
4.373068268
 20
6.1137989057
 11
4.3571449478
 21
6.1297222258
  0
LINE
  5
2F8
100
AcDbEntity
  8
0
100
AcDbLine
 62
7
  6
CONTINUOUS
 10
4.3373172297
 20
6.149549944
 11
4.2897795075
 21
6.1970876662
  0
LINE
  5
2F9
100
AcDbEntity
  8
0
100
AcDbLine
 62
7
  6
CONTINUOUS
 10
4.2699517894
 20
6.2169153843
 11
4.2113307907
 21
6.275536383
  0
LINE
  5
2FA
100
AcDbEntity
  8
0
100
AcDbLine
 62
7
  6
CONTINUOUS
 10
4.1915030726
 20
6.2953641011
 11
4.1271449478
 21
6.3597222258
  0
LINE
  5
2FB
100
AcDbEntity
  8
0
100
AcDbLine
 62
7
  6
CONTINUOUS
 10
4.1073172297
 20
6.379549944
 11
4.042959105
 21
6.4439080687
  0
LINE
  5
2FC
100
AcDbEntity
  8
0
100
AcDbLine
 62
7
  6
CONTINUOUS
 10
4.0231313868
 20
6.4637357869
 11
3.9645103882
 21
6.5223567855
  0
LINE
  5
2FD
100
AcDbEntity
  8
0
100
AcDbLine
 62
7
  6
CONTINUOUS
 10
3.94468267
 20
6.5421845037
 11
3.8971449478
 21
6.5897222258
  0
LINE
  5
2FE
100
AcDbEntity
  8
0
100
AcDbLine
 62
7
  6
CONTINUOUS
 10
3.8773172297
 20
6.609549944
 11
3.8613939096
 21
6.6254732641
  0
LINE
  5
2FF
100
AcDbEntity
  8
0
100
AcDbLine
 62
7
  6
CONTINUOUS
 10
3.8607142199
 20
6.6261529538
 11
3.8570947592
 21
6.6297724145
  0
LINE
  5
300
100
AcDbEntity
  8
0
100
AcDbLine
 62
7
  6
CONTINUOUS
 10
3.818204573
 20
6.6750803849
 11
3.8285941345
 21
6.6646908234
  0
LINE
  5
301
100
AcDbEntity
  8
0
100
AcDbLine
 62
7
  6
CONTINUOUS
 10
3.8489031864
 20
6.6443817715
 11
3.8802854549
 21
6.612999503
  0
LINE
  5
302
100
AcDbEntity
  8
0
100
AcDbLine
 62
7
  6
CONTINUOUS
 10
3.9005945069
 20
6.592690451
 11
3.9476508952
 21
6.5456340627
  0
LINE
  5
303
100
AcDbEntity
  8
0
100
AcDbLine
 62
7
  6
CONTINUOUS
 10
3.9679599472
 20
6.5253250107
 11
4.026099612
 21
6.4671853459
  0
LINE
  5
304
100
AcDbEntity
  8
0
100
AcDbLine
 62
7
  6
CONTINUOUS
 10
4.046408664
 20
6.4468762939
 11
4.1102854549
 21
6.382999503
  0
LINE
  5
305
100
AcDbEntity
  8
0
100
AcDbLine
 62
7
  6
CONTINUOUS
 10
4.1305945069
 20
6.362690451
 11
4.1944712978
 21
6.2988136601
  0
LINE
  5
306
100
AcDbEntity
  8
0
100
AcDbLine
 62
7
  6
CONTINUOUS
 10
4.2147803497
 20
6.2785046082
 11
4.2729200146
 21
6.2203649433
  0
LINE
  5
307
100
AcDbEntity
  8
0
100
AcDbLine
 62
7
  6
CONTINUOUS
 10
4.2932290665
 20
6.2000558914
 11
4.3402854549
 21
6.152999503
  0
LINE
  5
308
100
AcDbEntity
  8
0
100
AcDbLine
 62
7
  6
CONTINUOUS
 10
4.3605945069
 20
6.132690451
 11
4.3919767753
 21
6.1013081826
  0
LINE
  5
309
100
AcDbEntity
  8
0
100
AcDbLine
 62
7
  6
CONTINUOUS
 10
4.4122858273
 20
6.0809991306
 11
4.4226753887
 21
6.0706095692
  0
LINE
  5
30A
100
AcDbEntity
  8
0
100
AcDbLine
 62
7
  6
CONTINUOUS
 10
4.5272170504
 20
5.9669274029
 11
4.5126920618
 21
5.9814523915
  0
LINE
  5
30B
100
AcDbEntity
  8
0
100
AcDbLine
 62
7
  6
CONTINUOUS
 10
4.5097751284
 20
5.9843693249
 11
4.4952501399
 21
5.9988943135
  0
LINE
  5
30C
100
AcDbEntity
  8
0
100
AcDbLine
 62
7
  6
CONTINUOUS
 10
4.4756535801
 20
6.0184908732
 11
4.4611285916
 21
6.0330158618
  0
LINE
  5
30D
100
AcDbEntity
  8
0
100
AcDbLine
 62
7
  6
CONTINUOUS
 10
4.426343681
 20
6.0678007724
 11
4.4118186924
 21
6.082325761
  0
LINE
  5
30E
100
AcDbEntity
  8
0
100
AcDbLine
 62
7
  6
CONTINUOUS
 10
4.3640005101
 20
6.1301439433
 11
4.3494755215
 21
6.1446689319
  0
LINE
  5
30F
100
AcDbEntity
  8
0
100
AcDbLine
 62
7
  6
CONTINUOUS
 10
4.2913487632
 20
6.2027956901
 11
4.2768237747
 21
6.2173206787
  0
LINE
  5
310
100
AcDbEntity
  8
0
100
AcDbLine
 62
7
  6
CONTINUOUS
 10
4.2115636704
 20
6.282580783
 11
4.1970386818
 21
6.2971057716
  0
LINE
  5
311
100
AcDbEntity
  8
0
100
AcDbLine
 62
7
  6
CONTINUOUS
 10
4.1281322229
 20
6.3660122305
 11
4.1136072343
 21
6.380537219
  0
LINE
  5
312
100
AcDbEntity
  8
0
100
AcDbLine
 62
7
  6
CONTINUOUS
 10
4.0447007754
 20
6.4494436779
 11
4.0301757868
 21
6.4639686665
  0
LINE
  5
313
100
AcDbEntity
  8
0
100
AcDbLine
 62
7
  6
CONTINUOUS
 10
3.9649156826
 20
6.5292287708
 11
3.950390694
 21
6.5437537594
  0
LINE
  5
314
100
AcDbEntity
  8
0
100
AcDbLine
 62
7
  6
CONTINUOUS
 10
3.8922639357
 20
6.6018805177
 11
3.8777389471
 21
6.6164055062
  0
LINE
  5
315
100
AcDbEntity
  8
0
100
AcDbLine
 62
7
  6
CONTINUOUS
 10
3.8299207648
 20
6.6642236885
 11
3.8153957762
 21
6.6787486771
  0
LINE
  5
316
100
AcDbEntity
  8
0
100
AcDbLine
 62
7
  6
CONTINUOUS
 10
3.7806108656
 20
6.7135335877
 11
3.7660858771
 21
6.7280585763
  0
LINE
  5
317
100
AcDbEntity
  8
0
100
AcDbLine
 62
7
  6
CONTINUOUS
 10
3.7464893173
 20
6.747655136
 11
3.7319643288
 21
6.7621801246
  0
LINE
  5
318
100
AcDbEntity
  8
0
100
AcDbLine
 62
7
  6
CONTINUOUS
 10
3.7290473954
 20
6.765097058
 11
3.7145224068
 21
6.7796220466
  0
LINE
  5
319
100
AcDbEntity
  8
0
100
AcDbLine
 62
7
  6
CONTINUOUS
 10
3.8502102501
 20
6.6440201132
 11
3.8773073348
 21
6.6169230286
  0
LINE
  5
31A
100
AcDbEntity
  8
0
100
AcDbLine
 62
7
  6
CONTINUOUS
 10
3.9012303732
 20
6.5929999902
 11
3.9480881452
 21
6.5461422181
  0
LINE
  5
31B
100
AcDbEntity
  8
0
100
AcDbLine
 62
7
  6
CONTINUOUS
 10
3.9684681026
 20
6.5257622607
 11
4.026536862
 21
6.4676935013
  0
LINE
  5
31C
100
AcDbEntity
  8
0
100
AcDbLine
 62
7
  6
CONTINUOUS
 10
4.0469168194
 20
6.4473135439
 11
4.1107227049
 21
6.3835076584
  0
LINE
  5
31D
100
AcDbEntity
  8
0
100
AcDbLine
 62
7
  6
CONTINUOUS
 10
4.1311026623
 20
6.3631277011
 11
4.1949085478
 21
6.2993218156
  0
LINE
  5
31E
100
AcDbEntity
  8
0
100
AcDbLine
 62
7
  6
CONTINUOUS
 10
4.2152885052
 20
6.2789418582
 11
4.2733572646
 21
6.2208730988
  0
LINE
  5
31F
100
AcDbEntity
  8
0
100
AcDbLine
 62
7
  6
CONTINUOUS
 10
4.293737222
 20
6.2004931414
 11
4.340594994
 21
6.1536353693
  0
LINE
  5
320
100
AcDbEntity
  8
0
100
AcDbLine
 62
7
  6
CONTINUOUS
 10
4.3645180325
 20
6.1297123309
 11
4.3916151171
 21
6.1026152463
  0
LINE
  5
321
100
AcDbEntity
  8
0
100
AcDbLine
 62
7
  6
CONTINUOUS
 10
4.4582874032
 20
6.039064164
 11
4.4477076719
 21
6.0496438954
  0
LINE
  5
322
100
AcDbEntity
  8
0
100
AcDbLine
 62
7
  6
CONTINUOUS
 10
4.445991366
 20
6.0513602012
 11
4.4303827744
 21
6.0669687929
  0
LINE
  5
323
100
AcDbEntity
  8
0
100
AcDbLine
 62
7
  6
CONTINUOUS
 10
4.4109867129
 20
6.0863648544
 11
4.3680396035
 21
6.1293119638
  0
LINE
  5
324
100
AcDbEntity
  8
0
100
AcDbLine
 62
7
  6
CONTINUOUS
 10
4.348643542
 20
6.1487080252
 11
4.2953878566
 21
6.2019637106
  0
LINE
  5
325
100
AcDbEntity
  8
0
100
AcDbLine
 62
7
  6
CONTINUOUS
 10
4.2759917951
 20
6.2213597721
 11
4.2156027637
 21
6.2817488035
  0
LINE
  5
326
100
AcDbEntity
  8
0
100
AcDbLine
 62
7
  6
CONTINUOUS
 10
4.1962067023
 20
6.301144865
 11
4.1321713163
 21
6.365180251
  0
LINE
  5
327
100
AcDbEntity
  8
0
100
AcDbLine
 62
7
  6
CONTINUOUS
 10
4.1127752548
 20
6.3845763124
 11
4.0487398688
 21
6.4486116984
  0
LINE
  5
328
100
AcDbEntity
  8
0
100
AcDbLine
 62
7
  6
CONTINUOUS
 10
4.0293438073
 20
6.4680077599
 11
3.9689547759
 21
6.5283967913
  0
LINE
  5
329
100
AcDbEntity
  8
0
100
AcDbLine
 62
7
  6
CONTINUOUS
 10
3.9495587145
 20
6.5477928528
 11
3.8963030291
 21
6.6010485381
  0
LINE
  5
32A
100
AcDbEntity
  8
0
100
AcDbLine
 62
7
  6
CONTINUOUS
 10
3.8769069676
 20
6.6204445996
 11
3.8339598582
 21
6.663391709
  0
LINE
  5
32B
100
AcDbEntity
  8
0
100
AcDbLine
 62
7
  6
CONTINUOUS
 10
3.8145637967
 20
6.6827877705
 11
3.798955205
 21
6.6983963622
  0
LINE
  5
32C
100
AcDbEntity
  8
0
100
AcDbLine
 62
7
  6
CONTINUOUS
 10
3.7972388992
 20
6.700112668
 11
3.7866591679
 21
6.7106923994
  0
LINE
  5
32D
100
AcDbEntity
  8
0
100
AcDbLine
 62
7
  6
CONTINUOUS
 10
4.532314608
 20
5.9667365126
 11
4.4950592495
 21
6.0039918711
  0
LINE
  5
32E
100
AcDbEntity
  8
0
100
AcDbLine
 62
7
  6
CONTINUOUS
 10
4.4807511378
 20
6.0182999829
 11
4.4609377012
 21
6.0381134194
  0
LINE
  5
32F
100
AcDbEntity
  8
0
100
AcDbLine
 62
7
  6
CONTINUOUS
 10
4.4314412386
 20
6.0676098821
 11
4.411627802
 21
6.0874233186
  0
LINE
  5
330
100
AcDbEntity
  8
0
100
AcDbLine
 62
7
  6
CONTINUOUS
 10
4.3690980677
 20
6.1299530529
 11
4.3492846312
 21
6.1497664895
  0
LINE
  5
331
100
AcDbEntity
  8
0
100
AcDbLine
 62
7
  6
CONTINUOUS
 10
4.2964463208
 20
6.2026047998
 11
4.2766328843
 21
6.2224182363
  0
LINE
  5
332
100
AcDbEntity
  8
0
100
AcDbLine
 62
7
  6
CONTINUOUS
 10
4.216661228
 20
6.2823898927
 11
4.1968477914
 21
6.3022033292
  0
LINE
  5
333
100
AcDbEntity
  8
0
100
AcDbLine
 62
7
  6
CONTINUOUS
 10
4.1332297805
 20
6.3658213401
 11
4.113416344
 21
6.3856347767
  0
LINE
  5
334
100
AcDbEntity
  8
0
100
AcDbLine
 62
7
  6
CONTINUOUS
 10
4.049798333
 20
6.4492527876
 11
4.0299848965
 21
6.4690662241
  0
LINE
  5
335
100
AcDbEntity
  8
0
100
AcDbLine
 62
7
  6
CONTINUOUS
 10
3.9700132402
 20
6.5290378805
 11
3.9501998036
 21
6.548851317
  0
LINE
  5
336
100
AcDbEntity
  8
0
100
AcDbLine
 62
7
  6
CONTINUOUS
 10
3.8973614933
 20
6.6016896273
 11
3.8775480568
 21
6.6215030638
  0
LINE
  5
337
100
AcDbEntity
  8
0
100
AcDbLine
 62
7
  6
CONTINUOUS
 10
3.8350183224
 20
6.6640327982
 11
3.8152048859
 21
6.6838462347
  0
LINE
  5
338
100
AcDbEntity
  8
0
100
AcDbLine
 62
7
  6
CONTINUOUS
 10
3.7857084232
 20
6.7133426974
 11
3.7658949867
 21
6.7331561339
  0
LINE
  5
339
100
AcDbEntity
  8
0
100
AcDbLine
 62
7
  6
CONTINUOUS
 10
3.751586875
 20
6.7474642457
 11
3.7143315164
 21
6.7847196042
  0
LINE
  5
33A
100
AcDbEntity
  8
0
100
AcDbLine
 62
7
  6
CONTINUOUS
 10
4.4863824241
 20
6.018250271
 11
4.483751234
 21
6.0208814611
  0
LINE
  5
33B
100
AcDbEntity
  8
0
100
AcDbLine
 62
7
  6
CONTINUOUS
 10
4.4635191794
 20
6.0411135157
 11
4.4344413348
 21
6.0701913602
  0
LINE
  5
33C
100
AcDbEntity
  8
0
100
AcDbLine
 62
7
  6
CONTINUOUS
 10
4.4142092802
 20
6.0904234149
 11
4.372098164
 21
6.1325345311
  0
LINE
  5
33D
100
AcDbEntity
  8
0
100
AcDbLine
 62
7
  6
CONTINUOUS
 10
4.3518661093
 20
6.1527665857
 11
4.2994464171
 21
6.205186278
  0
LINE
  5
33E
100
AcDbEntity
  8
0
100
AcDbLine
 62
7
  6
CONTINUOUS
 10
4.2792143625
 20
6.2254183326
 11
4.2196613242
 21
6.2849713708
  0
LINE
  5
33F
100
AcDbEntity
  8
0
100
AcDbLine
 62
7
  6
CONTINUOUS
 10
4.1994292696
 20
6.3052034255
 11
4.1362298768
 21
6.3684028183
  0
LINE
  5
340
100
AcDbEntity
  8
0
100
AcDbLine
 62
7
  6
CONTINUOUS
 10
4.1159978222
 20
6.3886348729
 11
4.0527984293
 21
6.4518342658
  0
LINE
  5
341
100
AcDbEntity
  8
0
100
AcDbLine
 62
7
  6
CONTINUOUS
 10
4.0325663747
 20
6.4720663204
 11
3.9730133364
 21
6.5316193587
  0
LINE
  5
342
100
AcDbEntity
  8
0
100
AcDbLine
 62
7
  6
CONTINUOUS
 10
3.9527812818
 20
6.5518514133
 11
3.9003615896
 21
6.6042711055
  0
LINE
  5
343
100
AcDbEntity
  8
0
100
AcDbLine
 62
7
  6
CONTINUOUS
 10
3.880129535
 20
6.6245031601
 11
3.8380184187
 21
6.6666142764
  0
LINE
  5
344
100
AcDbEntity
  8
0
100
AcDbLine
 62
7
  6
CONTINUOUS
 10
3.8177863641
 20
6.686846331
 11
3.7887085195
 21
6.7159241756
  0
LINE
  5
345
100
AcDbEntity
  8
0
100
AcDbLine
 62
7
  6
CONTINUOUS
 10
3.7684764649
 20
6.7361562302
 11
3.7658452749
 21
6.7387874202
  0
LINE
  5
346
100
AcDbEntity
  8
0
100
AcDbLine
 62
7
  6
CONTINUOUS
 10
3.7548901629
 20
6.7503066097
 11
3.7687373508
 21
6.7364594218
  0
LINE
  5
347
100
AcDbEntity
  8
0
100
AcDbLine
 62
7
  6
CONTINUOUS
 10
3.7890117112
 20
6.7161850614
 11
3.8180472499
 21
6.6871495227
  0
LINE
  5
348
100
AcDbEntity
  8
0
100
AcDbLine
 62
7
  6
CONTINUOUS
 10
3.8383216104
 20
6.6668751622
 11
3.8803904208
 21
6.6248063518
  0
LINE
  5
349
100
AcDbEntity
  8
0
100
AcDbLine
 62
7
  6
CONTINUOUS
 10
3.9006647812
 20
6.6045319914
 11
3.9530421677
 21
6.5521546049
  0
LINE
  5
34A
100
AcDbEntity
  8
0
100
AcDbLine
 62
7
  6
CONTINUOUS
 10
3.9733165281
 20
6.5318802445
 11
4.0328272605
 21
6.4723695121
  0
LINE
  5
34B
100
AcDbEntity
  8
0
100
AcDbLine
 62
7
  6
CONTINUOUS
 10
4.053101621
 20
6.4520951516
 11
4.116258708
 21
6.3889380646
  0
LINE
  5
34C
100
AcDbEntity
  8
0
100
AcDbLine
 62
7
  6
CONTINUOUS
 10
4.1365330684
 20
6.3686637042
 11
4.1996901555
 21
6.3055066171
  0
LINE
  5
34D
100
AcDbEntity
  8
0
100
AcDbLine
 62
7
  6
CONTINUOUS
 10
4.2199645159
 20
6.2852322567
 11
4.2794752483
 21
6.2257215243
  0
LINE
  5
34E
100
AcDbEntity
  8
0
100
AcDbLine
 62
7
  6
CONTINUOUS
 10
4.2997496088
 20
6.2054471638
 11
4.3521269952
 21
6.1530697774
  0
LINE
  5
34F
100
AcDbEntity
  8
0
100
AcDbLine
 62
7
  6
CONTINUOUS
 10
4.3724013556
 20
6.132795417
 11
4.4144701661
 21
6.0907266065
  0
LINE
  5
350
100
AcDbEntity
  8
0
100
AcDbLine
 62
7
  6
CONTINUOUS
 10
4.4347445265
 20
6.0704522461
 11
4.4637800653
 21
6.0414167073
  0
LINE
  5
351
100
AcDbEntity
  8
0
100
AcDbLine
 62
7
  6
CONTINUOUS
 10
4.4840544257
 20
6.0211423469
 11
4.4979016135
 21
6.007295159
  0
LINE
  5
352
100
AcDbEntity
  8
0
100
AcDbLine
 62
7
  6
CONTINUOUS
 10
3.7565280093
 20
6.750123244
 11
3.7694100481
 21
6.7372412052
  0
LINE
  5
353
100
AcDbEntity
  8
0
100
AcDbLine
 62
7
  6
CONTINUOUS
 10
3.7904350296
 20
6.7162162237
 11
3.8187199473
 21
6.687931306
  0
LINE
  5
354
100
AcDbEntity
  8
0
100
AcDbLine
 62
7
  6
CONTINUOUS
 10
3.8391033937
 20
6.6675478595
 11
3.8810631181
 21
6.6255881351
  0
LINE
  5
355
100
AcDbEntity
  8
0
100
AcDbLine
 62
7
  6
CONTINUOUS
 10
3.9014465646
 20
6.6052046887
 11
3.953714865
 21
6.5529363883
  0
LINE
  5
356
100
AcDbEntity
  8
0
100
AcDbLine
 62
7
  6
CONTINUOUS
 10
3.9740983115
 20
6.5325529418
 11
4.0334999579
 21
6.4731512954
  0
LINE
  5
357
100
AcDbEntity
  8
0
100
AcDbLine
 62
7
  6
CONTINUOUS
 10
4.0538834043
 20
6.4527678489
 11
4.1169314053
 21
6.389719848
  0
LINE
  5
358
100
AcDbEntity
  8
0
100
AcDbLine
 62
7
  6
CONTINUOUS
 10
4.1373148518
 20
6.3693364015
 11
4.2003628528
 21
6.3062884005
  0
LINE
  5
359
100
AcDbEntity
  8
0
100
AcDbLine
 62
7
  6
CONTINUOUS
 10
4.2207462993
 20
6.285904954
 11
4.2801479457
 21
6.2265033076
  0
LINE
  5
35A
100
AcDbEntity
  8
0
100
AcDbLine
 62
7
  6
CONTINUOUS
 10
4.3005313921
 20
6.2061198611
 11
4.3527996925
 21
6.1538515608
  0
LINE
  5
35B
100
AcDbEntity
  8
0
100
AcDbLine
 62
7
  6
CONTINUOUS
 10
4.373183139
 20
6.1334681143
 11
4.4151428634
 21
6.0915083899
  0
LINE
  5
35C
100
AcDbEntity
  8
0
100
AcDbLine
 62
7
  6
CONTINUOUS
 10
4.4355263099
 20
6.0711249434
 11
4.4638112275
 21
6.0428400257
  0
LINE
  5
35D
100
AcDbEntity
  8
0
100
AcDbLine
 62
7
  6
CONTINUOUS
 10
4.4848362091
 20
6.0218150442
 11
4.4977182478
 21
6.0089330055
  0
LINE
  5
35E
100
AcDbEntity
  8
0
100
AcDbLine
 62
7
  6
CONTINUOUS
 10
4.5698140817
 20
5.945968941
 11
3.6935639449
 21
6.8222190778
  0
LINE
  5
35F
100
AcDbEntity
  8
0
100
AcDbLine
 62
7
  6
CONTINUOUS
 10
4.5846749762
 20
5.9347557633
 11
3.6823507671
 21
6.8370799724
  0
LINE
  5
360
100
AcDbEntity
  8
0
100
AcDbLine
 62
7
  6
CONTINUOUS
 10
3.6777385752
 20
6.8429170348
 11
4.5905120386
 21
5.9301435713
  0
LINE
  5
361
100
AcDbEntity
  8
0
100
AcDbLine
 62
7
  6
CONTINUOUS
 10
3.6670016293
 20
6.8549094095
 11
4.6025044133
 21
5.9194066255
  0
LINE
  5
362
100
AcDbEntity
  8
0
100
AcDbLine
 62
7
  6
CONTINUOUS
 10
4.6045110382
 20
5.9185391035
 11
3.6661341073
 21
6.8569160344
  0
LINE
  5
363
100
AcDbEntity
  8
0
100
AcDbLine
 62
7
  6
CONTINUOUS
 10
4.6842224636
 20
5.8971804914
 11
3.6447754952
 21
6.9366274597
  0
LINE
  5
364
100
AcDbEntity
  8
0
100
AcDbLine
 62
7
  6
CONTINUOUS
 10
3.9288741361
 20
6.5501809366
 11
3.9425578361
 21
6.5353501264
  0
LINE
  5
365
100
AcDbEntity
  8
0
100
AcDbLine
 62
7
  6
CONTINUOUS
 10
4.211229658
 20
6.2754493618
 11
4.2112452673
 21
6.2754320442
  0
LINE
  5
366
100
AcDbEntity
  8
0
100
AcDbLine
 62
7
  6
CONTINUOUS
 10
4.1422069184
 20
6.3292045373
 11
4.1497839785
 21
6.3227611383
  0
LINE
  5
367
100
AcDbEntity
  8
0
100
AcDbLine
 62
7
  6
CONTINUOUS
 10
4.4460403952
 20
6.0495888334
 11
4.4572368461
 21
6.039966965
  0
LINE
  5
368
100
AcDbEntity
  8
0
100
AcDbLine
 62
7
  6
CONTINUOUS
 10
4.4572368461
 20
6.039966965
 11
4.4588296884
 21
6.0385993589
  0
LINE
  5
369
100
AcDbEntity
  8
0
100
AcDbLine
 62
7
  6
CONTINUOUS
 10
4.6914669073
 20
5.8991216342
 11
3.6467166381
 21
6.9438719034
  0
LINE
  5
36A
100
AcDbEntity
  8
0
100
AcDbLine
 62
7
  6
CONTINUOUS
 10
5.8842400413
 20
2.4402833851
 11
5.8842400413
 21
3.2170333851
  0
LINE
  5
36B
100
AcDbEntity
  8
0
100
AcDbLine
 62
7
  6
CONTINUOUS
 10
5.8942400413
 20
2.4302833851
 11
5.8942400413
 21
3.2270333851
  0
LINE
  5
36C
100
AcDbEntity
  8
0
100
AcDbLine
 62
7
  6
CONTINUOUS
 10
5.9468068918
 20
3.1715270191
 11
5.9468069343
 21
3.1809450316
  0
LINE
  5
36D
100
AcDbEntity
  8
0
100
AcDbLine
 62
7
  6
CONTINUOUS
 10
4.8467969641
 20
6.054451691
 11
3.8020466949
 21
7.0992019603
  0
LINE
  5
36E
100
AcDbEntity
  8
0
100
AcDbLine
 62
7
  6
CONTINUOUS
 10
4.8467969641
 20
6.0650582928
 11
3.8126532966
 21
7.0992019603
  0
LINE
  5
36F
100
AcDbEntity
  8
0
100
AcDbLine
 62
7
  6
CONTINUOUS
 10
4.0769344561
 20
6.8455274025
 11
4.5931224063
 21
6.3293394522
  0
LINE
  5
370
100
AcDbEntity
  8
0
100
AcDbLine
 62
7
  6
CONTINUOUS
 10
4.633957823
 20
6.3701748688
 11
4.1177698727
 21
6.8863628191
  0
LINE
  5
371
100
AcDbEntity
  8
0
100
AcDbLine
 62
7
  6
CONTINUOUS
 10
4.633957823
 20
6.3807814706
 11
4.1283764744
 21
6.8863628191
  0
LINE
  5
372
100
AcDbEntity
  8
0
100
AcDbLine
 62
7
  6
CONTINUOUS
 10
4.2627267628
 20
6.7626191324
 11
4.5102141363
 21
6.515131759
  0
LINE
  5
373
100
AcDbEntity
  8
0
100
AcDbLine
 62
7
  6
CONTINUOUS
 10
4.5358467571
 20
6.5407643798
 11
4.2883593837
 21
6.7882517532
  0
LINE
  5
374
100
AcDbEntity
  8
0
100
AcDbLine
 62
7
  6
CONTINUOUS
 10
4.5358467571
 20
6.5478354476
 11
4.2954304515
 21
6.7882517532
  0
LINE
  5
375
100
AcDbEntity
  8
0
100
AcDbLine
 62
7
  6
CONTINUOUS
 10
4.2954304515
 20
6.795322821
 11
4.5429178249
 21
6.5478354476
  0
LINE
  5
376
100
AcDbEntity
  8
0
100
AcDbLine
 62
7
  6
CONTINUOUS
 10
6.1202400413
 20
2.4302833851
 11
6.1202400413
 21
2.962159923
  0
LINE
  5
377
100
AcDbEntity
  8
0
100
AcDbLine
 62
7
  6
CONTINUOUS
 10
6.1202400415
 20
3.1715270191
 11
6.1202400413
 21
3.2270333851
  0
LINE
  5
378
100
AcDbEntity
  8
0
100
AcDbLine
 62
7
  6
CONTINUOUS
 10
6.1302400413
 20
3.2170333851
 11
6.1302400413
 21
3.1861540026
  0
LINE
  5
379
100
AcDbEntity
  8
0
100
AcDbLine
 62
7
  6
CONTINUOUS
 10
6.1302400413
 20
2.9544127676
 11
6.1302400413
 21
2.4402833851
  0
LINE
  5
37A
100
AcDbEntity
  8
0
100
AcDbLine
 62
7
  6
CONTINUOUS
 10
6.1402400413
 20
3.1777833851
 11
6.1402400413
 21
3.1762926734
  0
LINE
  5
37B
100
AcDbEntity
  8
0
100
AcDbLine
 62
7
  6
CONTINUOUS
 10
6.1402400413
 20
2.9642740967
 11
6.1402400413
 21
2.9627833851
  0
LINE
  5
37C
100
AcDbEntity
  8
0
100
AcDbLine
 62
7
  6
CONTINUOUS
 10
4.6842224636
 20
5.8971804914
 11
4.6045110382
 21
5.9185391035
  0
LINE
  5
37D
100
AcDbEntity
  8
0
100
AcDbLine
 62
7
  6
CONTINUOUS
 10
4.5066445942
 20
6.667193725
 11
4.4147887289
 21
6.7590495904
  0
LINE
  5
37E
100
AcDbEntity
  8
0
100
AcDbLine
 62
7
  6
CONTINUOUS
 10
4.6463321916
 20
6.6512498144
 11
4.3988448182
 21
6.8987371878
  0
LINE
  5
37F
100
AcDbEntity
  8
0
100
AcDbLine
 62
7
  6
CONTINUOUS
 10
4.5941252384
 20
6.7243353819
 11
4.4719303858
 21
6.8465302346
  0
LINE
  5
380
100
AcDbEntity
  8
0
100
AcDbLine
 62
7
  6
CONTINUOUS
 10
4.6141252364
 20
6.7443444019
 11
4.4919394058
 21
6.8665302326
  0
LINE
  5
381
100
AcDbEntity
  8
0
100
AcDbLine
 62
7
  6
CONTINUOUS
 10
4.4919394058
 20
6.8848592738
 11
4.6324542776
 21
6.7443444019
  0
LINE
  5
382
100
AcDbEntity
  8
0
100
AcDbLine
 62
7
  6
CONTINUOUS
 10
4.5087989792
 20
6.9149997003
 11
4.6625947042
 21
6.7612039754
  0
LINE
  5
383
100
AcDbEntity
  8
0
100
AcDbLine
 62
7
  6
CONTINUOUS
 10
4.5894777749
 20
6.9482102984
 11
4.5809047278
 21
6.9567833454
  0
LINE
  5
384
100
AcDbEntity
  8
0
100
AcDbLine
 62
7
  6
CONTINUOUS
 10
6.5777400413
 20
2.9627833851
 11
6.5777400413
 21
3.1777833851
  0
LINE
  5
385
100
AcDbEntity
  8
0
100
AcDbLine
 62
7
  6
CONTINUOUS
 10
6.5782400413
 20
6.9717833851
 11
6.5782400413
 21
6.9567833851
  0
LINE
  5
386
100
AcDbEntity
  8
0
100
AcDbLine
 62
7
  6
CONTINUOUS
 10
6.5902400413
 20
2.9627833851
 11
6.5902400413
 21
3.1777833851
  0
LINE
  5
387
100
AcDbEntity
  8
0
100
AcDbLine
 62
7
  6
CONTINUOUS
 10
6.5982400413
 20
6.9367833851
 11
6.5982400413
 21
6.5702833851
  0
LINE
  5
388
100
AcDbEntity
  8
0
100
AcDbLine
 62
7
  6
CONTINUOUS
 10
6.6132400413
 20
6.9367833851
 11
6.6132400413
 21
6.5702833851
  0
LINE
  5
389
100
AcDbEntity
  8
0
100
AcDbLine
 62
7
  6
CONTINUOUS
 10
6.6842400413
 20
2.3902833851
 11
6.6842400413
 21
3.7502833851
  0
LINE
  5
38A
100
AcDbEntity
  8
0
100
AcDbLine
 62
7
  6
CONTINUOUS
 10
6.6917400413
 20
2.3827833851
 11
6.6917400413
 21
3.7577833851
  0
LINE
  5
38B
100
AcDbEntity
  8
0
100
AcDbLine
 62
7
  6
CONTINUOUS
 10
6.7617400413
 20
2.3827833851
 11
6.7617400413
 21
3.7577833851
  0
LINE
  5
38C
100
AcDbEntity
  8
0
100
AcDbLine
 62
7
  6
CONTINUOUS
 10
6.7617400413
 20
6.5702833851
 11
6.7617400413
 21
7.1202833851
  0
LINE
  5
38D
100
AcDbEntity
  8
0
100
AcDbLine
 62
7
  6
CONTINUOUS
 10
6.7642400413
 20
7.0640333921
 11
6.7642400413
 21
6.6265333781
  0
LINE
  5
38E
100
AcDbEntity
  8
0
100
AcDbLine
 62
7
  6
CONTINUOUS
 10
6.8712400413
 20
6.9827833851
 11
6.8712400413
 21
6.7077833851
  0
LINE
  5
38F
100
AcDbEntity
  8
0
100
AcDbLine
 62
7
  6
CONTINUOUS
 10
6.1247245556
 20
2.9709332427
 11
6.1202400413
 21
2.962159923
  0
LINE
  5
390
100
AcDbEntity
  8
0
100
AcDbLine
 62
7
  6
CONTINUOUS
 10
5.9424208491
 20
3.1523525773
 11
5.9353497813
 21
3.1452815095
  0
LINE
  5
391
100
AcDbEntity
  8
0
100
AcDbLine
 62
7
  6
CONTINUOUS
 10
6.1207013037
 20
2.9740721227
 11
6.1136302359
 21
2.9670010549
  0
LINE
  5
392
100
AcDbEntity
  8
0
100
AcDbLine
 62
7
  6
CONTINUOUS
 10
6.5982400413
 20
6.5702833851
 11
6.7617400413
 21
6.5702833851
  0
LINE
  5
393
100
AcDbEntity
  8
0
100
AcDbLine
 62
7
  6
CONTINUOUS
 10
6.7617400413
 20
6.6265333851
 11
6.7642400413
 21
6.6265333851
  0
LINE
  5
394
100
AcDbEntity
  8
0
100
AcDbLine
 62
7
  6
CONTINUOUS
 10
6.8712400413
 20
6.7077833851
 11
6.7642400413
 21
6.7077833851
  0
LINE
  5
395
100
AcDbEntity
  8
0
100
AcDbLine
 62
7
  6
CONTINUOUS
 10
4.6141252364
 20
6.7443444019
 11
4.6324542776
 21
6.7443444019
  0
LINE
  5
396
100
AcDbEntity
  8
0
100
AcDbLine
 62
7
  6
CONTINUOUS
 10
4.7036294984
 20
6.7960515853
 11
4.6974423141
 21
6.7960515853
  0
LINE
  5
397
100
AcDbEntity
  8
0
100
AcDbLine
 62
7
  6
CONTINUOUS
 10
6.6132400413
 20
6.9367833851
 11
6.5982400413
 21
6.9367833851
  0
LINE
  5
398
100
AcDbEntity
  8
0
100
AcDbLine
 62
7
  6
CONTINUOUS
 10
4.5267400413
 20
6.9567833851
 11
6.5782400413
 21
6.9567833851
  0
LINE
  5
399
100
AcDbEntity
  8
0
100
AcDbLine
 62
7
  6
CONTINUOUS
 10
4.5117400413
 20
6.9717833851
 11
6.5782400413
 21
6.9717833851
  0
LINE
  5
39A
100
AcDbEntity
  8
0
100
AcDbLine
 62
7
  6
CONTINUOUS
 10
6.8712400413
 20
6.9827833851
 11
6.7642400413
 21
6.9827833851
  0
LINE
  5
39B
100
AcDbEntity
  8
0
100
AcDbLine
 62
7
  6
CONTINUOUS
 10
6.7617400413
 20
7.0640333851
 11
6.7642400413
 21
7.0640333851
  0
LINE
  5
39C
100
AcDbEntity
  8
0
100
AcDbLine
 62
7
  6
CONTINUOUS
 10
6.7617400413
 20
7.1052833851
 11
4.5117400413
 21
7.1052833851
  0
LINE
  5
39D
100
AcDbEntity
  8
0
100
AcDbLine
 62
7
  6
CONTINUOUS
 10
6.7617400413
 20
7.1202833851
 11
4.5267400413
 21
7.1202833851
  0
ARC
  5
39E
100
AcDbEntity
  8
0
100
AcDbCircle
 62
7
  6
CONTINUOUS
 10
4.2472195094
 20
5.9103303638
 40
0.2404014403
100
AcDbArc
 50
47.0645769623
 51
47.5056144144
  0
ARC
  5
39F
100
AcDbEntity
  8
0
100
AcDbCircle
 62
7
  6
CONTINUOUS
 10
4.3148140535
 20
5.9083787008
 40
0.194039163
100
AcDbArc
 50
47.4654056215
 51
48.1007828285
  0
ARC
  5
3A0
100
AcDbEntity
  8
0
100
AcDbCircle
 62
7
  6
CONTINUOUS
 10
4.3517496356
 20
6.1630283373
 40
0.0145826567
100
AcDbArc
 50
220.0996622119
 51
220.8150976917
  0
ARC
  5
3A1
100
AcDbEntity
  8
0
100
AcDbCircle
 62
7
  6
CONTINUOUS
 10
4.2735901436
 20
6.1940378055
 40
0.00375
100
AcDbArc
 50
139.2891533288
 51
225.0
  0
ARC
  5
3A2
100
AcDbEntity
  8
0
100
AcDbCircle
 62
7
  6
CONTINUOUS
 10
4.2881151321
 20
6.1795128169
 40
0.00375
100
AcDbArc
 50
225.0
 51
310.7108466712
  0
ARC
  5
3A3
100
AcDbEntity
  8
0
100
AcDbCircle
 62
7
  6
CONTINUOUS
 10
4.2649052175
 20
6.2027227316
 40
0.00375
100
AcDbArc
 50
225.0
 51
310.7108466712
  0
ARC
  5
3A4
100
AcDbEntity
  8
0
100
AcDbCircle
 62
7
  6
CONTINUOUS
 10
4.3502367943
 20
6.1262299896
 40
0.00375
100
AcDbArc
 50
139.2891533288
 51
225.0
  0
ARC
  5
3A5
100
AcDbEntity
  8
0
100
AcDbCircle
 62
7
  6
CONTINUOUS
 10
4.3647617828
 20
6.111705001
 40
0.00375
100
AcDbArc
 50
225.0
 51
310.7108466712
  0
ARC
  5
3A6
100
AcDbEntity
  8
0
100
AcDbCircle
 62
7
  6
CONTINUOUS
 10
4.3206296831
 20
6.1558371007
 40
0.00375
100
AcDbArc
 50
139.2891533288
 51
225.0
  0
ARC
  5
3A7
100
AcDbEntity
  8
0
100
AcDbCircle
 62
7
  6
CONTINUOUS
 10
4.3351546717
 20
6.1413121121
 40
0.00375
100
AcDbArc
 50
225.0
 51
310.7108466712
  0
ARC
  5
3A8
100
AcDbEntity
  8
0
100
AcDbCircle
 62
7
  6
CONTINUOUS
 10
4.279511504
 20
6.1969552798
 40
0.00375
100
AcDbArc
 50
225.0
 51
310.7108466712
  0
ARC
  5
3A9
100
AcDbEntity
  8
0
100
AcDbCircle
 62
7
  6
CONTINUOUS
 10
4.3400717004
 20
6.1470016851
 40
0.00375
100
AcDbArc
 50
139.2891533288
 51
225.0
  0
ARC
  5
3AA
100
AcDbEntity
  8
0
100
AcDbCircle
 62
7
  6
CONTINUOUS
 10
4.354596689
 20
6.1324766966
 40
0.00375
100
AcDbArc
 50
225.0
 51
310.7108466712
  0
ARC
  5
3AB
100
AcDbEntity
  8
0
100
AcDbCircle
 62
7
  6
CONTINUOUS
 10
4.2872312487
 20
6.1998421369
 40
0.00375
100
AcDbArc
 50
225.0
 51
310.7108466712
  0
ARC
  5
3AC
100
AcDbEntity
  8
0
100
AcDbCircle
 62
7
  6
CONTINUOUS
 10
4.3521271719
 20
6.1473205823
 40
0.00375
100
AcDbArc
 50
139.2891533288
 51
225.0
  0
ARC
  5
3AD
100
AcDbEntity
  8
0
100
AcDbCircle
 62
7
  6
CONTINUOUS
 10
4.3666521605
 20
6.1327955937
 40
0.00375
100
AcDbArc
 50
225.0
 51
310.7108466712
  0
ARC
  5
3AE
100
AcDbEntity
  8
0
100
AcDbCircle
 62
7
  6
CONTINUOUS
 10
4.2940004137
 20
6.2054473406
 40
0.00375
100
AcDbArc
 50
225.0
 51
310.7108466712
  0
ARC
  5
3AF
100
AcDbEntity
  8
0
100
AcDbCircle
 62
7
  6
CONTINUOUS
 10
4.0985812152
 20
6.3655111999
 40
0.00375
100
AcDbArc
 50
139.2891533288
 51
225.0
  0
ARC
  5
3B0
100
AcDbEntity
  8
0
100
AcDbCircle
 62
7
  6
CONTINUOUS
 10
4.1003489822
 20
6.3672789669
 40
0.00375
100
AcDbArc
 50
139.2891533288
 51
225.0
  0
ARC
  5
3B1
100
AcDbEntity
  8
0
100
AcDbCircle
 62
7
  6
CONTINUOUS
 10
3.9628994842
 20
6.4032603058
 40
0.0797963943
100
AcDbArc
 50
46.3085214889
 51
47.2457003704
  0
ARC
  5
3B2
100
AcDbEntity
  8
0
100
AcDbCircle
 62
7
  6
CONTINUOUS
 10
3.9769239826
 20
6.5309716502
 40
0.0166014468
100
AcDbArc
 50
229.0323254047
 51
229.2356247427
  0
ARC
  5
3B3
100
AcDbEntity
  8
0
100
AcDbCircle
 62
7
  6
CONTINUOUS
 10
3.9763692282
 20
6.5303211512
 40
0.0157465319
100
AcDbArc
 50
229.2189905143
 51
229.8303286527
  0
ARC
  5
3B4
100
AcDbEntity
  8
0
100
AcDbCircle
 62
7
  6
CONTINUOUS
 10
4.0143800053
 20
6.4497124099
 40
0.00375
100
AcDbArc
 50
154.4411351355
 51
225.0
  0
ARC
  5
3B5
100
AcDbEntity
  8
0
100
AcDbCircle
 62
7
  6
CONTINUOUS
 10
4.0289049939
 20
6.4351874213
 40
0.00375
100
AcDbArc
 50
225.0
 51
310.7108466712
  0
ARC
  5
3B6
100
AcDbEntity
  8
0
100
AcDbCircle
 62
7
  6
CONTINUOUS
 10
3.9416328094
 20
6.5259951397
 40
0.00375
100
AcDbArc
 50
225.0
 51
310.7108466712
  0
ARC
  5
3B7
100
AcDbEntity
  8
0
100
AcDbCircle
 62
7
  6
CONTINUOUS
 10
4.0137284015
 20
6.4538995476
 40
0.00375
100
AcDbArc
 50
139.2891533288
 51
225.0
  0
ARC
  5
3B8
100
AcDbEntity
  8
0
100
AcDbCircle
 62
7
  6
CONTINUOUS
 10
4.02825339
 20
6.439374559
 40
0.00375
100
AcDbArc
 50
225.0
 51
310.7108466712
  0
ARC
  5
3B9
100
AcDbEntity
  8
0
100
AcDbCircle
 62
7
  6
CONTINUOUS
 10
3.9503177354
 20
6.5173102136
 40
0.00375
100
AcDbArc
 50
139.2891533288
 51
225.0
  0
ARC
  5
3BA
100
AcDbEntity
  8
0
100
AcDbCircle
 62
7
  6
CONTINUOUS
 10
3.964842724
 20
6.5027852251
 40
0.00375
100
AcDbArc
 50
225.0
 51
310.7108466712
  0
ARC
  5
3BB
100
AcDbEntity
  8
0
100
AcDbCircle
 62
7
  6
CONTINUOUS
 10
4.1047683996
 20
6.3716983843
 40
0.00375
100
AcDbArc
 50
139.2891533288
 51
225.0
  0
ARC
  5
3BC
100
AcDbEntity
  8
0
100
AcDbCircle
 62
7
  6
CONTINUOUS
 10
4.0195181207
 20
6.4569486631
 40
0.00375
100
AcDbArc
 50
139.2891533288
 51
225.0
  0
ARC
  5
3BD
100
AcDbEntity
  8
0
100
AcDbCircle
 62
7
  6
CONTINUOUS
 10
4.0340431093
 20
6.4424236745
 40
0.00375
100
AcDbArc
 50
225.0
 51
310.7108466712
  0
ARC
  5
3BE
100
AcDbEntity
  8
0
100
AcDbCircle
 62
7
  6
CONTINUOUS
 10
3.9445502837
 20
6.5319165002
 40
0.00375
100
AcDbArc
 50
139.2891533288
 51
225.0
  0
ARC
  5
3BF
100
AcDbEntity
  8
0
100
AcDbCircle
 62
7
  6
CONTINUOUS
 10
3.9590752722
 20
6.5173915116
 40
0.00375
100
AcDbArc
 50
225.0
 51
310.7108466712
  0
ARC
  5
3C0
100
AcDbEntity
  8
0
100
AcDbCircle
 62
7
  6
CONTINUOUS
 10
4.1100717004
 20
6.3770016851
 40
0.00375
100
AcDbArc
 50
139.2891533288
 51
225.0
  0
ARC
  5
3C1
100
AcDbEntity
  8
0
100
AcDbCircle
 62
7
  6
CONTINUOUS
 10
4.0258858575
 20
6.461187528
 40
0.00375
100
AcDbArc
 50
139.2891533288
 51
225.0
  0
ARC
  5
3C2
100
AcDbEntity
  8
0
100
AcDbCircle
 62
7
  6
CONTINUOUS
 10
4.0404108461
 20
6.4466625394
 40
0.00375
100
AcDbArc
 50
225.0
 51
310.7108466712
  0
ARC
  5
3C3
100
AcDbEntity
  8
0
100
AcDbCircle
 62
7
  6
CONTINUOUS
 10
3.9619621293
 20
6.5251112562
 40
0.00375
100
AcDbArc
 50
225.0
 51
310.7108466712
  0
ARC
  5
3C4
100
AcDbEntity
  8
0
100
AcDbCircle
 62
7
  6
CONTINUOUS
 10
4.0328274373
 20
6.4666203169
 40
0.00375
100
AcDbArc
 50
139.2891533288
 51
225.0
  0
ARC
  5
3C5
100
AcDbEntity
  8
0
100
AcDbCircle
 62
7
  6
CONTINUOUS
 10
4.0473524258
 20
6.4520953284
 40
0.00375
100
AcDbArc
 50
225.0
 51
310.7108466712
  0
ARC
  5
3C6
100
AcDbEntity
  8
0
100
AcDbCircle
 62
7
  6
CONTINUOUS
 10
3.967567333
 20
6.5318804212
 40
0.00375
100
AcDbArc
 50
225.0
 51
310.7108466712
  0
ARC
  5
3C7
100
AcDbEntity
  8
0
100
AcDbCircle
 62
7
  6
CONTINUOUS
 10
4.2787351871
 20
6.2294747918
 40
0.0168243024
100
AcDbArc
 50
220.7657217162
 51
220.9663281389
  0
ARC
  5
3C8
100
AcDbEntity
  8
0
100
AcDbCircle
 62
7
  6
CONTINUOUS
 10
4.1827824251
 20
6.28130999
 40
0.00375
100
AcDbArc
 50
139.2891533288
 51
225.0
  0
ARC
  5
3C9
100
AcDbEntity
  8
0
100
AcDbCircle
 62
7
  6
CONTINUOUS
 10
4.1973074137
 20
6.2667850015
 40
0.00375
100
AcDbArc
 50
225.0
 51
295.5588648645
  0
ARC
  5
3CA
100
AcDbEntity
  8
0
100
AcDbCircle
 62
7
  6
CONTINUOUS
 10
4.1131062038
 20
6.3509862114
 40
0.00375
100
AcDbArc
 50
225.0
 51
310.7108466712
  0
ARC
  5
3CB
100
AcDbEntity
  8
0
100
AcDbCircle
 62
7
  6
CONTINUOUS
 10
4.2503802289
 20
6.2172477202
 40
0.00375
100
AcDbArc
 50
139.2891533288
 51
225.0
  0
ARC
  5
3CC
100
AcDbEntity
  8
0
100
AcDbCircle
 62
7
  6
CONTINUOUS
 10
4.1869695629
 20
6.2806583862
 40
0.00375
100
AcDbArc
 50
139.2891533288
 51
225.0
  0
ARC
  5
3CD
100
AcDbEntity
  8
0
100
AcDbCircle
 62
7
  6
CONTINUOUS
 10
4.2014945514
 20
6.2661333976
 40
0.00375
100
AcDbArc
 50
225.0
 51
310.7108466712
  0
ARC
  5
3CE
100
AcDbEntity
  8
0
100
AcDbCircle
 62
7
  6
CONTINUOUS
 10
4.1148739707
 20
6.3527539783
 40
0.00375
100
AcDbArc
 50
225.0
 51
310.7108466712
  0
ARC
  5
3CF
100
AcDbEntity
  8
0
100
AcDbCircle
 62
7
  6
CONTINUOUS
 10
4.2649865154
 20
6.2114802684
 40
0.00375
100
AcDbArc
 50
139.2891533288
 51
225.0
  0
ARC
  5
3D0
100
AcDbEntity
  8
0
100
AcDbCircle
 62
7
  6
CONTINUOUS
 10
4.1900186784
 20
6.2864481054
 40
0.00375
100
AcDbArc
 50
139.2891533289
 51
225.0
  0
ARC
  5
3D1
100
AcDbEntity
  8
0
100
AcDbCircle
 62
7
  6
CONTINUOUS
 10
4.204543667
 20
6.2719231169
 40
0.00375
100
AcDbArc
 50
225.0
 51
310.7108466712
  0
ARC
  5
3D2
100
AcDbEntity
  8
0
100
AcDbCircle
 62
7
  6
CONTINUOUS
 10
4.1192933881
 20
6.3571733957
 40
0.00375
100
AcDbArc
 50
225.0
 51
310.7108466712
  0
ARC
  5
3D3
100
AcDbEntity
  8
0
100
AcDbCircle
 62
7
  6
CONTINUOUS
 10
4.2727062601
 20
6.2143671255
 40
0.00375
100
AcDbArc
 50
139.2891533288
 51
225.0
  0
ARC
  5
3D4
100
AcDbEntity
  8
0
100
AcDbCircle
 62
7
  6
CONTINUOUS
 10
4.1942575433
 20
6.2928158423
 40
0.00375
100
AcDbArc
 50
139.2891533288
 51
225.0
  0
ARC
  5
3D5
100
AcDbEntity
  8
0
100
AcDbCircle
 62
7
  6
CONTINUOUS
 10
4.2087825319
 20
6.2782908537
 40
0.00375
100
AcDbArc
 50
225.0
 51
310.7108466712
  0
ARC
  5
3D6
100
AcDbEntity
  8
0
100
AcDbCircle
 62
7
  6
CONTINUOUS
 10
4.124596689
 20
6.3624766966
 40
0.00375
100
AcDbArc
 50
225.0
 51
310.7108466712
  0
ARC
  5
3D7
100
AcDbEntity
  8
0
100
AcDbCircle
 62
7
  6
CONTINUOUS
 10
4.2794754251
 20
6.2199723291
 40
0.00375
100
AcDbArc
 50
139.2891533288
 51
225.0
  0
ARC
  5
3D8
100
AcDbEntity
  8
0
100
AcDbCircle
 62
7
  6
CONTINUOUS
 10
4.1996903322
 20
6.299757422
 40
0.00375
100
AcDbArc
 50
139.2891533288
 51
225.0
  0
ARC
  5
3D9
100
AcDbEntity
  8
0
100
AcDbCircle
 62
7
  6
CONTINUOUS
 10
4.2142153208
 20
6.2852324334
 40
0.00375
100
AcDbArc
 50
225.0
 51
310.7108466712
  0
ARC
  5
3DA
100
AcDbEntity
  8
0
100
AcDbCircle
 62
7
  6
CONTINUOUS
 10
4.1307838733
 20
6.3686638809
 40
0.00375
100
AcDbArc
 50
225.0
 51
310.7108466712
  0
ARC
  5
3DB
100
AcDbEntity
  8
0
100
AcDbCircle
 62
7
  6
CONTINUOUS
 10
4.1162588847
 20
6.3831888695
 40
0.00375
100
AcDbArc
 50
139.2891533288
 51
225.0
  0
ARC
  5
3DC
100
AcDbEntity
  8
0
100
AcDbCircle
 62
7
  6
CONTINUOUS
 10
4.727719668
 20
6.1397879953
 40
0.25
100
AcDbArc
 50
230.8300820698
 51
235.0977020061
  0
ARC
  5
3DD
100
AcDbEntity
  8
0
100
AcDbCircle
 62
7
  6
CONTINUOUS
 10
4.5489138033
 20
5.8834977053
 40
0.0625
100
AcDbArc
 50
48.2737953805
 51
55.0977020061
  0
ARC
  5
3DE
100
AcDbEntity
  8
0
100
AcDbCircle
 62
7
  6
CONTINUOUS
 10
4.4695827919
 20
5.9919000365
 40
0.03125
100
AcDbArc
 50
53.4462138519
 51
57.4803903978
  0
ARC
  5
3DF
100
AcDbEntity
  8
0
100
AcDbCircle
 62
7
  6
CONTINUOUS
 10
4.6861636064
 20
5.9044249351
 40
0.0075
100
AcDbArc
 50
254.9999999979
 51
315.0
  0
ARC
  5
3E0
100
AcDbEntity
  8
0
100
AcDbCircle
 62
7
  6
CONTINUOUS
 10
4.6064521811
 20
5.9257835472
 40
0.0075
100
AcDbArc
 50
238.2395482929
 51
254.999999998
  0
ARC
  5
3E1
100
AcDbEntity
  8
0
100
AcDbCircle
 62
7
  6
CONTINUOUS
 10
4.8414936632
 20
6.0597549919
 40
0.0075
100
AcDbArc
 50
315.0
 51
45.0
  0
ARC
  5
3E2
100
AcDbEntity
  8
0
100
AcDbCircle
 62
7
  6
CONTINUOUS
 10
4.5955038268
 20
5.9357410753
 40
0.0075
100
AcDbArc
 50
228.2737953805
 51
253.3535718815
  0
ARC
  5
3E3
100
AcDbEntity
  8
0
100
AcDbCircle
 62
7
  6
CONTINUOUS
 10
4.4498658083
 20
6.0372075772
 40
0.00375
100
AcDbArc
 50
225.0
 51
310.7108466712
  0
ARC
  5
3E4
100
AcDbEntity
  8
0
100
AcDbCircle
 62
7
  6
CONTINUOUS
 10
4.4242575433
 20
6.0628158423
 40
0.00375
100
AcDbArc
 50
139.2891533288
 51
225.0
  0
ARC
  5
3E5
100
AcDbEntity
  8
0
100
AcDbCircle
 62
7
  6
CONTINUOUS
 10
4.4387825319
 20
6.0482908537
 40
0.00375
100
AcDbArc
 50
225.0
 51
310.7108466712
  0
ARC
  5
3E6
100
AcDbEntity
  8
0
100
AcDbCircle
 62
7
  6
CONTINUOUS
 10
4.3917630208
 20
6.0953103647
 40
0.00375
100
AcDbArc
 50
139.2891533288
 51
225.0
  0
ARC
  5
3E7
100
AcDbEntity
  8
0
100
AcDbCircle
 62
7
  6
CONTINUOUS
 10
4.4062880094
 20
6.0807853761
 40
0.00375
100
AcDbArc
 50
225.0
 51
310.7108466712
  0
ARC
  5
3E8
100
AcDbEntity
  8
0
100
AcDbCircle
 62
7
  6
CONTINUOUS
 10
4.5153437123
 20
5.9841040419
 40
0.00375
100
AcDbArc
 50
191.6287467707
 51
225.0
  0
ARC
  5
3E9
100
AcDbEntity
  8
0
100
AcDbCircle
 62
7
  6
CONTINUOUS
 10
4.5298687008
 20
5.9695790534
 40
0.00375
100
AcDbArc
 50
225.0
 51
310.7108466712
  0
ARC
  5
3EA
100
AcDbEntity
  8
0
100
AcDbCircle
 62
7
  6
CONTINUOUS
 10
4.4979017903
 20
6.0015459639
 40
0.00375
100
AcDbArc
 50
139.2891533288
 51
225.0
  0
ARC
  5
3EB
100
AcDbEntity
  8
0
100
AcDbCircle
 62
7
  6
CONTINUOUS
 10
4.5124267789
 20
5.9870209754
 40
0.00375
100
AcDbArc
 50
225.0
 51
310.7108466712
  0
ARC
  5
3EC
100
AcDbEntity
  8
0
100
AcDbCircle
 62
7
  6
CONTINUOUS
 10
4.463780242
 20
6.0356675122
 40
0.00375
100
AcDbArc
 50
139.2891533288
 51
225.0
  0
ARC
  5
3ED
100
AcDbEntity
  8
0
100
AcDbCircle
 62
7
  6
CONTINUOUS
 10
4.4783052306
 20
6.0211425236
 40
0.00375
100
AcDbArc
 50
225.0
 51
310.7108466712
  0
ARC
  5
3EE
100
AcDbEntity
  8
0
100
AcDbCircle
 62
7
  6
CONTINUOUS
 10
4.4144703428
 20
6.0849774114
 40
0.00375
100
AcDbArc
 50
139.2891533288
 51
225.0
  0
ARC
  5
3EF
100
AcDbEntity
  8
0
100
AcDbCircle
 62
7
  6
CONTINUOUS
 10
4.4289953314
 20
6.0704524228
 40
0.00375
100
AcDbArc
 50
225.0
 51
310.7108466712
  0
ARC
  5
3F0
100
AcDbEntity
  8
0
100
AcDbCircle
 62
7
  6
CONTINUOUS
 10
4.3917873752
 20
6.4355606672
 40
0.25
100
AcDbArc
 50
226.4451003487
 51
232.8871442006
  0
ARC
  5
3F1
100
AcDbEntity
  8
0
100
AcDbCircle
 62
7
  6
CONTINUOUS
 10
4.4668311206
 20
6.3654539027
 40
0.25
100
AcDbArc
 50
227.450981949
 51
234.3719370491
  0
ARC
  5
3F2
100
AcDbEntity
  8
0
100
AcDbCircle
 62
7
  6
CONTINUOUS
 10
4.5431605094
 20
6.2966164327
 40
0.25
100
AcDbArc
 50
228.457733532
 51
232.2215499279
  0
ARC
  5
3F3
100
AcDbEntity
  8
0
100
AcDbCircle
 62
7
  6
CONTINUOUS
 10
4.6207794814
 20
6.2290521471
 40
0.25
100
AcDbArc
 50
229.6241263233
 51
230.0932114034
  0
ARC
  5
3F4
100
AcDbEntity
  8
0
100
AcDbCircle
 62
7
  6
CONTINUOUS
 10
4.6207794814
 20
6.2290521471
 40
0.25
100
AcDbArc
 50
236.5942361161
 51
237.4803903978
  0
ARC
  5
3F5
100
AcDbEntity
  8
0
100
AcDbCircle
 62
7
  6
CONTINUOUS
 10
4.5995089239
 20
6.2473294246
 40
0.25
100
AcDbArc
 50
225.0
 51
225.563443215
  0
ARC
  5
3F6
100
AcDbEntity
  8
0
100
AcDbCircle
 62
7
  6
CONTINUOUS
 10
4.5984257072
 20
6.3240361514
 40
0.0075
100
AcDbArc
 50
135.0
 51
224.9999999999
  0
ARC
  5
3F7
100
AcDbEntity
  8
0
100
AcDbCircle
 62
7
  6
CONTINUOUS
 10
4.6286545221
 20
6.3754781697
 40
0.0075
100
AcDbArc
 50
315.0
 51
45.0
  0
ARC
  5
3F8
100
AcDbEntity
  8
0
100
AcDbCircle
 62
7
  6
CONTINUOUS
 10
4.5155174371
 20
6.5098284581
 40
0.0075
100
AcDbArc
 50
135.0
 51
224.9999999964
  0
ARC
  5
3F9
100
AcDbEntity
  8
0
100
AcDbCircle
 62
7
  6
CONTINUOUS
 10
5.8942400413
 20
2.4402833851
 40
0.01
100
AcDbArc
 50
180.0
 51
270.0
  0
ARC
  5
3FA
100
AcDbEntity
  8
0
100
AcDbCircle
 62
7
  6
CONTINUOUS
 10
5.8942400413
 20
3.2170333851
 40
0.01
100
AcDbArc
 50
90.0
 51
180.0
  0
ARC
  5
3FB
100
AcDbEntity
  8
0
100
AcDbCircle
 62
7
  6
CONTINUOUS
 10
4.1130489065
 20
6.7192361168
 40
0.25
100
AcDbArc
 50
215.6280629509
 51
222.549018051
  0
ARC
  5
3FC
100
AcDbEntity
  8
0
100
AcDbCircle
 62
7
  6
CONTINUOUS
 10
4.0442114366
 20
6.7955655056
 40
0.25
100
AcDbArc
 50
217.7784500721
 51
221.542266468
  0
ARC
  5
3FD
100
AcDbEntity
  8
0
100
AcDbCircle
 62
7
  6
CONTINUOUS
 10
3.6310927092
 20
6.8013187994
 40
0.0625
100
AcDbArc
 50
34.9022979939
 51
41.7262046195
  0
ARC
  5
3FE
100
AcDbEntity
  8
0
100
AcDbCircle
 62
7
  6
CONTINUOUS
 10
3.7394950403
 20
6.7219877881
 40
0.03125
100
AcDbArc
 50
32.5196096022
 51
36.553786148
  0
ARC
  5
3FF
100
AcDbEntity
  8
0
100
AcDbCircle
 62
7
  6
CONTINUOUS
 10
3.8277340747
 20
6.6871673332
 40
0.0147153496
100
AcDbArc
 50
224.8703741204
 51
225.1296136502
  0
ARC
  5
400
100
AcDbEntity
  8
0
100
AcDbCircle
 62
7
  6
CONTINUOUS
 10
3.9102445538
 20
6.6037104601
 40
0.0139989149
100
AcDbArc
 50
229.1699856133
 51
229.9152544924
  0
ARC
  5
401
100
AcDbEntity
  8
0
100
AcDbCircle
 62
7
  6
CONTINUOUS
 10
3.9271078208
 20
6.5405201283
 40
0.00375
100
AcDbArc
 50
139.2891533288
 51
225.0
  0
ARC
  5
402
100
AcDbEntity
  8
0
100
AcDbCircle
 62
7
  6
CONTINUOUS
 10
3.8593000048
 20
6.617166779
 40
0.00375
100
AcDbArc
 50
139.2891533288
 51
225.0
  0
ARC
  5
403
100
AcDbEntity
  8
0
100
AcDbCircle
 62
7
  6
CONTINUOUS
 10
3.8738249934
 20
6.6026417904
 40
0.00375
100
AcDbArc
 50
225.0
 51
310.7108466712
  0
ARC
  5
404
100
AcDbEntity
  8
0
100
AcDbCircle
 62
7
  6
CONTINUOUS
 10
3.888907116
 20
6.5875596679
 40
0.00375
100
AcDbArc
 50
139.2891533288
 51
225.0
  0
ARC
  5
405
100
AcDbEntity
  8
0
100
AcDbCircle
 62
7
  6
CONTINUOUS
 10
3.9034321045
 20
6.5730346793
 40
0.00375
100
AcDbArc
 50
225.0
 51
310.7108466712
  0
ARC
  5
406
100
AcDbEntity
  8
0
100
AcDbCircle
 62
7
  6
CONTINUOUS
 10
3.7958858575
 20
6.691187528
 40
0.00375
100
AcDbArc
 50
139.2891533288
 51
225.0
  0
ARC
  5
407
100
AcDbEntity
  8
0
100
AcDbCircle
 62
7
  6
CONTINUOUS
 10
3.8104108461
 20
6.6766625394
 40
0.00375
100
AcDbArc
 50
225.0
 51
310.7108466712
  0
ARC
  5
408
100
AcDbEntity
  8
0
100
AcDbCircle
 62
7
  6
CONTINUOUS
 10
3.7848025811
 20
6.7022708045
 40
0.00375
100
AcDbArc
 50
139.2891533288
 51
225.0
  0
ARC
  5
409
100
AcDbEntity
  8
0
100
AcDbCircle
 62
7
  6
CONTINUOUS
 10
3.9474371407
 20
6.5396362448
 40
0.00375
100
AcDbArc
 50
139.2891533288
 51
225.0
  0
ARC
  5
40A
100
AcDbEntity
  8
0
100
AcDbCircle
 62
7
  6
CONTINUOUS
 10
3.8800717004
 20
6.6070016851
 40
0.00375
100
AcDbArc
 50
139.2891533288
 51
225.0
  0
ARC
  5
40B
100
AcDbEntity
  8
0
100
AcDbCircle
 62
7
  6
CONTINUOUS
 10
3.894596689
 20
6.5924766966
 40
0.00375
100
AcDbArc
 50
225.0
 51
310.7108466712
  0
ARC
  5
40C
100
AcDbEntity
  8
0
100
AcDbCircle
 62
7
  6
CONTINUOUS
 10
3.82838038
 20
6.6586930056
 40
0.00375
100
AcDbArc
 50
139.2891533288
 51
225.0
  0
ARC
  5
40D
100
AcDbEntity
  8
0
100
AcDbCircle
 62
7
  6
CONTINUOUS
 10
3.8429053686
 20
6.644168017
 40
0.00375
100
AcDbArc
 50
225.0
 51
310.7108466712
  0
ARC
  5
40E
100
AcDbEntity
  8
0
100
AcDbCircle
 62
7
  6
CONTINUOUS
 10
3.7346159792
 20
6.764831775
 40
0.00375
100
AcDbArc
 50
139.2891533288
 51
225.0
  0
ARC
  5
40F
100
AcDbEntity
  8
0
100
AcDbCircle
 62
7
  6
CONTINUOUS
 10
3.7491409678
 20
6.7503067864
 40
0.00375
100
AcDbArc
 50
225.0
 51
310.7108466712
  0
ARC
  5
410
100
AcDbEntity
  8
0
100
AcDbCircle
 62
7
  6
CONTINUOUS
 10
3.7171740572
 20
6.782273697
 40
0.00375
100
AcDbArc
 50
139.2891533288
 51
225.0
  0
ARC
  5
411
100
AcDbEntity
  8
0
100
AcDbCircle
 62
7
  6
CONTINUOUS
 10
3.7316990458
 20
6.7677487084
 40
0.00375
100
AcDbArc
 50
225.0
 51
258.3712532293
  0
ARC
  5
412
100
AcDbEntity
  8
0
100
AcDbCircle
 62
7
  6
CONTINUOUS
 10
3.9530423444
 20
6.5464054098
 40
0.00375
100
AcDbArc
 50
139.2891533288
 51
225.0
  0
ARC
  5
413
100
AcDbEntity
  8
0
100
AcDbCircle
 62
7
  6
CONTINUOUS
 10
3.8803905976
 20
6.6190571567
 40
0.00375
100
AcDbArc
 50
139.2891533288
 51
225.0
  0
ARC
  5
414
100
AcDbEntity
  8
0
100
AcDbCircle
 62
7
  6
CONTINUOUS
 10
3.8949155861
 20
6.6045321681
 40
0.00375
100
AcDbArc
 50
225.0
 51
310.7108466712
  0
ARC
  5
415
100
AcDbEntity
  8
0
100
AcDbCircle
 62
7
  6
CONTINUOUS
 10
3.8180474267
 20
6.6814003275
 40
0.00375
100
AcDbArc
 50
139.2891533288
 51
225.0
  0
ARC
  5
416
100
AcDbEntity
  8
0
100
AcDbCircle
 62
7
  6
CONTINUOUS
 10
3.8325724152
 20
6.666875339
 40
0.00375
100
AcDbArc
 50
225.0
 51
310.7108466712
  0
ARC
  5
417
100
AcDbEntity
  8
0
100
AcDbCircle
 62
7
  6
CONTINUOUS
 10
3.7687375275
 20
6.7307102267
 40
0.00375
100
AcDbArc
 50
139.2891533288
 51
225.0
  0
ARC
  5
418
100
AcDbEntity
  8
0
100
AcDbCircle
 62
7
  6
CONTINUOUS
 10
3.7832625161
 20
6.7161852382
 40
0.00375
100
AcDbArc
 50
225.0
 51
310.7108466712
  0
ARC
  5
419
100
AcDbEntity
  8
0
100
AcDbCircle
 62
7
  6
CONTINUOUS
 10
3.8873829991
 20
6.9801246642
 40
0.25
100
AcDbArc
 50
214.9022979939
 51
219.1699179302
  0
ARC
  5
41A
100
AcDbEntity
  8
0
100
AcDbCircle
 62
7
  6
CONTINUOUS
 10
3.976647151
 20
6.8731844776
 40
0.25
100
AcDbArc
 50
219.9067885966
 51
220.3758736767
  0
ARC
  5
41B
100
AcDbEntity
  8
0
100
AcDbCircle
 62
7
  6
CONTINUOUS
 10
3.976647151
 20
6.8731844776
 40
0.25
100
AcDbArc
 50
212.5196096022
 51
213.4057638839
  0
ARC
  5
41C
100
AcDbEntity
  8
0
100
AcDbCircle
 62
7
  6
CONTINUOUS
 10
3.9949244285
 20
6.85191392
 40
0.25
100
AcDbArc
 50
224.436556785
 51
225.0
  0
ARC
  5
41D
100
AcDbEntity
  8
0
100
AcDbCircle
 62
7
  6
CONTINUOUS
 10
3.6520199389
 20
6.9385686026
 40
0.0075
100
AcDbArc
 50
135.0
 51
195.0000000021
  0
ARC
  5
41E
100
AcDbEntity
  8
0
100
AcDbCircle
 62
7
  6
CONTINUOUS
 10
3.673378551
 20
6.8588571772
 40
0.0075
100
AcDbArc
 50
195.000000002
 51
211.7604517071
  0
ARC
  5
41F
100
AcDbEntity
  8
0
100
AcDbCircle
 62
7
  6
CONTINUOUS
 10
3.8073499958
 20
7.0938986594
 40
0.0075
100
AcDbArc
 50
45.0
 51
135.0
  0
ARC
  5
420
100
AcDbEntity
  8
0
100
AcDbCircle
 62
7
  6
CONTINUOUS
 10
4.0716311552
 20
6.8508307034
 40
0.0075
100
AcDbArc
 50
225.0000000001
 51
315.0
  0
ARC
  5
421
100
AcDbEntity
  8
0
100
AcDbCircle
 62
7
  6
CONTINUOUS
 10
4.1230731736
 20
6.8810595183
 40
0.0075
100
AcDbArc
 50
45.0
 51
135.0
  0
ARC
  5
422
100
AcDbEntity
  8
0
100
AcDbCircle
 62
7
  6
CONTINUOUS
 10
3.6833360791
 20
6.847908823
 40
0.0075
100
AcDbArc
 50
196.6464281185
 51
221.7262046195
  0
ARC
  5
423
100
AcDbEntity
  8
0
100
AcDbCircle
 62
7
  6
CONTINUOUS
 10
4.183155671
 20
6.6441923713
 40
0.25
100
AcDbArc
 50
217.1128557994
 51
223.5548996513
  0
ARC
  5
424
100
AcDbEntity
  8
0
100
AcDbCircle
 62
7
  6
CONTINUOUS
 10
4.4718752509
 20
6.724280247
 40
0.12225
100
AcDbArc
 50
350.9210018977
 51
0.0258404644
  0
ARC
  5
425
100
AcDbEntity
  8
0
100
AcDbCircle
 62
7
  6
CONTINUOUS
 10
4.4718752509
 20
6.724280247
 40
0.12225
100
AcDbArc
 50
89.9741595356
 51
99.0789981023
  0
ARC
  5
426
100
AcDbEntity
  8
0
100
AcDbCircle
 62
7
  6
CONTINUOUS
 10
4.6324542776
 20
6.7913444019
 40
0.047
100
AcDbArc
 50
270.0
 51
290.0824346829
  0
ARC
  5
427
100
AcDbEntity
  8
0
100
AcDbCircle
 62
7
  6
CONTINUOUS
 10
4.6141252364
 20
6.7243444019
 40
0.02
100
AcDbArc
 50
90.0
 51
180.0258404644
  0
ARC
  5
428
100
AcDbEntity
  8
0
100
AcDbCircle
 62
7
  6
CONTINUOUS
 10
4.257423462
 20
6.7679224333
 40
0.0075
100
AcDbArc
 50
225.0000000036
 51
315.0
  0
ARC
  5
429
100
AcDbEntity
  8
0
100
AcDbCircle
 62
7
  6
CONTINUOUS
 10
4.539382291
 20
6.5513709815
 40
0.005
100
AcDbArc
 50
225.0
 51
315.0
  0
ARC
  5
42A
100
AcDbEntity
  8
0
100
AcDbCircle
 62
7
  6
CONTINUOUS
 10
4.2989659854
 20
6.7917872871
 40
0.005
100
AcDbArc
 50
135.0
 51
225.0
  0
ARC
  5
42B
100
AcDbEntity
  8
0
100
AcDbCircle
 62
7
  6
CONTINUOUS
 10
4.5323112232
 20
6.5442999137
 40
0.005
100
AcDbArc
 50
315.0
 51
45.0
  0
ARC
  5
42C
100
AcDbEntity
  8
0
100
AcDbCircle
 62
7
  6
CONTINUOUS
 10
4.2918949176
 20
6.7847162193
 40
0.005
100
AcDbArc
 50
45.0
 51
135.0
  0
ARC
  5
42D
100
AcDbEntity
  8
0
100
AcDbCircle
 62
7
  6
CONTINUOUS
 10
4.5389394058
 20
6.8848592738
 40
0.047
100
AcDbArc
 50
159.9175653171
 51
180.0
  0
ARC
  5
42E
100
AcDbEntity
  8
0
100
AcDbCircle
 62
7
  6
CONTINUOUS
 10
4.4719394058
 20
6.8665302326
 40
0.02
100
AcDbArc
 50
269.9741595356
 51
360.0
  0
ARC
  5
42F
100
AcDbEntity
  8
0
100
AcDbCircle
 62
7
  6
CONTINUOUS
 10
4.5267400413
 20
7.1052833851
 40
0.015
100
AcDbArc
 50
90.0
 51
180.0
  0
ARC
  5
430
100
AcDbEntity
  8
0
100
AcDbCircle
 62
7
  6
CONTINUOUS
 10
4.5267400413
 20
6.9717833851
 40
0.015
100
AcDbArc
 50
180.0
 51
270.0
  0
ARC
  5
431
100
AcDbEntity
  8
0
100
AcDbCircle
 62
7
  6
CONTINUOUS
 10
6.1202400413
 20
2.4402833851
 40
0.01
100
AcDbArc
 50
270.0
 51
360.0
  0
ARC
  5
432
100
AcDbEntity
  8
0
100
AcDbCircle
 62
7
  6
CONTINUOUS
 10
6.1202400413
 20
3.2170333851
 40
0.01
100
AcDbArc
 50
0.0
 51
90.0
  0
ARC
  5
433
100
AcDbEntity
  8
0
100
AcDbCircle
 62
7
  6
CONTINUOUS
 10
6.1402400413
 20
2.9527833851
 40
0.01
100
AcDbArc
 50
90.0
 51
180.0
  0
ARC
  5
434
100
AcDbEntity
  8
0
100
AcDbCircle
 62
7
  6
CONTINUOUS
 10
6.1402400413
 20
3.1877833851
 40
0.01
100
AcDbArc
 50
180.0
 51
270.0
  0
ARC
  5
435
100
AcDbEntity
  8
0
100
AcDbCircle
 62
7
  6
CONTINUOUS
 10
6.6917400413
 20
3.7502833851
 40
0.0075
100
AcDbArc
 50
90.0
 51
180.0
  0
ARC
  5
436
100
AcDbEntity
  8
0
100
AcDbCircle
 62
7
  6
CONTINUOUS
 10
6.6917400413
 20
2.3902833851
 40
0.0075
100
AcDbArc
 50
180.0
 51
270.0
  0
ARC
  5
437
100
AcDbEntity
  8
0
100
AcDbCircle
 62
7
  6
CONTINUOUS
 10
8.422541205
 20
10.6749462012
 40
6.0997321429
100
AcDbArc
 50
221.542266468
 51
221.6004864405
  0
ARC
  5
438
100
AcDbEntity
  8
0
100
AcDbCircle
 62
7
  6
CONTINUOUS
 10
8.422541205
 20
10.6749462012
 40
6.0997321429
100
AcDbArc
 50
228.3995135595
 51
228.457733532
  0
ARC
  5
439
100
AcDbEntity
  8
0
100
AcDbCircle
 62
7
  6
CONTINUOUS
 10
8.422541205
 20
10.6749462012
 40
6.0997321429
100
AcDbArc
 50
226.2854429774
 51
226.4451003487
  0
ARC
  5
43A
100
AcDbEntity
  8
0
100
AcDbCircle
 62
7
  6
CONTINUOUS
 10
8.422541205
 20
10.6749462012
 40
6.0997321429
100
AcDbArc
 50
230.4467326059
 51
230.8300820698
  0
ARC
  5
43B
100
AcDbEntity
  8
0
100
AcDbCircle
 62
7
  6
CONTINUOUS
 10
8.422541205
 20
10.6749462012
 40
6.0997321429
100
AcDbArc
 50
223.5548996513
 51
223.7145570226
  0
ARC
  5
43C
100
AcDbEntity
  8
0
100
AcDbCircle
 62
7
  6
CONTINUOUS
 10
8.422541205
 20
10.6749462012
 40
6.0997321429
100
AcDbArc
 50
219.1699179302
 51
219.5532673941
  0
ARC
  5
43D
100
AcDbEntity
  8
0
100
AcDbCircle
 62
7
  6
CONTINUOUS
 10
6.5782400413
 20
6.9367833851
 40
0.035
100
AcDbArc
 50
0.0
 51
90.0
  0
ARC
  5
43E
100
AcDbEntity
  8
0
100
AcDbCircle
 62
7
  6
CONTINUOUS
 10
6.5782400413
 20
6.9367833851
 40
0.02
100
AcDbArc
 50
0.0
 51
90.0
  0
LINE
  5
43F
100
AcDbEntity
  8
0
100
AcDbLine
 62
7
  6
CONTINUOUS
 10
4.5392613301
 20
5.9713995844
 11
4.5370185562
 21
5.9733769785
  0
LINE
  5
440
100
AcDbEntity
  8
0
100
AcDbLine
 62
7
  6
CONTINUOUS
 10
4.5217745238
 20
5.9887966221
 11
4.5180310934
 21
5.9923644413
  0
SPLINE
  5
441
100
AcDbEntity
  8
0
100
AcDbSpline
 62
7
  6
CONTINUOUS
 70
0
 71
3
 72
37
 73
33
 74
0
 42
0.0000001
 43
0.0000001
 44
0.0000000001
 40
0.0
 40
0.0
 40
0.0
 40
0.0
 40
0.0005211786
 40
0.0011124258
 40
0.0018129902
 40
0.0026467297
 40
0.0036277066
 40
0.0047643592
 40
0.0075231455
 40
0.0109475882
 40
0.0150471218
 40
0.0198247225
 40
0.025279802
 40
0.0314094648
 40
0.0382090808
 40
0.0456727537
 40
0.0537934687
 40
0.0719729657
 40
0.0926737128
 40
0.1158093032
 40
0.14128218
 40
0.1987987316
 40
0.2642507568
 40
0.336532337
 40
0.4144242897
 40
0.4966137431
 40
0.5817145211
 40
0.6682882715
 40
0.7548667915
 40
0.839975433
 40
0.9221576198
 40
1.0
 40
1.0
 40
1.0
 40
1.0
 10
4.4636799083
 20
6.0431392768
 30
0.0
 10
4.463682811
 20
6.0431421796
 30
0.0
 10
4.463690204
 20
6.0431472338
 30
0.0
 10
4.4637040021
 20
6.0431514417
 30
0.0
 10
4.463720774
 20
6.0431528356
 30
0.0
 10
4.4637405921
 20
6.0431515121
 30
0.0
 10
4.4637635231
 20
6.0431475049
 30
0.0
 10
4.4638007492
 20
6.0431379256
 30
0.0
 10
4.4638551201
 20
6.0431184404
 30
0.0
 10
4.4639292827
 20
6.0430858071
 30
0.0
 10
4.4640159774
 20
6.0430424604
 30
0.0
 10
4.4641151155
 20
6.0429884295
 30
0.0
 10
4.4642265946
 20
6.0429237314
 30
0.0
 10
4.4643502898
 20
6.0428484247
 30
0.0
 10
4.4644860631
 20
6.042762581
 30
0.0
 10
4.4646337638
 20
6.0426662904
 30
0.0
 10
4.4648548345
 20
6.0425184456
 30
0.0
 10
4.4651593985
 20
6.04230794
 30
0.0
 10
4.4655571062
 20
6.0420243006
 30
0.0
 10
4.4659978442
 20
6.0417021261
 30
0.0
 10
4.466667939
 20
6.0412023887
 30
0.0
 10
4.4675965981
 20
6.0404919126
 30
0.0
 10
4.468807119
 20
6.0395432753
 30
0.0
 10
4.470134049
 20
6.0384831194
 30
0.0
 10
4.4715548669
 20
6.0373293703
 30
0.0
 10
4.4730454965
 20
6.0361014923
 30
0.0
 10
4.474580694
 20
6.0348202313
 30
0.0
 10
4.4761344213
 20
6.0335072791
 30
0.0
 10
4.4776802496
 20
6.0321849407
 30
0.0
 10
4.4791917819
 20
6.0308757799
 30
0.0
 10
4.4806430866
 20
6.0296022487
 30
0.0
 10
4.4815846129
 20
6.0287642004
 30
0.0
 10
4.4820408983
 20
6.0283546365
 30
0.0
  0
SPLINE
  5
442
100
AcDbEntity
  8
0
100
AcDbSpline
 62
7
  6
CONTINUOUS
 70
0
 71
3
 72
30
 73
26
 74
0
 42
0.0000001
 43
0.0000001
 44
0.0000000001
 40
0.0
 40
0.0
 40
0.0
 40
0.0
 40
0.0015216769
 40
0.0031809012
 40
0.0051195718
 40
0.0074285083
 40
0.0101615194
 40
0.0133507461
 40
0.0211672641
 40
0.0309697362
 40
0.0427946509
 40
0.0566559649
 40
0.0725552441
 40
0.090486539
 40
0.11043821
 40
0.1323944033
 40
0.1563358021
 40
0.2100804219
 40
0.2714597404
 40
0.3402206931
 40
0.4160740042
 40
0.4986969207
 40
0.5877355604
 40
0.7835011682
 40
1.0
 40
1.0
 40
1.0
 40
1.0
 10
4.48756517
 20
6.0228303648
 30
0.0
 10
4.4875679874
 20
6.0228331823
 30
0.0
 10
4.4875728305
 20
6.0228402099
 30
0.0
 10
4.4875763645
 20
6.0228533371
 30
0.0
 10
4.4875765394
 20
6.022868916
 30
0.0
 10
4.487573529
 20
6.0228870095
 30
0.0
 10
4.4875673801
 20
6.0229077081
 30
0.0
 10
4.4875540436
 20
6.0229411578
 30
0.0
 10
4.4875286337
 20
6.0229894924
 30
0.0
 10
4.4874875544
 20
6.023054776
 30
0.0
 10
4.4874339104
 20
6.0231307013
 30
0.0
 10
4.4873677311
 20
6.0232171969
 30
0.0
 10
4.4872890307
 20
6.0233141771
 30
0.0
 10
4.4871978747
 20
6.0234215365
 30
0.0
 10
4.4870943437
 20
6.0235391592
 30
0.0
 10
4.4869785408
 20
6.023666919
 30
0.0
 10
4.4868009606
 20
6.0238580849
 30
0.0
 10
4.4865488934
 20
6.024120915
 30
0.0
 10
4.4862103475
 20
6.0244633272
 30
0.0
 10
4.4858265084
 20
6.0248423108
 30
0.0
 10
4.4853990226
 20
6.0252562167
 30
0.0
 10
4.4849297279
 20
6.0257032419
 30
0.0
 10
4.48422846
 20
6.0263619507
 30
0.0
 10
4.4832633584
 20
6.0272517559
 30
0.0
 10
4.4824627777
 20
6.0279759555
 30
0.0
 10
4.4820408983
 20
6.0283546365
 30
0.0
  0
SPLINE
  5
443
100
AcDbEntity
  8
0
100
AcDbSpline
 62
7
  6
CONTINUOUS
 70
0
 71
3
 72
35
 73
31
 74
0
 42
0.0000001
 43
0.0000001
 44
0.0000000001
 40
0.0
 40
0.0
 40
0.0
 40
0.0
 40
0.0007071052
 40
0.0014619892
 40
0.0022948217
 40
0.003228183
 40
0.0054533719
 40
0.00821956
 40
0.0115652128
 40
0.0155101996
 40
0.0200647768
 40
0.0252338018
 40
0.0374175958
 40
0.0520502909
 40
0.0690972565
 40
0.0885092198
 40
0.1102254256
 40
0.1341753021
 40
0.1602795223
 40
0.1884507224
 40
0.2506072997
 40
0.3198057498
 40
0.3951081154
 40
0.4754915492
 40
0.5598615712
 40
0.6470658842
 40
0.7359089845
 40
0.8251676831
 40
0.9136075638
 40
1.0
 40
1.0
 40
1.0
 40
1.0
 10
4.4144968469
 20
6.0925760137
 30
0.0
 10
4.4145002925
 20
6.0925794595
 30
0.0
 10
4.4145083106
 20
6.0925857342
 30
0.0
 10
4.4145226844
 20
6.0925925682
 30
0.0
 10
4.4145395466
 20
6.092597071
 30
0.0
 10
4.4145669503
 20
6.0926002039
 30
0.0
 10
4.4146079655
 20
6.0925975333
 30
0.0
 10
4.4146643062
 20
6.0925858412
 30
0.0
 10
4.4147306164
 20
6.0925654075
 30
0.0
 10
4.4148068884
 20
6.0925362091
 30
0.0
 10
4.414893119
 20
6.0924982236
 30
0.0
 10
4.4150288885
 20
6.0924321339
 30
0.0
 10
4.4152224909
 20
6.0923265329
 30
0.0
 10
4.4154821186
 20
6.0921716353
 30
0.0
 10
4.4157792954
 20
6.0919827332
 30
0.0
 10
4.4161129737
 20
6.0917604585
 30
0.0
 10
4.4164819763
 20
6.0915055297
 30
0.0
 10
4.4168850101
 20
6.091218813
 30
0.0
 10
4.4173206728
 20
6.0909012885
 30
0.0
 10
4.417964451
 20
6.0904223446
 30
0.0
 10
4.4188379228
 20
6.0897546949
 30
0.0
 10
4.4199579823
 20
6.0888750316
 30
0.0
 10
4.4211662694
 20
6.0879044975
 30
0.0
 10
4.4224462095
 20
6.0868563389
 30
0.0
 10
4.4237802327
 20
6.085744867
 30
0.0
 10
4.425150001
 20
6.0845853096
 30
0.0
 10
4.4265366313
 20
6.0833936085
 30
0.0
 10
4.4279209402
 20
6.0821862172
 30
0.0
 10
4.4292836956
 20
6.0809798839
 30
0.0
 10
4.4301797724
 20
6.0801744409
 30
0.0
 10
4.4306209151
 20
6.0797746197
 30
0.0
  0
SPLINE
  5
444
100
AcDbEntity
  8
0
100
AcDbSpline
 62
7
  6
CONTINUOUS
 70
0
 71
3
 72
31
 73
27
 74
0
 42
0.0000001
 43
0.0000001
 44
0.0000000001
 40
0.0
 40
0.0
 40
0.0
 40
0.0
 40
0.001764659
 40
0.0036595087
 40
0.0058223441
 40
0.0083471855
 40
0.0112932207
 40
0.0146973661
 40
0.0185828664
 40
0.022964821
 40
0.0332524566
 40
0.0456068709
 40
0.0600430763
 40
0.076560302
 40
0.0951475826
 40
0.1157864779
 40
0.1384526316
 40
0.1631167636
 40
0.2182996531
 40
0.2810202914
 40
0.3509067728
 40
0.4275365158
 40
0.5104411523
 40
0.5991103821
 40
0.7915169173
 40
1.0
 40
1.0
 40
1.0
 40
1.0
 10
4.4381283839
 20
6.0720133771
 30
0.0
 10
4.4381329062
 20
6.0720178996
 30
0.0
 10
4.4381408051
 20
6.072028879
 30
0.0
 10
4.4381474576
 20
6.0720491719
 30
0.0
 10
4.438149306
 20
6.0720731256
 30
0.0
 10
4.438146574
 20
6.0721007572
 30
0.0
 10
4.4381393437
 20
6.0721321648
 30
0.0
 10
4.4381276232
 20
6.0721674051
 30
0.0
 10
4.4381114105
 20
6.0722065066
 30
0.0
 10
4.438082179
 20
6.0722671007
 30
0.0
 10
4.4380335681
 20
6.0723522479
 30
0.0
 10
4.4379602525
 20
6.0724649195
 30
0.0
 10
4.4378691247
 20
6.0725927644
 30
0.0
 10
4.4377602895
 20
6.0727355969
 30
0.0
 10
4.4376338634
 20
6.0728932032
 30
0.0
 10
4.4374900175
 20
6.0730653414
 30
0.0
 10
4.4373289566
 20
6.0732517489
 30
0.0
 10
4.4370821656
 20
6.0735294938
 30
0.0
 10
4.4367319765
 20
6.0739094907
 30
0.0
 10
4.4362620264
 20
6.0744018385
 30
0.0
 10
4.4357307766
 20
6.0749430231
 30
0.0
 10
4.4351414997
 20
6.075529669
 30
0.0
 10
4.4344978376
 20
6.0761581097
 30
0.0
 10
4.4335461884
 20
6.0770716841
 30
0.0
 10
4.4322522841
 20
6.0782858467
 30
0.0
 10
4.4311807862
 20
6.0792671912
 30
0.0
 10
4.4306209151
 20
6.0797746197
 30
0.0
  0
SPLINE
  5
445
100
AcDbEntity
  8
0
100
AcDbSpline
 62
7
  6
CONTINUOUS
 70
0
 71
3
 72
44
 73
40
 74
0
 42
0.0000001
 43
0.0000001
 44
0.0000000001
 40
0.0
 40
0.0
 40
0.0
 40
0.0
 40
0.0020055571
 40
0.0039333837
 40
0.0058742011
 40
0.0078475888
 40
0.0098250283
 40
0.0117849493
 40
0.0156822287
 40
0.019584105
 40
0.0234945235
 40
0.0274047544
 40
0.0313113751
 40
0.039122018
 40
0.0469346448
 40
0.0547475308
 40
0.0625596856
 40
0.0781836742
 40
0.0938078819
 40
0.109431994
 40
0.1250561113
 40
0.1406802048
 40
0.1563042973
 40
0.1875522671
 40
0.2188002772
 40
0.2500483058
 40
0.2812963424
 40
0.3125443826
 40
0.3437924245
 40
0.3750404662
 40
0.4375363863
 40
0.5000323485
 40
0.562528333
 40
0.6250243329
 40
0.6875203417
 40
0.7500163564
 40
0.812512375
 40
0.8750083954
 40
1.0
 40
1.0
 40
1.0
 40
1.0
 10
4.352314044
 20
6.1550795527
 30
0.0
 10
4.3523228652
 20
6.1550872358
 30
0.0
 10
4.3523423642
 20
6.1550999956
 30
0.0
 10
4.352375306
 20
6.1551105076
 30
0.0
 10
4.352409382
 20
6.1551139519
 30
0.0
 10
4.3524437826
 20
6.15511248
 30
0.0
 10
4.3524780033
 20
6.1551081133
 30
0.0
 10
4.3525229692
 20
6.1550998551
 30
0.0
 10
4.3525780916
 20
6.1550853773
 30
0.0
 10
4.35264302
 20
6.1550641135
 30
0.0
 10
4.3527069724
 20
6.1550398682
 30
0.0
 10
4.3527701113
 20
6.1550135336
 30
0.0
 10
4.3528533201
 20
6.1549762994
 30
0.0
 10
4.352955768
 20
6.1549264295
 30
0.0
 10
4.3530768841
 20
6.1548630215
 30
0.0
 10
4.3531965323
 20
6.154796873
 30
0.0
 10
4.3533544557
 20
6.1547058539
 30
0.0
 10
4.3535493519
 20
6.1545878119
 30
0.0
 10
4.353780238
 20
6.1544413756
 30
0.0
 10
4.3540087674
 20
6.1542912931
 30
0.0
 10
4.3542353738
 20
6.1541383299
 30
0.0
 10
4.3544603672
 20
6.1539830069
 30
0.0
 10
4.354758502
 20
6.1537732519
 30
0.0
 10
4.3551281653
 20
6.1535068205
 30
0.0
 10
4.3555679422
 20
6.153181886
 30
0.0
 10
4.3560045635
 20
6.1528527264
 30
0.0
 10
4.3564384996
 20
6.1525200381
 30
0.0
 10
4.3568700981
 20
6.1521843245
 30
0.0
 10
4.3572996248
 20
6.1518459654
 30
0.0
 10
4.3578698383
 20
6.1513916819
 30
0.0
 10
4.3585783716
 20
6.1508185381
 30
0.0
 10
4.3594228119
 20
6.1501236674
 30
0.0
 10
4.3602621158
 20
6.1494226031
 30
0.0
 10
4.3610967508
 20
6.1487159888
 30
0.0
 10
4.3619270495
 20
6.1480042854
 30
0.0
 10
4.3627532432
 20
6.1472878218
 30
0.0
 10
4.3635754866
 20
6.1465668277
 30
0.0
 10
4.3646666544
 20
6.1455996615
 30
0.0
 10
4.3654792986
 20
6.1448678371
 30
0.0
 10
4.3660184438
 20
6.144377091
 30
0.0
  0
SPLINE
  5
446
100
AcDbEntity
  8
0
100
AcDbSpline
 62
7
  6
CONTINUOUS
 70
0
 71
3
 72
32
 73
28
 74
0
 42
0.0000001
 43
0.0000001
 44
0.0000000001
 40
0.0
 40
0.0
 40
0.0
 40
0.0
 40
0.0019204127
 40
0.0039784159
 40
0.0063130968
 40
0.0090208196
 40
0.0121633719
 40
0.0157795922
 40
0.0198942426
 40
0.0245232731
 40
0.0353600103
 40
0.0483365168
 40
0.0634640172
 40
0.0807353081
 40
0.1001308911
 40
0.1216220771
 40
0.1451726994
 40
0.1707401824
 40
0.2277263817
 40
0.2921343156
 40
0.3634425082
 40
0.44106367
 40
0.5243519535
 40
0.6126100385
 40
0.7050962935
 40
0.8010322434
 40
1.0
 40
1.0
 40
1.0
 40
1.0
 10
4.3756247936
 20
6.1341961286
 30
0.0
 10
4.3756311791
 20
6.1342025143
 30
0.0
 10
4.3756423954
 20
6.1342179116
 30
0.0
 10
4.3756522697
 20
6.1342462587
 30
0.0
 10
4.3756557029
 20
6.1342796975
 30
0.0
 10
4.3756529733
 20
6.1343182262
 30
0.0
 10
4.3756441927
 20
6.1343619567
 30
0.0
 10
4.3756293814
 20
6.1344109558
 30
0.0
 10
4.3756085394
 20
6.1344652541
 30
0.0
 10
4.3755706456
 20
6.1345492122
 30
0.0
 10
4.3755070629
 20
6.1346670469
 30
0.0
 10
4.3754105801
 20
6.1348227539
 30
0.0
 10
4.3752903095
 20
6.1349990672
 30
0.0
 10
4.3751464495
 20
6.1351956381
 30
0.0
 10
4.3749792271
 20
6.1354120697
 30
0.0
 10
4.3747889558
 20
6.1356479137
 30
0.0
 10
4.3745760068
 20
6.1359026831
 30
0.0
 10
4.374250426
 20
6.1362807783
 30
0.0
 10
4.3737894301
 20
6.1367957039
 30
0.0
 10
4.3731723536
 20
6.1374593398
 30
0.0
 10
4.3724780759
 20
6.1381835248
 30
0.0
 10
4.3717124117
 20
6.1389621294
 30
0.0
 10
4.3708817927
 20
6.1397885423
 30
0.0
 10
4.3699932372
 20
6.1406557445
 30
0.0
 10
4.3690542703
 20
6.1415563735
 30
0.0
 10
4.3677295515
 20
6.1428068143
 30
0.0
 10
4.3667103526
 20
6.1437472873
 30
0.0
 10
4.3660184438
 20
6.144377091
 30
0.0
  0
SPLINE
  5
447
100
AcDbEntity
  8
0
100
AcDbSpline
 62
7
  6
CONTINUOUS
 70
0
 71
3
 72
32
 73
28
 74
0
 42
0.0000001
 43
0.0000001
 44
0.0000000001
 40
0.0
 40
0.0
 40
0.0
 40
0.0
 40
0.0021749174
 40
0.0045161567
 40
0.0071407927
 40
0.0101322081
 40
0.0135463966
 40
0.0174202602
 40
0.0217782158
 40
0.026636539
 40
0.0378915082
 40
0.0512356532
 40
0.0666827547
 40
0.0842272832
 40
0.103850868
 40
0.1255256792
 40
0.1492163683
 40
0.1748812376
 40
0.2319382658
 40
0.2962614507
 40
0.3673437238
 40
0.4446155882
 40
0.5274514323
 40
0.61517532
 40
0.7070667838
 40
0.8023667533
 40
1.0
 40
1.0
 40
1.0
 40
1.0
 10
4.27984919
 20
6.2279181924
 30
0.0
 10
4.2798564891
 20
6.2279254914
 30
0.0
 10
4.2798738288
 20
6.2279385855
 30
0.0
 10
4.2799053482
 20
6.2279517674
 30
0.0
 10
4.2799426001
 20
6.2279590988
 30
0.0
 10
4.2799855548
 20
6.2279607634
 30
0.0
 10
4.2800342734
 20
6.22795686
 30
0.0
 10
4.2800887944
 20
6.2279474168
 30
0.0
 10
4.2801491346
 20
6.2279324451
 30
0.0
 10
4.2802419726
 20
6.2279036493
 30
0.0
 10
4.2803723322
 20
6.2278526724
 30
0.0
 10
4.2805447331
 20
6.2277724816
 30
0.0
 10
4.2807396701
 20
6.2276705456
 30
0.0
 10
4.280956753
 20
6.2275470381
 30
0.0
 10
4.2811955456
 20
6.2274021572
 30
0.0
 10
4.2814555528
 20
6.2272361768
 30
0.0
 10
4.2817362387
 20
6.2270494227
 30
0.0
 10
4.2821521837
 20
6.2267629224
 30
0.0
 10
4.2827184831
 20
6.2263549104
 30
0.0
 10
4.283448352
 20
6.2258055678
 30
0.0
 10
4.2842444788
 20
6.2251849646
 30
0.0
 10
4.2851002645
 20
6.2244981753
 30
0.0
 10
4.2860086009
 20
6.2237508223
 30
0.0
 10
4.2869619313
 20
6.2229490673
 30
0.0
 10
4.2879523088
 20
6.2220995523
 30
0.0
 10
4.289327868
 20
6.2208979879
 30
0.0
 10
4.2903632589
 20
6.2199700133
 30
0.0
 10
4.2910569224
 20
6.2193386124
 30
0.0
  0
SPLINE
  5
448
100
AcDbEntity
  8
0
100
AcDbSpline
 62
7
  6
CONTINUOUS
 70
0
 71
3
 72
32
 73
28
 74
0
 42
0.0000001
 43
0.0000001
 44
0.0000000001
 40
0.0
 40
0.0
 40
0.0
 40
0.0
 40
0.0020120092
 40
0.0041800239
 40
0.0066489613
 40
0.0095179371
 40
0.0128498138
 40
0.0166837988
 40
0.0210445721
 40
0.025947699
 40
0.0374141612
 40
0.0511235352
 40
0.0670783744
 40
0.0852608511
 40
0.1056390472
 40
0.1281701612
 40
0.1528023151
 40
0.1794756951
 40
0.2386705304
 40
0.3051429003
 40
0.3781868592
 40
0.4570152279
 40
0.540770623
 40
0.6285368315
 40
0.7193506928
 40
0.8122143508
 40
1.0
 40
1.0
 40
1.0
 40
1.0
 10
4.3027861092
 20
6.206660938
 30
0.0
 10
4.3027943677
 20
6.2066691967
 30
0.0
 10
4.3028088734
 20
6.2066892039
 30
0.0
 10
4.3028216289
 20
6.2067260803
 30
0.0
 10
4.3028261276
 20
6.2067697054
 30
0.0
 10
4.3028227176
 20
6.2068200891
 30
0.0
 10
4.3028115385
 20
6.20687737
 30
0.0
 10
4.3027926131
 20
6.2069416236
 30
0.0
 10
4.3027659437
 20
6.2070128773
 30
0.0
 10
4.3027174405
 20
6.2071230589
 30
0.0
 10
4.3026360331
 20
6.2072777348
 30
0.0
 10
4.3025124818
 20
6.2074821298
 30
0.0
 10
4.3023585565
 20
6.2077134014
 30
0.0
 10
4.3021746051
 20
6.2079709482
 30
0.0
 10
4.3019610313
 20
6.2082540896
 30
0.0
 10
4.3017183669
 20
6.2085620628
 30
0.0
 10
4.3014472355
 20
6.208894039
 30
0.0
 10
4.3010341324
 20
6.2093847599
 30
0.0
 10
4.3004514016
 20
6.2100500234
 30
0.0
 10
4.2996745792
 20
6.2109027749
 30
0.0
 10
4.2988061564
 20
6.2118260231
 30
0.0
 10
4.2978556242
 20
6.2128095828
 30
0.0
 10
4.2968334108
 20
6.2138425668
 30
0.0
 10
4.2957507932
 20
6.2149135283
 30
0.0
 10
4.294619744
 20
6.2160106027
 30
0.0
 10
4.2930580284
 20
6.2174974249
 30
0.0
 10
4.2918630395
 20
6.2186048516
 30
0.0
 10
4.2910569224
 20
6.2193386124
 30
0.0
  0
SPLINE
  5
449
100
AcDbEntity
  8
0
100
AcDbSpline
 62
7
  6
CONTINUOUS
 70
0
 71
3
 72
30
 73
26
 74
0
 42
0.0000001
 43
0.0000001
 44
0.0000000001
 40
0.0
 40
0.0
 40
0.0
 40
0.0
 40
0.002558186
 40
0.0052389267
 40
0.0081399851
 40
0.0113386561
 40
0.0188338617
 40
0.0280306363
 40
0.0390775017
 40
0.0520508053
 40
0.0669879851
 40
0.0839036857
 40
0.1027979224
 40
0.123660424
 40
0.1464732379
 40
0.171212319
 40
0.2263466027
 40
0.288780365
 40
0.3581692012
 40
0.4341168798
 40
0.51618087
 40
0.6038762442
 40
0.6966796437
 40
0.794032661
 40
1.0
 40
1.0
 40
1.0
 40
1.0
 10
4.2002693495
 20
6.3079085376
 30
0.0
 10
4.2002760039
 20
6.3079151919
 30
0.0
 10
4.2002911737
 20
6.3079273566
 30
0.0
 10
4.2003180424
 20
6.3079409725
 30
0.0
 10
4.2003491403
 20
6.3079502345
 30
0.0
 10
4.200398809
 20
6.307957226
 30
0.0
 10
4.2004724473
 20
6.3079537384
 30
0.0
 10
4.200572651
 20
6.3079334279
 30
0.0
 10
4.2006893977
 20
6.3078967759
 30
0.0
 10
4.200822636
 20
6.307843759
 30
0.0
 10
4.200972296
 20
6.3077743661
 30
0.0
 10
4.2011381813
 20
6.307688646
 30
0.0
 10
4.2013200629
 20
6.307586688
 30
0.0
 10
4.201517672
 20
6.3074686193
 30
0.0
 10
4.201730716
 20
6.3073346026
 30
0.0
 10
4.2020465028
 20
6.3071272748
 30
0.0
 10
4.2024766903
 20
6.306828819
 30
0.0
 10
4.2030318347
 20
6.3064227649
 30
0.0
 10
4.2036395908
 20
6.305959222
 30
0.0
 10
4.2042962636
 20
6.3054409492
 30
0.0
 10
4.2049978483
 20
6.3048710347
 30
0.0
 10
4.2057400596
 20
6.3042529125
 30
0.0
 10
4.2065183555
 20
6.3035903293
 30
0.0
 10
4.2076186317
 20
6.302634891
 30
0.0
 10
4.2084511209
 20
6.3018918272
 30
0.0
 10
4.2090125291
 20
6.3013830057
 30
0.0
  0
SPLINE
  5
44A
100
AcDbEntity
  8
0
100
AcDbSpline
 62
7
  6
CONTINUOUS
 70
0
 71
3
 72
34
 73
30
 74
0
 42
0.0000001
 43
0.0000001
 44
0.0000000001
 40
0.0
 40
0.0
 40
0.0
 40
0.0
 40
0.0020512774
 40
0.0042878165
 40
0.0068645439
 40
0.0098836693
 40
0.0134079559
 40
0.017475612
 40
0.0221099037
 40
0.0273250331
 40
0.0331292648
 40
0.0395269219
 40
0.0541052495
 40
0.0710508975
 40
0.0903308678
 40
0.1118963871
 40
0.1356860734
 40
0.1616277631
 40
0.1896397036
 40
0.2515031321
 40
0.3204594229
 40
0.3955778171
 40
0.4758315374
 40
0.560114541
 40
0.647259166
 40
0.736054699
 40
0.8252666525
 40
0.9136563401
 40
1.0
 40
1.0
 40
1.0
 40
1.0
 10
4.2227957337
 20
6.2862407482
 30
0.0
 10
4.2228057165
 20
6.2862507313
 30
0.0
 10
4.2228231674
 20
6.2862752603
 30
0.0
 10
4.2228379649
 20
6.286320691
 30
0.0
 10
4.2228425393
 20
6.2863747501
 30
0.0
 10
4.2228373251
 20
6.2864375079
 30
0.0
 10
4.2228224806
 20
6.2865091472
 30
0.0
 10
4.2227980218
 20
6.2865897503
 30
0.0
 10
4.222763947
 20
6.2866793313
 30
0.0
 10
4.2227202549
 20
6.2867778556
 30
0.0
 10
4.2226669635
 20
6.2868852655
 30
0.0
 10
4.2225792332
 20
6.287047398
 30
0.0
 10
4.2224446959
 20
6.2872711937
 30
0.0
 10
4.2222522498
 20
6.2875632064
 30
0.0
 10
4.2220228906
 20
6.2878882343
 30
0.0
 10
4.2217573417
 20
6.288245181
 30
0.0
 10
4.2214564359
 20
6.2886328322
 30
0.0
 10
4.2211211659
 20
6.2890498678
 30
0.0
 10
4.2206127056
 20
6.289663787
 30
0.0
 10
4.2198992122
 20
6.2904921356
 30
0.0
 10
4.2189534051
 20
6.2915478786
 30
0.0
 10
4.217904612
 20
6.292681013
 30
0.0
 10
4.2167673322
 20
6.2938757451
 30
0.0
 10
4.215557359
 20
6.2951153603
 30
0.0
 10
4.214291586
 20
6.2963824897
 30
0.0
 10
4.2129877287
 20
6.2976593663
 30
0.0
 10
4.2116640512
 20
6.2989281006
 30
0.0
 10
4.2103390857
 20
6.3001709487
 30
0.0
 10
4.2094528527
 20
6.3009839268
 30
0.0
 10
4.2090125291
 20
6.3013830057
 30
0.0
  0
SPLINE
  5
44B
100
AcDbEntity
  8
0
100
AcDbSpline
 62
7
  6
CONTINUOUS
 70
0
 71
3
 72
32
 73
28
 74
0
 42
0.0000001
 43
0.0000001
 44
0.0000000001
 40
0.0
 40
0.0
 40
0.0
 40
0.0
 40
0.0022754463
 40
0.0046984053
 40
0.0073919696
 40
0.0104461347
 40
0.0139223706
 40
0.0178615561
 40
0.0222909685
 40
0.0272286989
 40
0.0386709605
 40
0.0522447172
 40
0.0679651023
 40
0.085825392
 40
0.1058042343
 40
0.1278694185
 40
0.1519800037
 40
0.178087638
 40
0.2360672148
 40
0.3013011952
 40
0.3731978295
 40
0.4510919375
 40
0.5342531929
 40
0.6218942862
 40
0.7131793781
 40
0.8072329503
 40
1.0
 40
1.0
 40
1.0
 40
1.0
 10
4.1391496321
 20
6.3694575416
 30
0.0
 10
4.1391581313
 20
6.369466041
 30
0.0
 10
4.1391733668
 20
6.3694860519
 30
0.0
 10
4.1391886974
 20
6.3695223164
 30
0.0
 10
4.1391970512
 20
6.369564908
 30
0.0
 10
4.1391986441
 20
6.3696137643
 30
0.0
 10
4.1391936002
 20
6.3696689461
 30
0.0
 10
4.1391819598
 20
6.3697304974
 30
0.0
 10
4.1391637366
 20
6.3697984375
 30
0.0
 10
4.1391288947
 20
6.3699027475
 30
0.0
 10
4.1390675117
 20
6.3700488029
 30
0.0
 10
4.1389712765
 20
6.3702413715
 30
0.0
 10
4.1388491903
 20
6.3704585795
 30
0.0
 10
4.1387014847
 20
6.3706999403
 30
0.0
 10
4.138528428
 20
6.3709649074
 30
0.0
 10
4.138330388
 20
6.3712528606
 30
0.0
 10
4.1381078031
 20
6.3715631271
 30
0.0
 10
4.1377668431
 20
6.3720218554
 30
0.0
 10
4.1372822762
 20
6.3726443577
 30
0.0
 10
4.136631404
 20
6.3734435581
 30
0.0
 10
4.1358983948
 20
6.3743112886
 30
0.0
 10
4.1350901675
 20
6.3752392423
 30
0.0
 10
4.1342143886
 20
6.3762184936
 30
0.0
 10
4.1332794406
 20
6.3772395915
 30
0.0
 10
4.1322943247
 20
6.3782926544
 30
0.0
 10
4.1309153366
 20
6.3797375361
 30
0.0
 10
4.1298536412
 20
6.3808185872
 30
0.0
 10
4.1291336161
 20
6.3815386123
 30
0.0
  0
SPLINE
  5
44C
100
AcDbEntity
  8
0
100
AcDbSpline
 62
7
  6
CONTINUOUS
 70
0
 71
3
 72
26
 73
22
 74
0
 42
0.0000001
 43
0.0000001
 44
0.0000000001
 40
0.0
 40
0.0
 40
0.0
 40
0.0
 40
0.0070207657
 40
0.0145466187
 40
0.0230232344
 40
0.0327646151
 40
0.0439766605
 40
0.0567912704
 40
0.0712935616
 40
0.087538158
 40
0.1055603048
 40
0.1253814063
 40
0.1704579397
 40
0.2227952562
 40
0.2823432838
 40
0.3490037143
 40
0.422641394
 40
0.5030908004
 40
0.5901600769
 40
0.7832705274
 40
1.0
 40
1.0
 40
1.0
 40
1.0
 10
4.033835752
 20
6.4752007299
 30
0.0
 10
4.0338446174
 20
6.4752095952
 30
0.0
 10
4.0338658196
 20
6.4752253139
 30
0.0
 10
4.0339046163
 20
6.4752400855
 30
0.0
 10
4.0339503913
 20
6.4752467346
 30
0.0
 10
4.03400311
 20
6.4752455639
 30
0.0
 10
4.0340628772
 20
6.4752367158
 30
0.0
 10
4.0341297563
 20
6.4752202265
 30
0.0
 10
4.0342037683
 20
6.4751960995
 30
0.0
 10
4.0342849012
 20
6.4751643357
 30
0.0
 10
4.0343731232
 20
6.4751249426
 30
0.0
 10
4.0345059291
 20
6.4750593853
 30
0.0
 10
4.0346889477
 20
6.4749574822
 30
0.0
 10
4.034927444
 20
6.4748100997
 30
0.0
 10
4.035192701
 20
6.4746330876
 30
0.0
 10
4.0354840163
 20
6.4744268748
 30
0.0
 10
4.0358006111
 20
6.4741919556
 30
0.0
 10
4.0361416361
 20
6.4739289345
 30
0.0
 10
4.0366453146
 20
6.4735275928
 30
0.0
 10
4.0373276722
 20
6.4729601619
 30
0.0
 10
4.037880596
 20
6.4724805882
 30
0.0
 10
4.0381709032
 20
6.4722246315
 30
0.0
  0
SPLINE
  5
44D
100
AcDbEntity
  8
0
100
AcDbSpline
 62
7
  6
CONTINUOUS
 70
0
 71
3
 72
35
 73
31
 74
0
 42
0.0000001
 43
0.0000001
 44
0.0000000001
 40
0.0
 40
0.0
 40
0.0
 40
0.0
 40
0.0009806681
 40
0.0020012404
 40
0.0042791695
 40
0.0070292094
 40
0.0103576819
 40
0.0143223987
 40
0.0189548311
 40
0.024271867
 40
0.0302817824
 40
0.0369872993
 40
0.0443873443
 40
0.0612526057
 40
0.0808242374
 40
0.1030226249
 40
0.1277486629
 40
0.1548866271
 40
0.1843060499
 40
0.2158629581
 40
0.2847516854
 40
0.3601727822
 40
0.440594803
 40
0.524369437
 40
0.609767756
 40
0.6950192671
 40
0.7783529366
 40
0.8580389748
 40
0.9324299712
 40
1.0
 40
1.0
 40
1.0
 40
1.0
 10
4.0555035413
 20
6.4526743458
 30
0.0
 10
4.0555096264
 20
6.452680431
 30
0.0
 10
4.0555208275
 20
6.452694128
 30
0.0
 10
4.0555387576
 20
6.4527273422
 30
0.0
 10
4.0555511942
 20
6.4527798107
 30
0.0
 10
4.0555509912
 20
6.4528535165
 30
0.0
 10
4.0555370442
 20
6.4529407962
 30
0.0
 10
4.0555093451
 20
6.4530418601
 30
0.0
 10
4.0554679055
 20
6.4531568137
 30
0.0
 10
4.0554127054
 20
6.4532855921
 30
0.0
 10
4.0553437702
 20
6.453428077
 30
0.0
 10
4.0552611583
 20
6.4535841088
 30
0.0
 10
4.0551268925
 20
6.4538204443
 30
0.0
 10
4.0549242583
 20
6.4541475864
 30
0.0
 10
4.0546382499
 20
6.4545754016
 30
0.0
 10
4.0543010175
 20
6.4550516856
 30
0.0
 10
4.05391421
 20
6.4555740194
 30
0.0
 10
4.05347971
 20
6.4561397396
 30
0.0
 10
4.0529996879
 20
6.4567459654
 30
0.0
 10
4.05228086
 20
6.4576303092
 30
0.0
 10
4.0512869508
 20
6.458811102
 30
0.0
 10
4.0499900453
 20
6.4602968892
 30
0.0
 10
4.0485827778
 20
6.4618593931
 30
0.0
 10
4.0470941931
 20
6.4634661825
 30
0.0
 10
4.0455551853
 20
6.4650837586
 30
0.0
 10
4.0439978686
 20
6.4666783118
 30
0.0
 10
4.0424548361
 20
6.468216479
 30
0.0
 10
4.0409584179
 20
6.4696661306
 30
0.0
 10
4.0395399464
 20
6.4709970801
 30
0.0
 10
4.0386156707
 20
6.4718324911
 30
0.0
 10
4.0381709032
 20
6.4722246315
 30
0.0
  0
SPLINE
  5
44E
100
AcDbEntity
  8
0
100
AcDbSpline
 62
7
  6
CONTINUOUS
 70
0
 71
3
 72
24
 73
20
 74
0
 42
0.0000001
 43
0.0000001
 44
0.0000000001
 40
0.0
 40
0.0
 40
0.0
 40
0.0
 40
0.0083684149
 40
0.0170940917
 40
0.0265574514
 40
0.0370583078
 40
0.0488160564
 40
0.0619862955
 40
0.0929500193
 40
0.1305145488
 40
0.1749458517
 40
0.2263714955
 40
0.2848395673
 40
0.3503475992
 40
0.4228576686
 40
0.502305155
 40
0.5886043784
 40
0.7813206396
 40
1.0
 40
1.0
 40
1.0
 40
1.0
 10
3.9542559418
 20
6.5551911055
 30
0.0
 10
3.9542621212
 20
6.5551972849
 30
0.0
 10
3.9542762767
 20
6.5552084662
 30
0.0
 10
3.9543015221
 20
6.5552204207
 30
0.0
 10
3.9543307416
 20
6.5552277409
 30
0.0
 10
3.9543638639
 20
6.5552305314
 30
0.0
 10
3.9544009059
 20
6.5552288822
 30
0.0
 10
3.9544587204
 20
6.5552203101
 30
0.0
 10
3.9545411455
 20
6.5551971645
 30
0.0
 10
3.9546508757
 20
6.5551535588
 30
0.0
 10
3.9547762811
 20
6.5550926083
 30
0.0
 10
3.9549172247
 20
6.5550143427
 30
0.0
 10
3.9550735488
 20
6.5549187931
 30
0.0
 10
3.9552450305
 20
6.5548060613
 30
0.0
 10
3.9554314197
 20
6.5546762832
 30
0.0
 10
3.9556324399
 20
6.5545296357
 30
0.0
 10
3.955930711
 20
6.5543034104
 30
0.0
 10
3.9563370764
 20
6.5539792607
 30
0.0
 10
3.9566665013
 20
6.553703438
 30
0.0
 10
3.9568402695
 20
6.5535552652
 30
0.0
  0
SPLINE
  5
44F
100
AcDbEntity
  8
0
100
AcDbSpline
 62
7
  6
CONTINUOUS
 70
0
 71
3
 72
40
 73
36
 74
0
 42
0.0000001
 43
0.0000001
 44
0.0000000001
 40
0.0
 40
0.0
 40
0.0
 40
0.0
 40
0.0009267151
 40
0.0019072589
 40
0.002980596
 40
0.0041764947
 40
0.0055164191
 40
0.00701547
 40
0.0105282936
 40
0.014769665
 40
0.019765058
 40
0.0255262085
 40
0.0320568589
 40
0.0393556263
 40
0.0474175261
 40
0.0562348152
 40
0.0657975517
 40
0.0871100919
 40
0.1112427089
 40
0.1380603299
 40
0.1674087157
 40
0.1991163792
 40
0.2329960539
 40
0.3064510359
 40
0.3860125238
 40
0.4697529967
 40
0.5556270288
 40
0.64152327
 40
0.7253203796
 40
0.8049453351
 40
0.8784319905
 40
0.9123027615
 40
0.9439788518
 40
0.973269208
 40
1.0
 40
1.0
 40
1.0
 40
1.0
 10
3.9755131962
 20
6.5322541862
 30
0.0
 10
3.9755194257
 20
6.5322604159
 30
0.0
 10
3.9755307664
 20
6.5322747984
 30
0.0
 10
3.9755431567
 20
6.5323004843
 30
0.0
 10
3.975551271
 20
6.5323304451
 30
0.0
 10
3.9755552054
 20
6.5323646306
 30
0.0
 10
3.9755550348
 20
6.5324030604
 30
0.0
 10
3.9755490215
 20
6.5324632158
 30
0.0
 10
3.9755299967
 20
6.5325493743
 30
0.0
 10
3.975492351
 20
6.5326646979
 30
0.0
 10
3.9754386629
 20
6.5327968856
 30
0.0
 10
3.9753689698
 20
6.5329457784
 30
0.0
 10
3.9752833093
 20
6.5331111962
 30
0.0
 10
3.9751817807
 20
6.5332928965
 30
0.0
 10
3.9750645129
 20
6.5334906087
 30
0.0
 10
3.9749316718
 20
6.5337040357
 30
0.0
 10
3.9747264901
 20
6.5340207416
 30
0.0
 10
3.9744317326
 20
6.5344527887
 30
0.0
 10
3.9740314486
 20
6.5350111572
 30
0.0
 10
3.9735751388
 20
6.5356231873
 30
0.0
 10
3.973065522
 20
6.5362851622
 30
0.0
 10
3.9725056374
 20
6.5369930628
 30
0.0
 10
3.9716738721
 20
6.538020425
 30
0.0
 10
3.9705346583
 20
6.5393840555
 30
0.0
 10
3.9690633072
 20
6.5410874345
 30
0.0
 10
3.9674887747
 20
6.5428573603
 30
0.0
 10
3.9658497265
 20
6.5446501868
 30
0.0
 10
3.964186653
 20
6.5464214885
 30
0.0
 10
3.9625408793
 20
6.5481272532
 30
0.0
 10
3.9609534239
 20
6.5497250206
 30
0.0
 10
3.9596797481
 20
6.5509651687
 30
0.0
 10
3.9587185141
 20
6.5518724258
 30
0.0
 10
3.9580557437
 20
6.5524836884
 30
0.0
 10
3.9574354275
 20
6.553040757
 30
0.0
 10
3.9570336367
 20
6.5533903804
 30
0.0
 10
3.9568402695
 20
6.5535552652
 30
0.0
  0
SPLINE
  5
450
100
AcDbEntity
  8
0
100
AcDbSpline
 62
7
  6
CONTINUOUS
 70
0
 71
3
 72
19
 73
15
 74
0
 42
0.0000001
 43
0.0000001
 44
0.0000000001
 40
0.0
 40
0.0
 40
0.0
 40
0.0
 40
0.021323639
 40
0.0446706693
 40
0.0719236113
 40
0.1042830962
 40
0.1424625448
 40
0.1868834529
 40
0.2378009457
 40
0.2953687251
 40
0.4307640148
 40
0.5934076766
 40
0.7832437431
 40
1.0
 40
1.0
 40
1.0
 40
1.0
 10
3.8817911324
 20
6.6280297899
 30
0.0
 10
3.8817984553
 20
6.6280371127
 30
0.0
 10
3.8818167209
 20
6.6280497461
 30
0.0
 10
3.8818507924
 20
6.628059326
 30
0.0
 10
3.8818913445
 20
6.6280605225
 30
0.0
 10
3.8819385133
 20
6.6280537448
 30
0.0
 10
3.8819924924
 20
6.6280391
 30
0.0
 10
3.8820533707
 20
6.6280165874
 30
0.0
 10
3.8821211746
 20
6.6279861955
 30
0.0
 10
3.8822266118
 20
6.6279321426
 30
0.0
 10
3.8823750732
 20
6.6278435993
 30
0.0
 10
3.8825718341
 20
6.6277114734
 30
0.0
 10
3.8827951801
 20
6.6275484507
 30
0.0
 10
3.8829511879
 20
6.627427354
 30
0.0
 10
3.8830336354
 20
6.6273618993
 30
0.0
  0
SPLINE
  5
451
100
AcDbEntity
  8
0
100
AcDbSpline
 62
7
  6
CONTINUOUS
 70
0
 71
3
 72
43
 73
39
 74
0
 42
0.0000001
 43
0.0000001
 44
0.0000000001
 40
0.0
 40
0.0
 40
0.0
 40
0.0
 40
0.0008472024
 40
0.0017682482
 40
0.0028112686
 40
0.0040095498
 40
0.0053849168
 40
0.0069515212
 40
0.008718604
 40
0.0106923071
 40
0.0152735098
 40
0.0207140807
 40
0.0270193494
 40
0.0341875452
 40
0.0422122137
 40
0.0510834856
 40
0.060788785
 40
0.0713132623
 40
0.0947501949
 40
0.1212391227
 40
0.1505993315
 40
0.1826277881
 40
0.2171012312
 40
0.2537780793
 40
0.332693981
 40
0.4171451777
 40
0.5047259764
 40
0.5929232231
 40
0.6791896888
 40
0.7610224539
 40
0.7995263754
 40
0.8360444386
 40
0.8703120911
 40
0.9020824173
 40
0.9311284543
 40
0.9572454456
 40
0.9802533356
 40
1.0
 40
1.0
 40
1.0
 40
1.0
 10
3.9026745565
 20
6.6047190402
 30
0.0
 10
3.9026805767
 20
6.6047250606
 30
0.0
 10
3.9026913386
 20
6.6047395316
 30
0.0
 10
3.902701929
 20
6.6047659776
 30
0.0
 10
3.9027075782
 20
6.6047974211
 30
0.0
 10
3.9027084499
 20
6.6048338607
 30
0.0
 10
3.9027046241
 20
6.604875362
 30
0.0
 10
3.902696119
 20
6.6049219628
 30
0.0
 10
3.9026829416
 20
6.6049736802
 30
0.0
 10
3.9026578476
 20
6.6050534927
 30
0.0
 10
3.9026138291
 20
6.605165854
 30
0.0
 10
3.9025449789
 20
6.6053148503
 30
0.0
 10
3.9024577076
 20
6.6054837631
 30
0.0
 10
3.9023521446
 20
6.6056722962
 30
0.0
 10
3.9022284351
 20
6.6058801176
 30
0.0
 10
3.9020867829
 20
6.606106851
 30
0.0
 10
3.9019274308
 20
6.6063520889
 30
0.0
 10
3.9016828002
 20
6.6067164198
 30
0.0
 10
3.9013341856
 20
6.6072140023
 30
0.0
 10
3.9008643883
 20
6.6078575938
 30
0.0
 10
3.9003325775
 20
6.6085626743
 30
0.0
 10
3.8997425059
 20
6.6093242041
 30
0.0
 10
3.8990983345
 20
6.6101367476
 30
0.0
 10
3.8981499603
 20
6.6113093375
 30
0.0
 10
3.8968650829
 20
6.6128555989
 30
0.0
 10
3.8952252715
 20
6.6147716731
 30
0.0
 10
3.8934987011
 20
6.6167359622
 30
0.0
 10
3.8917351212
 20
6.6186917241
 30
0.0
 10
3.8899856645
 20
6.6205821505
 30
0.0
 10
3.8885543987
 20
6.622086365
 30
0.0
 10
3.887453901
 20
6.623214949
 30
0.0
 10
3.8866801623
 20
6.6239944577
 30
0.0
 10
3.8859468536
 20
6.6247186842
 30
0.0
 10
3.8852593521
 20
6.6253823502
 30
0.0
 10
3.8846226979
 20
6.6259806481
 30
0.0
 10
3.8840415501
 20
6.6265092969
 30
0.0
 10
3.8835201563
 20
6.6269645444
 30
0.0
 10
3.8831890555
 20
6.6272385121
 30
0.0
 10
3.8830336354
 20
6.6273618993
 30
0.0
  0
LINE
  5
452
100
AcDbEntity
  8
0
100
AcDbLine
 62
7
  6
CONTINUOUS
 10
3.8196083809
 20
6.6905333801
 11
3.819976705
 21
6.6904188298
  0
SPLINE
  5
453
100
AcDbEntity
  8
0
100
AcDbSpline
 62
7
  6
CONTINUOUS
 70
0
 71
3
 72
47
 73
43
 74
0
 42
0.0000001
 43
0.0000001
 44
0.0000000001
 40
0.0
 40
0.0
 40
0.0
 40
0.0
 40
0.0007395496
 40
0.0015832566
 40
0.0025907529
 40
0.0037972875
 40
0.0052230867
 40
0.0068799474
 40
0.0087749385
 40
0.0109123363
 40
0.0159226381
 40
0.021919767
 40
0.0289015179
 40
0.0368596379
 40
0.0457816426
 40
0.0556517539
 40
0.0664514263
 40
0.078159669
 40
0.1042067386
 40
0.1335837567
 40
0.166051918
 40
0.2013461173
 40
0.2391775055
 40
0.2792359364
 40
0.3647014514
 40
0.4549321837
 40
0.5469435859
 40
0.6376717478
 40
0.7240754417
 40
0.7647381602
 40
0.8032444258
 40
0.8392687243
 40
0.8725072306
 40
0.9026810306
 40
0.9295392567
 40
0.9528623555
 40
0.9631393851
 40
0.9724666097
 40
0.9808274865
 40
0.988208659
 40
0.9946008734
 40
1.0
 40
1.0
 40
1.0
 40
1.0
 10
3.8401710176
 20
6.666901843
 30
0.0
 10
3.8401764461
 20
6.6669072716
 30
0.0
 10
3.8401858222
 20
6.6669212488
 30
0.0
 10
3.8401931955
 20
6.6669474154
 30
0.0
 10
3.8401950142
 20
6.6669792748
 30
0.0
 10
3.8401914734
 20
6.6670169898
 30
0.0
 10
3.8401826273
 20
6.6670606882
 30
0.0
 10
3.8401684641
 20
6.6671104213
 30
0.0
 10
3.8401489777
 20
6.6671662009
 30
0.0
 10
3.8401139756
 20
6.6672533293
 30
0.0
 10
3.8400560146
 20
6.667376968
 30
0.0
 10
3.8399687811
 20
6.6675421294
 30
0.0
 10
3.8398606087
 20
6.6677306843
 30
0.0
 10
3.8397317033
 20
6.6679422326
 30
0.0
 10
3.8395822956
 20
6.6681763237
 30
0.0
 10
3.8394126857
 20
6.6684324576
 30
0.0
 10
3.8392232209
 20
6.6687100919
 30
0.0
 10
3.8389342018
 20
6.6691230533
 30
0.0
 10
3.8385257687
 20
6.6696877653
 30
0.0
 10
3.8379798367
 20
6.6704188438
 30
0.0
 10
3.8373665256
 20
6.6712193114
 30
0.0
 10
3.8366908947
 20
6.6720825124
 30
0.0
 10
3.8359585057
 20
6.6730012862
 30
0.0
 10
3.8348910739
 20
6.6743189656
 30
0.0
 10
3.8334625312
 20
6.6760440592
 30
0.0
 10
3.8316641903
 20
6.678162871
 30
0.0
 10
3.8298060782
 20
6.6803023717
 30
0.0
 10
3.8279502507
 20
6.6823909961
 30
0.0
 10
3.8264282663
 20
6.6840629851
 30
0.0
 10
3.8252578455
 20
6.6853217149
 30
0.0
 10
3.8244368245
 20
6.6861911469
 30
0.0
 10
3.8236616946
 20
6.6869978584
 30
0.0
 10
3.8229390681
 20
6.6877349944
 30
0.0
 10
3.8222751242
 20
6.6883963298
 30
0.0
 10
3.8216755237
 20
6.6889762871
 30
0.0
 10
3.8212162871
 20
6.6894041569
 30
0.0
 10
3.8208841949
 20
6.6897013234
 30
0.0
 10
3.8206648377
 20
6.6898914985
 30
0.0
 10
3.820464965
 20
6.6900581897
 30
0.0
 10
3.8202849921
 20
6.6902010873
 30
0.0
 10
3.820125302
 20
6.6903199328
 30
0.0
 10
3.8200240629
 20
6.6903888537
 30
0.0
 10
3.819976705
 20
6.6904188298
 30
0.0
  0
LINE
  5
454
100
AcDbEntity
  8
0
100
AcDbLine
 62
7
  6
CONTINUOUS
 10
3.7972485532
 20
6.7001223216
 11
3.798955205
 21
6.6983963622
  0
SPLINE
  5
455
100
AcDbEntity
  8
0
100
AcDbSpline
 62
7
  6
CONTINUOUS
 70
0
 71
3
 72
40
 73
36
 74
0
 42
0.0000001
 43
0.0000001
 44
0.0000000001
 40
0.0
 40
0.0
 40
0.0
 40
0.0
 40
0.0004259012
 40
0.0009303248
 40
0.0015555265
 40
0.0023240083
 40
0.0032477027
 40
0.004333295
 40
0.0055847607
 40
0.0070044971
 40
0.0103538253
 40
0.0143875484
 40
0.0191064945
 40
0.0245086972
 40
0.0305904007
 40
0.0373464105
 40
0.0447704071
 40
0.0528551289
 40
0.0709730054
 40
0.0916251524
 40
0.1147246219
 40
0.140173514
 40
0.1678637131
 40
0.1976775205
 40
0.2294881943
 40
0.2631606038
 40
0.3355115003
 40
0.4135039716
 40
0.4958166213
 40
0.5810543043
 40
0.6677702592
 40
0.7544893626
 40
0.8397322461
 40
0.9220401535
 40
1.0
 40
1.0
 40
1.0
 40
1.0
 10
4.3915949042
 20
6.1027143464
 30
0.0
 10
4.39159727
 20
6.1027167121
 30
0.0
 10
4.391603696
 20
6.1027206646
 30
0.0
 10
4.3916158293
 20
6.1027230682
 30
0.0
 10
4.3916308095
 20
6.1027226914
 30
0.0
 10
4.3916487907
 20
6.1027195948
 30
0.0
 10
4.3916698503
 20
6.102713792
 30
0.0
 10
4.3916940196
 20
6.102705263
 30
0.0
 10
4.3917213079
 20
6.1026939997
 30
0.0
 10
4.3917642694
 20
6.1026742018
 30
0.0
 10
4.3918256068
 20
6.1026421945
 30
0.0
 10
4.3919080392
 20
6.1025948096
 30
0.0
 10
4.3920027645
 20
6.1025365519
 30
0.0
 10
4.3921096786
 20
6.1024674743
 30
0.0
 10
4.3922286614
 20
6.1023876321
 30
0.0
 10
4.3923595802
 20
6.1022971054
 30
0.0
 10
4.392502291
 20
6.1021959884
 30
0.0
 10
4.3927163467
 20
6.1020412034
 30
0.0
 10
4.3930118825
 20
6.1018217923
 30
0.0
 10
4.393398593
 20
6.1015273914
 30
0.0
 10
4.3938279539
 20
6.1011939851
 30
0.0
 10
4.3942981084
 20
6.1008230018
 30
0.0
 10
4.3948070282
 20
6.1004160232
 30
0.0
 10
4.3953525271
 20
6.0999747874
 30
0.0
 10
4.3959322699
 20
6.0995011782
 30
0.0
 10
4.3967678262
 20
6.098812558
 30
0.0
 10
4.3978778978
 20
6.097886635
 30
0.0
 10
4.3992738168
 20
6.0967069557
 30
0.0
 10
4.4007399371
 20
6.0954535612
 30
0.0
 10
4.4022513412
 20
6.094147723
 30
0.0
 10
4.4037823151
 20
6.092811628
 30
0.0
 10
4.4053067647
 20
6.091468032
 30
0.0
 10
4.4067986418
 20
6.0901398856
 30
0.0
 10
4.4082323784
 20
6.0888499523
 30
0.0
 10
4.4091634788
 20
6.0880025452
 30
0.0
 10
4.4096149996
 20
6.0875888115
 30
0.0
  0
SPLINE
  5
456
100
AcDbEntity
  8
0
100
AcDbSpline
 62
7
  6
CONTINUOUS
 70
0
 71
3
 72
31
 73
27
 74
0
 42
0.0000001
 43
0.0000001
 44
0.0000000001
 40
0.0
 40
0.0
 40
0.0
 40
0.0
 40
0.0015554391
 40
0.0033195959
 40
0.0054190946
 40
0.0079298628
 40
0.0108958575
 40
0.0143431729
 40
0.0182876319
 40
0.0227391743
 40
0.0331847419
 40
0.0457063893
 40
0.0603079129
 40
0.0769813809
 40
0.0957110167
 40
0.1164750965
 40
0.1392470517
 40
0.1639961964
 40
0.2192845147
 40
0.2820253174
 40
0.3518542858
 40
0.4283623439
 40
0.5110995866
 40
0.5995780834
 40
0.7916367032
 40
1.0
 40
1.0
 40
1.0
 40
1.0
 10
4.3400363539
 20
6.1545384369
 30
0.0
 10
4.3400402697
 20
6.1545423526
 30
0.0
 10
4.3400503011
 20
6.1545491192
 30
0.0
 10
4.3400690695
 20
6.1545544363
 30
0.0
 10
4.3400918536
 20
6.154555699
 30
0.0
 10
4.3401187683
 20
6.1545530571
 30
0.0
 10
4.3401499115
 20
6.1545465524
 30
0.0
 10
4.3401853261
 20
6.1545361751
 30
0.0
 10
4.3402250281
 20
6.1545219198
 30
0.0
 10
4.3402870521
 20
6.1544963235
 30
0.0
 10
4.3403750704
 20
6.1544539516
 30
0.0
 10
4.3404926778
 20
6.1543901881
 30
0.0
 10
4.3406270688
 20
6.1543110706
 30
0.0
 10
4.3407780416
 20
6.1542166999
 30
0.0
 10
4.3409453666
 20
6.154107186
 30
0.0
 10
4.3411287876
 20
6.1539826818
 30
0.0
 10
4.3413280265
 20
6.1538433672
 30
0.0
 10
4.3416255227
 20
6.1536301255
 30
0.0
 10
4.3420341076
 20
6.153327678
 30
0.0
 10
4.3425657118
 20
6.152921813
 30
0.0
 10
4.3431519493
 20
6.1524631043
 30
0.0
 10
4.3437893071
 20
6.151954273
 30
0.0
 10
4.3444739737
 20
6.1513983319
 30
0.0
 10
4.3454721108
 20
6.1505758759
 30
0.0
 10
4.3468046525
 20
6.1494560164
 30
0.0
 10
4.3478865106
 20
6.14852762
 30
0.0
 10
4.3484473105
 20
6.1480420393
 30
0.0
  0
SPLINE
  5
457
100
AcDbEntity
  8
0
100
AcDbSpline
 62
7
  6
CONTINUOUS
 70
0
 71
3
 72
25
 73
21
 74
0
 42
0.0000001
 43
0.0000001
 44
0.0000000001
 40
0.0
 40
0.0
 40
0.0
 40
0.0
 40
0.0062508588
 40
0.013146423
 40
0.021120335
 40
0.0304552859
 40
0.0413265262
 40
0.0538426221
 40
0.068071992
 40
0.0840588549
 40
0.1214017386
 40
0.1659980223
 40
0.2178754084
 40
0.2770101072
 40
0.3433441807
 40
0.4167943951
 40
0.5846076415
 40
0.6787169296
 40
0.7794303754
 40
1.0
 40
1.0
 40
1.0
 40
1.0
 10
4.2728439492
 20
6.2220769128
 30
0.0
 10
4.2728490586
 20
6.222082022
 30
0.0
 10
4.272861666
 20
6.222091011
 30
0.0
 10
4.2728849923
 20
6.2220990051
 30
0.0
 10
4.2729129487
 20
6.2221021941
 30
0.0
 10
4.2729455864
 20
6.2221007632
 30
0.0
 10
4.2729829971
 20
6.2220947808
 30
0.0
 10
4.2730252273
 20
6.2220842527
 30
0.0
 10
4.2730722964
 20
6.2220691785
 30
0.0
 10
4.2731453622
 20
6.2220415302
 30
0.0
 10
4.273248548
 20
6.2219947355
 30
0.0
 10
4.2733857754
 20
6.2219232528
 30
0.0
 10
4.2735418833
 20
6.2218338118
 30
0.0
 10
4.2737166074
 20
6.2217265393
 30
0.0
 10
4.2739096527
 20
6.2216015809
 30
0.0
 10
4.2742043618
 20
6.2214026158
 30
0.0
 10
4.2745202891
 20
6.2211778334
 30
0.0
 10
4.2748578633
 20
6.2209293069
 30
0.0
 10
4.2752416606
 20
6.2206407346
 30
0.0
 10
4.2755354861
 20
6.2204135552
 30
0.0
 10
4.2757361721
 20
6.2202562853
 30
0.0
  0
SPLINE
  5
458
100
AcDbEntity
  8
0
100
AcDbSpline
 62
7
  6
CONTINUOUS
 70
0
 71
3
 72
19
 73
15
 74
0
 42
0.0000001
 43
0.0000001
 44
0.0000000001
 40
0.0
 40
0.0
 40
0.0
 40
0.0
 40
0.0202136562
 40
0.0430061509
 40
0.0701233523
 40
0.1026116583
 40
0.1410692543
 40
0.1858423464
 40
0.2371343185
 40
0.2950648863
 40
0.4310558635
 40
0.5940072949
 40
0.7837694595
 40
1.0
 40
1.0
 40
1.0
 40
1.0
 10
4.1945967454
 20
6.3007271425
 30
0.0
 10
4.1946041076
 20
6.3007345045
 30
0.0
 10
4.1946229578
 20
6.3007471632
 30
0.0
 10
4.1946582607
 20
6.3007566505
 30
0.0
 10
4.1947009289
 20
6.3007580661
 30
0.0
 10
4.1947511837
 20
6.3007517328
 30
0.0
 10
4.1948092099
 20
6.3007377338
 30
0.0
 10
4.194875079
 20
6.3007160538
 30
0.0
 10
4.1949488022
 20
6.3006866857
 30
0.0
 10
4.1950638091
 20
6.3006343855
 30
0.0
 10
4.1952265254
 20
6.3005485779
 30
0.0
 10
4.1954431905
 20
6.3004203269
 30
0.0
 10
4.1956898626
 20
6.30026202
 30
0.0
 10
4.1958627201
 20
6.3001442929
 30
0.0
 10
4.1959541323
 20
6.3000806666
 30
0.0
  0
SPLINE
  5
459
100
AcDbEntity
  8
0
100
AcDbSpline
 62
7
  6
CONTINUOUS
 70
0
 71
3
 72
22
 73
18
 74
0
 42
0.0000001
 43
0.0000001
 44
0.0000000001
 40
0.0
 40
0.0
 40
0.0
 40
0.0
 40
0.0085632295
 40
0.0175285055
 40
0.0272477927
 40
0.0379985031
 40
0.0633244308
 40
0.0945889228
 40
0.1323149733
 40
0.1767762382
 40
0.2281156565
 40
0.2864002594
 40
0.3516504403
 40
0.4238546793
 40
0.5889581332
 40
0.7812383089
 40
1.0
 40
1.0
 40
1.0
 40
1.0
 10
4.1106271631
 20
6.385129246
 30
0.0
 10
4.1106318508
 20
6.3851339336
 30
0.0
 10
4.1106425669
 20
6.3851424694
 30
0.0
 10
4.1106616078
 20
6.3851518567
 30
0.0
 10
4.1106836641
 20
6.3851580112
 30
0.0
 10
4.1107189802
 20
6.3851622009
 30
0.0
 10
4.1107713776
 20
6.385158358
 30
0.0
 10
4.110842662
 20
6.3851419122
 30
0.0
 10
4.1109258527
 20
6.385113362
 30
0.0
 10
4.1110209476
 20
6.385072674
 30
0.0
 10
4.1111279379
 20
6.3850198194
 30
0.0
 10
4.111246726
 20
6.3849548133
 30
0.0
 10
4.1113771987
 20
6.3848777003
 30
0.0
 10
4.1115755828
 20
6.3847531289
 30
0.0
 10
4.1118510981
 20
6.3845666982
 30
0.0
 10
4.1122126134
 20
6.3843053722
 30
0.0
 10
4.1124660141
 20
6.3841128425
 30
0.0
 10
4.1125999517
 20
6.3840091945
 30
0.0
  0
SPLINE
  5
45A
100
AcDbEntity
  8
0
100
AcDbSpline
 62
7
  6
CONTINUOUS
 70
0
 71
3
 72
24
 73
20
 74
0
 42
0.0000001
 43
0.0000001
 44
0.0000000001
 40
0.0
 40
0.0
 40
0.0
 40
0.0
 40
0.0071664282
 40
0.0148027968
 40
0.0233326184
 40
0.0330622282
 40
0.0441979616
 40
0.0568761932
 40
0.0871772181
 40
0.1244085596
 40
0.1687588281
 40
0.2203037683
 40
0.2790551105
 40
0.344983489
 40
0.4180300583
 40
0.4981129215
 40
0.5851313739
 40
0.7794889671
 40
1.0
 40
1.0
 40
1.0
 40
1.0
 10
4.0266575916
 20
6.4695313603
 30
0.0
 10
4.0266629847
 20
6.4695367532
 30
0.0
 10
4.0266757546
 20
6.4695463663
 30
0.0
 10
4.0266989987
 20
6.4695557237
 30
0.0
 10
4.0267263303
 20
6.4695603734
 30
0.0
 10
4.0267577187
 20
6.4695604773
 30
0.0
 10
4.0267932227
 20
6.4695561271
 30
0.0
 10
4.0268495109
 20
6.4695436291
 30
0.0
 10
4.0269303746
 20
6.4695155336
 30
0.0
 10
4.0270388698
 20
6.4694662746
 30
0.0
 10
4.0271639084
 20
6.4693994845
 30
0.0
 10
4.0273053274
 20
6.4693152138
 30
0.0
 10
4.0274629405
 20
6.4692135089
 30
0.0
 10
4.0276365067
 20
6.4690944934
 30
0.0
 10
4.0278257579
 20
6.4689583237
 30
0.0
 10
4.0280304003
 20
6.4688051975
 30
0.0
 10
4.0283347399
 20
6.4685698932
 30
0.0
 10
4.0287504995
 20
6.4682344816
 30
0.0
 10
4.0290885209
 20
6.4679503935
 30
0.0
 10
4.0292670213
 20
6.4677980395
 30
0.0
  0
LINE
  5
45B
100
AcDbEntity
  8
0
100
AcDbLine
 62
7
  6
CONTINUOUS
 10
3.9484104175
 20
6.5481816198
 11
3.9494856136
 21
6.5475943629
  0
LINE
  5
45C
100
AcDbEntity
  8
0
100
AcDbLine
 62
7
  6
CONTINUOUS
 10
3.8607145481
 20
6.6261534206
 11
3.8613939096
 21
6.6254732641
  0
SPLINE
  5
45D
100
AcDbEntity
  8
0
100
AcDbSpline
 62
7
  6
CONTINUOUS
 70
0
 71
3
 72
38
 73
34
 74
0
 42
0.0000001
 43
0.0000001
 44
0.0000000001
 40
0.0
 40
0.0
 40
0.0
 40
0.0
 40
0.0003357419
 40
0.0007547501
 40
0.0012985827
 40
0.001986429
 40
0.0028275954
 40
0.0038270012
 40
0.0049874018
 40
0.0063104413
 40
0.0094477521
 40
0.013242629
 40
0.0176950036
 40
0.0228027988
 40
0.0285625599
 40
0.0349698493
 40
0.0497046179
 40
0.0669554902
 40
0.0866598577
 40
0.1087452437
 40
0.1331299486
 40
0.1597235519
 40
0.188427335
 40
0.2191347372
 40
0.2517317549
 40
0.322104162
 40
0.3985014507
 40
0.4797916036
 40
0.5647702002
 40
0.6521777183
 40
0.7407174453
 40
0.8290741645
 40
1.0
 40
1.0
 40
1.0
 40
1.0
 10
4.3208604976
 20
6.1636400127
 30
0.0
 10
4.3208622028
 20
6.1636417179
 30
0.0
 10
4.3208671925
 20
6.163644404
 30
0.0
 10
4.3208766068
 20
6.1636452492
 30
0.0
 10
4.3208884166
 20
6.1636437405
 30
0.0
 10
4.3209028178
 20
6.1636398463
 30
0.0
 10
4.3209198751
 20
6.1636335711
 30
0.0
 10
4.3209396124
 20
6.1636248843
 30
0.0
 10
4.3209620344
 20
6.1636137791
 30
0.0
 10
4.3209975738
 20
6.163594616
 30
0.0
 10
4.3210485589
 20
6.163564305
 30
0.0
 10
4.3211173797
 20
6.1635201326
 30
0.0
 10
4.3211967992
 20
6.1634663274
 30
0.0
 10
4.3212867407
 20
6.1634029321
 30
0.0
 10
4.3213871167
 20
6.1633299929
 30
0.0
 10
4.3215421015
 20
6.1632146028
 30
0.0
 10
4.3217608669
 20
6.1630467063
 30
0.0
 10
4.3220524177
 20
6.1628168456
 30
0.0
 10
4.3223828028
 20
6.1625510033
 30
0.0
 10
4.3227507751
 20
6.1622501674
 30
0.0
 10
4.3231549458
 20
6.1619154496
 30
0.0
 10
4.3235937981
 20
6.1615480957
 30
0.0
 10
4.3240656888
 20
6.1611494719
 30
0.0
 10
4.3245688561
 20
6.1607210627
 30
0.0
 10
4.3252977536
 20
6.1600961273
 30
0.0
 10
4.3262718489
 20
6.159253017
 30
0.0
 10
4.3275049696
 20
6.1581748075
 30
0.0
 10
4.3288120196
 20
6.1570217988
 30
0.0
 10
4.3301735979
 20
6.1558110857
 30
0.0
 10
4.3315694887
 20
6.1545606211
 30
0.0
 10
4.3329789619
 20
6.1532889722
 30
0.0
 10
4.334827923
 20
6.1516089831
 30
0.0
 10
4.3361996651
 20
6.1503494314
 30
0.0
 10
4.3371004702
 20
6.1495153474
 30
0.0
  0
LINE
  5
45E
100
AcDbEntity
  8
0
100
AcDbLine
 62
7
  6
CONTINUOUS
 10
4.3371004702
 20
6.1495153474
 11
4.3372050394
 21
6.1494184913
  0
SPLINE
  5
45F
100
AcDbEntity
  8
0
100
AcDbSpline
 62
7
  6
CONTINUOUS
 70
0
 71
3
 72
28
 73
24
 74
0
 42
0.0000001
 43
0.0000001
 44
0.0000000001
 40
0.0
 40
0.0
 40
0.0
 40
0.0
 40
0.0017614239
 40
0.0036819088
 40
0.005871336
 40
0.0084046066
 40
0.0146727435
 40
0.0227137255
 40
0.0326227509
 40
0.0444462841
 40
0.0582069335
 40
0.0739148509
 40
0.091572087
 40
0.1111757706
 40
0.1561908789
 40
0.2088745001
 40
0.2691046712
 40
0.3367317213
 40
0.4115817278
 40
0.4934586893
 40
0.5821459329
 40
0.778987094
 40
1.0
 40
1.0
 40
1.0
 40
1.0
 10
4.2653600876
 20
6.2194259386
 30
0.0
 10
4.2653622528
 20
6.2194281037
 30
0.0
 10
4.2653674998
 20
6.2194319494
 30
0.0
 10
4.2653771357
 20
6.2194355865
 30
0.0
 10
4.2653886165
 20
6.2194373308
 30
0.0
 10
4.2654077789
 20
6.2194371928
 30
0.0
 10
4.2654367239
 20
6.2194316769
 30
0.0
 10
4.2654767745
 20
6.2194185654
 30
0.0
 10
4.2655244855
 20
6.2193983729
 30
0.0
 10
4.2655798442
 20
6.2193710806
 30
0.0
 10
4.2656428502
 20
6.2193366536
 30
0.0
 10
4.2657134611
 20
6.2192950958
 30
0.0
 10
4.265791634
 20
6.219246422
 30
0.0
 10
4.2659115068
 20
6.2191683879
 30
0.0
 10
4.2660795402
 20
6.219052807
 30
0.0
 10
4.2663021408
 20
6.2188920918
 30
0.0
 10
4.2665533838
 20
6.2187039807
 30
0.0
 10
4.2668325789
 20
6.2184889717
 30
0.0
 10
4.2671389566
 20
6.2182476272
 30
0.0
 10
4.2674716807
 20
6.2179805958
 30
0.0
 10
4.2679666978
 20
6.217577001
 30
0.0
 10
4.2686435005
 20
6.2170136506
 30
0.0
 10
4.2691970922
 20
6.2165433409
 30
0.0
 10
4.2694889158
 20
6.2162934375
 30
0.0
  0
LINE
  5
460
100
AcDbEntity
  8
0
100
AcDbLine
 62
7
  6
CONTINUOUS
 10
4.1905845953
 20
6.2945861204
 11
4.1909073369
 21
6.2945012447
  0
SPLINE
  5
461
100
AcDbEntity
  8
0
100
AcDbSpline
 62
7
  6
CONTINUOUS
 70
0
 71
3
 72
22
 73
18
 74
0
 42
0.0000001
 43
0.0000001
 44
0.0000000001
 40
0.0
 40
0.0
 40
0.0
 40
0.0
 40
0.0076044085
 40
0.0156647434
 40
0.0245667661
 40
0.0345992318
 40
0.0587705509
 40
0.0891901695
 40
0.1263166979
 40
0.1703831067
 40
0.2215086841
 40
0.2797509892
 40
0.3451279412
 40
0.4176329675
 40
0.5839025246
 40
0.7782022921
 40
1.0
 40
1.0
 40
1.0
 40
1.0
 10
4.1055530531
 20
6.3800551361
 30
0.0
 10
4.1055561734
 20
6.3800582563
 30
0.0
 10
4.1055634609
 20
6.3800638743
 30
0.0
 10
4.1055766033
 20
6.3800696764
 30
0.0
 10
4.1055919907
 20
6.3800730353
 30
0.0
 10
4.1056170468
 20
6.3800744114
 30
0.0
 10
4.1056544735
 20
6.3800692538
 30
0.0
 10
4.1057056721
 20
6.3800544291
 30
0.0
 10
4.1057659403
 20
6.3800304978
 30
0.0
 10
4.1058352751
 20
6.3799974281
 30
0.0
 10
4.1059136815
 20
6.379955184
 30
0.0
 10
4.1060011011
 20
6.3799037697
 30
0.0
 10
4.1060974718
 20
6.379843209
 30
0.0
 10
4.1062446391
 20
6.3797457623
 30
0.0
 10
4.1064499382
 20
6.3796007377
 30
0.0
 10
4.1067205841
 20
6.3793983341
 30
0.0
 10
4.106910923
 20
6.3792497469
 30
0.0
 10
4.1070117677
 20
6.3791697777
 30
0.0
  0
SPLINE
  5
462
100
AcDbEntity
  8
0
100
AcDbSpline
 62
7
  6
CONTINUOUS
 70
0
 71
3
 72
25
 73
21
 74
0
 42
0.0000001
 43
0.0000001
 44
0.0000000001
 40
0.0
 40
0.0
 40
0.0
 40
0.0
 40
0.0054188653
 40
0.011478787
 40
0.0186790491
 40
0.0273224834
 40
0.037583074
 40
0.0495625309
 40
0.0633226557
 40
0.0789013282
 40
0.1155961608
 40
0.1597486227
 40
0.2113744106
 40
0.2704448897
 40
0.3369014165
 40
0.4106627813
 40
0.491629425
 40
0.5796857405
 40
0.7765308873
 40
1.0
 40
1.0
 40
1.0
 40
1.0
 10
4.0205215223
 20
6.4655241628
 30
0.0
 10
4.0205255989
 20
6.4655282395
 30
0.0
 10
4.0205360043
 20
6.4655352215
 30
0.0
 10
4.020555509
 20
6.4655402204
 30
0.0
 10
4.0205789594
 20
6.4655404988
 30
0.0
 10
4.0206064924
 20
6.4655362658
 30
0.0
 10
4.0206382306
 20
6.4655275687
 30
0.0
 10
4.0206742298
 20
6.4655143962
 30
0.0
 10
4.02071451
 20
6.4654967375
 30
0.0
 10
4.0207774302
 20
6.4654654374
 30
0.0
 10
4.0208664882
 20
6.4654143555
 30
0.0
 10
4.0209851721
 20
6.465338281
 30
0.0
 10
4.0211206151
 20
6.4652444399
 30
0.0
 10
4.0212726048
 20
6.4651329557
 30
0.0
 10
4.0214408973
 20
6.4650039653
 30
0.0
 10
4.0216252207
 20
6.4648576575
 30
0.0
 10
4.0218252797
 20
6.4646942541
 30
0.0
 10
4.0221238411
 20
6.4644444824
 30
0.0
 10
4.0225333115
 20
6.4640910655
 30
0.0
 10
4.0228674501
 20
6.4637938547
 30
0.0
 10
4.0230442008
 20
6.4636348392
 30
0.0
  0
SPLINE
  5
463
100
AcDbEntity
  8
0
100
AcDbSpline
 62
7
  6
CONTINUOUS
 70
0
 71
3
 72
10
 73
6
 74
0
 42
0.0000001
 43
0.0000001
 44
0.0000000001
 40
0.0
 40
0.0
 40
0.0
 40
0.0
 40
0.1932972779
 40
0.5401976967
 40
1.0
 40
1.0
 40
1.0
 40
1.0
 10
4.2514721635
 20
6.2259117524
 30
0.0
 10
4.2514727149
 20
6.2259123037
 30
0.0
 10
4.2514745825
 20
6.2259135324
 30
0.0
 10
4.2514786654
 20
6.2259142026
 30
0.0
 10
4.2514819167
 20
6.2259138619
 30
0.0
 10
4.2514837452
 20
6.2259135518
 30
0.0
  0
LINE
  5
464
100
AcDbEntity
  8
0
100
AcDbLine
 62
7
  6
CONTINUOUS
 10
4.1018254428
 20
6.3763275258
 11
4.1030635337
 21
6.3754672481
  0
LINE
  5
465
100
AcDbEntity
  8
0
100
AcDbLine
 62
7
  6
CONTINUOUS
 10
4.015426934
 20
6.4631701784
 11
4.0170697333
 21
6.4618525294
  0
LINE
  5
466
100
AcDbEntity
  8
0
100
AcDbLine
 62
7
  6
CONTINUOUS
 10
4.1834263111
 20
6.2895259741
 11
4.1862991661
 21
6.2869241548
  0
LINE
  5
467
100
AcDbEntity
  8
0
100
AcDbLine
 62
7
  6
CONTINUOUS
 10
4.0994408402
 20
6.3739429229
 11
4.1004431703
 21
6.3731379444
  0
SPLINE
  5
468
100
AcDbEntity
  8
0
100
AcDbSpline
 62
7
  6
CONTINUOUS
 70
0
 71
3
 72
65
 73
61
 74
0
 42
0.0000001
 43
0.0000001
 44
0.0000000001
 40
0.0
 40
0.0
 40
0.0
 40
0.0
 40
0.0156235973
 40
0.0312481385
 40
0.0468728086
 40
0.0624975028
 40
0.0781222039
 40
0.0937469085
 40
0.1249962788
 40
0.1562456687
 40
0.1874950667
 40
0.2187444691
 40
0.2499938738
 40
0.3124926427
 40
0.3749914258
 40
0.4374902156
 40
0.4999890079
 40
0.5624878
 40
0.5937372084
 40
0.6249866166
 40
0.6562360245
 40
0.687485432
 40
0.7187348388
 40
0.7499842446
 40
0.7812336488
 40
0.7968583553
 40
0.8124830618
 40
0.8281077684
 40
0.8437324752
 40
0.859357182
 40
0.8749818887
 40
0.8906065947
 40
0.906231301
 40
0.9140436588
 40
0.9218560139
 40
0.9296683734
 40
0.9374807494
 40
0.9452930882
 40
0.953105429
 40
0.960917958
 40
0.9648240671
 40
0.9687299327
 40
0.9726360964
 40
0.9765432741
 40
0.9804497886
 40
0.9843527375
 40
0.9863051453
 40
0.9882611937
 40
0.9902208617
 40
0.9921743567
 40
0.993145315
 40
0.9941121328
 40
0.9950814061
 40
0.9960614604
 40
0.9965580848
 40
0.9970600688
 40
0.9980575317
 40
0.9990144757
 40
0.999493537
 40
1.0
 40
1.0
 40
1.0
 40
1.0
 10
3.7563712952
 20
6.7504478899
 30
0.0
 10
3.7562844982
 20
6.7505843783
 30
0.0
 10
3.7561014516
 20
6.7508512957
 30
0.0
 10
3.7558176368
 20
6.7512448941
 30
0.0
 10
3.755528584
 20
6.7516347182
 30
0.0
 10
3.7552362253
 20
6.7520220497
 30
0.0
 10
3.7549414639
 20
6.7524075586
 30
0.0
 10
3.7545459887
 20
6.7529196766
 30
0.0
 10
3.754047964
 20
6.7535569707
 30
0.0
 10
3.753446167
 20
6.7543184425
 30
0.0
 10
3.7528411218
 20
6.7550773354
 30
0.0
 10
3.7522334221
 20
6.7558341035
 30
0.0
 10
3.7514201385
 20
6.7568406959
 30
0.0
 10
3.750398599
 20
6.7580949392
 30
0.0
 10
3.7491662636
 20
6.7595947194
 30
0.0
 10
3.747928177
 20
6.7610897551
 30
0.0
 10
3.7466847236
 20
6.7625803294
 30
0.0
 10
3.7456441347
 20
6.7638188105
 30
0.0
 10
3.7448089692
 20
6.7648073223
 30
0.0
 10
3.7441812027
 20
6.765547528
 30
0.0
 10
3.7435519839
 20
6.7662864996
 30
0.0
 10
3.7429212274
 20
6.7670241592
 30
0.0
 10
3.7422888177
 20
6.7677604021
 30
0.0
 10
3.7416545987
 20
6.7684950871
 30
0.0
 10
3.7411243981
 20
6.7691058669
 30
0.0
 10
3.7406990769
 20
6.7695934797
 30
0.0
 10
3.7403794549
 20
6.7699586381
 30
0.0
 10
3.7400591433
 20
6.7703231917
 30
0.0
 10
3.7397380689
 20
6.7706870739
 30
0.0
 10
3.73941614
 20
6.7710502003
 30
0.0
 10
3.7390932392
 20
6.7714124631
 30
0.0
 10
3.7387692118
 20
6.7717737188
 30
0.0
 10
3.7384980771
 20
6.772073765
 30
0.0
 10
3.7382803502
 20
6.7723130582
 30
0.0
 10
3.7381165946
 20
6.7724921084
 30
0.0
 10
3.7379523128
 20
6.7726706763
 30
0.0
 10
3.7377874297
 20
6.772848689
 30
0.0
 10
3.7376218329
 20
6.7730260382
 30
0.0
 10
3.7374553778
 20
6.7732025844
 30
0.0
 10
3.7373157975
 20
6.7733488843
 30
0.0
 10
3.737203437
 20
6.7734652505
 30
0.0
 10
3.7371187665
 20
6.7735521338
 30
0.0
 10
3.7370336119
 20
6.7736385585
 30
0.0
 10
3.7369479259
 20
6.7737244661
 30
0.0
 10
3.7368615475
 20
6.7738096318
 30
0.0
 10
3.7367886932
 20
6.7738796803
 30
0.0
 10
3.7367297931
 20
6.7739350962
 30
0.0
 10
3.7366852446
 20
6.7739764034
 30
0.0
 10
3.7366403904
 20
6.774017396
 30
0.0
 10
3.7366023775
 20
6.7740507507
 30
0.0
 10
3.7365714267
 20
6.7740765423
 30
0.0
 10
3.736547905
 20
6.7740953208
 30
0.0
 10
3.7365240266
 20
6.7741137956
 30
0.0
 10
3.7365038756
 20
6.7741291312
 30
0.0
 10
3.7364875502
 20
6.774141505
 30
0.0
 10
3.7364711271
 20
6.7741540481
 30
0.0
 10
3.7364505136
 20
6.7741689536
 30
0.0
 10
3.7364271085
 20
6.7741794473
 30
0.0
 10
3.7364069831
 20
6.7741818703
 30
0.0
 10
3.7363967367
 20
6.7741806915
 30
0.0
 10
3.7363916259
 20
6.77417952
 30
0.0
  0
LINE
  5
469
100
AcDbEntity
  8
0
100
AcDbLine
 62
7
  6
CONTINUOUS
 10
3.735648201
 20
6.7717802435
 11
3.7189945882
 21
6.7916663263
  0
LINE
  5
46A
100
AcDbEntity
  8
0
100
AcDbLine
 62
7
  6
CONTINUOUS
 10
4.1291336161
 20
6.3815386123
 11
4.1234709976
 21
6.3869245372
  0
SPLINE
  5
46B
100
AcDbEntity
  8
0
100
AcDbSpline
 62
7
  6
CONTINUOUS
 70
0
 71
3
 72
26
 73
22
 74
0
 42
0.0000001
 43
0.0000001
 44
0.0000000001
 40
0.0
 40
0.0
 40
0.0
 40
0.0
 40
0.2123645362
 40
0.4045192398
 40
0.492011105
 40
0.5732954668
 40
0.6480483436
 40
0.7159794785
 40
0.7768360903
 40
0.8304082221
 40
0.8765377034
 40
0.896782312
 40
0.9151404515
 40
0.9316179276
 40
0.9462323155
 40
0.9590180366
 40
0.9700361903
 40
0.9793919637
 40
0.9872662196
 40
0.9939690641
 40
1.0
 40
1.0
 40
1.0
 40
1.0
 10
4.1234709976
 20
6.3869245372
 30
0.0
 10
4.1230479267
 20
6.3873042876
 30
0.0
 10
4.1222364313
 20
6.388021431
 30
0.0
 10
4.1212330329
 20
6.388874845
 30
0.0
 10
4.1204855655
 20
6.389487159
 30
0.0
 10
4.1199755523
 20
6.3898932831
 30
0.0
 10
4.119500541
 20
6.3902591868
 30
0.0
 10
4.1190625343
 20
6.3905833654
 30
0.0
 10
4.1186633796
 20
6.3908645339
 30
0.0
 10
4.1183047493
 20
6.3911015732
 30
0.0
 10
4.1180301467
 20
6.3912682577
 30
0.0
 10
4.1178314392
 20
6.391377721
 30
0.0
 10
4.1176999888
 20
6.3914445953
 30
0.0
 10
4.1175796472
 20
6.3914998556
 30
0.0
 10
4.1174705155
 20
6.3915434687
 30
0.0
 10
4.1173726638
 20
6.3915754272
 30
0.0
 10
4.1172861031
 20
6.3915957366
 30
0.0
 10
4.1172107495
 20
6.3916043977
 30
0.0
 10
4.1171463596
 20
6.3916012575
 30
0.0
 10
4.1170927136
 20
6.3915857926
 30
0.0
 10
4.1170639617
 20
6.3915660445
 30
0.0
 10
4.1170525454
 20
6.3915546284
 30
0.0
  0
SPLINE
  5
46C
100
AcDbEntity
  8
0
100
AcDbSpline
 62
7
  6
CONTINUOUS
 70
0
 71
3
 72
61
 73
57
 74
0
 42
0.0000001
 43
0.0000001
 44
0.0000000001
 40
0.0
 40
0.0
 40
0.0
 40
0.0
 40
0.0006005593
 40
0.0009539664
 40
0.0013565577
 40
0.0023339804
 40
0.0035671267
 40
0.0050713918
 40
0.0068545726
 40
0.0089207684
 40
0.0112719756
 40
0.016831295
 40
0.0235303291
 40
0.0313585567
 40
0.0403003725
 40
0.0503362275
 40
0.0614432297
 40
0.0735955017
 40
0.086764411
 40
0.1160247519
 40
0.1489464466
 40
0.1852165141
 40
0.2244905647
 40
0.2663962406
 40
0.3105366257
 40
0.3564937561
 40
0.4038322578
 40
0.5008470708
 40
0.5978955813
 40
0.645270327
 40
0.691267778
 40
0.7354432679
 40
0.7773684165
 40
0.8166356789
 40
0.8528628846
 40
0.885697613
 40
0.9148214525
 40
0.9279027243
 40
0.939954442
 40
0.9509482838
 40
0.9608589258
 40
0.9696642832
 40
0.9773458895
 40
0.9838895358
 40
0.9867317928
 40
0.9892869028
 40
0.9915551495
 40
0.9935377564
 40
0.9952373998
 40
0.996659235
 40
0.9978129739
 40
0.99871794
 40
0.9990895961
 40
0.9994178854
 40
0.9997156722
 40
1.0
 40
1.0
 40
1.0
 40
1.0
 10
3.7907342807
 20
6.7160849044
 30
0.0
 10
3.7907387375
 20
6.7160893613
 30
0.0
 10
3.7907437384
 20
6.7160985716
 30
0.0
 10
3.7907467591
 20
6.7161124921
 30
0.0
 10
3.7907480064
 20
6.7161307099
 30
0.0
 10
3.7907450034
 20
6.7161581338
 30
0.0
 10
3.7907357415
 20
6.716196057
 30
0.0
 10
3.7907204823
 20
6.7162410309
 30
0.0
 10
3.7906992166
 20
6.7162930621
 30
0.0
 10
3.7906719156
 20
6.7163521535
 30
0.0
 10
3.7906247535
 20
6.716445655
 30
0.0
 10
3.7905500323
 20
6.716579612
 30
0.0
 10
3.7904410588
 20
6.7167601001
 30
0.0
 10
3.7903084879
 20
6.7169677172
 30
0.0
 10
3.7901526299
 20
6.7172019454
 30
0.0
 10
3.7899738334
 20
6.7174621985
 30
0.0
 10
3.7897725251
 20
6.7177478318
 30
0.0
 10
3.7895491895
 20
6.7180581438
 30
0.0
 10
3.7892106675
 20
6.7185202659
 30
0.0
 10
3.7887362981
 20
6.719153044
 30
0.0
 10
3.7881075312
 20
6.7199730017
 30
0.0
 10
3.7874068144
 20
6.7208701654
 30
0.0
 10
3.7866408297
 20
6.7218359439
 30
0.0
 10
3.7858168536
 20
6.7228611169
 30
0.0
 10
3.7849427095
 20
6.7239359236
 30
0.0
 10
3.7840266938
 20
6.7250501449
 30
0.0
 10
3.7827506672
 20
6.7265867464
 30
0.0
 10
3.7811183226
 20
6.7285244049
 30
0.0
 10
3.7794684711
 20
6.7304476803
 30
0.0
 10
3.7781565403
 20
6.7319552777
 30
0.0
 10
3.7772034935
 20
6.7330395554
 30
0.0
 10
3.7762826851
 20
6.7340759965
 30
0.0
 10
3.77540307
 20
6.7350545227
 30
0.0
 10
3.7745732345
 20
6.7359655955
 30
0.0
 10
3.7738013077
 20
6.7368003254
 30
0.0
 10
3.7730948615
 20
6.737550555
 30
0.0
 10
3.7725486101
 20
6.7381179101
 30
0.0
 10
3.7721490428
 20
6.7385236287
 30
0.0
 10
3.7718806735
 20
6.7387914757
 30
0.0
 10
3.7716333791
 20
6.7390333101
 30
0.0
 10
3.7714077651
 20
6.7392485525
 30
0.0
 10
3.7712043894
 20
6.7394367057
 30
0.0
 10
3.7710237493
 20
6.7395973325
 30
0.0
 10
3.7708868091
 20
6.7397128582
 30
0.0
 10
3.7707886882
 20
6.7397908346
 30
0.0
 10
3.7707245495
 20
6.7398394162
 30
0.0
 10
3.7706663785
 20
6.7398808897
 30
0.0
 10
3.7706142034
 20
6.7399152466
 30
0.0
 10
3.7705680519
 20
6.7399424903
 30
0.0
 10
3.7705279069
 20
6.7399626612
 30
0.0
 10
3.770493761
 20
6.7399757911
 30
0.0
 10
3.7704686322
 20
6.7399812994
 30
0.0
 10
3.7704517246
 20
6.7399814404
 30
0.0
 10
3.770441331
 20
6.7399796879
 30
0.0
 10
3.7704324051
 20
6.7399760328
 30
0.0
 10
3.7704274786
 20
6.7399722762
 30
0.0
 10
3.7704253686
 20
6.7399701662
 30
0.0
  0
LINE
  5
46D
100
AcDbEntity
  8
0
100
AcDbLine
 62
7
  6
CONTINUOUS
 10
3.7565280093
 20
6.750123244
 11
3.7563712952
 21
6.7504478899
  0
LINE
  5
46E
100
AcDbEntity
  8
0
100
AcDbLine
 62
7
  6
CONTINUOUS
 10
4.445991366
 20
6.0513602012
 11
4.4477173254
 21
6.0496535493
  0
LINE
  5
46F
100
AcDbEntity
  8
0
100
AcDbLine
 62
7
  6
CONTINUOUS
 10
4.373068268
 20
6.1137989057
 11
4.3737484244
 21
6.1131195443
  0
SPLINE
  5
470
100
AcDbEntity
  8
0
100
AcDbSpline
 62
7
  6
CONTINUOUS
 70
0
 71
3
 72
9
 73
5
 74
0
 42
0.0000001
 43
0.0000001
 44
0.0000000001
 40
0.0
 40
0.0
 40
0.0
 40
0.0
 40
0.3258213198
 40
1.0
 40
1.0
 40
1.0
 40
1.0
 10
3.9735085556
 20
6.5038887413
 30
0.0
 10
3.973508772
 20
6.5038874653
 30
0.0
 10
3.9735092642
 20
6.5038836161
 30
0.0
 10
3.9735086503
 20
6.503879053
 30
0.0
 10
3.9735067566
 20
6.5038771593
 30
0.0
  0
SPLINE
  5
471
100
AcDbEntity
  8
0
100
AcDbSpline
 62
7
  6
CONTINUOUS
 70
0
 71
3
 72
32
 73
28
 74
0
 42
0.0000001
 43
0.0000001
 44
0.0000000001
 40
0.0
 40
0.0
 40
0.0
 40
0.0
 40
0.190439274
 40
0.2836394162
 40
0.374313496
 40
0.4616048137
 40
0.5446886921
 40
0.6227802648
 40
0.6951417688
 40
0.7610894306
 40
0.8199999494
 40
0.8466395575
 40
0.8713165988
 40
0.8939727917
 40
0.9145547182
 40
0.9330139852
 40
0.9493074261
 40
0.9633973634
 40
0.9752519776
 40
0.9848460157
 40
0.9887897331
 40
0.9921628699
 40
0.9949654382
 40
0.9971995303
 40
0.9988712271
 40
0.9995013376
 40
1.0
 40
1.0
 40
1.0
 40
1.0
 10
3.9628863027
 20
6.5157236229
 30
0.0
 10
3.963575407
 20
6.5149853037
 30
0.0
 10
3.9645996415
 20
6.5138836776
 30
0.0
 10
3.9659469105
 20
6.5124258181
 30
0.0
 10
3.9669206975
 20
6.5113676459
 30
0.0
 10
3.9678558739
 20
6.5103468553
 30
0.0
 10
3.9687436028
 20
6.5093730981
 30
0.0
 10
3.9695754969
 20
6.5084555846
 30
0.0
 10
3.9703436985
 20
6.5076029987
 30
0.0
 10
3.9710409473
 20
6.5068234134
 30
0.0
 10
3.971573869
 20
6.5062221701
 30
0.0
 10
3.9719596523
 20
6.5057829881
 30
0.0
 10
3.9722175536
 20
6.5054873834
 30
0.0
 10
3.9724532623
 20
6.5052150531
 30
0.0
 10
3.9726662205
 20
6.5049666462
 30
0.0
 10
3.9728559278
 20
6.5047427575
 30
0.0
 10
3.9730219391
 20
6.5045439245
 30
0.0
 10
3.9731638792
 20
6.5043706328
 30
0.0
 10
3.9732814185
 20
6.5042233
 30
0.0
 10
3.9733634816
 20
6.5041165136
 30
0.0
 10
3.9734164316
 20
6.5040441248
 30
0.0
 10
3.9734472235
 20
6.5040001684
 30
0.0
 10
3.9734717891
 20
6.5039629289
 30
0.0
 10
3.9734901081
 20
6.5039324291
 30
0.0
 10
3.9735011647
 20
6.5039110064
 30
0.0
 10
3.9735065349
 20
6.5038971483
 30
0.0
 10
3.9735081134
 20
6.5038913486
 30
0.0
 10
3.9735085556
 20
6.5038887413
 30
0.0
  0
LINE
  5
472
100
AcDbEntity
  8
0
100
AcDbLine
 62
7
  6
CONTINUOUS
 10
4.0345192139
 20
6.4387041033
 11
4.0371209781
 21
6.4358313071
  0
LINE
  5
473
100
AcDbEntity
  8
0
100
AcDbLine
 62
7
  6
CONTINUOUS
 10
4.5193753538
 20
5.9880531103
 11
4.5370185562
 21
5.9733769785
  0
SPLINE
  5
474
100
AcDbEntity
  8
0
100
AcDbSpline
 62
7
  6
CONTINUOUS
 70
0
 71
3
 72
37
 73
33
 74
0
 42
0.0000001
 43
0.0000001
 44
0.0000000001
 40
0.0
 40
0.0
 40
0.0
 40
0.0
 40
0.0003957112
 40
0.000933802
 40
0.00163831
 40
0.0025196099
 40
0.0048296294
 40
0.0078826334
 40
0.0116827463
 40
0.016228989
 40
0.0215176478
 40
0.0275431223
 40
0.0342983345
 40
0.0417749931
 40
0.0588538675
 40
0.0786923686
 40
0.1011879825
 40
0.1262243074
 40
0.1536719565
 40
0.1833895161
 40
0.2152242915
 40
0.2490132483
 40
0.284583845
 40
0.3603373953
 40
0.4409480648
 40
0.5247841894
 40
0.6101494525
 40
0.6953138158
 40
0.7785454733
 40
0.8581439256
 40
0.9324739697
 40
1.0
 40
1.0
 40
1.0
 40
1.0
 10
4.4977182478
 20
6.0089330055
 30
0.0
 10
4.4977214184
 20
6.0089343921
 30
0.0
 10
4.4977297423
 20
6.0089355529
 30
0.0
 10
4.497743999
 20
6.0089338395
 30
0.0
 10
4.4977620038
 20
6.0089290714
 30
0.0
 10
4.4977940298
 20
6.0089173857
 30
0.0
 10
4.4978434497
 20
6.0088939436
 30
0.0
 10
4.4979137263
 20
6.0088554229
 30
0.0
 10
4.49799925
 20
6.0088041569
 30
0.0
 10
4.4980999025
 20
6.0087402134
 30
0.0
 10
4.4982155443
 20
6.0086636179
 30
0.0
 10
4.498346015
 20
6.0085744636
 30
0.0
 10
4.4984911376
 20
6.0084728581
 30
0.0
 10
4.4987139856
 20
6.0083137491
 30
0.0
 10
4.4990272912
 20
6.008084462
 30
0.0
 10
4.4994432845
 20
6.0077731539
 30
0.0
 10
4.4999120696
 20
6.0074162795
 30
0.0
 10
4.5004311901
 20
6.007015695
 30
0.0
 10
4.5009979374
 20
6.0065734687
 30
0.0
 10
4.5016093738
 20
6.0060918841
 30
0.0
 10
4.5022623444
 20
6.0055734191
 30
0.0
 10
4.5029534953
 20
6.0050207341
 30
0.0
 10
4.5039421463
 20
6.0042251131
 30
0.0
 10
4.5052452786
 20
6.0031671855
 30
0.0
 10
4.5068697338
 20
6.0018354161
 30
0.0
 10
4.5085531393
 20
6.0004430058
 30
0.0
 10
4.5102613711
 20
5.9990181604
 30
0.0
 10
4.5119597522
 20
5.997589786
 30
0.0
 10
4.5136137001
 20
5.9961869605
 30
0.0
 10
4.515189393
 20
5.9948383789
 30
0.0
 10
4.5166544399
 20
5.9935717831
 30
0.0
 10
4.517588148
 20
5.9927549753
 30
0.0
 10
4.5180310934
 20
5.9923644413
 30
0.0
  0
SPLINE
  5
475
100
AcDbEntity
  8
0
100
AcDbSpline
 62
7
  6
CONTINUOUS
 70
0
 71
3
 72
32
 73
28
 74
0
 42
0.0000001
 43
0.0000001
 44
0.0000000001
 40
0.0
 40
0.0
 40
0.0
 40
0.0
 40
0.0004986612
 40
0.0011287695
 40
0.0028004597
 40
0.0050345423
 40
0.0078370992
 40
0.0112102236
 40
0.0151539262
 40
0.0247479329
 40
0.0366025142
 40
0.0506924191
 40
0.0669858334
 40
0.0854450797
 40
0.1060269927
 40
0.1286831863
 40
0.1533602395
 40
0.1799998706
 40
0.2389104887
 40
0.3048583106
 40
0.3772200287
 40
0.4553118297
 40
0.5383958431
 40
0.6256871522
 40
0.7163611148
 40
0.8095610737
 40
1.0
 40
1.0
 40
1.0
 40
1.0
 10
4.2514837452
 20
6.2259135518
 30
0.0
 10
4.2514863524
 20
6.2259131096
 30
0.0
 10
4.2514921522
 20
6.2259115311
 30
0.0
 10
4.2515060101
 20
6.2259061609
 30
0.0
 10
4.2515274328
 20
6.2258951043
 30
0.0
 10
4.2515579325
 20
6.2258767855
 30
0.0
 10
4.2515951718
 20
6.22585222
 30
0.0
 10
4.2516391281
 20
6.2258214282
 30
0.0
 10
4.2517115166
 20
6.2257684784
 30
0.0
 10
4.2518183027
 20
6.2256864156
 30
0.0
 10
4.251965635
 20
6.2255688767
 30
0.0
 10
4.2521389263
 20
6.2254269369
 30
0.0
 10
4.252337759
 20
6.225260926
 30
0.0
 10
4.2525616474
 20
6.2250712189
 30
0.0
 10
4.2528100542
 20
6.2248582608
 30
0.0
 10
4.2530823844
 20
6.2246225523
 30
0.0
 10
4.2533779892
 20
6.2243646509
 30
0.0
 10
4.2538171717
 20
6.2239788671
 30
0.0
 10
4.2544184159
 20
6.2234459446
 30
0.0
 10
4.2551980029
 20
6.2227486942
 30
0.0
 10
4.256050591
 20
6.2219804907
 30
0.0
 10
4.2569681066
 20
6.2211485947
 30
0.0
 10
4.257941865
 20
6.2202608647
 30
0.0
 10
4.2589626555
 20
6.2193256884
 30
0.0
 10
4.2600208262
 20
6.2183519027
 30
0.0
 10
4.2614786829
 20
6.2170046363
 30
0.0
 10
4.2625803067
 20
6.215980404
 30
0.0
 10
4.2633186244
 20
6.2152913011
 30
0.0
  0
LINE
  5
476
100
AcDbEntity
  8
0
100
AcDbLine
 62
7
  6
CONTINUOUS
 10
4.2085534259
 20
6.2704260912
 11
4.2107651821
 21
6.2678319302
  0
LINE
  5
477
100
AcDbEntity
  8
0
100
AcDbLine
 62
7
  6
CONTINUOUS
 10
4.1230622265
 20
6.35546856
 11
4.1239225296
 21
6.354230439
  0
LINE
  5
478
100
AcDbEntity
  8
0
100
AcDbLine
 62
7
  6
CONTINUOUS
 10
4.1207331993
 20
6.3528478876
 11
4.1215379267
 21
6.3518458364
  0
LINE
  5
479
100
AcDbEntity
  8
0
100
AcDbLine
 62
7
  6
CONTINUOUS
 10
4.3710875773
 20
6.1156284334
 11
4.373068268
 21
6.1137989057
  0
LINE
  5
47A
100
AcDbEntity
  8
0
100
AcDbLine
 62
7
  6
CONTINUOUS
 10
4.3561017691
 20
6.1290422684
 11
4.3710875773
 21
6.1156284334
  0
LINE
  5
47B
100
AcDbEntity
  8
0
100
AcDbLine
 62
7
  6
CONTINUOUS
 10
4.4282447187
 20
6.0667787874
 11
4.4443977503
 21
6.0528060607
  0
LINE
  5
47C
100
AcDbEntity
  8
0
100
AcDbLine
 62
7
  6
CONTINUOUS
 10
4.2951890792
 20
6.2018909768
 11
4.2957766237
 21
6.2008154136
  0
SPLINE
  5
47D
100
AcDbEntity
  8
0
100
AcDbSpline
 62
7
  6
CONTINUOUS
 70
0
 71
3
 72
25
 73
21
 74
0
 42
0.0000001
 43
0.0000001
 44
0.0000000001
 40
0.0
 40
0.0
 40
0.0
 40
0.0
 40
0.223486274
 40
0.4203241145
 40
0.5083711887
 40
0.5893265176
 40
0.6630754428
 40
0.7295192952
 40
0.788578065
 40
0.8401942178
 40
0.8843399457
 40
0.921031874
 40
0.9366111151
 40
0.9503731881
 40
0.9623567319
 40
0.9726233811
 40
0.981275602
 40
0.9884879419
 40
0.9945631843
 40
1.0
 40
1.0
 40
1.0
 40
1.0
 10
4.211245268
 20
6.2754320451
 30
0.0
 10
4.211403081
 20
6.2752564995
 30
0.0
 10
4.2116980224
 20
6.2749246533
 30
0.0
 10
4.2120487102
 20
6.2745179899
 30
0.0
 10
4.2122965156
 20
6.2742214894
 30
0.0
 10
4.2124586131
 20
6.274022819
 30
0.0
 10
4.2126037364
 20
6.2738397758
 30
0.0
 10
4.212731667
 20
6.2736726506
 30
0.0
 10
4.2128422197
 20
6.2735217115
 30
0.0
 10
4.2129352603
 20
6.2733871983
 30
0.0
 10
4.2130106676
 20
6.2732693208
 30
0.0
 10
4.2130612811
 20
6.27318086
 30
0.0
 10
4.2130922771
 20
6.2731183562
 30
0.0
 10
4.2131097552
 20
6.2730783361
 30
0.0
 10
4.213122782
 20
6.2730425648
 30
0.0
 10
4.2131313666
 20
6.2730110215
 30
0.0
 10
4.2131355206
 20
6.272983651
 30
0.0
 10
4.2131351973
 20
6.2729603321
 30
0.0
 10
4.2131301857
 20
6.2729409318
 30
0.0
 10
4.2131232272
 20
6.2729305791
 30
0.0
 10
4.2131191667
 20
6.2729265184
 30
0.0
  0
SPLINE
  5
47E
100
AcDbEntity
  8
0
100
AcDbSpline
 62
7
  6
CONTINUOUS
 70
0
 71
3
 72
24
 73
20
 74
0
 42
0.0000001
 43
0.0000001
 44
0.0000000001
 40
0.0
 40
0.0
 40
0.0
 40
0.0
 40
0.2205109455
 40
0.4148687179
 40
0.5018872707
 40
0.5819701865
 40
0.6550168394
 40
0.7209453711
 40
0.7796967862
 40
0.8312417446
 40
0.8755920328
 40
0.9128234162
 40
0.9431243827
 40
0.9558025517
 40
0.9669382077
 40
0.9766677622
 40
0.9851974521
 40
0.9928337049
 40
1.0
 40
1.0
 40
1.0
 40
1.0
 10
4.2153929568
 20
6.2816721189
 30
0.0
 10
4.2155453176
 20
6.2814936114
 30
0.0
 10
4.2158294187
 20
6.2811555768
 30
0.0
 10
4.2161648459
 20
6.2807398008
 30
0.0
 10
4.2164001613
 20
6.2804354492
 30
0.0
 10
4.2165532948
 20
6.2802307986
 30
0.0
 10
4.2166894713
 20
6.2800415398
 30
0.0
 10
4.2168084928
 20
6.2798679667
 30
0.0
 10
4.2169102029
 20
6.2797103473
 30
0.0
 10
4.216994478
 20
6.2795689229
 30
0.0
 10
4.2170612718
 20
6.2794438794
 30
0.0
 10
4.2171105338
 20
6.2793353801
 30
0.0
 10
4.2171386312
 20
6.2792545134
 30
0.0
 10
4.2171511302
 20
6.2791982232
 30
0.0
 10
4.2171554809
 20
6.2791627179
 30
0.0
 10
4.2171553776
 20
6.2791313285
 30
0.0
 10
4.2171507278
 20
6.2791039961
 30
0.0
 10
4.2171413704
 20
6.2790807513
 30
0.0
 10
4.2171317573
 20
6.2790679809
 30
0.0
 10
4.2171263642
 20
6.2790625877
 30
0.0
  0
SPLINE
  5
47F
100
AcDbEntity
  8
0
100
AcDbSpline
 62
7
  6
CONTINUOUS
 70
0
 71
3
 72
22
 73
18
 74
0
 42
0.0000001
 43
0.0000001
 44
0.0000000001
 40
0.0
 40
0.0
 40
0.0
 40
0.0
 40
0.2217983119
 40
0.4160987452
 40
0.5823688937
 40
0.654873847
 40
0.7202513073
 40
0.7784934261
 40
0.8296193101
 40
0.8736855086
 40
0.9108119891
 40
0.9412313611
 40
0.9654021583
 40
0.9754342969
 40
0.9843361167
 40
0.9923960436
 40
1.0
 40
1.0
 40
1.0
 40
1.0
 10
4.1267646527
 20
6.3594169263
 30
0.0
 10
4.1268446325
 20
6.35931607
 30
0.0
 10
4.1269932395
 20
6.3591257091
 30
0.0
 10
4.1271956705
 20
6.3588550321
 30
0.0
 10
4.1273407153
 20
6.3586497098
 30
0.0
 10
4.1274381755
 20
6.3585025256
 30
0.0
 10
4.1274987452
 20
6.3584061443
 30
0.0
 10
4.1275501668
 20
6.3583187145
 30
0.0
 10
4.1275924177
 20
6.3582402998
 30
0.0
 10
4.1276254924
 20
6.3581709573
 30
0.0
 10
4.1276494281
 20
6.3581106828
 30
0.0
 10
4.1276642557
 20
6.358059479
 30
0.0
 10
4.1276694152
 20
6.3580220486
 30
0.0
 10
4.1276680392
 20
6.3579969901
 30
0.0
 10
4.1276646812
 20
6.3579816012
 30
0.0
 10
4.1276588789
 20
6.3579684576
 30
0.0
 10
4.1276532602
 20
6.3579611699
 30
0.0
 10
4.1276501398
 20
6.3579580495
 30
0.0
  0
SPLINE
  5
480
100
AcDbEntity
  8
0
100
AcDbSpline
 62
7
  6
CONTINUOUS
 70
0
 71
3
 72
22
 73
18
 74
0
 42
0.0000001
 43
0.0000001
 44
0.0000000001
 40
0.0
 40
0.0
 40
0.0
 40
0.0
 40
0.2187608472
 40
0.4110400495
 40
0.5761426043
 40
0.6483464183
 40
0.7135963466
 40
0.7718806776
 40
0.8232199973
 40
0.8676813307
 40
0.9054075579
 40
0.936672532
 40
0.9619991679
 40
0.9727503677
 40
0.9824701893
 40
0.9914361
 40
1.0
 40
1.0
 40
1.0
 40
1.0
 10
4.1316044437
 20
6.3650046308
 30
0.0
 10
4.1317080715
 20
6.3648707154
 30
0.0
 10
4.1319005634
 20
6.3646173567
 30
0.0
 10
4.132161837
 20
6.3642559011
 30
0.0
 10
4.1323482293
 20
6.3639804313
 30
0.0
 10
4.1324727742
 20
6.3637820798
 30
0.0
 10
4.1325498705
 20
6.3636516283
 30
0.0
 10
4.132614862
 20
6.3635328595
 30
0.0
 10
4.1326677043
 20
6.3634258862
 30
0.0
 10
4.1327083822
 20
6.3633308064
 30
0.0
 10
4.1327369244
 20
6.3632476284
 30
0.0
 10
4.1327533647
 20
6.3631763545
 30
0.0
 10
4.1327572043
 20
6.3631239647
 30
0.0
 10
4.1327530138
 20
6.3630886535
 30
0.0
 10
4.1327468588
 20
6.3630666001
 30
0.0
 10
4.1327374721
 20
6.3630475614
 30
0.0
 10
4.132728937
 20
6.3630368465
 30
0.0
 10
4.1327242498
 20
6.3630321592
 30
0.0
  0
LINE
  5
481
100
AcDbEntity
  8
0
100
AcDbLine
 62
7
  6
CONTINUOUS
 10
4.0420962864
 20
6.4433122628
 11
4.0421811243
 21
6.4429895914
  0
SPLINE
  5
482
100
AcDbEntity
  8
0
100
AcDbSpline
 62
7
  6
CONTINUOUS
 70
0
 71
3
 72
19
 73
15
 74
0
 42
0.0000001
 43
0.0000001
 44
0.0000000001
 40
0.0
 40
0.0
 40
0.0
 40
0.0
 40
0.2162311446
 40
0.4059938168
 40
0.5689456152
 40
0.7049367914
 40
0.7628673282
 40
0.8141593441
 40
0.8589322966
 40
0.8973897998
 40
0.9298778243
 40
0.9569947553
 40
0.9797868089
 40
1.0
 40
1.0
 40
1.0
 40
1.0
 10
4.047675623
 20
6.4483591967
 30
0.0
 10
4.0477392533
 20
6.4482677798
 30
0.0
 10
4.0478569879
 20
6.448094913
 30
0.0
 10
4.0480153053
 20
6.4478482281
 30
0.0
 10
4.0481435649
 20
6.4476315516
 30
0.0
 10
4.0482293787
 20
6.4474688271
 30
0.0
 10
4.0482816827
 20
6.4473538143
 30
0.0
 10
4.0483110532
 20
6.4472800876
 30
0.0
 10
4.048332735
 20
6.4472142153
 30
0.0
 10
4.0483467356
 20
6.4471561863
 30
0.0
 10
4.0483530697
 20
6.4471059292
 30
0.0
 10
4.0483516549
 20
6.4470632592
 30
0.0
 10
4.0483421675
 20
6.447027955
 30
0.0
 10
4.0483295086
 20
6.447009104
 30
0.0
 10
4.0483221464
 20
6.4470017415
 30
0.0
  0
SPLINE
  5
483
100
AcDbEntity
  8
0
100
AcDbSpline
 62
7
  6
CONTINUOUS
 70
0
 71
3
 72
25
 73
21
 74
0
 42
0.0000001
 43
0.0000001
 44
0.0000000001
 40
0.0
 40
0.0
 40
0.0
 40
0.0
 40
0.2205697938
 40
0.321283238
 40
0.4153924925
 40
0.5832056733
 40
0.6566558179
 40
0.7229898071
 40
0.7821244425
 40
0.8340018039
 40
0.8785980724
 40
0.9159409388
 40
0.931927797
 40
0.9461571731
 40
0.9586733011
 40
0.9695445411
 40
0.9788795347
 40
0.986853476
 40
0.9937490852
 40
1.0
 40
1.0
 40
1.0
 40
1.0
 10
3.967851329
 20
6.5281411174
 30
0.0
 10
3.9680085958
 20
6.5279404348
 30
0.0
 10
3.9682357708
 20
6.5276466144
 30
0.0
 10
3.9685243374
 20
6.5272628237
 30
0.0
 10
3.9687728586
 20
6.5269252555
 30
0.0
 10
3.9689976363
 20
6.526609334
 30
0.0
 10
3.9691965971
 20
6.5263146302
 30
0.0
 10
3.9693215526
 20
6.5261215885
 30
0.0
 10
3.9694288226
 20
6.5259468676
 30
0.0
 10
3.9695182616
 20
6.5257907625
 30
0.0
 10
3.9695897426
 20
6.5256535375
 30
0.0
 10
3.969636536
 20
6.5255503536
 30
0.0
 10
3.9696641836
 20
6.5254772891
 30
0.0
 10
3.9696792573
 20
6.5254302207
 30
0.0
 10
3.9696897851
 20
6.5253879912
 30
0.0
 10
3.9696957671
 20
6.5253505811
 30
0.0
 10
3.969697198
 20
6.5253179439
 30
0.0
 10
3.9696940088
 20
6.5252899879
 30
0.0
 10
3.9696860147
 20
6.525266662
 30
0.0
 10
3.9696770259
 20
6.5252540547
 30
0.0
 10
3.9696719167
 20
6.5252489453
 30
0.0
  0
SPLINE
  5
484
100
AcDbEntity
  8
0
100
AcDbSpline
 62
7
  6
CONTINUOUS
 70
0
 71
3
 72
28
 73
24
 74
0
 42
0.0000001
 43
0.0000001
 44
0.0000000001
 40
0.0
 40
0.0
 40
0.0
 40
0.0
 40
0.2210135907
 40
0.4178549105
 40
0.5065420929
 40
0.5884189335
 40
0.6632688073
 40
0.7308957018
 40
0.7911257217
 40
0.8438092138
 40
0.8888242023
 40
0.9084277549
 40
0.9260850329
 40
0.9417928334
 40
0.955553551
 40
0.9673769826
 40
0.977286099
 40
0.9853270143
 40
0.9915952688
 40
0.9941285269
 40
0.9963179691
 40
0.9982385248
 40
1.0
 40
1.0
 40
1.0
 40
1.0
 10
3.9638886409
 20
6.521893679
 30
0.0
 10
3.9641385298
 20
6.5216018712
 30
0.0
 10
3.9646088115
 20
6.5210483098
 30
0.0
 10
3.965172128
 20
6.5203715446
 30
0.0
 10
3.9655756978
 20
6.5198765556
 30
0.0
 10
3.9658427122
 20
6.5195438507
 30
0.0
 10
3.9660840411
 20
6.5192374908
 30
0.0
 10
3.9662990361
 20
6.5189583121
 30
0.0
 10
3.9664871348
 20
6.5187070837
 30
0.0
 10
3.9666478392
 20
6.5184844961
 30
0.0
 10
3.9667634122
 20
6.5183164727
 30
0.0
 10
3.9668414407
 20
6.5181966066
 30
0.0
 10
3.9668901112
 20
6.5181184385
 30
0.0
 10
3.9669316658
 20
6.5180478313
 30
0.0
 10
3.9669660905
 20
6.5179848292
 30
0.0
 10
3.9669933803
 20
6.5179294732
 30
0.0
 10
3.9670135717
 20
6.5178817651
 30
0.0
 10
3.9670266813
 20
6.5178417163
 30
0.0
 10
3.9670321972
 20
6.5178127729
 30
0.0
 10
3.9670323345
 20
6.5177936114
 30
0.0
 10
3.9670305898
 20
6.5177821313
 30
0.0
 10
3.9670269532
 20
6.5177724956
 30
0.0
 10
3.9670231077
 20
6.5177672487
 30
0.0
 10
3.9670209425
 20
6.5177650836
 30
0.0
  0
SPLINE
  5
485
100
AcDbEntity
  8
0
100
AcDbSpline
 62
7
  6
CONTINUOUS
 70
0
 71
3
 72
31
 73
27
 74
0
 42
0.0000001
 43
0.0000001
 44
0.0000000001
 40
0.0
 40
0.0
 40
0.0
 40
0.0
 40
0.2083630856
 40
0.4004216734
 40
0.4889001905
 40
0.571637445
 40
0.6481455139
 40
0.7179744948
 40
0.7807153132
 40
0.8360036685
 40
0.8607528318
 40
0.8835248053
 40
0.9042889058
 40
0.9230185649
 40
0.9396920512
 40
0.9542935897
 40
0.9668152512
 40
0.9772608339
 40
0.9817123749
 40
0.9856568428
 40
0.9891041577
 40
0.9920701525
 40
0.9945809231
 40
0.9966804146
 40
0.9984445676
 40
1.0
 40
1.0
 40
1.0
 40
1.0
 10
3.8956369647
 20
6.6008523972
 30
0.0
 10
3.8961225507
 20
6.6002915918
 30
0.0
 10
3.8970509574
 20
6.5992097227
 30
0.0
 10
3.8981708296
 20
6.5978771671
 30
0.0
 10
3.8989932953
 20
6.5968790192
 30
0.0
 10
3.8995492431
 20
6.5961943452
 30
0.0
 10
3.9000580805
 20
6.5955569804
 30
0.0
 10
3.9005167948
 20
6.5949707365
 30
0.0
 10
3.9009226648
 20
6.5944391264
 30
0.0
 10
3.9012251161
 20
6.5940305369
 30
0.0
 10
3.9014383607
 20
6.5937330373
 30
0.0
 10
3.9015776771
 20
6.5935337962
 30
0.0
 10
3.901702183
 20
6.593350373
 30
0.0
 10
3.9018116985
 20
6.5931830461
 30
0.0
 10
3.9019060705
 20
6.5930320716
 30
0.0
 10
3.9019851891
 20
6.592897679
 30
0.0
 10
3.9020489536
 20
6.5927800702
 30
0.0
 10
3.9020913262
 20
6.5926920509
 30
0.0
 10
3.9021169229
 20
6.5926300262
 30
0.0
 10
3.9021311785
 20
6.5925903238
 30
0.0
 10
3.902141556
 20
6.5925549087
 30
0.0
 10
3.9021480608
 20
6.5925237652
 30
0.0
 10
3.9021507029
 20
6.5924968503
 30
0.0
 10
3.9021494401
 20
6.5924740659
 30
0.0
 10
3.9021441231
 20
6.5924552974
 30
0.0
 10
3.9021373565
 20
6.5924452658
 30
0.0
 10
3.9021334408
 20
6.5924413501
 30
0.0
  0
SPLINE
  5
486
100
AcDbEntity
  8
0
100
AcDbSpline
 62
7
  6
CONTINUOUS
 70
0
 71
3
 72
38
 73
34
 74
0
 42
0.0000001
 43
0.0000001
 44
0.0000000001
 40
0.0
 40
0.0
 40
0.0
 40
0.0
 40
0.1702353653
 40
0.2583956364
 40
0.3468249398
 40
0.4341965142
 40
0.5192012059
 40
0.6005664906
 40
0.6770748317
 40
0.7475813044
 40
0.7802500947
 40
0.811030456
 40
0.8398070002
 40
0.8664718183
 40
0.8909249279
 40
0.913074741
 40
0.9328385013
 40
0.9501427874
 40
0.9649241154
 40
0.9713518465
 40
0.9771301021
 40
0.9822543
 40
0.9867209425
 40
0.9905279025
 40
0.9936749841
 40
0.9950020622
 40
0.9961658832
 40
0.9971680808
 40
0.9980114381
 40
0.9987008266
 40
0.999245503
 40
0.9996646737
 40
1.0
 40
1.0
 40
1.0
 40
1.0
 10
3.8970148276
 20
6.5896085975
 30
0.0
 10
3.8978512576
 20
6.5887058523
 30
0.0
 10
3.8991150615
 20
6.5873302247
 30
0.0
 10
3.9008016008
 20
6.5854749363
 30
0.0
 10
3.9020801938
 20
6.584058386
 30
0.0
 10
3.9033385246
 20
6.5826542947
 30
0.0
 10
3.9045577215
 20
6.5812837225
 30
0.0
 10
3.9057195253
 20
6.5799672221
 30
0.0
 10
3.9068065392
 20
6.5787245292
 30
0.0
 10
3.907656851
 20
6.5777425217
 30
0.0
 10
3.9082873347
 20
6.5770074757
 30
0.0
 10
3.908719673
 20
6.5764999264
 30
0.0
 10
3.9091220228
 20
6.5760238549
 30
0.0
 10
3.909492871
 20
6.5755810562
 30
0.0
 10
3.9098308244
 20
6.5751732047
 30
0.0
 10
3.9101346126
 20
6.5748018461
 30
0.0
 10
3.9104031019
 20
6.5744683955
 30
0.0
 10
3.9106352845
 20
6.5741741239
 30
0.0
 10
3.9108049008
 20
6.5739533134
 30
0.0
 10
3.9109214898
 20
6.5737968791
 30
0.0
 10
3.9109951955
 20
6.573695565
 30
0.0
 10
3.9110592646
 20
6.5736047853
 30
0.0
 10
3.9111136499
 20
6.5735246297
 30
0.0
 10
3.9111583079
 20
6.5734551764
 30
0.0
 10
3.9111889614
 20
6.5734037271
 30
0.0
 10
3.9112083498
 20
6.5733678685
 30
0.0
 10
3.9112195893
 20
6.5733452482
 30
0.0
 10
3.9112283864
 20
6.5733253395
 30
0.0
 10
3.9112347478
 20
6.5733081375
 30
0.0
 10
3.9112387048
 20
6.5732936182
 30
0.0
 10
3.9112402521
 20
6.5732817166
 30
0.0
 10
3.9112394258
 20
6.5732722347
 30
0.0
 10
3.9112367311
 20
6.5732672075
 30
0.0
 10
3.9112350169
 20
6.5732654933
 30
0.0
  0
SPLINE
  5
487
100
AcDbEntity
  8
0
100
AcDbSpline
 62
7
  6
CONTINUOUS
 70
0
 71
3
 72
40
 73
36
 74
0
 42
0.0000001
 43
0.0000001
 44
0.0000000001
 40
0.0
 40
0.0
 40
0.0
 40
0.0
 40
0.0712105854
 40
0.148471323
 40
0.2302649775
 40
0.3149900781
 40
0.4009933129
 40
0.4866019974
 40
0.5701559276
 40
0.6500381499
 40
0.7247044583
 40
0.7596259666
 40
0.7927116042
 40
0.823801091
 40
0.8527437066
 40
0.8793990988
 40
0.9036379642
 40
0.9253428979
 40
0.9444092409
 40
0.9529240116
 40
0.9607462121
 40
0.9678668593
 40
0.9742780759
 40
0.9799732735
 40
0.984947318
 40
0.9891969907
 40
0.9927219204
 40
0.9942138989
 40
0.9955270228
 40
0.9966634689
 40
0.9976269734
 40
0.9984239707
 40
0.9990661946
 40
0.9995765236
 40
1.0
 40
1.0
 40
1.0
 40
1.0
 10
3.8339284228
 20
6.6633797407
 30
0.0
 10
3.8343395202
 20
6.6629381595
 30
0.0
 10
3.8351925667
 20
6.6620136815
 30
0.0
 10
3.8365055566
 20
6.6605707515
 30
0.0
 10
3.8378862904
 20
6.6590347092
 30
0.0
 10
3.8393076807
 20
6.6574356642
 30
0.0
 10
3.8407419479
 20
6.6558048604
 30
0.0
 10
3.8421611604
 20
6.6541740697
 30
0.0
 10
3.8435377651
 20
6.6525749853
 30
0.0
 10
3.8448450877
 20
6.6510386295
 30
0.0
 10
3.845877567
 20
6.6498094535
 30
0.0
 10
3.8466496852
 20
6.6488794086
 30
0.0
 10
3.8471832653
 20
6.6482311868
 30
0.0
 10
3.8476817906
 20
6.6476197294
 30
0.0
 10
3.848142836
 20
6.6470480184
 30
0.0
 10
3.8485641571
 20
6.6465188503
 30
0.0
 10
3.848943705
 20
6.646034824
 30
0.0
 10
3.8492796258
 20
6.6455983226
 30
0.0
 10
3.849530505
 20
6.6452645043
 30
0.0
 10
3.849707854
 20
6.6450225982
 30
0.0
 10
3.8498239014
 20
6.6448612531
 30
0.0
 10
3.8499279491
 20
6.6447132423
 30
0.0
 10
3.8500198726
 20
6.6445787515
 30
0.0
 10
3.8500995652
 20
6.6444579513
 30
0.0
 10
3.850166949
 20
6.6443509967
 30
0.0
 10
3.850221951
 20
6.6442580221
 30
0.0
 10
3.8502593141
 20
6.6441889313
 30
0.0
 10
3.8502826065
 20
6.6441406123
 30
0.0
 10
3.850295948
 20
6.6441099878
 30
0.0
 10
3.8503061705
 20
6.6440829214
 30
0.0
 10
3.850313283
 20
6.6440594051
 30
0.0
 10
3.8503173134
 20
6.6440394058
 30
0.0
 10
3.8503182506
 20
6.6440228367
 30
0.0
 10
3.8503160565
 20
6.6440094951
 30
0.0
 10
3.8503118872
 20
6.6440024373
 30
0.0
 10
3.8503093502
 20
6.6439999003
 30
0.0
  0
LINE
  5
488
100
AcDbEntity
  8
0
100
AcDbLine
 62
7
  6
CONTINUOUS
 10
3.8613939096
 20
6.6254732641
 11
3.8766371688
 21
6.6085068826
  0
SPLINE
  5
489
100
AcDbEntity
  8
0
100
AcDbSpline
 62
7
  6
CONTINUOUS
 70
0
 71
3
 72
17
 73
13
 74
0
 42
0.0000001
 43
0.0000001
 44
0.0000000001
 40
0.0
 40
0.0
 40
0.0
 40
0.0
 40
0.0415725203
 40
0.0891858322
 40
0.1422825851
 40
0.2002421906
 40
0.3279995125
 40
0.4665416811
 40
0.6094874557
 40
0.7502795963
 40
0.8824705826
 40
1.0
 40
1.0
 40
1.0
 40
1.0
 10
3.798955205
 20
6.6983963622
 30
0.0
 10
3.7991756669
 20
6.6981564863
 30
0.0
 10
3.7996466402
 20
6.6976400538
 30
0.0
 10
3.8003936561
 20
6.6968122237
 30
0.0
 10
3.8012228522
 20
6.6958855861
 30
0.0
 10
3.8024660544
 20
6.6944866078
 30
0.0
 10
3.8041455038
 20
6.6925795028
 30
0.0
 10
3.8062539323
 20
6.6901627569
 30
0.0
 10
3.808419031
 20
6.6876599268
 30
0.0
 10
3.8105413901
 20
6.6851859724
 30
0.0
 10
3.8125237224
 20
6.6828543687
 30
0.0
 10
3.8137835692
 20
6.6813567804
 30
0.0
 10
3.8143738076
 20
6.6806496953
 30
0.0
  0
SPLINE
  5
48A
100
AcDbEntity
  8
0
100
AcDbSpline
 62
7
  6
CONTINUOUS
 70
0
 71
3
 72
32
 73
28
 74
0
 42
0.0000001
 43
0.0000001
 44
0.0000000001
 40
0.0
 40
0.0
 40
0.0
 40
0.0
 40
0.0292871153
 40
0.0454341446
 40
0.0627317286
 40
0.0812685321
 40
0.1010895807
 40
0.1222024707
 40
0.1446048475
 40
0.1682982722
 40
0.1932766885
 40
0.2469572292
 40
0.3054302797
 40
0.3684819301
 40
0.4358545414
 40
0.4710878956
 40
0.507310092
 40
0.5825546533
 40
0.6215001422
 40
0.6612593155
 40
0.7017765245
 40
0.7429873492
 40
0.827168644
 40
0.8699758277
 40
0.9131237421
 40
0.9565031819
 40
1.0
 40
1.0
 40
1.0
 40
1.0
 10
6.1302400413
 20
3.1861540026
 30
0.0
 10
6.1302400433
 20
3.1860372062
 30
0.0
 10
6.1302118286
 20
3.1858555577
 30
0.0
 10
6.1301337396
 20
3.1856177598
 30
0.0
 10
6.1300502842
 20
3.1854276183
 30
0.0
 10
6.1299444848
 20
3.1852322831
 30
0.0
 10
6.1298168534
 20
3.1850321691
 30
0.0
 10
6.1296677678
 20
3.1848280929
 30
0.0
 10
6.1294976026
 20
3.1846208483
 30
0.0
 10
6.1293068793
 20
3.1844110263
 30
0.0
 10
6.1290189732
 20
3.1841215207
 30
0.0
 10
6.1286087361
 20
3.1837589107
 30
0.0
 10
6.1280518373
 20
3.1833360275
 30
0.0
 10
6.1274222579
 20
3.1829213808
 30
0.0
 10
6.1268474198
 20
3.1825947621
 30
0.0
 10
6.1263533812
 20
3.1823446911
 30
0.0
 10
6.1258233054
 20
3.1820969458
 30
0.0
 10
6.1252677134
 20
3.1818694795
 30
0.0
 10
6.1246886408
 20
3.1816652367
 30
0.0
 10
6.1242350046
 20
3.1815225302
 30
0.0
 10
6.1237680234
 20
3.1813930949
 30
0.0
 10
6.1231247049
 20
3.1812380537
 30
0.0
 10
6.1224645295
 20
3.1811154445
 30
0.0
 10
6.1217915735
 20
3.1810279872
 30
0.0
 10
6.1212778441
 20
3.1809805155
 30
0.0
 10
6.1207599855
 20
3.1809522448
 30
0.0
 10
6.1204135057
 20
3.1809450048
 30
0.0
 10
6.1202400413
 20
3.1809450316
 30
0.0
  0
SPLINE
  5
48B
100
AcDbEntity
  8
0
100
AcDbSpline
 62
7
  6
CONTINUOUS
 70
0
 71
3
 72
23
 73
19
 74
0
 42
0.0000001
 43
0.0000001
 44
0.0000000001
 40
0.0
 40
0.0
 40
0.0
 40
0.0
 40
0.0620651868
 40
0.1241467986
 40
0.1862615204
 40
0.24842406
 40
0.3106473844
 40
0.3729421107
 40
0.435316075
 40
0.4977740513
 40
0.5603175688
 40
0.6229448678
 40
0.6856509889
 40
0.7484279607
 40
0.811265124
 40
0.874149522
 40
0.9370662815
 40
1.0
 40
1.0
 40
1.0
 40
1.0
 10
6.1302400413
 20
3.1861540026
 30
0.0
 10
6.1302400413
 20
3.1858314089
 30
0.0
 10
6.130272205
 20
3.1851856753
 30
0.0
 10
6.1304164696
 20
3.1842268219
 30
0.0
 10
6.1306553611
 20
3.1832864447
 30
0.0
 10
6.130986576
 20
3.1823737301
 30
0.0
 10
6.1314069152
 20
3.1814974381
 30
0.0
 10
6.1319123252
 20
3.1806660197
 30
0.0
 10
6.13249793
 20
3.1798874784
 30
0.0
 10
6.1331580823
 20
3.1791693091
 30
0.0
 10
6.13388642
 20
3.178518425
 30
0.0
 10
6.1346759233
 20
3.1779410866
 30
0.0
 10
6.1355189865
 20
3.1774428475
 30
0.0
 10
6.136407493
 20
3.1770284996
 30
0.0
 10
6.1373328784
 20
3.176702024
 30
0.0
 10
6.1382862669
 20
3.176466561
 30
0.0
 10
6.1392583631
 20
3.1763243712
 30
0.0
 10
6.1399129333
 20
3.1762926734
 30
0.0
 10
6.1402400413
 20
3.1762926734
 30
0.0
  0
SPLINE
  5
48C
100
AcDbEntity
  8
0
100
AcDbSpline
 62
7
  6
CONTINUOUS
 70
0
 71
3
 72
36
 73
32
 74
0
 42
0.0000001
 43
0.0000001
 44
0.0000000001
 40
0.0
 40
0.0
 40
0.0
 40
0.0
 40
0.0038184783
 40
0.0078315873
 40
0.012120385
 40
0.0167495394
 40
0.0217687934
 40
0.0272155681
 40
0.0331172873
 40
0.0394933568
 40
0.0537104482
 40
0.0699202997
 40
0.088128104
 40
0.1083139612
 40
0.1304367828
 40
0.1544364863
 40
0.1802458759
 40
0.2077939957
 40
0.2370077548
 40
0.2678099957
 40
0.3338498334
 40
0.4052676311
 40
0.4814013662
 40
0.5615829114
 40
0.6451663282
 40
0.7314766198
 40
0.8198326364
 40
0.8645721772
 40
0.9095725612
 40
0.9547448954
 40
1.0
 40
1.0
 40
1.0
 40
1.0
 10
6.1402400413
 20
3.1762926734
 30
0.0
 10
6.1402400422
 20
3.1762658512
 30
0.0
 10
6.1402353201
 20
3.1762107539
 30
0.0
 10
6.1402149417
 20
3.176127798
 30
0.0
 10
6.1401813608
 20
3.1760431342
 30
0.0
 10
6.140134759
 20
3.1759568234
 30
0.0
 10
6.1400752658
 20
3.1758688737
 30
0.0
 10
6.1400029713
 20
3.1757793271
 30
0.0
 10
6.1399179699
 20
3.1756882309
 30
0.0
 10
6.1397828414
 20
3.1755601213
 30
0.0
 10
6.1395812189
 20
3.1753976707
 30
0.0
 10
6.1392992355
 20
3.1752044005
 30
0.0
 10
6.1389700818
 20
3.1750071111
 30
0.0
 10
6.1385950093
 20
3.1748067645
 30
0.0
 10
6.1381753972
 20
3.1746043462
 30
0.0
 10
6.1377128445
 20
3.1744007884
 30
0.0
 10
6.1372090014
 20
3.1741971027
 30
0.0
 10
6.136665534
 20
3.1739943065
 30
0.0
 10
6.1360841163
 20
3.1737934382
 30
0.0
 10
6.1352408233
 20
3.1735232452
 30
0.0
 10
6.1341039922
 20
3.1731986706
 30
0.0
 10
6.1326466387
 20
3.1728408192
 30
0.0
 10
6.1310804949
 20
3.1725135031
 30
0.0
 10
6.129420248
 20
3.1722232595
 30
0.0
 10
6.1276806964
 20
3.1719768522
 30
0.0
 10
6.1258771557
 20
3.1717793538
 30
0.0
 10
6.1243403873
 20
3.1716592659
 30
0.0
 10
6.1230912033
 20
3.1715910029
 30
0.0
 10
6.1221442008
 20
3.1715543027
 30
0.0
 10
6.1211931275
 20
3.1715325538
 30
0.0
 10
6.1205579284
 20
3.1715269852
 30
0.0
 10
6.1202400413
 20
3.1715270191
 30
0.0
  0
SPLINE
  5
48D
100
AcDbEntity
  8
0
100
AcDbSpline
 62
7
  6
CONTINUOUS
 70
0
 71
3
 72
23
 73
19
 74
0
 42
0.0000001
 43
0.0000001
 44
0.0000000001
 40
0.0
 40
0.0
 40
0.0
 40
0.0
 40
0.0620651854
 40
0.124146796
 40
0.1862615168
 40
0.2484240558
 40
0.3106473797
 40
0.3729421058
 40
0.4353160701
 40
0.4977740467
 40
0.5603175645
 40
0.6229448641
 40
0.6856509859
 40
0.7484279583
 40
0.8112651224
 40
0.8741495211
 40
0.9370662811
 40
1.0
 40
1.0
 40
1.0
 40
1.0
 10
6.1302400413
 20
2.9544127676
 30
0.0
 10
6.1302400413
 20
2.9547353613
 30
0.0
 10
6.130272205
 20
2.9553810949
 30
0.0
 10
6.1304164696
 20
2.9563399483
 30
0.0
 10
6.1306553611
 20
2.9572803254
 30
0.0
 10
6.130986576
 20
2.95819304
 30
0.0
 10
6.1314069152
 20
2.959069332
 30
0.0
 10
6.1319123252
 20
2.9599007504
 30
0.0
 10
6.13249793
 20
2.9606792917
 30
0.0
 10
6.1331580823
 20
2.961397461
 30
0.0
 10
6.13388642
 20
2.9620483451
 30
0.0
 10
6.1346759233
 20
2.9626256834
 30
0.0
 10
6.1355189865
 20
2.9631239225
 30
0.0
 10
6.136407493
 20
2.9635382705
 30
0.0
 10
6.1373328784
 20
2.9638647462
 30
0.0
 10
6.1382862669
 20
2.9641002092
 30
0.0
 10
6.1392583631
 20
2.9642423989
 30
0.0
 10
6.1399129333
 20
2.9642740967
 30
0.0
 10
6.1402400413
 20
2.9642740967
 30
0.0
  0
SPLINE
  5
48E
100
AcDbEntity
  8
0
100
AcDbSpline
 62
7
  6
CONTINUOUS
 70
0
 71
3
 72
25
 73
21
 74
0
 42
0.0000001
 43
0.0000001
 44
0.0000000001
 40
0.0
 40
0.0
 40
0.0
 40
0.0
 40
0.0891542166
 40
0.1325676818
 40
0.1751821506
 40
0.2170137283
 40
0.2580403751
 40
0.3375792187
 40
0.4136760034
 40
0.4862076814
 40
0.5550778243
 40
0.620163548
 40
0.6813394278
 40
0.7385230285
 40
0.7916927268
 40
0.8408158883
 40
0.885906593
 40
0.9272009894
 40
0.9650543566
 40
1.0
 40
1.0
 40
1.0
 40
1.0
 10
6.1257629552
 20
2.9584932383
 30
0.0
 10
6.1259347716
 20
2.9584195808
 30
0.0
 10
6.1261865028
 20
2.95830139
 30
0.0
 10
6.1265163039
 20
2.9581396828
 30
0.0
 10
6.1267548071
 20
2.9580171827
 30
0.0
 10
6.1269859424
 20
2.9578914593
 30
0.0
 10
6.1272815393
 20
2.9577223864
 30
0.0
 10
6.1276333174
 20
2.9575069776
 30
0.0
 10
6.1280304837
 20
2.9572399893
 30
0.0
 10
6.1283978073
 20
2.9569694415
 30
0.0
 10
6.1287342308
 20
2.9566966409
 30
0.0
 10
6.129039225
 20
2.9564236465
 30
0.0
 10
6.1293121731
 20
2.95615235
 30
0.0
 10
6.1295522569
 20
2.955884236
 30
0.0
 10
6.1297582918
 20
2.9556204951
 30
0.0
 10
6.1299295083
 20
2.955362811
 30
0.0
 10
6.1300652979
 20
2.9551127134
 30
0.0
 10
6.1301641903
 20
2.9548710187
 30
0.0
 10
6.1302251253
 20
2.9546388889
 30
0.0
 10
6.1302400463
 20
2.9544860419
 30
0.0
 10
6.1302400413
 20
2.9544127676
 30
0.0
  0
SPLINE
  5
48F
100
AcDbEntity
  8
0
100
AcDbSpline
 62
7
  6
CONTINUOUS
 70
0
 71
3
 72
30
 73
26
 74
0
 42
0.0000001
 43
0.0000001
 44
0.0000000001
 40
0.0
 40
0.0
 40
0.0
 40
0.0
 40
0.0504374264
 40
0.0999984223
 40
0.1486866503
 40
0.1964138236
 40
0.2887860167
 40
0.3768156807
 40
0.4601741591
 40
0.5385393333
 40
0.6116068785
 40
0.679079783
 40
0.7406717592
 40
0.7961238387
 40
0.84525305
 40
0.8674141474
 40
0.8879631431
 40
0.9069053977
 40
0.9242609696
 40
0.9400710845
 40
0.9544079176
 40
0.967379436
 40
0.9791417726
 40
0.9899157037
 40
1.0
 40
1.0
 40
1.0
 40
1.0
 10
6.1314201464
 20
2.9679784191
 30
0.0
 10
6.1315821533
 20
2.9679461533
 30
0.0
 10
6.1319029733
 20
2.9678802688
 30
0.0
 10
6.1323789532
 20
2.9677773796
 30
0.0
 10
6.1328452954
 20
2.9676720056
 30
0.0
 10
6.1334468787
 20
2.9675291484
 30
0.0
 10
6.1341709117
 20
2.9673444544
 30
0.0
 10
6.1350029249
 20
2.9671118137
 30
0.0
 10
6.135785111
 20
2.9668722093
 30
0.0
 10
6.1365142016
 20
2.9666274792
 30
0.0
 10
6.1371870257
 20
2.9663795307
 30
0.0
 10
6.1378004517
 20
2.9661302501
 30
0.0
 10
6.1383514034
 20
2.9658815199
 30
0.0
 10
6.1388368748
 20
2.9656350733
 30
0.0
 10
6.1391962156
 20
2.9654266241
 30
0.0
 10
6.1394475741
 20
2.9652612931
 30
0.0
 10
6.1396114792
 20
2.965143247
 30
0.0
 10
6.1397570543
 20
2.9650270395
 30
0.0
 10
6.1398840276
 20
2.9649128352
 30
0.0
 10
6.1399921631
 20
2.9648007682
 30
0.0
 10
6.140081303
 20
2.9646909695
 30
0.0
 10
6.1401512917
 20
2.964583509
 30
0.0
 10
6.1402019056
 20
2.9644783669
 30
0.0
 10
6.1402327982
 20
2.9643755837
 30
0.0
 10
6.1402400486
 20
2.964307124
 30
0.0
 10
6.1402400413
 20
2.9642740967
 30
0.0
  0
LINE
  5
490
100
AcDbEntity
  8
0
100
AcDbLine
 62
7
  6
CONTINUOUS
 10
4.2957766237
 20
6.2008154136
 11
4.2946855821
 21
6.2013084234
  0
LINE
  5
491
100
AcDbEntity
  8
0
100
AcDbLine
 62
7
  6
CONTINUOUS
 10
4.1215379267
 20
6.3518458364
 11
4.1206604536
 21
6.3525388336
  0
LINE
  5
492
100
AcDbEntity
  8
0
100
AcDbLine
 62
7
  6
CONTINUOUS
 10
4.2131191667
 20
6.2729265184
 11
4.212095635
 21
6.2734738427
  0
LINE
  5
493
100
AcDbEntity
  8
0
100
AcDbLine
 62
7
  6
CONTINUOUS
 10
4.1276501398
 20
6.3579580495
 11
4.1266092003
 21
6.3585206256
  0
SPLINE
  5
494
100
AcDbEntity
  8
0
100
AcDbSpline
 62
7
  6
CONTINUOUS
 70
0
 71
3
 72
19
 73
15
 74
0
 42
0.0000001
 43
0.0000001
 44
0.0000000001
 40
0.0
 40
0.0
 40
0.0
 40
0.0
 40
0.0220364157
 40
0.0463883437
 40
0.074700195
 40
0.1080275645
 40
0.1470115273
 40
0.1920418618
 40
0.2433586695
 40
0.3011125474
 40
0.4362413401
 40
0.597797673
 40
0.7857827269
 40
1.0
 40
1.0
 40
1.0
 40
1.0
 10
4.2171263642
 20
6.2790625877
 30
0.0
 10
4.2171197827
 20
6.2790560061
 30
0.0
 10
4.217103429
 20
6.279044502
 30
0.0
 10
4.217073071
 20
6.2790347298
 30
0.0
 10
4.217036677
 20
6.2790315124
 30
0.0
 10
4.2169941607
 20
6.2790345844
 30
0.0
 10
4.2169453915
 20
6.2790438554
 30
0.0
 10
4.2168903089
 20
6.279059322
 30
0.0
 10
4.2168288928
 20
6.2790809855
 30
0.0
 10
4.2167334824
 20
6.2791202646
 30
0.0
 10
4.2165988153
 20
6.2791859673
 30
0.0
 10
4.2164198671
 20
6.2792855085
 30
0.0
 10
4.2162164647
 20
6.279409411
 30
0.0
 10
4.2160740717
 20
6.2795021002
 30
0.0
 10
4.2159987939
 20
6.2795523
 30
0.0
  0
LINE
  5
495
100
AcDbEntity
  8
0
100
AcDbLine
 62
7
  6
CONTINUOUS
 10
3.7369367646
 20
6.7732788037
 11
3.7365452575
 21
6.7738502773
  0
LINE
  5
496
100
AcDbEntity
  8
0
100
AcDbLine
 62
7
  6
CONTINUOUS
 10
4.0421811243
 20
6.4429895914
 11
4.0417458852
 21
6.4431578096
  0
LINE
  5
497
100
AcDbEntity
  8
0
100
AcDbLine
 62
7
  6
CONTINUOUS
 10
4.4977136943
 20
6.0089299659
 11
4.4985277916
 21
6.0080236509
  0
LINE
  5
498
100
AcDbEntity
  8
0
100
AcDbLine
 62
7
  6
CONTINUOUS
 10
3.9670209425
 20
6.5177650836
 11
3.9662118759
 21
6.5182886343
  0
SPLINE
  5
499
100
AcDbEntity
  8
0
100
AcDbSpline
 62
7
  6
CONTINUOUS
 70
0
 71
3
 72
19
 73
15
 74
0
 42
0.0000001
 43
0.0000001
 44
0.0000000001
 40
0.0
 40
0.0
 40
0.0
 40
0.0
 40
0.0225407785
 40
0.0472334907
 40
0.0757429609
 40
0.1091615261
 40
0.1481620165
 40
0.1931577958
 40
0.2444051809
 40
0.3020662545
 40
0.4369682736
 40
0.5982769524
 40
0.7860157945
 40
1.0
 40
1.0
 40
1.0
 40
1.0
 10
4.1327242498
 20
6.3630321592
 30
0.0
 10
4.1327173957
 20
6.3630253048
 30
0.0
 10
4.1327005123
 20
6.3630133031
 30
0.0
 10
4.1326692419
 20
6.3630029907
 30
0.0
 10
4.1326319238
 20
6.3629995204
 30
0.0
 10
4.132588495
 20
6.3630026091
 30
0.0
 10
4.1325388246
 20
6.3630121545
 30
0.0
 10
4.1324828486
 20
6.3630281488
 30
0.0
 10
4.132420544
 20
6.3630505921
 30
0.0
 10
4.1323238907
 20
6.3630913248
 30
0.0
 10
4.1321876928
 20
6.3631595328
 30
0.0
 10
4.1320070084
 20
6.3632629314
 30
0.0
 10
4.1318018906
 20
6.3633916844
 30
0.0
 10
4.1316584575
 20
6.3634880162
 30
0.0
 10
4.1315826585
 20
6.3635401936
 30
0.0
  0
SPLINE
  5
49A
100
AcDbEntity
  8
0
100
AcDbSpline
 62
7
  6
CONTINUOUS
 70
0
 71
3
 72
19
 73
15
 74
0
 42
0.0000001
 43
0.0000001
 44
0.0000000001
 40
0.0
 40
0.0
 40
0.0
 40
0.0
 40
0.0217961341
 40
0.0457367446
 40
0.0735790879
 40
0.1064540226
 40
0.1450434486
 40
0.1897586431
 40
0.2408510824
 40
0.2984774115
 40
0.4336533526
 40
0.5956672258
 40
0.7845180969
 40
1.0
 40
1.0
 40
1.0
 40
1.0
 10
4.0483221464
 20
6.4470017415
 30
0.0
 10
4.048315483
 20
6.4469950779
 30
0.0
 10
4.0482989254
 20
6.4469834978
 30
0.0
 10
4.0482681319
 20
6.4469741174
 30
0.0
 10
4.0482313654
 20
6.4469718314
 30
0.0
 10
4.0481885283
 20
6.446976326
 30
0.0
 10
4.048139469
 20
6.4469875026
 30
0.0
 10
4.048084116
 20
6.4470053601
 30
0.0
 10
4.0480224445
 20
6.4470299029
 30
0.0
 10
4.047926605
 20
6.4470739706
 30
0.0
 10
4.0477914992
 20
6.4471469256
 30
0.0
 10
4.0476122037
 20
6.4472566382
 30
0.0
 10
4.0474085199
 20
6.4473926357
 30
0.0
 10
4.0472660837
 20
6.4474940253
 30
0.0
 10
4.0471907873
 20
6.4475488893
 30
0.0
  0
SPLINE
  5
49B
100
AcDbEntity
  8
0
100
AcDbSpline
 62
7
  6
CONTINUOUS
 70
0
 71
3
 72
19
 73
15
 74
0
 42
0.0000001
 43
0.0000001
 44
0.0000000001
 40
0.0
 40
0.0
 40
0.0
 40
0.0
 40
0.0268211781
 40
0.0553301164
 40
0.0869424266
 40
0.1227009951
 40
0.1633230847
 40
0.2092898939
 40
0.2609230215
 40
0.3184389263
 40
0.4516191192
 40
0.6095155969
 40
0.7923281047
 40
1.0
 40
1.0
 40
1.0
 40
1.0
 10
4.1170525454
 20
6.3915546284
 30
0.0
 10
4.1170441791
 20
6.3915462622
 30
0.0
 10
4.1170291593
 20
6.3915266228
 30
0.0
 10
4.1170139022
 20
6.3914910959
 30
0.0
 10
4.1170054076
 20
6.3914494223
 30
0.0
 10
4.1170034728
 20
6.3914016685
 30
0.0
 10
4.1170079763
 20
6.3913477796
 30
0.0
 10
4.1170188795
 20
6.391287715
 30
0.0
 10
4.1170361654
 20
6.3912214546
 30
0.0
 10
4.117069404
 20
6.3911198008
 30
0.0
 10
4.1171282588
 20
6.3909775171
 30
0.0
 10
4.1172208329
 20
6.3907899841
 30
0.0
 10
4.117338487
 20
6.3905785272
 30
0.0
 10
4.1174278525
 20
6.3904312268
 30
0.0
 10
4.1174764638
 20
6.3903535777
 30
0.0
  0
SPLINE
  5
49C
100
AcDbEntity
  8
0
100
AcDbSpline
 62
7
  6
CONTINUOUS
 70
0
 71
3
 72
19
 73
15
 74
0
 42
0.0000001
 43
0.0000001
 44
0.0000000001
 40
0.0
 40
0.0
 40
0.0
 40
0.0
 40
0.2090635211
 40
0.392877224
 40
0.5513688683
 40
0.6847229776
 40
0.7421633597
 40
0.7936110769
 40
0.8392831266
 40
0.8795041764
 40
0.9147660015
 40
0.9458092189
 40
0.9737240377
 40
1.0
 40
1.0
 40
1.0
 40
1.0
 10
4.0543093478
 20
6.4531340736
 30
0.0
 10
4.0543866318
 20
6.4530829046
 30
0.0
 10
4.054533203
 20
6.4529887344
 30
0.0
 10
4.0547436668
 20
6.4528642458
 30
0.0
 10
4.0549302424
 20
6.4527657636
 30
0.0
 10
4.0550718148
 20
6.4527025228
 30
0.0
 10
4.0551729585
 20
6.4526662559
 30
0.0
 10
4.0552387967
 20
6.4526470724
 30
0.0
 10
4.0552984502
 20
6.4526345046
 30
0.0
 10
4.0553519435
 20
6.4526285685
 30
0.0
 10
4.0553993253
 20
6.4526293004
 30
0.0
 10
4.0554406633
 20
6.4526368316
 30
0.0
 10
4.055475894
 20
6.4526513888
 30
0.0
 10
4.055495304
 20
6.4526661083
 30
0.0
 10
4.0555035413
 20
6.4526743458
 30
0.0
  0
SPLINE
  5
49D
100
AcDbEntity
  8
0
100
AcDbSpline
 62
7
  6
CONTINUOUS
 70
0
 71
3
 72
19
 73
15
 74
0
 42
0.0000001
 43
0.0000001
 44
0.0000000001
 40
0.0
 40
0.0
 40
0.0
 40
0.0
 40
0.2076777772
 40
0.3905707198
 40
0.5486101688
 40
0.6819731182
 40
0.7395826002
 40
0.7913012275
 40
0.8373345633
 40
0.8779889742
 40
0.9137249391
 40
0.9452330033
 40
0.9735265651
 40
1.0
 40
1.0
 40
1.0
 40
1.0
 10
4.0342402185
 20
6.4740124129
 30
0.0
 10
4.0341936136
 20
6.4740895807
 30
0.0
 10
4.0341079511
 20
6.4742359256
 30
0.0
 10
4.0339952555
 20
6.474445797
 30
0.0
 10
4.0339066575
 20
6.4746317368
 30
0.0
 10
4.0338504192
 20
6.4747726155
 30
0.0
 10
4.0338187307
 20
6.4748731351
 30
0.0
 10
4.0338022977
 20
6.4749385922
 30
0.0
 10
4.0337919979
 20
6.4749978516
 30
0.0
 10
4.0337878471
 20
6.475050931
 30
0.0
 10
4.0337898795
 20
6.4750978694
 30
0.0
 10
4.0337982091
 20
6.475138724
 30
0.0
 10
4.0338130322
 20
6.4751734427
 30
0.0
 10
4.0338276261
 20
6.4751926042
 30
0.0
 10
4.033835752
 20
6.4752007299
 30
0.0
  0
SPLINE
  5
49E
100
AcDbEntity
  8
0
100
AcDbSpline
 62
7
  6
CONTINUOUS
 70
0
 71
3
 72
19
 73
15
 74
0
 42
0.0000001
 43
0.0000001
 44
0.0000000001
 40
0.0
 40
0.0
 40
0.0
 40
0.0
 40
0.2117663783
 40
0.3976165719
 40
0.5574339379
 40
0.6913467638
 40
0.7487546793
 40
0.7999477615
 40
0.8451296815
 40
0.8846127645
 40
0.9188819278
 40
0.9486912609
 40
0.975190178
 40
1.0
 40
1.0
 40
1.0
 40
1.0
 10
3.9743452689
 20
6.5327648568
 30
0.0
 10
3.9744213671
 20
6.5327106821
 30
0.0
 10
3.9745655758
 20
6.5326107977
 30
0.0
 10
3.9747725164
 20
6.5324778659
 30
0.0
 10
3.9749556259
 20
6.5323717687
 30
0.0
 10
3.975094383
 20
6.5323025283
 30
0.0
 10
3.9751933732
 20
6.5322618488
 30
0.0
 10
3.9752575712
 20
6.532239785
 30
0.0
 10
3.9753156011
 20
6.5322245447
 30
0.0
 10
3.9753674918
 20
6.5322161362
 30
0.0
 10
3.9754133064
 20
6.5322145882
 30
0.0
 10
3.9754531458
 20
6.5322200343
 30
0.0
 10
3.9754869764
 20
6.5322327532
 30
0.0
 10
3.9755054578
 20
6.5322464477
 30
0.0
 10
3.9755131962
 20
6.5322541862
 30
0.0
  0
SPLINE
  5
49F
100
AcDbEntity
  8
0
100
AcDbSpline
 62
7
  6
CONTINUOUS
 70
0
 71
3
 72
19
 73
15
 74
0
 42
0.0000001
 43
0.0000001
 44
0.0000000001
 40
0.0
 40
0.0
 40
0.0
 40
0.0
 40
0.2091180328
 40
0.3931912428
 40
0.5521138962
 40
0.6860064038
 40
0.743719874
 40
0.7954159521
 40
0.8412796883
 40
0.8815915246
 40
0.9167812286
 40
0.9475089823
 40
0.9747737618
 40
1.0
 40
1.0
 40
1.0
 40
1.0
 10
3.9546581371
 20
6.5540334453
 30
0.0
 10
3.9546128735
 20
6.5541093673
 30
0.0
 10
3.9545296028
 20
6.5542532298
 30
0.0
 10
3.9544197229
 20
6.5544591848
 30
0.0
 10
3.9543329663
 20
6.5546412147
 30
0.0
 10
3.9542774576
 20
6.5547787653
 30
0.0
 10
3.9542457847
 20
6.5548766511
 30
0.0
 10
3.9542291328
 20
6.5549401797
 30
0.0
 10
3.9542183651
 20
6.5549975143
 30
0.0
 10
3.9542134927
 20
6.555048672
 30
0.0
 10
3.9542145413
 20
6.5550936953
 30
0.0
 10
3.9542216159
 20
6.5551326572
 30
0.0
 10
3.9542349211
 20
6.5551655388
 30
0.0
 10
3.954248402
 20
6.5551835658
 30
0.0
 10
3.9542559418
 20
6.5551911055
 30
0.0
  0
SPLINE
  5
4A0
100
AcDbEntity
  8
0
100
AcDbSpline
 62
7
  6
CONTINUOUS
 70
0
 71
3
 72
19
 73
15
 74
0
 42
0.0000001
 43
0.0000001
 44
0.0000000001
 40
0.0
 40
0.0
 40
0.0
 40
0.0
 40
0.2156052116
 40
0.4044127562
 40
0.5662440422
 40
0.7011284733
 40
0.7585869841
 40
0.809511602
 40
0.8540758352
 40
0.8925573257
 40
0.9254053465
 40
0.9533583234
 40
0.9776184463
 40
1.0
 40
1.0
 40
1.0
 40
1.0
 10
3.901550933
 20
6.605293807
 30
0.0
 10
3.9016251101
 20
6.605236297
 30
0.0
 10
3.901765494
 20
6.6051300159
 30
0.0
 10
3.9019666029
 20
6.6049873739
 30
0.0
 10
3.9021439461
 20
6.604872263
 30
0.0
 10
3.902277925
 20
6.6047956536
 30
0.0
 10
3.9023732088
 20
6.6047493423
 30
0.0
 10
3.9024346306
 20
6.6047235321
 30
0.0
 10
3.9024898992
 20
6.6047047213
 30
0.0
 10
3.9025390449
 20
6.6046929047
 30
0.0
 10
3.902582147
 20
6.604688091
 30
0.0
 10
3.9026193611
 20
6.6046903944
 30
0.0
 10
3.9026507486
 20
6.6047001647
 30
0.0
 10
3.902667667
 20
6.6047121505
 30
0.0
 10
3.9026745565
 20
6.6047190402
 30
0.0
  0
SPLINE
  5
4A1
100
AcDbEntity
  8
0
100
AcDbSpline
 62
7
  6
CONTINUOUS
 70
0
 71
3
 72
19
 73
15
 74
0
 42
0.0000001
 43
0.0000001
 44
0.0000000001
 40
0.0
 40
0.0
 40
0.0
 40
0.0
 40
0.2119603396
 40
0.3982879842
 40
0.5588196061
 40
0.6935901716
 40
0.7514266417
 40
0.8030064717
 40
0.8484844004
 40
0.8881025447
 40
0.922245597
 40
0.9515311151
 40
0.9769477217
 40
1.0
 40
1.0
 40
1.0
 40
1.0
 10
3.8822077146
 20
6.6269189758
 30
0.0
 10
3.8821630939
 20
6.626992958
 30
0.0
 10
3.8820808501
 20
6.6271329549
 30
0.0
 10
3.8819716055
 20
6.6273328845
 30
0.0
 10
3.8818845603
 20
6.6275089126
 30
0.0
 10
3.8818279395
 20
6.6276413961
 30
0.0
 10
3.8817948033
 20
6.6277352876
 30
0.0
 10
3.8817769123
 20
6.6277958726
 30
0.0
 10
3.8817646684
 20
6.6278502727
 30
0.0
 10
3.8817580749
 20
6.6278985039
 30
0.0
 10
3.8817571426
 20
6.6279406147
 30
0.0
 10
3.8817619596
 20
6.627976706
 30
0.0
 10
3.8817727433
 20
6.6280068245
 30
0.0
 10
3.8817844882
 20
6.6280231457
 30
0.0
 10
3.8817911324
 20
6.6280297899
 30
0.0
  0
LINE
  5
4A2
100
AcDbEntity
  8
0
100
AcDbLine
 62
7
  6
CONTINUOUS
 10
3.8391076372
 20
6.6675509287
 11
3.8398027427
 21
6.6670164424
  0
LINE
  5
4A3
100
AcDbEntity
  8
0
100
AcDbLine
 62
7
  6
CONTINUOUS
 10
3.8398027427
 20
6.6670164424
 11
3.8401710176
 21
6.666901843
  0
LINE
  5
4A4
100
AcDbEntity
  8
0
100
AcDbLine
 62
7
  6
CONTINUOUS
 10
3.8200548734
 20
6.6894829959
 11
3.8196083809
 21
6.6905333801
  0
LINE
  5
4A5
100
AcDbEntity
  8
0
100
AcDbLine
 62
7
  6
CONTINUOUS
 10
3.7904350296
 20
6.7162162237
 11
3.7907342807
 21
6.7160849044
  0
LINE
  5
4A6
100
AcDbEntity
  8
0
100
AcDbLine
 62
7
  6
CONTINUOUS
 10
3.7709154583
 20
6.7389908985
 11
3.7704253686
 21
6.7399701662
  0
LINE
  5
4A7
100
AcDbEntity
  8
0
100
AcDbLine
 62
7
  6
CONTINUOUS
 10
3.9696719167
 20
6.5252489453
 11
3.9685748928
 21
6.5258534516
  0
LINE
  5
4A8
100
AcDbEntity
  8
0
100
AcDbLine
 62
7
  6
CONTINUOUS
 10
3.8177323553
 20
6.6764119504
 11
3.8175137169
 21
6.6765812989
  0
LINE
  5
4A9
100
AcDbEntity
  8
0
100
AcDbLine
 62
7
  6
CONTINUOUS
 10
3.8175137169
 20
6.6765812989
 11
3.8173523166
 21
6.6767384976
  0
LINE
  5
4AA
100
AcDbEntity
  8
0
100
AcDbLine
 62
7
  6
CONTINUOUS
 10
3.8173052369
 20
6.6767855773
 11
3.8168497547
 21
6.6772553671
  0
LINE
  5
4AB
100
AcDbEntity
  8
0
100
AcDbLine
 62
7
  6
CONTINUOUS
 10
3.9021334408
 20
6.5924413501
 11
3.9016242007
 21
6.5926850499
  0
LINE
  5
4AC
100
AcDbEntity
  8
0
100
AcDbLine
 62
7
  6
CONTINUOUS
 10
3.8502102501
 20
6.6440201132
 11
3.8493430467
 21
6.6447599634
  0
LINE
  5
4AD
100
AcDbEntity
  8
0
100
AcDbLine
 62
7
  6
CONTINUOUS
 10
3.7189945882
 20
6.7916663263
 11
3.7196040365
 21
6.7908477989
  0
LINE
  5
4AE
100
AcDbEntity
  8
0
100
AcDbLine
 62
7
  6
CONTINUOUS
 10
4.3923549673
 20
6.1017480428
 11
4.3916151171
 21
6.1026152463
  0
LINE
  5
4AF
100
AcDbEntity
  8
0
100
AcDbLine
 62
7
  6
CONTINUOUS
 10
4.424850371
 20
6.0692547508
 11
4.4241763016
 21
6.0699187142
  0
LINE
  5
4B0
100
AcDbEntity
  8
0
100
AcDbLine
 62
7
  6
CONTINUOUS
 10
4.4241763016
 20
6.0699187142
 11
4.4240069542
 21
6.0701373515
  0
SPLINE
  5
4B1
100
AcDbEntity
  8
0
100
AcDbSpline
 62
7
  6
CONTINUOUS
 70
0
 71
3
 72
10
 73
6
 74
0
 42
0.0000001
 43
0.0000001
 44
0.0000000001
 40
0.0
 40
0.0
 40
0.0
 40
0.0
 40
0.3479869483
 40
0.6237425561
 40
1.0
 40
1.0
 40
1.0
 40
1.0
 10
3.7972483078
 20
6.7001032594
 30
0.0
 10
3.7972476679
 20
6.7001054459
 30
0.0
 10
3.7972466837
 20
6.7001094497
 30
0.0
 10
3.7972459114
 20
6.7001158443
 30
0.0
 10
3.7972468115
 20
6.7001205795
 30
0.0
 10
3.7972485532
 20
6.7001223216
 30
0.0
  0
LINE
  5
4B2
100
AcDbEntity
  8
0
100
AcDbLine
 62
7
  6
CONTINUOUS
 10
3.7363916259
 20
6.77417952
 11
3.7365452575
 21
6.7738502773
  0
LINE
  5
4B3
100
AcDbEntity
  8
0
100
AcDbLine
 62
7
  6
CONTINUOUS
 10
4.2107651821
 20
6.2678319302
 11
4.2098864666
 21
6.2684070009
  0
SPLINE
  5
4B4
100
AcDbEntity
  8
0
100
AcDbSpline
 62
7
  6
CONTINUOUS
 70
0
 71
3
 72
10
 73
6
 74
0
 42
0.0000001
 43
0.0000001
 44
0.0000000001
 40
0.0
 40
0.0
 40
0.0
 40
0.0
 40
0.3762574444
 40
0.6520130519
 40
1.0
 40
1.0
 40
1.0
 40
1.0
 10
4.4477173254
 20
6.0496535493
 30
0.0
 10
4.4477155834
 20
6.0496518077
 30
0.0
 10
4.4477108482
 20
6.0496509076
 30
0.0
 10
4.4477044535
 20
6.0496516799
 30
0.0
 10
4.4477004498
 20
6.049652664
 30
0.0
 10
4.4476982632
 20
6.049653304
 30
0.0
  0
LINE
  5
4B5
100
AcDbEntity
  8
0
100
AcDbLine
 62
7
  6
CONTINUOUS
 10
4.1239225296
 20
6.354230439
 11
4.1230180764
 21
6.3548144087
  0
SPLINE
  5
4B6
100
AcDbEntity
  8
0
100
AcDbSpline
 62
7
  6
CONTINUOUS
 70
0
 71
3
 72
71
 73
67
 74
0
 42
0.0000001
 43
0.0000001
 44
0.0000000001
 40
0.0
 40
0.0
 40
0.0
 40
0.0
 40
0.0673338809
 40
0.1384016349
 40
0.2120187233
 40
0.2872819092
 40
0.3634593237
 40
0.4399112237
 40
0.4780498408
 40
0.5160274947
 40
0.5537631971
 40
0.5911704768
 40
0.6281551356
 40
0.6646126376
 40
0.700425041
 40
0.735457287
 40
0.7695527142
 40
0.8025276572
 40
0.8341650431
 40
0.8494033939
 40
0.8642070668
 40
0.8785361991
 40
0.8923474137
 40
0.9055936667
 40
0.9182241344
 40
0.9301842343
 40
0.9414157673
 40
0.9518573143
 40
0.9614448852
 40
0.9658979775
 40
0.9701129209
 40
0.9740815194
 40
0.9777956429
 40
0.9812473164
 40
0.984428834
 40
0.987332723
 40
0.98995198
 40
0.9922799776
 40
0.9933328502
 40
0.9943106981
 40
0.9952128608
 40
0.9960387012
 40
0.9967876688
 40
0.9974592455
 40
0.9980529625
 40
0.9985683819
 40
0.99879661
 40
0.9990051313
 40
0.9991939071
 40
0.9993628998
 40
0.9995120834
 40
0.9996414394
 40
0.999750949
 40
0.9997982555
 40
0.9998405935
 40
0.9998779596
 40
0.9999103502
 40
0.9999377616
 40
0.9999601899
 40
0.9999776316
 40
0.9999844813
 40
0.999990083
 40
0.9999944361
 40
0.9999975402
 40
0.999999395
 40
1.0
 40
1.0
 40
1.0
 40
1.0
 10
4.5894777737
 20
6.9482102995
 30
0.0
 10
4.5955620288
 20
6.9482876692
 30
0.0
 10
4.6080679007
 20
6.9484490035
 30
0.0
 10
4.6272256663
 20
6.9487032805
 30
0.0
 10
4.6470997977
 20
6.9489757486
 30
0.0
 10
4.6674354893
 20
6.9492646083
 30
0.0
 10
4.6880271599
 20
6.9495687112
 30
0.0
 10
4.7052642016
 20
6.9498343269
 30
0.0
 10
4.7190495428
 20
6.9500543495
 30
0.0
 10
4.7293366054
 20
6.9502225863
 30
0.0
 10
4.7395575169
 20
6.9503940518
 30
0.0
 10
4.7496886293
 20
6.9505685973
 30
0.0
 10
4.759704167
 20
6.9507460232
 30
0.0
 10
4.7695755107
 20
6.9509260567
 30
0.0
 10
4.7792703495
 20
6.9511083249
 30
0.0
 10
4.7887516634
 20
6.9512923174
 30
0.0
 10
4.7979764951
 20
6.9514773359
 30
0.0
 10
4.8068944788
 20
6.9516624298
 30
0.0
 10
4.8141086621
 20
6.9518175482
 30
0.0
 10
4.8196810714
 20
6.9519407334
 30
0.0
 10
4.8236897348
 20
6.9520309867
 30
0.0
 10
4.8275694281
 20
6.952119969
 30
0.0
 10
4.8313083824
 20
6.9522073183
 30
0.0
 10
4.8348938388
 20
6.9522926458
 30
0.0
 10
4.8383120273
 20
6.9523754936
 30
0.0
 10
4.8415481705
 20
6.9524553578
 30
0.0
 10
4.8445865349
 20
6.9525316772
 30
0.0
 10
4.8474105381
 20
6.9526038324
 30
0.0
 10
4.8496221715
 20
6.9526612651
 30
0.0
 10
4.8512713026
 20
6.9527046101
 30
0.0
 10
4.8524128349
 20
6.9527348279
 30
0.0
 10
4.8534876068
 20
6.9527634856
 30
0.0
 10
4.854493424
 20
6.9527904883
 30
0.0
 10
4.8554281368
 20
6.952815733
 30
0.0
 10
4.8562896539
 20
6.9528391554
 30
0.0
 10
4.8570759731
 20
6.9528606349
 30
0.0
 10
4.8577851881
 20
6.9528801225
 30
0.0
 10
4.8583271941
 20
6.9528950759
 30
0.0
 10
4.8587209268
 20
6.9529059725
 30
0.0
 10
4.8589858601
 20
6.9529133229
 30
0.0
 10
4.8592302848
 20
6.9529201166
 30
0.0
 10
4.8594540341
 20
6.9529263417
 30
0.0
 10
4.859656954
 20
6.9529319944
 30
0.0
 10
4.8598389054
 20
6.9529370729
 30
0.0
 10
4.8599997599
 20
6.9529415706
 30
0.0
 10
4.860120566
 20
6.9529449511
 30
0.0
 10
4.8602065767
 20
6.952947358
 30
0.0
 10
4.8602630813
 20
6.9529489393
 30
0.0
 10
4.8603142351
 20
6.9529503708
 30
0.0
 10
4.8603600288
 20
6.9529516519
 30
0.0
 10
4.860400455
 20
6.9529527832
 30
0.0
 10
4.860435508
 20
6.9529537656
 30
0.0
 10
4.8604613583
 20
6.9529544927
 30
0.0
 10
4.860479348
 20
6.9529550013
 30
0.0
 10
4.8604908209
 20
6.9529553272
 30
0.0
 10
4.8605009465
 20
6.9529556162
 30
0.0
 10
4.8605097233
 20
6.9529558674
 30
0.0
 10
4.8605171522
 20
6.9529560808
 30
0.0
 10
4.8605232268
 20
6.9529562533
 30
0.0
 10
4.8605274538
 20
6.9529563759
 30
0.0
 10
4.8605301437
 20
6.9529564468
 30
0.0
 10
4.8605316835
 20
6.9529564975
 30
0.0
 10
4.860532807
 20
6.9529565053
 30
0.0
 10
4.860533775
 20
6.9529565792
 30
0.0
 10
4.8605340566
 20
6.9529564979
 30
0.0
 10
4.8605345049
 20
6.9529565952
 30
0.0
 10
4.860534468
 20
6.9529565549
 30
0.0
  0
LINE
  5
4B7
100
AcDbEntity
  8
0
100
AcDbLine
 62
7
  6
CONTINUOUS
 10
3.7556186547
 20
6.7509327877
 11
3.7565249697
 21
6.7501186905
  0
LINE
  5
4B8
100
AcDbEntity
  8
0
100
AcDbLine
 62
7
  6
CONTINUOUS
 10
3.7897447938
 20
6.7168157013
 11
3.7904350296
 21
6.7162162237
  0
LINE
  5
4B9
100
AcDbEntity
  8
0
100
AcDbLine
 62
7
  6
CONTINUOUS
 10
4.4638112275
 20
6.0428400257
 11
4.4644107052
 21
6.0421497899
  0
LINE
  5
4BA
100
AcDbEntity
  8
0
100
AcDbLine
 62
7
  6
CONTINUOUS
 10
3.9112206398
 20
6.5732611262
 11
3.9111079511
 21
6.5733209742
  0
LINE
  5
4BB
100
AcDbEntity
  8
0
100
AcDbLine
 62
7
  6
CONTINUOUS
 10
3.9111079511
 20
6.5733209742
 11
3.9103281779
 21
6.5740211478
  0
LINE
  5
4BC
100
AcDbEntity
  8
0
100
AcDbLine
 62
7
  6
CONTINUOUS
 10
4.3216161518
 20
6.1627331739
 11
4.3209159774
 21
6.1635129483
  0
LINE
  5
4BD
100
AcDbEntity
  8
0
100
AcDbLine
 62
7
  6
CONTINUOUS
 10
4.3209159774
 20
6.1635129483
 11
4.3208561301
 21
6.1636256359
  0
LINE
  5
4BE
100
AcDbEntity
  8
0
100
AcDbLine
 62
7
  6
CONTINUOUS
 10
3.9735067566
 20
6.5038771593
 11
3.9733622983
 21
6.5039694963
  0
LINE
  5
4BF
100
AcDbEntity
  8
0
100
AcDbLine
 62
7
  6
CONTINUOUS
 10
3.9733622983
 20
6.5039694963
 11
3.972694652
 21
6.5045942585
  0
LINE
  5
4C0
100
AcDbEntity
  8
0
100
AcDbLine
 62
7
  6
CONTINUOUS
 10
4.2521890896
 20
6.2250998253
 11
4.2515686726
 21
6.2257623302
  0
LINE
  5
4C1
100
AcDbEntity
  8
0
100
AcDbLine
 62
7
  6
CONTINUOUS
 10
4.2515686726
 20
6.2257623302
 11
4.2514721635
 21
6.2259117524
  0
LINE
  5
4C2
100
AcDbEntity
  8
0
100
AcDbLine
 62
7
  6
CONTINUOUS
 10
4.1024094132
 20
6.3754230717
 11
4.1018254428
 21
6.3763275258
  0
LINE
  5
4C3
100
AcDbEntity
  8
0
100
AcDbLine
 62
7
  6
CONTINUOUS
 10
4.0160017442
 20
6.4622917885
 11
4.015426934
 21
6.4631701784
  0
LINE
  5
4C4
100
AcDbEntity
  8
0
100
AcDbLine
 62
7
  6
CONTINUOUS
 10
4.1001337101
 20
6.3730655923
 11
4.0994408402
 21
6.3739429229
  0
LINE
  5
4C5
100
AcDbEntity
  8
0
100
AcDbLine
 62
7
  6
CONTINUOUS
 10
4.0371209781
 20
6.4358313071
 11
4.0362934128
 21
6.4365971055
  0
LINE
  5
4C6
100
AcDbEntity
  8
0
100
AcDbLine
 62
7
  6
CONTINUOUS
 10
6.1314201464
 20
2.9679784191
 11
5.9468069226
 21
3.1715270191
  0
SPLINE
  5
4C7
100
AcDbEntity
  8
0
100
AcDbSpline
 62
7
  6
CONTINUOUS
 70
0
 71
3
 72
9
 73
5
 74
0
 42
0.0000001
 43
0.0000001
 44
0.0000000001
 40
0.0
 40
0.0
 40
0.0
 40
0.0
 40
0.5013957929
 40
1.0
 40
1.0
 40
1.0
 40
1.0
 10
6.1247245556
 20
2.9709332427
 30
0.0
 10
6.1239857263
 20
2.9713627918
 30
0.0
 10
6.1225755339
 20
2.9723316745
 30
0.0
 10
6.1213022618
 20
2.9734711899
 30
0.0
 10
6.1207013221
 20
2.9740721411
 30
0.0
  0
LINE
  5
4C8
100
AcDbEntity
  8
0
100
AcDbLine
 62
7
  6
CONTINUOUS
 10
4.5384428719
 20
5.9720089782
 11
4.5392613301
 21
5.9713995844
  0
LINE
  5
4C9
100
AcDbEntity
  8
0
100
AcDbLine
 62
7
  6
CONTINUOUS
 10
4.520873991
 20
5.9893416292
 11
4.5217745238
 21
5.9887966221
  0
LINE
  5
4CA
100
AcDbEntity
  8
0
100
AcDbLine
 62
7
  6
CONTINUOUS
 10
4.4865862949
 20
6.0233201942
 11
4.48756517
 21
6.0228303648
  0
LINE
  5
4CB
100
AcDbEntity
  8
0
100
AcDbLine
 62
7
  6
CONTINUOUS
 10
4.4638112275
 20
6.0428400257
 11
4.4636799083
 21
6.0431392768
  0
LINE
  5
4CC
100
AcDbEntity
  8
0
100
AcDbLine
 62
7
  6
CONTINUOUS
 10
4.437078318
 20
6.0724596706
 11
4.4381283839
 21
6.0720133771
  0
LINE
  5
4CD
100
AcDbEntity
  8
0
100
AcDbLine
 62
7
  6
CONTINUOUS
 10
4.4151458935
 20
6.0915126793
 11
4.4144968469
 21
6.0925760137
  0
SPLINE
  5
4CE
100
AcDbEntity
  8
0
100
AcDbSpline
 62
7
  6
CONTINUOUS
 70
0
 71
3
 72
19
 73
15
 74
0
 42
0.0000001
 43
0.0000001
 44
0.0000000001
 40
0.0
 40
0.0
 40
0.0
 40
0.0
 40
0.2119595862
 40
0.3982865421
 40
0.5588175716
 40
0.6935877592
 40
0.7514241568
 40
0.8030039826
 40
0.848482149
 40
0.8881003583
 40
0.9222439173
 40
0.951529758
 40
0.9769470661
 40
1.0
 40
1.0
 40
1.0
 40
1.0
 10
4.3745140529
 20
6.1346126665
 30
0.0
 10
4.3745880301
 20
6.1345680498
 30
0.0
 10
4.3747280173
 20
6.1344858131
 30
0.0
 10
4.3749279331
 20
6.1343765783
 30
0.0
 10
4.3751039492
 20
6.1342895414
 30
0.0
 10
4.3752364238
 20
6.1342329263
 30
0.0
 10
4.375330309
 20
6.1341997938
 30
0.0
 10
4.3753908902
 20
6.134181905
 30
0.0
 10
4.3754452867
 20
6.1341696625
 30
0.0
 10
4.375493515
 20
6.1341630708
 30
0.0
 10
4.3755356233
 20
6.1341621388
 30
0.0
 10
4.3755717125
 20
6.1341669568
 30
0.0
 10
4.3756018295
 20
6.1341777399
 30
0.0
 10
4.3756181498
 20
6.1341894846
 30
0.0
 10
4.3756247936
 20
6.1341961286
 30
0.0
  0
SPLINE
  5
4CF
100
AcDbEntity
  8
0
100
AcDbSpline
 62
7
  6
CONTINUOUS
 70
0
 71
3
 72
19
 73
15
 74
0
 42
0.0000001
 43
0.0000001
 44
0.0000000001
 40
0.0
 40
0.0
 40
0.0
 40
0.0
 40
0.2156031425
 40
0.4044157129
 40
0.5662493817
 40
0.7011358413
 40
0.7585947166
 40
0.8095196902
 40
0.8540836527
 40
0.8925647047
 40
0.925411567
 40
0.953363003
 40
0.9776209375
 40
1.0
 40
1.0
 40
1.0
 40
1.0
 10
4.3528890183
 20
6.1539556616
 30
0.0
 10
4.3528314918
 20
6.1540298556
 30
0.0
 10
4.3527251784
 20
6.1541702738
 30
0.0
 10
4.352582491
 20
6.1543714317
 30
0.0
 10
4.3524673413
 20
6.1545488199
 30
0.0
 10
4.3523907047
 20
6.1546828317
 30
0.0
 10
4.3523443761
 20
6.154778139
 30
0.0
 10
4.3523185553
 20
6.1548395752
 30
0.0
 10
4.3522997364
 20
6.1548948569
 30
0.0
 10
4.3522879131
 20
6.1549440136
 30
0.0
 10
4.3522830953
 20
6.1549871251
 30
0.0
 10
4.3522853959
 20
6.1550243469
 30
0.0
 10
4.3522951661
 20
6.1550557406
 30
0.0
 10
4.3523071534
 20
6.1550726621
 30
0.0
 10
4.352314044
 20
6.1550795527
 30
0.0
  0
SPLINE
  5
4D0
100
AcDbEntity
  8
0
100
AcDbSpline
 62
7
  6
CONTINUOUS
 70
0
 71
3
 72
19
 73
15
 74
0
 42
0.0000001
 43
0.0000001
 44
0.0000000001
 40
0.0
 40
0.0
 40
0.0
 40
0.0
 40
0.2091201884
 40
0.3931952445
 40
0.5521192692
 40
0.6860125214
 40
0.7437260868
 40
0.7954220437
 40
0.8412855765
 40
0.8815966694
 40
0.9167856487
 40
0.9475120617
 40
0.974775458
 40
1.0
 40
1.0
 40
1.0
 40
1.0
 10
4.3016282787
 20
6.2070632349
 30
0.0
 10
4.3017042125
 20
6.2070179623
 30
0.0
 10
4.3018480972
 20
6.2069346746
 30
0.0
 10
4.3020540838
 20
6.2068247718
 30
0.0
 10
4.3022361415
 20
6.2067379961
 30
0.0
 10
4.3023737129
 20
6.2066824743
 30
0.0
 10
4.3024716132
 20
6.206650793
 30
0.0
 10
4.302535151
 20
6.2066341363
 30
0.0
 10
4.3025924936
 20
6.2066233645
 30
0.0
 10
4.3026436584
 20
6.2066184897
 30
0.0
 10
4.3026886877
 20
6.2066195358
 30
0.0
 10
4.3027276544
 20
6.2066266103
 30
0.0
 10
4.3027605401
 20
6.2066399152
 30
0.0
 10
4.302778569
 20
6.2066533976
 30
0.0
 10
4.3027861092
 20
6.206660938
 30
0.0
  0
SPLINE
  5
4D1
100
AcDbEntity
  8
0
100
AcDbSpline
 62
7
  6
CONTINUOUS
 70
0
 71
3
 72
19
 73
15
 74
0
 42
0.0000001
 43
0.0000001
 44
0.0000000001
 40
0.0
 40
0.0
 40
0.0
 40
0.0
 40
0.2117664319
 40
0.3976168134
 40
0.5574343189
 40
0.6913472671
 40
0.7487550894
 40
0.7999483474
 40
0.8451301194
 40
0.8846133028
 40
0.9188822759
 40
0.9486916011
 40
0.9751903213
 40
1.0
 40
1.0
 40
1.0
 40
1.0
 10
4.2803598735
 20
6.226750247
 30
0.0
 10
4.2803056978
 20
6.2268263463
 30
0.0
 10
4.2802058113
 20
6.2269705574
 30
0.0
 10
4.2800728767
 20
6.2271775012
 30
0.0
 10
4.2799667771
 20
6.2273606137
 30
0.0
 10
4.2798975348
 20
6.2274993728
 30
0.0
 10
4.2798568546
 20
6.2275983647
 30
0.0
 10
4.2798347898
 20
6.2276625636
 30
0.0
 10
4.2798195493
 20
6.2277205945
 30
0.0
 10
4.2798111399
 20
6.2277724859
 30
0.0
 10
4.2798095922
 20
6.2278183013
 30
0.0
 10
4.2798150377
 20
6.2278581412
 30
0.0
 10
4.2798277571
 20
6.2278919721
 30
0.0
 10
4.2798414514
 20
6.2279104539
 30
0.0
 10
4.27984919
 20
6.2279181924
 30
0.0
  0
SPLINE
  5
4D2
100
AcDbEntity
  8
0
100
AcDbSpline
 62
7
  6
CONTINUOUS
 70
0
 71
3
 72
19
 73
15
 74
0
 42
0.0000001
 43
0.0000001
 44
0.0000000001
 40
0.0
 40
0.0
 40
0.0
 40
0.0
 40
0.2076826818
 40
0.3905796848
 40
0.5486221105
 40
0.6819866752
 40
0.7395963662
 40
0.7913147173
 40
0.8373473968
 40
0.8780003208
 40
0.9137344664
 40
0.9452397551
 40
0.9735301925
 40
1.0
 40
1.0
 40
1.0
 40
1.0
 10
4.2216070534
 20
6.286645434
 30
0.0
 10
4.2216842461
 20
6.2865988096
 30
0.0
 10
4.2218306381
 20
6.2865131104
 30
0.0
 10
4.2220405767
 20
6.2864003649
 30
0.0
 10
4.2222265753
 20
6.2863117256
 30
0.0
 10
4.222367498
 20
6.2862554589
 30
0.0
 10
4.2224680487
 20
6.2862237523
 30
0.0
 10
4.2225335255
 20
6.2862073088
 30
0.0
 10
4.2225928022
 20
6.2861970004
 30
0.0
 10
4.2226458968
 20
6.286192844
 30
0.0
 10
4.2226928481
 20
6.2861948719
 30
0.0
 10
4.2227337132
 20
6.2862032008
 30
0.0
 10
4.2227684408
 20
6.286218024
 30
0.0
 10
4.2227876064
 20
6.2862326208
 30
0.0
 10
4.2227957337
 20
6.2862407482
 30
0.0
  0
SPLINE
  5
4D3
100
AcDbEntity
  8
0
100
AcDbSpline
 62
7
  6
CONTINUOUS
 70
0
 71
3
 72
19
 73
15
 74
0
 42
0.0000001
 43
0.0000001
 44
0.0000000001
 40
0.0
 40
0.0
 40
0.0
 40
0.0
 40
0.2090606303
 40
0.3928719414
 40
0.5513618846
 40
0.6847151055
 40
0.7421552827
 40
0.7936032694
 40
0.8392756526
 40
0.8794976332
 40
0.9147604881
 40
0.9458053444
 40
0.9737219494
 40
1.0
 40
1.0
 40
1.0
 40
1.0
 10
4.2007289432
 20
6.3067145466
 30
0.0
 10
4.2006777863
 20
6.3067918168
 30
0.0
 10
4.2005836383
 20
6.3069383616
 30
0.0
 10
4.2004591799
 20
6.3071487878
 30
0.0
 10
4.2003607229
 20
6.3073353306
 30
0.0
 10
4.2002974993
 20
6.3074768783
 30
0.0
 10
4.2002612436
 20
6.3075780048
 30
0.0
 10
4.2002420663
 20
6.307643832
 30
0.0
 10
4.200229504
 20
6.307703476
 30
0.0
 10
4.2002235712
 20
6.3077569608
 30
0.0
 10
4.2002243061
 20
6.3078043354
 30
0.0
 10
4.2002318378
 20
6.3078456676
 30
0.0
 10
4.2002463952
 20
6.3078808933
 30
0.0
 10
4.2002611129
 20
6.3079003011
 30
0.0
 10
4.2002693495
 20
6.3079085376
 30
0.0
  0
SPLINE
  5
4D4
100
AcDbEntity
  8
0
100
AcDbSpline
 62
7
  6
CONTINUOUS
 70
0
 71
3
 72
19
 73
15
 74
0
 42
0.0000001
 43
0.0000001
 44
0.0000000001
 40
0.0
 40
0.0
 40
0.0
 40
0.0
 40
0.2076674719
 40
0.3904763147
 40
0.5483701291
 40
0.6815488447
 40
0.7390646114
 40
0.7906979218
 40
0.836665565
 40
0.8772887766
 40
0.9130492568
 40
0.9446638154
 40
0.9731756751
 40
1.0
 40
1.0
 40
1.0
 40
1.0
 10
4.1379488943
 20
6.3698812641
 30
0.0
 10
4.1380265219
 20
6.3698326704
 30
0.0
 10
4.1381737818
 20
6.3697433376
 30
0.0
 10
4.138385181
 20
6.369625728
 30
0.0
 10
4.1385726633
 20
6.3695331907
 30
0.0
 10
4.138714909
 20
6.3694743615
 30
0.0
 10
4.1388165361
 20
6.3694411388
 30
0.0
 10
4.1388827797
 20
6.3694238624
 30
0.0
 10
4.1389428293
 20
6.3694129663
 30
0.0
 10
4.1389967052
 20
6.3694084687
 30
0.0
 10
4.1390444479
 20
6.3694104064
 30
0.0
 10
4.1390861121
 20
6.369418903
 30
0.0
 10
4.1391216319
 20
6.3694341587
 30
0.0
 10
4.1391412674
 20
6.3694491766
 30
0.0
 10
4.1391496321
 20
6.3694575416
 30
0.0
  0
SPLINE
  5
4D5
100
AcDbEntity
  8
0
100
AcDbSpline
 62
7
  6
CONTINUOUS
 70
0
 71
3
 72
11
 73
7
 74
0
 42
0.0000001
 43
0.0000001
 44
0.0000000001
 40
0.0
 40
0.0
 40
0.0
 40
0.0
 40
0.2499949036
 40
0.4999930046
 40
0.7499946068
 40
1.0
 40
1.0
 40
1.0
 40
1.0
 10
6.1202400413
 20
2.962159923
 30
0.0
 10
6.1196297459
 20
2.9624717738
 30
0.0
 10
6.1184346395
 20
2.9631467491
 30
0.0
 10
6.1167299349
 20
2.9643000026
 30
0.0
 10
6.1151203718
 20
2.9655825762
 30
0.0
 10
6.1141148535
 20
2.9665163937
 30
0.0
 10
6.1136302359
 20
2.9670010549
 30
0.0
  0
LINE
  5
4D6
100
AcDbEntity
  8
0
100
AcDbLine
 62
7
  6
CONTINUOUS
 10
4.1841920992
 20
6.2886984192
 11
4.1834263111
 21
6.2895259741
  0
SPLINE
  5
4D7
100
AcDbEntity
  8
0
100
AcDbSpline
 62
7
  6
CONTINUOUS
 70
0
 71
3
 72
20
 73
16
 74
0
 42
0.0000001
 43
0.0000001
 44
0.0000000001
 40
0.0
 40
0.0
 40
0.0
 40
0.0
 40
0.0715118638
 40
0.142200625
 40
0.2119445122
 40
0.2805837217
 40
0.34803058
 40
0.4141697915
 40
0.4789506105
 40
0.5423983844
 40
0.6045518943
 40
0.665356568
 40
0.7827482981
 40
0.8942855125
 40
1.0
 40
1.0
 40
1.0
 40
1.0
 10
6.1247245489
 20
2.9709332298
 30
0.0
 10
6.1248756691
 20
2.9708451549
 30
0.0
 10
6.1251778348
 20
2.9706728424
 30
0.0
 10
6.1256340433
 20
2.9704265542
 30
0.0
 10
6.1260890181
 20
2.9701930277
 30
0.0
 10
6.1265410871
 20
2.9699714042
 30
0.0
 10
6.1269888314
 20
2.9697611616
 30
0.0
 10
6.127430876
 20
2.9695611138
 30
0.0
 10
6.127866211
 20
2.969370048
 30
0.0
 10
6.1282945642
 20
2.9691873955
 30
0.0
 10
6.1287158896
 20
2.9690131272
 30
0.0
 10
6.1292612309
 20
2.9687935534
 30
0.0
 10
6.1299219198
 20
2.9685371618
 30
0.0
 10
6.1306880295
 20
2.9682489816
 30
0.0
 10
6.1311862251
 20
2.968064133
 30
0.0
 10
6.1314287636
 20
2.9679745032
 30
0.0
  0
SPLINE
  5
4D8
100
AcDbEntity
  8
0
100
AcDbSpline
 62
7
  6
CONTINUOUS
 70
0
 71
3
 72
36
 73
32
 74
0
 42
0.0000001
 43
0.0000001
 44
0.0000000001
 40
0.0
 40
0.0
 40
0.0
 40
0.0
 40
0.0462584227
 40
0.0703909627
 40
0.0951469676
 40
0.1465846589
 40
0.2006476667
 40
0.2573171107
 40
0.3165114817
 40
0.3780956312
 40
0.4418888899
 40
0.507672395
 40
0.5751954218
 40
0.6441812479
 40
0.6791326934
 40
0.7143369368
 40
0.7497536579
 40
0.785342621
 40
0.8031890389
 40
0.8210625393
 40
0.838957923
 40
0.8568705267
 40
0.8747932101
 40
0.892715108
 40
0.9016725791
 40
0.9106265812
 40
0.9285209964
 40
0.9463965577
 40
0.9642700423
 40
0.9821463723
 40
1.0
 40
1.0
 40
1.0
 40
1.0
 10
6.1314287636
 20
2.9679745032
 30
0.0
 10
6.1312675586
 20
2.9679032427
 30
0.0
 10
6.1310274578
 20
2.967782437
 30
0.0
 10
6.1307166016
 20
2.9675956971
 30
0.0
 10
6.1303988853
 20
2.9673828877
 30
0.0
 10
6.1300063292
 20
2.967078071
 30
0.0
 10
6.1295510731
 20
2.9666593713
 30
0.0
 10
6.129108575
 20
2.9661859544
 30
0.0
 10
6.1286817189
 20
2.9656609987
 30
0.0
 10
6.1282732492
 20
2.9650879991
 30
0.0
 10
6.127885805
 20
2.9644707798
 30
0.0
 10
6.1275218691
 20
2.9638134629
 30
0.0
 10
6.1271837454
 20
2.9631204618
 30
0.0
 10
6.1269262949
 20
2.9625197398
 30
0.0
 10
6.1267346208
 20
2.9620254086
 30
0.0
 10
6.1265977143
 20
2.9616471357
 30
0.0
 10
6.1264685428
 20
2.961263591
 30
0.0
 10
6.1263675208
 20
2.9609404466
 30
0.0
 10
6.1262899999
 20
2.9606800381
 30
0.0
 10
6.1262335599
 20
2.9604837021
 30
0.0
 10
6.1261791135
 20
2.9602865406
 30
0.0
 10
6.1261271321
 20
2.9600885219
 30
0.0
 10
6.1260766017
 20
2.9598900286
 30
0.0
 10
6.126034132
 20
2.9597246903
 30
0.0
 10
6.1259989964
 20
2.9595927561
 30
0.0
 10
6.1259631944
 20
2.9594611104
 30
0.0
 10
6.1259186429
 20
2.9592966324
 30
0.0
 10
6.1258692609
 20
2.9590982524
 30
0.0
 10
6.1258285873
 20
2.9588979586
 30
0.0
 10
6.125794347
 20
2.958696595
 30
0.0
 10
6.1257735183
 20
2.9585620596
 30
0.0
 10
6.1257630881
 20
2.9584948384
 30
0.0
  0
SPLINE
  5
4D9
100
AcDbEntity
  8
0
100
AcDbSpline
 62
7
  6
CONTINUOUS
 70
0
 71
3
 72
25
 73
21
 74
0
 42
0.0000001
 43
0.0000001
 44
0.0000000001
 40
0.0
 40
0.0
 40
0.0
 40
0.0
 40
0.0564362769
 40
0.0851518397
 40
0.1141915497
 40
0.143536596
 40
0.1731672784
 40
0.2332257751
 40
0.2942577099
 40
0.356143845
 40
0.4187684062
 40
0.4820236979
 40
0.5458062312
 40
0.6100235033
 40
0.674584491
 40
0.7394039808
 40
0.8044114063
 40
0.8695447358
 40
0.934756712
 40
1.0
 40
1.0
 40
1.0
 40
1.0
 10
6.1257629552
 20
2.9584932383
 30
0.0
 10
6.1256479525
 20
2.9585435885
 30
0.0
 10
6.1254741366
 20
2.9586188822
 30
0.0
 10
6.1252424503
 20
2.9587230433
 30
0.0
 10
6.1250666936
 20
2.9588046008
 30
0.0
 10
6.1248899083
 20
2.9588887525
 30
0.0
 10
6.1246518037
 20
2.9590046032
 30
0.0
 10
6.1243523684
 20
2.9591554874
 30
0.0
 10
6.1239928808
 20
2.959346452
 30
0.0
 10
6.1236326448
 20
2.959547972
 30
0.0
 10
6.1232728489
 20
2.959760194
 30
0.0
 10
6.1229145047
 20
2.9599829522
 30
0.0
 10
6.1225586677
 20
2.9602162539
 30
0.0
 10
6.1222077599
 20
2.9604620306
 30
0.0
 10
6.1218624797
 20
2.9607195147
 30
0.0
 10
6.1215233561
 20
2.9609878939
 30
0.0
 10
6.1211909948
 20
2.9612665885
 30
0.0
 10
6.1208659686
 20
2.9615551172
 30
0.0
 10
6.1205483726
 20
2.9618525593
 30
0.0
 10
6.120341838
 20
2.9620564773
 30
0.0
 10
6.1202400413
 20
2.962159923
 30
0.0
  0
LINE
  5
4DA
100
AcDbEntity
  8
0
100
AcDbLine
 62
7
  6
CONTINUOUS
 10
4.3737479576
 20
6.1131192161
 11
4.3730565139
 21
6.1136674055
  0
SPLINE
  5
4DB
100
AcDbEntity
  8
0
100
AcDbSpline
 62
7
  6
CONTINUOUS
 70
0
 71
3
 72
9
 73
5
 74
0
 42
0.0000001
 43
0.0000001
 44
0.0000000001
 40
0.0
 40
0.0
 40
0.0
 40
0.0
 40
0.2454438146
 40
1.0
 40
1.0
 40
1.0
 40
1.0
 10
4.3730565139
 20
6.1136674055
 30
0.0
 10
4.3730506899
 20
6.1136723097
 30
0.0
 10
4.3730269652
 20
6.1136922952
 30
0.0
 10
4.3730032563
 20
6.1137122995
 30
0.0
 10
4.3729853747
 20
6.1137274035
 30
0.0
  0
SPLINE
  5
4DC
100
AcDbEntity
  8
0
100
AcDbSpline
 62
7
  6
CONTINUOUS
 70
0
 71
3
 72
9
 73
5
 74
0
 42
0.0000001
 43
0.0000001
 44
0.0000000001
 40
0.0
 40
0.0
 40
0.0
 40
0.0
 40
0.2463651412
 40
1.0
 40
1.0
 40
1.0
 40
1.0
 10
4.3729853747
 20
6.1137274035
 30
0.0
 10
4.3729802626
 20
6.1137317215
 30
0.0
 10
4.3729595152
 20
6.1137492515
 30
0.0
 10
4.3729387784
 20
6.113766794
 30
0.0
 10
4.372923156
 20
6.1137800212
 30
0.0
  0
LINE
  5
4DD
100
AcDbEntity
  8
0
100
AcDbLine
 62
7
  6
CONTINUOUS
 10
4.4476982632
 20
6.049653304
 11
4.4475896229
 21
6.0497116173
  0
LINE
  5
4DE
100
AcDbEntity
  8
0
100
AcDbLine
 62
7
  6
CONTINUOUS
 10
4.4475896229
 20
6.0497116173
 11
4.4468336954
 21
6.0502707292
  0
SPLINE
  5
4DF
100
AcDbEntity
  8
0
100
AcDbSpline
 62
7
  6
CONTINUOUS
 70
0
 71
3
 72
9
 73
5
 74
0
 42
0.0000001
 43
0.0000001
 44
0.0000000001
 40
0.0
 40
0.0
 40
0.0
 40
0.0
 40
0.5479968672
 40
1.0
 40
1.0
 40
1.0
 40
1.0
 10
4.3208561301
 20
6.1636256359
 30
0.0
 10
4.3208559995
 20
6.1636284399
 30
0.0
 10
4.3208562837
 20
6.1636336649
 30
0.0
 10
4.3208588605
 20
6.1636383755
 30
0.0
 10
4.3208604976
 20
6.1636400127
 30
0.0
  0
LINE
  5
4E0
100
AcDbEntity
  8
0
100
AcDbLine
 62
7
  6
CONTINUOUS
 10
4.3916151171
 20
6.1026152463
 11
4.3915949042
 21
6.1027143464
  0
SPLINE
  5
4E1
100
AcDbEntity
  8
0
100
AcDbSpline
 62
7
  6
CONTINUOUS
 70
0
 71
3
 72
36
 73
32
 74
0
 42
0.0000001
 43
0.0000001
 44
0.0000000001
 40
0.0
 40
0.0
 40
0.0
 40
0.0
 40
0.0604848025
 40
0.1211593769
 40
0.18207323
 40
0.2126397966
 40
0.2432815514
 40
0.2740070529
 40
0.3048240619
 40
0.3357330576
 40
0.3667401163
 40
0.3978549814
 40
0.4290801279
 40
0.4604141317
 40
0.4918641743
 40
0.5234264544
 40
0.5550952871
 40
0.5868650593
 40
0.6187206205
 40
0.6506462822
 40
0.6826198041
 40
0.7146167926
 40
0.746611004
 40
0.7785764173
 40
0.8104884879
 40
0.8423276659
 40
0.8740764261
 40
0.9057224265
 40
0.9372627588
 40
0.9686864355
 40
1.0
 40
1.0
 40
1.0
 40
1.0
 10
5.9424208217
 20
3.1523525498
 30
0.0
 10
5.9420427426
 20
3.1527306354
 30
0.0
 10
5.9413116564
 20
3.1535149042
 30
0.0
 10
5.940305859
 20
3.1547734951
 30
0.0
 10
5.9395562744
 20
3.155892707
 30
0.0
 10
5.9390197482
 20
3.1568299266
 30
0.0
 10
5.9386511795
 20
3.1575546516
 30
0.0
 10
5.9383201997
 20
3.1582997581
 30
0.0
 10
5.9380306359
 20
3.1590645048
 30
0.0
 10
5.9377861736
 20
3.1598475035
 30
0.0
 10
5.9375907632
 20
3.1606469441
 30
0.0
 10
5.93744906
 20
3.1614605593
 30
0.0
 10
5.93736592
 20
3.1622852127
 30
0.0
 10
5.9373452853
 20
3.1631168499
 30
0.0
 10
5.9373922613
 20
3.1639505316
 30
0.0
 10
5.9375111295
 20
3.1647801219
 30
0.0
 10
5.9377047884
 20
3.1655985465
 30
0.0
 10
5.9379766567
 20
3.166397285
 30
0.0
 10
5.9383270289
 20
3.1671674486
 30
0.0
 10
5.9387558822
 20
3.1678990417
 30
0.0
 10
5.9392601196
 20
3.168582493
 30
0.0
 10
5.9398351129
 20
3.1692084758
 30
0.0
 10
5.9404740899
 20
3.1697688567
 30
0.0
 10
5.9411684951
 20
3.1702575248
 30
0.0
 10
5.9419092676
 20
3.1706695737
 30
0.0
 10
5.9426861756
 20
3.1710035244
 30
0.0
 10
5.9434899448
 20
3.1712583427
 30
0.0
 10
5.9443113773
 20
3.1714358497
 30
0.0
 10
5.9451423976
 20
3.1715393259
 30
0.0
 10
5.9459761134
 20
3.171571165
 30
0.0
 10
5.9465308946
 20
3.1715485306
 30
0.0
 10
5.9468068493
 20
3.1715267394
 30
0.0
  0
LINE
  5
4E2
100
AcDbEntity
  8
0
100
AcDbLine
 62
7
  6
CONTINUOUS
 10
4.340594994
 20
6.1536353693
 11
4.3400363539
 21
6.1545384369
  0
LINE
  5
4E3
100
AcDbEntity
  8
0
100
AcDbLine
 62
7
  6
CONTINUOUS
 10
4.2659926986
 20
6.2184890674
 11
4.2653600876
 21
6.2194259386
  0
LINE
  5
4E4
100
AcDbEntity
  8
0
100
AcDbLine
 62
7
  6
CONTINUOUS
 10
4.2734484535
 20
6.2209798915
 11
4.2728439492
 21
6.2220769128
  0
LINE
  5
4E5
100
AcDbEntity
  8
0
100
AcDbLine
 62
7
  6
CONTINUOUS
 10
4.1907528907
 20
6.2941507636
 11
4.1905845953
 21
6.2945861204
  0
SPLINE
  5
4E6
100
AcDbEntity
  8
0
100
AcDbSpline
 62
7
  6
CONTINUOUS
 70
0
 71
3
 72
19
 73
15
 74
0
 42
0.0000001
 43
0.0000001
 44
0.0000000001
 40
0.0
 40
0.0
 40
0.0
 40
0.0
 40
0.2154836941
 40
0.4043361301
 40
0.5663512
 40
0.7015279061
 40
0.7591544305
 40
0.8102468104
 40
0.8549618135
 40
0.8935507194
 40
0.9264249603
 40
0.9542662018
 40
0.9782054715
 40
1.0
 40
1.0
 40
1.0
 40
1.0
 10
4.1951440205
 20
6.2995956087
 30
0.0
 10
4.1950891455
 20
6.2996709173
 30
0.0
 10
4.1949877356
 20
6.2998133766
 30
0.0
 10
4.1948517102
 20
6.3000170931
 30
0.0
 10
4.1947419742
 20
6.3001964172
 30
0.0
 10
4.194669003
 20
6.3003315444
 30
0.0
 10
4.1946249246
 20
6.3004273988
 30
0.0
 10
4.1946003757
 20
6.3004890796
 30
0.0
 10
4.194582513
 20
6.3005444408
 30
0.0
 10
4.1945713327
 20
6.3005935073
 30
0.0
 10
4.1945668353
 20
6.3006363502
 30
0.0
 10
4.19456912
 20
6.3006731216
 30
0.0
 10
4.1945784999
 20
6.3007039191
 30
0.0
 10
4.1945900812
 20
6.3007204785
 30
0.0
 10
4.1945967454
 20
6.3007271425
 30
0.0
  0
LINE
  5
4E7
100
AcDbEntity
  8
0
100
AcDbLine
 62
7
  6
CONTINUOUS
 10
4.1061158273
 20
6.3790139323
 11
4.1055530531
 21
6.3800551361
  0
SPLINE
  5
4E8
100
AcDbEntity
  8
0
100
AcDbSpline
 62
7
  6
CONTINUOUS
 70
0
 71
3
 72
19
 73
15
 74
0
 42
0.0000001
 43
0.0000001
 44
0.0000000001
 40
0.0
 40
0.0
 40
0.0
 40
0.0
 40
0.2139830687
 40
0.4017209701
 40
0.5630289135
 40
0.6979304926
 40
0.7555915078
 40
0.8068389096
 40
0.851834885
 40
0.890835618
 40
0.9242546891
 40
0.9527647401
 40
0.9774583015
 40
1.0
 40
1.0
 40
1.0
 40
1.0
 10
4.1111351274
 20
6.3839877564
 30
0.0
 10
4.1110829561
 20
6.3840635483
 30
0.0
 10
4.1109866355
 20
6.384206968
 30
0.0
 10
4.110857898
 20
6.3844120667
 30
0.0
 10
4.1107545123
 20
6.3845927345
 30
0.0
 10
4.1106863133
 20
6.3847289199
 30
0.0
 10
4.1106455864
 20
6.3848255646
 30
0.0
 10
4.1106231466
 20
6.3848878638
 30
0.0
 10
4.1106071549
 20
6.384943835
 30
0.0
 10
4.1105976118
 20
6.3849935013
 30
0.0
 10
4.1105945243
 20
6.3850369265
 30
0.0
 10
4.1105979956
 20
6.3850742418
 30
0.0
 10
4.1106083078
 20
6.38510551
 30
0.0
 10
4.1106203091
 20
6.3851223922
 30
0.0
 10
4.1106271631
 20
6.385129246
 30
0.0
  0
SPLINE
  5
4E9
100
AcDbEntity
  8
0
100
AcDbSpline
 62
7
  6
CONTINUOUS
 70
0
 71
3
 72
19
 73
15
 74
0
 42
0.0000001
 43
0.0000001
 44
0.0000000001
 40
0.0
 40
0.0
 40
0.0
 40
0.0
 40
0.2142179729
 40
0.4022036105
 40
0.5637603509
 40
0.6988893225
 40
0.7566432373
 40
0.8079599713
 40
0.8529902715
 40
0.8919739823
 40
0.92530117
 40
0.9536125899
 40
0.9779641179
 40
1.0
 40
1.0
 40
1.0
 40
1.0
 10
4.0271473412
 20
6.468403734
 30
0.0
 10
4.0270971382
 20
6.4684790158
 30
0.0
 10
4.0270044429
 20
6.4686214162
 30
0.0
 10
4.0268805322
 20
6.4688248292
 30
0.0
 10
4.026780984
 20
6.4690037866
 30
0.0
 10
4.0267152766
 20
6.4691384606
 30
0.0
 10
4.0266759943
 20
6.4692338757
 30
0.0
 10
4.0266543291
 20
6.4692952948
 30
0.0
 10
4.026638861
 20
6.46935038
 30
0.0
 10
4.0266295891
 20
6.4693991515
 30
0.0
 10
4.026626516
 20
6.4694416696
 30
0.0
 10
4.0266297333
 20
6.4694780651
 30
0.0
 10
4.0266395052
 20
6.4695084245
 30
0.0
 10
4.0266510098
 20
6.4695247787
 30
0.0
 10
4.0266575916
 20
6.4695313603
 30
0.0
  0
LINE
  5
4EA
100
AcDbEntity
  8
0
100
AcDbLine
 62
7
  6
CONTINUOUS
 10
4.0210686605
 20
6.4645008861
 11
4.0205215223
 21
6.4655241628
  0
LINE
  5
4EB
100
AcDbEntity
  8
0
100
AcDbLine
 62
7
  6
CONTINUOUS
 10
3.9016242007
 20
6.5926850499
 11
3.9012303732
 21
6.5929999902
  0
LINE
  5
4EC
100
AcDbEntity
  8
0
100
AcDbLine
 62
7
  6
CONTINUOUS
 10
3.9489035044
 20
6.5470904621
 11
3.9484104175
 21
6.5481816198
  0
SPLINE
  5
4ED
100
AcDbEntity
  8
0
100
AcDbSpline
 62
7
  6
CONTINUOUS
 70
0
 71
3
 72
9
 73
5
 74
0
 42
0.0000001
 43
0.0000001
 44
0.0000000001
 40
0.0
 40
0.0
 40
0.0
 40
0.0
 40
0.4519810623
 40
1.0
 40
1.0
 40
1.0
 40
1.0
 10
3.9112350169
 20
6.5732654933
 30
0.0
 10
3.9112333798
 20
6.5732638562
 30
0.0
 10
3.911228669
 20
6.5732612795
 30
0.0
 10
3.9112234439
 20
6.5732609956
 30
0.0
 10
3.9112206398
 20
6.5732611262
 30
0.0
  0
LINE
  5
4EE
100
AcDbEntity
  8
0
100
AcDbLine
 62
7
  6
CONTINUOUS
 10
3.8503093502
 20
6.6439999003
 11
3.8502102501
 21
6.6440201132
  0
LINE
  5
4EF
100
AcDbEntity
  8
0
100
AcDbLine
 62
7
  6
CONTINUOUS
 10
3.7975414911
 20
6.6996623199
 11
3.7973236848
 21
6.6999682025
  0
LINE
  5
4F0
100
AcDbEntity
  8
0
100
AcDbLine
 62
7
  6
CONTINUOUS
 10
3.7973236848
 20
6.6999682025
 11
3.7972483078
 21
6.7001032594
  0
LINE
  5
4F1
100
AcDbEntity
  8
0
100
AcDbLine
 62
7
  6
CONTINUOUS
 10
3.7978658642
 20
6.6992385234
 11
3.7975414911
 21
6.6996623199
  0
LINE
  5
4F2
100
AcDbEntity
  8
0
100
AcDbLine
 62
7
  6
CONTINUOUS
 10
3.8613048778
 20
6.6254111329
 11
3.8607142199
 21
6.6261529538
  0
SPLINE
  5
4F3
100
AcDbEntity
  8
0
100
AcDbSpline
 62
7
  6
CONTINUOUS
 70
0
 71
3
 72
9
 73
5
 74
0
 42
0.0000001
 43
0.0000001
 44
0.0000000001
 40
0.0
 40
0.0
 40
0.0
 40
0.0
 40
0.2539154114
 40
1.0
 40
1.0
 40
1.0
 40
1.0
 10
3.8613669334
 20
6.6253377107
 30
0.0
 10
3.8613622128
 20
6.625343288
 30
0.0
 10
3.8613436252
 20
6.6253652561
 30
0.0
 10
3.8613250511
 20
6.6253872355
 30
0.0
 10
3.8613112015
 20
6.6254036411
 30
0.0
  0
SPLINE
  5
4F4
100
AcDbEntity
  8
0
100
AcDbSpline
 62
7
  6
CONTINUOUS
 70
0
 71
3
 72
47
 73
43
 74
0
 42
0.0000001
 43
0.0000001
 44
0.0000000001
 40
0.0
 40
0.0
 40
0.0
 40
0.0
 40
0.0312522912
 40
0.0625042904
 40
0.0937562586
 40
0.1250080154
 40
0.1562595876
 40
0.1875109766
 40
0.2499810134
 40
0.2812316507
 40
0.312482052
 40
0.3437321687
 40
0.3749819422
 40
0.4062314518
 40
0.4374806986
 40
0.4687295828
 40
0.4999782685
 40
0.531226672
 40
0.5468539793
 40
0.5624812767
 40
0.5781085668
 40
0.5937358592
 40
0.6093631239
 40
0.6249904042
 40
0.6562381567
 40
0.6874857661
 40
0.7187334349
 40
0.7499811375
 40
0.7656083816
 40
0.7812356689
 40
0.8124836141
 40
0.8281109177
 40
0.8437381922
 40
0.8749865228
 40
0.906235119
 40
0.9218624309
 40
0.9374898228
 40
0.9531172687
 40
0.9687443486
 40
0.9765584615
 40
0.9843728764
 40
1.0
 40
1.0
 40
1.0
 40
1.0
 10
5.9353497813
 20
3.1452815095
 30
0.0
 10
5.9349922493
 20
3.1456390359
 30
0.0
 10
5.9342964736
 20
3.1463736946
 30
0.0
 10
5.9333157994
 20
3.1475318966
 30
0.0
 10
5.9324020449
 20
3.1487436871
 30
0.0
 10
5.9315599814
 20
3.1500063486
 30
0.0
 10
5.9307943158
 20
3.1513169012
 30
0.0
 10
5.9298820344
 20
3.1531223034
 30
0.0
 10
5.9291399771
 20
3.1550102336
 30
0.0
 10
5.9285893761
 20
3.1569569267
 30
0.0
 10
5.9282758057
 20
3.1584422054
 30
0.0
 10
5.928065498
 20
3.1599455514
 30
0.0
 10
5.9279626366
 20
3.1614601374
 30
0.0
 10
5.9279707867
 20
3.1629782212
 30
0.0
 10
5.9280915108
 20
3.1644915588
 30
0.0
 10
5.9283273883
 20
3.1659913589
 30
0.0
 10
5.9286796304
 20
3.167468138
 30
0.0
 10
5.9290692533
 20
3.168672085
 30
0.0
 10
5.9294384826
 20
3.1696137358
 30
0.0
 10
5.9297440137
 20
3.1703082072
 30
0.0
 10
5.9300775617
 20
3.170989653
 30
0.0
 10
5.9304386794
 20
3.1716569011
 30
0.0
 10
5.9308270543
 20
3.1723086818
 30
0.0
 10
5.9313806054
 20
3.1731552114
 30
0.0
 10
5.9321380002
 20
3.1741690543
 30
0.0
 10
5.9331449294
 20
3.1753055585
 30
0.0
 10
5.9342441627
 20
3.1763530387
 30
0.0
 10
5.9352297758
 20
3.1771468233
 30
0.0
 10
5.9360558971
 20
3.1777304304
 30
0.0
 10
5.9369056881
 20
3.1782789516
 30
0.0
 10
5.9377887571
 20
3.1787744135
 30
0.0
 10
5.9386995611
 20
3.1792142276
 30
0.0
 10
5.9396276941
 20
3.1796162897
 30
0.0
 10
5.9408173907
 20
3.1800474014
 30
0.0
 10
5.9420374576
 20
3.1803828492
 30
0.0
 10
5.9430268044
 20
3.1805931042
 30
0.0
 10
5.9437745364
 20
3.1807216095
 30
0.0
 10
5.9445266339
 20
3.1808212682
 30
0.0
 10
5.9451561296
 20
3.1808801695
 30
0.0
 10
5.9456607467
 20
3.1809132603
 30
0.0
 10
5.9461658674
 20
3.180937341
 30
0.0
 10
5.9465451667
 20
3.1809449896
 30
0.0
 10
5.9467979938
 20
3.1809450316
 30
0.0
  0
ENDSEC
  0
SECTION
  2
OBJECTS
  0
DICTIONARY
  5
C
100
AcDbDictionary
280
0
281
1
  3
ACAD_GROUP
350
D
  3
ACAD_MLINESTYLE
350
17
  3
ACAD_LAYOUT
350
1A
  3
ACAD_PLOTSETTINGS
350
19
  3
ACAD_PLOTSTYLENAME
350
E
  0
DICTIONARY
  5
D
102
{ACAD_REACTORS
330
C
102
}
100
AcDbDictionary
280
0
281
1
  0
ACDBDICTIONARYWDFLT
  5
E
102
{ACAD_REACTORS
330
C
102
}
100
AcDbDictionary
281
1
  3
Normal
350
F
100
AcDbDictionaryWithDefault
340
F
  0
DICTIONARY
  5
17
102
{ACAD_REACTORS
330
C
102
}
100
AcDbDictionary
280
0
281
1
  3
Standard
350
18
  0
DICTIONARY
  5
19
102
{ACAD_REACTORS
330
C
102
}
100
AcDbDictionary
281
1
  0
DICTIONARY
  5
1A
102
{ACAD_REACTORS
330
C
102
}
100
AcDbDictionary
281
1
  3
Model
350
4F5
  3
Layout1
350
4F6
  0
ACDBPLACEHOLDER
  5
F
102
{ACAD_REACTORS
330
E
102
}
  0
MLINESTYLE
  5
18
102
{ACAD_REACTORS
330
17
102
}
100
AcDbMlineStyle
  2
STANDARD
 70
0
  3

 62
256
 51
90.0
 52
90.0
 71
2
 49
0.5
 62
256
  6
BYLAYER
 49
-0.5
 62
256
  6
BYLAYER
  0
LAYOUT
  5
4F5
102
{ACAD_REACTORS
330
1A
102
}
100
AcDbPlotSettings
  1

  2
none_device
  4
ANSI_A_(11.00_x_8.50_Inches)
  6

 40
0.0
 41
0.0
 42
0.0
 43
0.0
 44
279.4
 45
215.9
 46
0.0
 47
0.0
 48
0.0
 49
0.0
140
0.0
141
0.0
142
1.0
143
1.0
 70
1024
 72
0
 73
0
 74
0
  7

 75
0
147
1.0
148
0.0
149
0.0
100
AcDbLayout
  1
Model
 70
0
 71
0
 10
0.0
 20
0.0
 11
11.0
 21
8.5
 12
0.0
 22
0.0
 32
0.0
 14
0.0
 24
0.0
 34
0.0
 15
0.0
 25
0.0
 35
0.0
146
0.0
 13
0.0
 23
0.0
 33
0.0
 16
1.0
 26
0.0
 36
0.0
 17
0.0
 27
1.0
 37
0.0
 76
0
330
202
345
0
346
0
  0
LAYOUT
  5
4F6
102
{ACAD_REACTORS
330
1A
102
}
100
AcDbPlotSettings
  1

  2
none_device
  4
ANSI_A_(11.00_x_8.50_Inches)
  6

 40
0.0
 41
0.0
 42
0.0
 43
0.0
 44
279.4
 45
215.9
 46
0.0
 47
0.0
 48
0.0
 49
0.0
140
0.0
141
0.0
142
1.0
143
1.0
 70
0
 72
0
 73
0
 74
0
  7

 75
0
147
1.0
148
0.0
149
0.0
100
AcDbLayout
  1
Layout1
 70
0
 71
1
 10
0.0
 20
0.0
 11
11.0
 21
8.5
 12
0.0
 22
0.0
 32
0.0
 14
0.0
 24
0.0
 34
0.0
 15
0.0
 25
0.0
 35
0.0
146
0.0
 13
0.0
 23
0.0
 33
0.0
 16
1.0
 26
0.0
 36
0.0
 17
0.0
 27
1.0
 37
0.0
 76
0
330
203
345
0
346
0
  0
ENDSEC
  0
EOF
