999
DXF file: 3-2551_FRONT.dxf
999
Pro/ENGINEER 2018400 by Parametric Technology Corporation
  0
SECTION
  2
HEADER
  9
$ACADVER
  1
AC1027
  9
$DWGCODEPAGE
  3
ANSI_1252
  9
$EXTMAX
 10
11.0
 20
8.5
 30
0.0
  9
$EXTMIN
 10
0.0
 20
0.0
 30
0.0
  9
$LIMMIN
 10
0.0
 20
0.0
  9
$LIMMAX
 10
11.0
 20
8.5
  9
$VIEWCTR
 10
5.5
 20
4.25
  9
$VIEWSIZE
 40
8.5
  9
$CLAYER
  8
0
  9
$LTSCALE
 40
0.605
  9
$CELTYPE
  6
BYLAYER
  9
$DIMSCALE
 40
1.0
  9
$DIMASZ
 40
0.1
  9
$DIMEXO
 40
0.0625
  9
$DIMDLI
 40
0.418
  9
$DIMEXE
 40
0.125
  9
$DIMCEN
 40
0.099
  9
$DIMLFAC
 40
1.0
  9
$DIMBLK
  1
_FILLED
  9
$DIMALT
 70
1
  9
$DIMALTD
 70
2
  9
$DIMALTTD
 70
2
  9
$DIMALTF
 40
25.4
  9
$DIMTXT
 40
0.08
  9
$DIMTOL
 70
1
  9
$DIMLIM
 70
0
  9
$DIMTFAC
 40
1.0
  9
$DIMTP
 40
0.001
  9
$DIMTM
 40
0.001
  9
$DIMGAP
 40
0.09
  9
$DIMDSEP
 70
46
  9
$AUNITS
 70
0
  9
$PDMODE
 70
3
  9
$PDSIZE
 40
0.3125
  9
$HANDSEED
  5
3FA
  9
$TILEMODE
 70
1
  9
$MEASUREMENT
 70
0
  9
$INSUNITS
 70
1
  0
ENDSEC
  0
SECTION
  2
CLASSES
  0
CLASS
  1
ACDBDICTIONARYWDFLT
  2
AcDbDictionaryWithDefault
  3
AutoCAD 2000
 90
0
 91
1
280
0
281
0
  0
CLASS
  1
ACDBPLACEHOLDER
  2
AcDbPlaceHolder
  3
AutoCAD 2000
 90
0
 91
1
280
0
281
0
  0
CLASS
  1
LAYOUT
  2
AcDbLayout
  3
AutoCAD 2000
 90
0
 91
0
280
0
281
0
  0
ENDSEC
  0
SECTION
  2
TABLES
  0
TABLE
  2
VPORT
  5
8
100
AcDbSymbolTable
 70
2
  0
VPORT
  5
1F4
100
AcDbSymbolTableRecord
100
AcDbViewportTableRecord
  2
*ACTIVE
 70
0
 10
0.0
 20
0.0
 11
1.0
 21
1.0
 12
5.5
 22
4.25
 13
0.0
 23
0.0
 14
1.0
 24
1.0
 15
0.0
 25
0.0
 16
0.0
 26
0.0
 36
1.0
 17
0.0
 27
0.0
 37
0.0
 40
8.5
 41
1.2941176471
 42
50.0
 43
0.0
 44
0.0
 50
0.0
 51
0.0
 71
0
 72
100
 73
1
 74
1
 75
0
 76
0
 77
0
 78
0
  0
ENDTAB
  0
TABLE
  2
LTYPE
  5
5
100
AcDbSymbolTable
 70
6
  0
LTYPE
  5
14
100
AcDbSymbolTableRecord
100
AcDbLinetypeTableRecord
  2
BYBLOCK
 70
0
  3

 72
65
 73
0
 40
0.0
  0
LTYPE
  5
15
100
AcDbSymbolTableRecord
100
AcDbLinetypeTableRecord
  2
BYLAYER
 70
0
  3

 72
65
 73
0
 40
0.0
  0
LTYPE
  5
16
100
AcDbSymbolTableRecord
100
AcDbLinetypeTableRecord
  2
CONTINUOUS
 70
64
  3
Solid line
 72
65
 73
0
 40
0.0
  0
LTYPE
  5
1F5
100
AcDbSymbolTableRecord
100
AcDbLinetypeTableRecord
  2
CENTER
 70
64
  3
____ _ ____ _ ____ _ ____ _ ____ _ ____ _ ____
 72
65
 73
4
 40
0.6
 49
0.375
 74
0
 49
-0.075
 74
0
 49
0.075
 74
0
 49
-0.075
 74
0
  0
LTYPE
  5
1F6
100
AcDbSymbolTableRecord
100
AcDbLinetypeTableRecord
  2
HIDDEN
 70
64
  3
- - - - - - - - - - - - - - - - - - - -
 72
65
 73
2
 40
0.2
 49
0.1
 74
0
 49
-0.1
 74
0
  0
LTYPE
  5
1F7
100
AcDbSymbolTableRecord
100
AcDbLinetypeTableRecord
  2
PHANTOM
 70
64
  3
_____ _ _ _____ _ _ _____ _ _ _____
 72
65
 73
6
 40
0.8
 49
0.45
 74
0
 49
-0.05
 74
0
 49
0.1
 74
0
 49
-0.05
 74
0
 49
0.1
 74
0
 49
-0.05
 74
0
  0
LTYPE
  5
1F8
100
AcDbSymbolTableRecord
100
AcDbLinetypeTableRecord
  2
DOT
 70
64
  3
. . . . . . . . . . . . . . . . . . . .
 72
65
 73
2
 40
0.2
 49
0.1
 74
0
 49
-0.1
 74
0
  0
LTYPE
  5
1F9
100
AcDbSymbolTableRecord
100
AcDbLinetypeTableRecord
  2
DASHED
 70
64
  3
- - - - - - - - - - - - - - - - - - - -
 72
65
 73
2
 40
0.2
 49
0.1
 74
0
 49
-0.1
 74
0
  0
ENDTAB
  0
TABLE
  2
LAYER
  5
2
100
AcDbSymbolTable
 70
36
  0
LAYER
  5
10
100
AcDbSymbolTableRecord
100
AcDbLayerTableRecord
  2
0
 70
0
 62
7
  6
CONTINUOUS
370
-3
390
F
  0
LAYER
  5
1FA
100
AcDbSymbolTableRecord
100
AcDbLayerTableRecord
  2
DEFAULT_1
 70
0
 62
7
  6
CENTER
370
-3
390
F
  0
LAYER
  5
1FB
100
AcDbSymbolTableRecord
100
AcDbLayerTableRecord
  2
DEFAULT_2
 70
0
 62
8
  6
HIDDEN
370
-3
390
F
  0
LAYER
  5
1FC
100
AcDbSymbolTableRecord
100
AcDbLayerTableRecord
  2
DEFAULT_3
 70
0
 62
7
  6
PHANTOM
370
-3
390
F
  0
LAYER
  5
1FD
100
AcDbSymbolTableRecord
100
AcDbLayerTableRecord
  2
01___PRT_ALL_DTM_PLN
 70
0
 62
7
  6
CONTINUOUS
370
-3
390
F
  0
LAYER
  5
1FE
100
AcDbSymbolTableRecord
100
AcDbLayerTableRecord
  2
01___PRT_DEF_DTM_PLN
 70
0
 62
7
  6
CONTINUOUS
370
-3
390
F
  0
LAYER
  5
1FF
100
AcDbSymbolTableRecord
100
AcDbLayerTableRecord
  2
02___PRT_ALL_AXES
 70
0
 62
7
  6
CONTINUOUS
370
-3
390
F
  0
LAYER
  5
200
100
AcDbSymbolTableRecord
100
AcDbLayerTableRecord
  2
03___PRT_ALL_CURVES
 70
0
 62
7
  6
CONTINUOUS
370
-3
390
F
  0
LAYER
  5
201
100
AcDbSymbolTableRecord
100
AcDbLayerTableRecord
  2
04___PRT_ALL_DTM_PNT
 70
0
 62
7
  6
CONTINUOUS
370
-3
390
F
  0
LAYER
  5
202
100
AcDbSymbolTableRecord
100
AcDbLayerTableRecord
  2
05___PRT_ALL_DTM_CSYS
 70
0
 62
7
  6
CONTINUOUS
370
-3
390
F
  0
LAYER
  5
203
100
AcDbSymbolTableRecord
100
AcDbLayerTableRecord
  2
05___PRT_DEF_DTM_CSYS
 70
0
 62
7
  6
CONTINUOUS
370
-3
390
F
  0
LAYER
  5
204
100
AcDbSymbolTableRecord
100
AcDbLayerTableRecord
  2
06___PRT_ALL_SURFS
 70
0
 62
7
  6
CONTINUOUS
370
-3
390
F
  0
LAYER
  5
205
100
AcDbSymbolTableRecord
100
AcDbLayerTableRecord
  2
ALL_FEATURES
 70
0
 62
7
  6
CONTINUOUS
370
-3
390
F
  0
LAYER
  5
206
100
AcDbSymbolTableRecord
100
AcDbLayerTableRecord
  2
AXES_FEATURES
 70
0
 62
7
  6
CONTINUOUS
370
-3
390
F
  0
LAYER
  5
207
100
AcDbSymbolTableRecord
100
AcDbLayerTableRecord
  2
CHAMFER_FEATURES
 70
0
 62
7
  6
CONTINUOUS
370
-3
390
F
  0
LAYER
  5
208
100
AcDbSymbolTableRecord
100
AcDbLayerTableRecord
  2
CUT_FEATURES
 70
0
 62
7
  6
CONTINUOUS
370
-3
390
F
  0
LAYER
  5
209
100
AcDbSymbolTableRecord
100
AcDbLayerTableRecord
  2
DATUM_CURVES
 70
0
 62
7
  6
CONTINUOUS
370
-3
390
F
  0
LAYER
  5
20A
100
AcDbSymbolTableRecord
100
AcDbLayerTableRecord
  2
DATUM_PLANES
 70
0
 62
7
  6
CONTINUOUS
370
-3
390
F
  0
LAYER
  5
20B
100
AcDbSymbolTableRecord
100
AcDbLayerTableRecord
  2
DEFAULT_COORDINATE_SYSTEM
 70
0
 62
7
  6
CONTINUOUS
370
-3
390
F
  0
LAYER
  5
20C
100
AcDbSymbolTableRecord
100
AcDbLayerTableRecord
  2
DEFAULT_DATUM_AXES
 70
0
 62
7
  6
CONTINUOUS
370
-3
390
F
  0
LAYER
  5
20D
100
AcDbSymbolTableRecord
100
AcDbLayerTableRecord
  2
DEFAULT_DATUM_CURVES
 70
0
 62
7
  6
CONTINUOUS
370
-3
390
F
  0
LAYER
  5
20E
100
AcDbSymbolTableRecord
100
AcDbLayerTableRecord
  2
DEFAULT_DATUM_PLANES
 70
0
 62
7
  6
CONTINUOUS
370
-3
390
F
  0
LAYER
  5
20F
100
AcDbSymbolTableRecord
100
AcDbLayerTableRecord
  2
DEFAULT_SURFACES
 70
0
 62
7
  6
CONTINUOUS
370
-3
390
F
  0
LAYER
  5
210
100
AcDbSymbolTableRecord
100
AcDbLayerTableRecord
  2
DIMENSIONS
 70
0
 62
7
  6
CONTINUOUS
370
-3
390
F
  0
LAYER
  5
211
100
AcDbSymbolTableRecord
100
AcDbLayerTableRecord
  2
HOLE_FEATURES
 70
0
 62
7
  6
CONTINUOUS
370
-3
390
F
  0
LAYER
  5
212
100
AcDbSymbolTableRecord
100
AcDbLayerTableRecord
  2
NONE
 70
0
 62
7
  6
CONTINUOUS
370
-3
390
F
  0
LAYER
  5
213
100
AcDbSymbolTableRecord
100
AcDbLayerTableRecord
  2
PLATED_SURFACE_AREA
 70
0
 62
7
  6
CONTINUOUS
370
-3
390
F
  0
LAYER
  5
214
100
AcDbSymbolTableRecord
100
AcDbLayerTableRecord
  2
PROTRUSION_FEATURES
 70
0
 62
7
  6
CONTINUOUS
370
-3
390
F
  0
LAYER
  5
215
100
AcDbSymbolTableRecord
100
AcDbLayerTableRecord
  2
WETTED_SURFACES
 70
0
 62
7
  6
CONTINUOUS
370
-3
390
F
  0
LAYER
  5
216
100
AcDbSymbolTableRecord
100
AcDbLayerTableRecord
  2
XSEC_DATUMS
 70
0
 62
7
  6
CONTINUOUS
370
-3
390
F
  0
ENDTAB
  0
TABLE
  2
STYLE
  5
3
100
AcDbSymbolTable
 70
1
  0
STYLE
  5
11
100
AcDbSymbolTableRecord
100
AcDbTextStyleTableRecord
  2
STANDARD
 70
0
 40
0.0
 41
0.8
 50
0.0
 71
0
 42
0.2
  3
txt
  4

  0
STYLE
  5
217
100
AcDbSymbolTableRecord
100
AcDbTextStyleTableRecord
  2
TEXTSTYLE_1
 70
0
 40
0.0
 41
0.8
 50
0.0
 71
0
 42
0.2
  3
gdt
  4

  0
ENDTAB
  0
TABLE
  2
VIEW
  5
6
100
AcDbSymbolTable
 70
0
  0
ENDTAB
  0
TABLE
  2
UCS
  5
7
100
AcDbSymbolTable
 70
0
  0
ENDTAB
  0
TABLE
  2
APPID
  5
9
100
AcDbSymbolTable
 70
1
  0
APPID
  5
218
100
AcDbSymbolTableRecord
100
AcDbRegAppTableRecord
  2
ACAD
 70
0
  0
ENDTAB
  0
TABLE
  2
BLOCK_RECORD
  5
1
100
AcDbSymbolTable
 70
0
  0
BLOCK_RECORD
  5
219
100
AcDbSymbolTableRecord
100
AcDbBlockTableRecord
  2
*Model_Space
  0
BLOCK_RECORD
  5
21A
100
AcDbSymbolTableRecord
100
AcDbBlockTableRecord
  2
*Paper_Space
  0
BLOCK_RECORD
  5
21B
100
AcDbSymbolTableRecord
100
AcDbBlockTableRecord
  2
_FILLED
  0
ENDTAB
  0
TABLE
  2
DIMSTYLE
  5
A
100
AcDbSymbolTable
 70
1
100
AcDbDimStyleTable
 71
0
  0
DIMSTYLE
105
21C
100
AcDbSymbolTableRecord
100
AcDbDimStyleTableRecord
  2
STANDARD
 70
0
  3

  4

 40
1.0
 41
0.1
 42
0.0625
 43
0.38
 44
0.125
 45
0.0
 46
0.0
 47
0.001
 48
0.001
140
0.08
141
0.09
142
0.0
143
25.4
144
1.0
145
0.0
146
1.0
147
0.09
 71
1.0
 72
0.0
 73
1
 74
1
 75
0
 76
0
 77
0
 78
4
 79
1
170
1
171
2
172
0
173
0
174
0
175
0
176
0
177
0
178
0
270
2
179
3
271
3
272
3
273
2
274
2
275
0
280
0
281
0
282
0
283
1
284
4
285
0
286
0
287
3
288
0
340
11
278
46
341
21B
342
21B
343
21B
344
21B
  0
ENDTAB
  0
ENDSEC
  0
SECTION
  2
BLOCKS
  0
BLOCK
  5
20
100
AcDbEntity
  8
0
100
AcDbBlockBegin
  2
*Model_Space
 70
0
 10
0.0
 20
0.0
 30
0.0
  3
*Model_Space
  1

  0
ENDBLK
  5
21
100
AcDbEntity
  8
0
100
AcDbBlockEnd
  0
BLOCK
  5
1C
100
AcDbEntity
  8
0
100
AcDbBlockBegin
  2
*Paper_Space
 70
0
 10
0.0
 20
0.0
 30
0.0
  3
*Paper_Space
  1

  0
ENDBLK
  5
1D
100
AcDbEntity
  8
0
100
AcDbBlockEnd
  0
BLOCK
  5
21D
100
AcDbEntity
  8
0
100
AcDbBlockBegin
  2
_FILLED
 70
64
 10
0.0
 20
0.0
  3
_FILLED
  1

  0
SOLID
  5
21E
100
AcDbEntity
  8
0
  6
BYBLOCK
 62
0
100
AcDbTrace
 10
0.0
 20
0.0
 11
-1.0
 21
0.2
 12
-1.0
 22
-0.2
 13
-1.0
 23
-0.2
  0
ENDBLK
  5
21F
100
AcDbEntity
  8
0
  6
BYBLOCK
 62
0
100
AcDbBlockEnd
  0
ENDSEC
  0
SECTION
  2
ENTITIES
  0
MTEXT
  5
220
100
AcDbEntity
  8
0
100
AcDbMText
 62
2
  6
CONTINUOUS
  7
STANDARD
 71
3
 72
1
 10
2.6464479814
 20
1.2613961273
 30
0.0
 11
1.0
 21
0.0
 31
0.0
 73
2
 44
0.9
  1
SCALE  .500
 40
0.08
 41
0.704
  0
LINE
  5
221
100
AcDbEntity
  8
0
100
AcDbLine
 62
7
  6
CONTINUOUS
 10
0.0
 20
0.0
 11
0.0
 21
8.5
  0
LINE
  5
222
100
AcDbEntity
  8
0
100
AcDbLine
 62
7
  6
CONTINUOUS
 10
0.0
 20
0.0
 11
11.0
 21
0.0
  0
LINE
  5
223
100
AcDbEntity
  8
0
100
AcDbLine
 62
7
  6
CONTINUOUS
 10
0.0
 20
8.5
 11
11.0
 21
8.5
  0
LINE
  5
224
100
AcDbEntity
  8
0
100
AcDbLine
 62
7
  6
CONTINUOUS
 10
11.0
 20
0.0
 11
11.0
 21
8.5
  0
LINE
  5
225
100
AcDbEntity
  8
0
100
AcDbLine
 62
7
  6
CONTINUOUS
 10
1.6248501553
 20
4.6428920806
 11
1.6248501553
 21
4.8678920806
  0
LINE
  5
226
100
AcDbEntity
  8
0
100
AcDbLine
 62
7
  6
CONTINUOUS
 10
1.6348501553
 20
4.6328920806
 11
1.6348501553
 21
4.8778920806
  0
LINE
  5
227
100
AcDbEntity
  8
0
100
AcDbLine
 62
7
  6
CONTINUOUS
 10
1.6615329571
 20
4.6328920806
 11
1.6615329571
 21
4.8778920806
  0
LINE
  5
228
100
AcDbEntity
  8
0
100
AcDbLine
 62
7
  6
CONTINUOUS
 10
1.6669011713
 20
4.6313290395
 11
1.6669011713
 21
4.8794551216
  0
LINE
  5
229
100
AcDbEntity
  8
02___PRT_ALL_AXES
100
AcDbLine
 62
7
  6
CONTINUOUS
 10
1.9093501553
 20
4.9477723319
 11
1.9093501553
 21
4.5630118292
  0
LINE
  5
22A
100
AcDbEntity
  8
02___PRT_ALL_AXES
100
AcDbLine
 62
7
  6
CONTINUOUS
 10
2.0948501553
 20
4.9315791293
 11
2.0948501553
 21
4.5792050318
  0
LINE
  5
22B
100
AcDbEntity
  8
02___PRT_ALL_AXES
100
AcDbLine
 62
7
  6
CONTINUOUS
 10
2.3484301449
 20
4.8824718688
 11
2.3484301449
 21
4.6283122924
  0
LINE
  5
22C
100
AcDbEntity
  8
02___PRT_ALL_AXES
100
AcDbLine
 62
7
  6
CONTINUOUS
 10
2.6098501553
 20
4.8573920806
 11
2.6098501553
 21
4.6533920806
  0
LINE
  5
22D
100
AcDbEntity
  8
0
100
AcDbLine
 62
7
  6
CONTINUOUS
 10
2.7598501553
 20
4.6478920806
 11
2.7598501553
 21
4.8628920806
  0
LINE
  5
22E
100
AcDbEntity
  8
0
100
AcDbLine
 62
7
  6
CONTINUOUS
 10
2.7698501553
 20
4.6378920806
 11
2.7698501553
 21
4.8728920806
  0
LINE
  5
22F
100
AcDbEntity
  8
0
100
AcDbLine
 62
7
  6
CONTINUOUS
 10
2.7898501553
 20
4.6378920806
 11
2.7898501553
 21
4.8728920806
  0
LINE
  5
230
100
AcDbEntity
  8
0
100
AcDbLine
 62
7
  6
CONTINUOUS
 10
2.7998501553
 20
4.6478920806
 11
2.7998501553
 21
4.8628920806
  0
LINE
  5
231
100
AcDbEntity
  8
0
100
AcDbLine
 62
7
  6
CONTINUOUS
 10
5.3180776915
 20
4.0111267778
 11
5.3180833029
 21
4.0111276484
  0
LINE
  5
232
100
AcDbEntity
  8
0
100
AcDbLine
 62
7
  6
CONTINUOUS
 10
5.0270687551
 20
4.0057447147
 11
5.0471527921
 21
4.0086299772
  0
LINE
  5
233
100
AcDbEntity
  8
0
100
AcDbLine
 62
7
  6
CONTINUOUS
 10
5.0267115513
 20
4.0057349992
 11
5.046788835
 21
4.0086192915
  0
LINE
  5
234
100
AcDbEntity
  8
0
100
AcDbLine
 62
7
  6
CONTINUOUS
 10
5.0502845564
 20
4.0305650462
 11
5.0509303304
 21
4.0306578178
  0
LINE
  5
235
100
AcDbEntity
  8
0
100
AcDbLine
 62
7
  6
CONTINUOUS
 10
5.0505320103
 20
4.0306421955
 11
5.0505335299
 21
4.0306424131
  0
LINE
  5
236
100
AcDbEntity
  8
0
100
AcDbLine
 62
7
  6
CONTINUOUS
 10
5.2923021333
 20
4.0362694516
 11
5.2990275117
 21
4.0368810112
  0
LINE
  5
237
100
AcDbEntity
  8
0
100
AcDbLine
 62
7
  6
CONTINUOUS
 10
5.2920818288
 20
4.0362756677
 11
5.2988986234
 21
4.0368955401
  0
LINE
  5
238
100
AcDbEntity
  8
0
100
AcDbLine
 62
7
  6
CONTINUOUS
 10
5.0046194134
 20
4.0133729732
 11
4.9792858516
 21
4.0110693136
  0
LINE
  5
239
100
AcDbEntity
  8
0
100
AcDbLine
 62
7
  6
CONTINUOUS
 10
5.0030549222
 20
4.0160768496
 11
4.977716198
 21
4.0137727204
  0
LINE
  5
23A
100
AcDbEntity
  8
0
100
AcDbLine
 62
7
  6
CONTINUOUS
 10
5.0030549222
 20
4.033465309
 11
4.977716198
 21
4.0311611799
  0
LINE
  5
23B
100
AcDbEntity
  8
0
100
AcDbLine
 62
7
  6
CONTINUOUS
 10
5.001788705
 20
4.0361963083
 11
4.9773913106
 21
4.0339777772
  0
LINE
  5
23C
100
AcDbEntity
  8
0
100
AcDbLine
 62
7
  6
CONTINUOUS
 10
5.2703705381
 20
4.0057668557
 11
5.2705733181
 21
4.0057839682
  0
LINE
  5
23D
100
AcDbEntity
  8
0
100
AcDbLine
 62
7
  6
CONTINUOUS
 10
5.0267132561
 20
4.0057352441
 11
5.0265164861
 21
4.0057270679
  0
LINE
  5
23E
100
AcDbEntity
  8
0
100
AcDbLine
 62
7
  6
CONTINUOUS
 10
5.0046037947
 20
4.0362717984
 11
5.0043836812
 21
4.0362655729
  0
LINE
  5
23F
100
AcDbEntity
  8
0
100
AcDbLine
 62
7
  6
CONTINUOUS
 10
4.9426309984
 20
4.0210060758
 11
4.9749314111
 21
4.0214453974
  0
LINE
  5
240
100
AcDbEntity
  8
0
100
AcDbLine
 62
7
  6
CONTINUOUS
 10
4.9426004453
 20
4.0210218259
 11
4.9748925222
 21
4.0214610341
  0
LINE
  5
241
100
AcDbEntity
  8
0
100
AcDbLine
 62
7
  6
CONTINUOUS
 10
5.3474297928
 20
4.0285360099
 11
5.3218024473
 21
4.0281874495
  0
LINE
  5
242
100
AcDbEntity
  8
0
100
AcDbLine
 62
7
  6
CONTINUOUS
 10
5.3366726634
 20
4.0311576224
 11
5.3215034268
 21
4.0309513039
  0
LINE
  5
243
100
AcDbEntity
  8
0
100
AcDbLine
 62
7
  6
CONTINUOUS
 10
5.184116755
 20
4.0681773422
 11
5.1847491795
 21
4.0681703351
  0
LINE
  5
244
100
AcDbEntity
  8
0
100
AcDbLine
 62
7
  6
CONTINUOUS
 10
5.3217788479
 20
4.0214493487
 11
5.3541495161
 21
4.0210589041
  0
LINE
  5
245
100
AcDbEntity
  8
0
100
AcDbLine
 62
7
  6
CONTINUOUS
 10
5.3218073557
 20
4.021465121
 11
5.3541900296
 21
4.0210745316
  0
LINE
  5
246
100
AcDbEntity
  8
0
100
AcDbLine
 62
7
  6
CONTINUOUS
 10
4.9748863572
 20
4.0281835148
 11
4.9491402851
 21
4.0284940557
  0
LINE
  5
247
100
AcDbEntity
  8
0
100
AcDbLine
 62
7
  6
CONTINUOUS
 10
4.9751572952
 20
4.030947733
 11
4.9599059001
 21
4.0311316904
  0
LINE
  5
248
100
AcDbEntity
  8
0
100
AcDbLine
 62
7
  6
CONTINUOUS
 10
5.1841321058
 20
4.068192754
 11
5.1847637309
 21
4.0681846885
  0
LINE
  5
249
100
AcDbEntity
  8
0
100
AcDbLine
 62
7
  6
CONTINUOUS
 10
5.2705818876
 20
4.0057593819
 11
5.2703727403
 21
4.0057665479
  0
LINE
  5
24A
100
AcDbEntity
  8
0
100
AcDbLine
 62
7
  6
CONTINUOUS
 10
5.3186554147
 20
4.0487975972
 11
5.3193511334
 21
4.0487488867
  0
LWPOLYLINE
  5
24B
100
AcDbEntity
  8
0
100
AcDbPolyline
 62
7
  6
CONTINUOUS
 90
9
 70
0
 10
5.1100974107
 20
4.0240602236
 10
5.1103531784
 20
4.0240412505
 10
5.1106959946
 20
4.023972602
 10
5.1110256185
 20
4.0238566564
 10
5.1113375158
 20
4.0236959163
 10
5.1116250084
 20
4.023493866
 10
5.111882176
 20
4.0232551328
 10
5.1121054745
 20
4.0229835018
 10
5.1122507896
 20
4.0227559256
  0
LINE
  5
24C
100
AcDbEntity
  8
0
100
AcDbLine
 62
7
  6
CONTINUOUS
 10
5.3186728162
 20
4.0488005546
 11
5.3193544313
 21
4.0487494439
  0
LINE
  5
24D
100
AcDbEntity
  8
0
100
AcDbLine
 62
7
  6
CONTINUOUS
 10
5.0265109254
 20
4.0057512641
 11
5.0267115513
 21
4.0057349992
  0
LINE
  5
24E
100
AcDbEntity
  8
0
100
AcDbLine
 62
7
  6
CONTINUOUS
 10
4.9975641773
 20
4.0368687668
 11
5.0043835264
 21
4.0362655866
  0
LINE
  5
24F
100
AcDbEntity
  8
0
100
AcDbLine
 62
7
  6
CONTINUOUS
 10
4.9976919005
 20
4.0368831644
 11
5.004604851
 21
4.036271705
  0
LINE
  5
250
100
AcDbEntity
  8
0
100
AcDbLine
 62
7
  6
CONTINUOUS
 10
5.3176919932
 20
4.0111128047
 11
5.2920945412
 21
4.0133769325
  0
LINE
  5
251
100
AcDbEntity
  8
0
100
AcDbLine
 62
7
  6
CONTINUOUS
 10
5.3192354396
 20
4.0138185622
 11
5.2936397949
 21
4.0160825301
  0
LINE
  5
252
100
AcDbEntity
  8
0
100
AcDbLine
 62
7
  6
CONTINUOUS
 10
5.3192354396
 20
4.0312070217
 11
5.2936397949
 21
4.0334709896
  0
LINE
  5
253
100
AcDbEntity
  8
0
100
AcDbLine
 62
7
  6
CONTINUOUS
 10
5.319309
 20
4.0340427925
 11
5.2949288772
 21
4.0361992459
  0
LINE
  5
254
100
AcDbEntity
  8
0
100
AcDbLine
 62
7
  6
CONTINUOUS
 10
5.346213575
 20
4.1065889645
 11
5.346776624
 21
4.1065390682
  0
LINE
  5
255
100
AcDbEntity
  8
0
100
AcDbLine
 62
7
  6
CONTINUOUS
 10
5.3461913067
 20
4.1065857645
 11
5.3467417318
 21
4.1065340769
  0
LINE
  5
256
100
AcDbEntity
  8
0
100
AcDbLine
 62
7
  6
CONTINUOUS
 10
5.2461907254
 20
4.0306448362
 11
5.246192385
 21
4.030644605
  0
LINE
  5
257
100
AcDbEntity
  8
0
100
AcDbLine
 62
7
  6
CONTINUOUS
 10
5.2495864417
 20
4.0086309716
 11
5.2700267555
 21
4.0057746704
  0
LINE
  5
258
100
AcDbEntity
  8
0
100
AcDbLine
 62
7
  6
CONTINUOUS
 10
5.2499341581
 20
4.0086226071
 11
5.2703705381
 21
4.0057668557
  0
LINE
  5
259
100
AcDbEntity
  8
0
100
AcDbLine
 62
7
  6
CONTINUOUS
 10
5.2457959974
 20
4.0306597707
 11
5.2464358796
 21
4.0305703545
  0
LWPOLYLINE
  5
25A
100
AcDbEntity
  8
0
100
AcDbPolyline
 62
7
  6
CONTINUOUS
 90
13
 70
0
 10
5.2461907508
 20
4.0306448267
 10
5.2463540923
 20
4.0306067253
 10
5.2465270516
 20
4.0305298103
 10
5.2466889969
 20
4.0304191951
 10
5.2468357388
 20
4.0302811636
 10
5.2469664706
 20
4.0301211625
 10
5.2470851475
 20
4.0299357314
 10
5.2471896012
 20
4.0297268823
 10
5.2472761746
 20
4.0295018042
 10
5.2473456608
 20
4.0292571962
 10
5.2473956199
 20
4.028997829
 10
5.2474247647
 20
4.0287269764
 10
5.2474324395
 20
4.0284954228
  0
LINE
  5
25B
100
AcDbEntity
  8
0
100
AcDbLine
 62
7
  6
CONTINUOUS
 10
5.1870672915
 20
4.0240700328
 11
5.1870141196
 21
4.024085403
  0
LINE
  5
25C
100
AcDbEntity
  8
0
100
AcDbLine
 62
7
  6
CONTINUOUS
 10
5.1820827593
 20
4.0016308064
 11
5.1821346541
 21
4.0016154109
  0
LINE
  5
25D
100
AcDbEntity
  8
0
100
AcDbLine
 62
7
  6
CONTINUOUS
 10
4.9426309984
 20
4.0210060758
 11
4.9425969987
 21
4.021021779
  0
LINE
  5
25E
100
AcDbEntity
  8
0
100
AcDbLine
 62
7
  6
CONTINUOUS
 10
4.9748974114
 20
4.0214611006
 11
4.9749306581
 21
4.0214453952
  0
LINE
  5
25F
100
AcDbEntity
  8
0
100
AcDbLine
 62
7
  6
CONTINUOUS
 10
5.1820836975
 20
4.0016299299
 11
5.17818633
 21
4.0052710532
  0
LINE
  5
260
100
AcDbEntity
  8
0
100
AcDbLine
 62
7
  6
CONTINUOUS
 10
5.1845647577
 20
4.00414863
 11
5.1806674626
 21
4.0077896857
  0
LINE
  5
261
100
AcDbEntity
  8
0
100
AcDbLine
 62
7
  6
CONTINUOUS
 10
5.1845647577
 20
4.0215370894
 11
5.1806674626
 21
4.0251781451
  0
LINE
  5
262
100
AcDbEntity
  8
0
100
AcDbLine
 62
7
  6
CONTINUOUS
 10
5.1870141045
 20
4.0240854179
 11
5.1831107184
 21
4.0277321641
  0
LINE
  5
263
100
AcDbEntity
  8
02___PRT_ALL_AXES
100
AcDbLine
 62
7
  6
CONTINUOUS
 10
4.8277251553
 20
4.0781497193
 11
4.8277251553
 21
4.032276475
  0
LINE
  5
264
100
AcDbEntity
  8
0
100
AcDbLine
 62
7
  6
CONTINUOUS
 10
4.8827259689
 20
4.7553920806
 11
4.8827259689
 21
4.1440594286
  0
LINE
  5
265
100
AcDbEntity
  8
0
100
AcDbLine
 62
7
  6
CONTINUOUS
 10
4.8277251553
 20
4.032276475
 11
4.8277251889
 21
4.0322930159
  0
LINE
  5
266
100
AcDbEntity
  8
02___PRT_ALL_AXES
100
AcDbLine
 62
7
  6
CONTINUOUS
 10
7.9482701656
 20
4.8824718688
 11
8.2018501553
 21
4.9315791293
  0
LINE
  5
267
100
AcDbEntity
  8
02___PRT_ALL_AXES
100
AcDbLine
 62
7
  6
CONTINUOUS
 10
2.3484301449
 20
4.8824718688
 11
2.0948501553
 21
4.9315791293
  0
LINE
  5
268
100
AcDbEntity
  8
0
100
AcDbLine
 62
7
  6
CONTINUOUS
 10
5.3222822891
 20
4.0278562227
 11
5.322308714
 21
4.0278368952
  0
LINE
  5
269
100
AcDbEntity
  8
0
100
AcDbLine
 62
7
  6
CONTINUOUS
 10
5.322253093
 20
4.0278557138
 11
5.3222793479
 21
4.0278363867
  0
LWPOLYLINE
  5
26A
100
AcDbEntity
  8
0
100
AcDbPolyline
 62
7
  6
CONTINUOUS
 90
6
 70
0
 10
5.1122508169
 20
4.0227559473
 10
5.1123077744
 20
4.022649969
 10
5.112437452
 20
4.0223492096
 10
5.1125276899
 20
4.0220357979
 10
5.1125770907
 20
4.0217127321
 10
5.1125866355
 20
4.0214946792
  0
LINE
  5
26B
100
AcDbEntity
  8
0
100
AcDbLine
 62
7
  6
CONTINUOUS
 10
5.1845827593
 20
4.004114872
 11
5.1845647577
 21
4.00414863
  0
LINE
  5
26C
100
AcDbEntity
  8
0
100
AcDbLine
 62
7
  6
CONTINUOUS
 10
5.1845647588
 20
4.0215370884
 11
5.1845827593
 21
4.0215033319
  0
LINE
  5
26D
100
AcDbEntity
  8
0
100
AcDbLine
 62
7
  6
CONTINUOUS
 10
4.9751572952
 20
4.0339024549
 11
4.9751572952
 21
4.030947733
  0
LINE
  5
26E
100
AcDbEntity
  8
0
100
AcDbLine
 62
7
  6
CONTINUOUS
 10
4.9767858517
 20
4.0223128018
 11
4.9767858517
 21
4.0135533792
  0
LINE
  5
26F
100
AcDbEntity
  8
0
100
AcDbLine
 62
7
  6
CONTINUOUS
 10
4.9773612288
 20
4.0302909819
 11
4.9773612288
 21
4.0239929386
  0
LINE
  5
270
100
AcDbEntity
  8
0
100
AcDbLine
 62
7
  6
CONTINUOUS
 10
4.9773913106
 20
4.034244068
 11
4.9773974114
 21
4.0239451662
  0
LINE
  5
271
100
AcDbEntity
  8
0
100
AcDbLine
 62
7
  6
CONTINUOUS
 10
4.977716198
 20
4.0311611799
 11
4.977716198
 21
4.0137727204
  0
LINE
  5
272
100
AcDbEntity
  8
0
100
AcDbLine
 62
7
  6
CONTINUOUS
 10
5.0030549222
 20
4.033465309
 11
5.0030549222
 21
4.0160768496
  0
LINE
  5
273
100
AcDbEntity
  8
0
100
AcDbLine
 62
7
  6
CONTINUOUS
 10
5.0066661325
 20
4.0334086217
 11
5.0066661325
 21
4.0160201622
  0
LINE
  5
274
100
AcDbEntity
  8
0
100
AcDbLine
 62
7
  6
CONTINUOUS
 10
5.0482398053
 20
4.0287231988
 11
5.0482398053
 21
4.0113347394
  0
LINE
  5
275
100
AcDbEntity
  8
0
100
AcDbLine
 62
7
  6
CONTINUOUS
 10
5.0492972931
 20
4.0284930295
 11
5.0492972931
 21
4.0111045722
  0
LINE
  5
276
100
AcDbEntity
  8
0
100
AcDbLine
 62
7
  6
CONTINUOUS
 10
5.1125866371
 20
4.0214947245
 11
5.1125866371
 21
4.0041062648
  0
LINE
  5
277
100
AcDbEntity
  8
0
100
AcDbLine
 62
7
  6
CONTINUOUS
 10
5.112600827
 20
4.0215247073
 11
5.112600827
 21
4.0041362478
  0
LINE
  5
278
100
AcDbEntity
  8
0
100
AcDbLine
 62
7
  6
CONTINUOUS
 10
5.1160645262
 20
4.0251736825
 11
5.1160645262
 21
4.0077852231
  0
LINE
  5
279
100
AcDbEntity
  8
0
100
AcDbLine
 62
7
  6
CONTINUOUS
 10
5.1189736293
 20
4.0254214424
 11
5.1189736293
 21
4.008032983
  0
LINE
  5
27A
100
AcDbEntity
  8
0
100
AcDbLine
 62
7
  6
CONTINUOUS
 10
5.1777616671
 20
4.0254221204
 11
5.1777616671
 21
4.0080336609
  0
LWPOLYLINE
  5
27B
100
AcDbEntity
  8
0
100
AcDbPolyline
 62
7
  6
CONTINUOUS
 90
13
 70
0
 10
5.0492972824
 20
4.0284901013
 10
5.0493085884
 20
4.0287738384
 10
5.0493407019
 20
4.0290379874
 10
5.0493927153
 20
4.0292907733
 10
5.049463401
 20
4.0295290618
 10
5.0495504125
 20
4.0297483337
 10
5.0496543533
 20
4.0299513067
 10
5.0497713382
 20
4.0301308596
 10
5.0498995162
 20
4.0302857949
 10
5.0500434043
 20
4.0304201119
 10
5.0502025257
 20
4.0305284572
 10
5.050372639
 20
4.0306043346
 10
5.0505334825
 20
4.0306424037
  0
LINE
  5
27C
100
AcDbEntity
  8
0
100
AcDbLine
 62
7
  6
CONTINUOUS
 10
4.9748454664
 20
4.0272610652
 11
4.9748452858
 21
4.027259244
  0
LINE
  5
27D
100
AcDbEntity
  8
0
100
AcDbLine
 62
7
  6
CONTINUOUS
 10
4.9748439322
 20
4.0272610062
 11
4.9748421643
 21
4.0272538015
  0
LINE
  5
27E
100
AcDbEntity
  8
0
100
AcDbLine
 62
7
  6
CONTINUOUS
 10
1.6615329571
 20
4.6328920806
 11
1.6348501553
 21
4.6328920806
  0
LINE
  5
27F
100
AcDbEntity
  8
0
100
AcDbLine
 62
7
  6
CONTINUOUS
 10
8.6351673534
 20
4.6328920806
 11
8.6618501553
 21
4.6328920806
  0
LINE
  5
280
100
AcDbEntity
  8
0
100
AcDbLine
 62
7
  6
CONTINUOUS
 10
2.7898501553
 20
4.6378920806
 11
2.7698501553
 21
4.6378920806
  0
LINE
  5
281
100
AcDbEntity
  8
0
100
AcDbLine
 62
7
  6
CONTINUOUS
 10
7.5068501553
 20
4.6378920806
 11
7.5268501553
 21
4.6378920806
  0
LINE
  5
282
100
AcDbEntity
  8
02___PRT_ALL_AXES
100
AcDbLine
 62
7
  6
CONTINUOUS
 10
2.7598501553
 20
4.6533920806
 11
2.6098501553
 21
4.6533920806
  0
LINE
  5
283
100
AcDbEntity
  8
02___PRT_ALL_AXES
100
AcDbLine
 62
7
  6
CONTINUOUS
 10
7.5368501553
 20
4.6533920806
 11
7.6868501553
 21
4.6533920806
  0
LINE
  5
284
100
AcDbEntity
  8
0
100
AcDbLine
 62
7
  6
CONTINUOUS
 10
7.4968501553
 20
4.6603920806
 11
7.2875965986
 21
4.6603920806
  0
LINE
  5
285
100
AcDbEntity
  8
0
100
AcDbLine
 62
7
  6
CONTINUOUS
 10
2.7998501553
 20
4.6603920806
 11
3.009103712
 21
4.6603920806
  0
LINE
  5
286
100
AcDbEntity
  8
0
100
AcDbLine
 62
7
  6
CONTINUOUS
 10
5.3218554548
 20
4.0272609382
 11
5.3218581518
 21
4.0272538021
  0
LINE
  5
287
100
AcDbEntity
  8
0
100
AcDbLine
 62
7
  6
CONTINUOUS
 10
5.3218548475
 20
4.0272610736
 11
5.3218550323
 21
4.0272592119
  0
LINE
  5
288
100
AcDbEntity
  8
0
100
AcDbLine
 62
7
  6
CONTINUOUS
 10
5.1806674626
 20
4.0251781451
 11
5.1806674626
 21
4.0077896857
  0
LINE
  5
289
100
AcDbEntity
  8
0
100
AcDbLine
 62
7
  6
CONTINUOUS
 10
5.1845647577
 20
4.0215370894
 11
5.1845647577
 21
4.00414863
  0
LINE
  5
28A
100
AcDbEntity
  8
0
100
AcDbLine
 62
7
  6
CONTINUOUS
 10
5.1845827593
 20
4.0215033319
 11
5.1845827593
 21
4.004114872
  0
LINE
  5
28B
100
AcDbEntity
  8
0
100
AcDbLine
 62
7
  6
CONTINUOUS
 10
5.2474324266
 20
4.028495372
 11
5.2474324266
 21
4.0111069147
  0
LINE
  5
28C
100
AcDbEntity
  8
0
100
AcDbLine
 62
7
  6
CONTINUOUS
 10
5.2484894966
 20
4.0287255081
 11
5.2484894966
 21
4.0113370487
  0
LINE
  5
28D
100
AcDbEntity
  8
0
100
AcDbLine
 62
7
  6
CONTINUOUS
 10
5.2900546642
 20
4.0334118897
 11
5.2900546642
 21
4.0160234303
  0
LINE
  5
28E
100
AcDbEntity
  8
0
100
AcDbLine
 62
7
  6
CONTINUOUS
 10
5.2936397949
 20
4.0334709896
 11
5.2936397949
 21
4.0160825301
  0
LINE
  5
28F
100
AcDbEntity
  8
0
100
AcDbLine
 62
7
  6
CONTINUOUS
 10
5.3192354396
 20
4.0306715213
 11
5.3192354396
 21
4.0138185622
  0
LINE
  5
290
100
AcDbEntity
  8
0
100
AcDbLine
 62
7
  6
CONTINUOUS
 10
5.3193028991
 20
4.0342450009
 11
5.3193028991
 21
4.0306715213
  0
LINE
  5
291
100
AcDbEntity
  8
0
100
AcDbLine
 62
7
  6
CONTINUOUS
 10
5.319309
 20
4.0305781986
 11
5.319309
 21
4.0239491668
  0
LINE
  5
292
100
AcDbEntity
  8
0
100
AcDbLine
 62
7
  6
CONTINUOUS
 10
5.3193450959
 20
4.0302393232
 11
5.3193450959
 21
4.0239968824
  0
LINE
  5
293
100
AcDbEntity
  8
0
100
AcDbLine
 62
7
  6
CONTINUOUS
 10
5.3201921606
 20
4.0220442657
 11
5.3201921606
 21
4.0135968555
  0
LINE
  5
294
100
AcDbEntity
  8
0
100
AcDbLine
 62
7
  6
CONTINUOUS
 10
5.3215034268
 20
4.0339085086
 11
5.3215034268
 21
4.0309513039
  0
LINE
  5
295
100
AcDbEntity
  8
0
100
AcDbLine
 62
7
  6
CONTINUOUS
 10
5.4139743416
 20
4.1440594286
 11
5.4139743416
 21
4.7553920806
  0
LWPOLYLINE
  5
296
100
AcDbEntity
  8
0
100
AcDbPolyline
 62
7
  6
CONTINUOUS
 90
15
 70
0
 10
5.1845827479
 20
4.0215033061
 10
5.1845843125
 20
4.0215913545
 10
5.1846137112
 20
4.0218962925
 10
5.1846796634
 20
4.0221957813
 10
5.1847813794
 20
4.022486143
 10
5.1849168949
 20
4.0227627455
 10
5.1850838847
 20
4.0230211727
 10
5.1852803802
 20
4.0232581911
 10
5.1855028206
 20
4.0234699965
 10
5.1857476333
 20
4.023653338
 10
5.1860123758
 20
4.023806193
 10
5.1862926798
 20
4.023926077
 10
5.1865840536
 20
4.0240108043
 10
5.1868837723
 20
4.0240590816
 10
5.1870673418
 20
4.0240700336
  0
LINE
  5
297
100
AcDbEntity
  8
0
100
AcDbLine
 62
7
  6
CONTINUOUS
 10
5.247432479
 20
4.0111087386
 11
5.2474324266
 21
4.0111069147
  0
LINE
  5
298
100
AcDbEntity
  8
0
100
AcDbLine
 62
7
  6
CONTINUOUS
 10
5.1125866371
 20
4.0214947245
 11
5.1126008261
 21
4.0215247063
  0
LINE
  5
299
100
AcDbEntity
  8
0
100
AcDbLine
 62
7
  6
CONTINUOUS
 10
5.112600827
 20
4.0041362478
 11
5.1125866371
 21
4.0041062648
  0
LINE
  5
29A
100
AcDbEntity
  8
0
100
AcDbLine
 62
7
  6
CONTINUOUS
 10
7.4968501553
 20
4.8503920806
 11
7.2875965986
 21
4.8503920806
  0
LINE
  5
29B
100
AcDbEntity
  8
0
100
AcDbLine
 62
7
  6
CONTINUOUS
 10
2.7998501553
 20
4.8503920806
 11
3.009103712
 21
4.8503920806
  0
LINE
  5
29C
100
AcDbEntity
  8
02___PRT_ALL_AXES
100
AcDbLine
 62
7
  6
CONTINUOUS
 10
2.7598501553
 20
4.8573920806
 11
2.6098501553
 21
4.8573920806
  0
LINE
  5
29D
100
AcDbEntity
  8
02___PRT_ALL_AXES
100
AcDbLine
 62
7
  6
CONTINUOUS
 10
7.5368501553
 20
4.8573920806
 11
7.6868501553
 21
4.8573920806
  0
LINE
  5
29E
100
AcDbEntity
  8
0
100
AcDbLine
 62
7
  6
CONTINUOUS
 10
2.7898501553
 20
4.8728920806
 11
2.7698501553
 21
4.8728920806
  0
LINE
  5
29F
100
AcDbEntity
  8
0
100
AcDbLine
 62
7
  6
CONTINUOUS
 10
7.5068501553
 20
4.8728920806
 11
7.5268501553
 21
4.8728920806
  0
LINE
  5
2A0
100
AcDbEntity
  8
0
100
AcDbLine
 62
7
  6
CONTINUOUS
 10
1.6615329571
 20
4.8778920806
 11
1.6348501553
 21
4.8778920806
  0
LINE
  5
2A1
100
AcDbEntity
  8
0
100
AcDbLine
 62
7
  6
CONTINUOUS
 10
8.6351673534
 20
4.8778920806
 11
8.6618501553
 21
4.8778920806
  0
LINE
  5
2A2
100
AcDbEntity
  8
02___PRT_ALL_AXES
100
AcDbLine
 62
7
  6
CONTINUOUS
 10
5.4689751553
 20
4.0781497193
 11
5.4689751553
 21
4.032276475
  0
LINE
  5
2A3
100
AcDbEntity
  8
0
100
AcDbLine
 62
7
  6
CONTINUOUS
 10
5.1136201812
 20
4.0277314144
 11
5.1101498543
 21
4.0240754569
  0
LINE
  5
2A4
100
AcDbEntity
  8
0
100
AcDbLine
 62
7
  6
CONTINUOUS
 10
5.1160645262
 20
4.0251736825
 11
5.112600827
 21
4.0215247073
  0
LINE
  5
2A5
100
AcDbEntity
  8
0
100
AcDbLine
 62
7
  6
CONTINUOUS
 10
5.1160645262
 20
4.0077852231
 11
5.112600827
 21
4.0041362478
  0
LINE
  5
2A6
100
AcDbEntity
  8
0
100
AcDbLine
 62
7
  6
CONTINUOUS
 10
5.1185494069
 20
4.0052701952
 11
5.1150867759
 21
4.0016223453
  0
LINE
  5
2A7
100
AcDbEntity
  8
0
100
AcDbLine
 62
7
  6
CONTINUOUS
 10
4.9744174998
 20
4.0278353903
 11
4.9744441393
 21
4.02785517
  0
LINE
  5
2A8
100
AcDbEntity
  8
0
100
AcDbLine
 62
7
  6
CONTINUOUS
 10
4.97438506
 20
4.0278359513
 11
4.9744120665
 21
4.0278557284
  0
LINE
  5
2A9
100
AcDbEntity
  8
0
100
AcDbLine
 62
7
  6
CONTINUOUS
 10
4.9762265123
 20
4.0285539692
 11
4.9762633085
 21
4.0285776373
  0
LINE
  5
2AA
100
AcDbEntity
  8
02___PRT_ALL_AXES
100
AcDbLine
 62
7
  6
CONTINUOUS
 10
2.3484301449
 20
4.6283122924
 11
2.0948501553
 21
4.5792050318
  0
LINE
  5
2AB
100
AcDbEntity
  8
02___PRT_ALL_AXES
100
AcDbLine
 62
7
  6
CONTINUOUS
 10
7.9482701656
 20
4.6283122924
 11
8.2018501553
 21
4.5792050318
  0
LINE
  5
2AC
100
AcDbEntity
  8
0
100
AcDbLine
 62
7
  6
CONTINUOUS
 10
5.355610112
 20
4.0215083982
 11
5.3555965162
 21
4.0214989838
  0
LINE
  5
2AD
100
AcDbEntity
  8
0
100
AcDbLine
 62
7
  6
CONTINUOUS
 10
5.3217788479
 20
4.0214493487
 11
5.321809
 21
4.0214651012
  0
LINE
  5
2AE
100
AcDbEntity
  8
0
100
AcDbLine
 62
7
  6
CONTINUOUS
 10
5.3541796681
 20
4.0210746566
 11
5.3541495161
 21
4.0210589041
  0
LINE
  5
2AF
100
AcDbEntity
  8
0
100
AcDbLine
 62
7
  6
CONTINUOUS
 10
5.1150494872
 20
4.001606547
 11
5.1150866371
 21
4.0016221992
  0
LINE
  5
2B0
100
AcDbEntity
  8
0
100
AcDbLine
 62
7
  6
CONTINUOUS
 10
5.1101499891
 20
4.024075598
 11
5.1100974772
 21
4.0240602139
  0
LINE
  5
2B1
100
AcDbEntity
  8
0
100
AcDbLine
 62
7
  6
CONTINUOUS
 10
7.4968501553
 20
4.8628920806
 11
7.4968501553
 21
4.6478920806
  0
LINE
  5
2B2
100
AcDbEntity
  8
0
100
AcDbLine
 62
7
  6
CONTINUOUS
 10
7.5068501553
 20
4.8728920806
 11
7.5068501553
 21
4.6378920806
  0
LINE
  5
2B3
100
AcDbEntity
  8
0
100
AcDbLine
 62
7
  6
CONTINUOUS
 10
7.5268501553
 20
4.8728920806
 11
7.5268501553
 21
4.6378920806
  0
LINE
  5
2B4
100
AcDbEntity
  8
0
100
AcDbLine
 62
7
  6
CONTINUOUS
 10
7.5368501553
 20
4.8628920806
 11
7.5368501553
 21
4.6478920806
  0
LINE
  5
2B5
100
AcDbEntity
  8
02___PRT_ALL_AXES
100
AcDbLine
 62
7
  6
CONTINUOUS
 10
7.6868501553
 20
4.6533920806
 11
7.6868501553
 21
4.8573920806
  0
LINE
  5
2B6
100
AcDbEntity
  8
02___PRT_ALL_AXES
100
AcDbLine
 62
7
  6
CONTINUOUS
 10
7.9482701656
 20
4.6283122924
 11
7.9482701656
 21
4.8824718688
  0
LINE
  5
2B7
100
AcDbEntity
  8
02___PRT_ALL_AXES
100
AcDbLine
 62
7
  6
CONTINUOUS
 10
8.2018501553
 20
4.5792050318
 11
8.2018501553
 21
4.9315791293
  0
LINE
  5
2B8
100
AcDbEntity
  8
02___PRT_ALL_AXES
100
AcDbLine
 62
7
  6
CONTINUOUS
 10
8.3873501553
 20
4.5630118292
 11
8.3873501553
 21
4.9477723319
  0
LINE
  5
2B9
100
AcDbEntity
  8
0
100
AcDbLine
 62
7
  6
CONTINUOUS
 10
8.6297991392
 20
4.8794551216
 11
8.6297991392
 21
4.6313290395
  0
LINE
  5
2BA
100
AcDbEntity
  8
0
100
AcDbLine
 62
7
  6
CONTINUOUS
 10
8.6351673534
 20
4.8778920806
 11
8.6351673534
 21
4.6328920806
  0
LINE
  5
2BB
100
AcDbEntity
  8
0
100
AcDbLine
 62
7
  6
CONTINUOUS
 10
8.6618501553
 20
4.8778920806
 11
8.6618501553
 21
4.6328920806
  0
LINE
  5
2BC
100
AcDbEntity
  8
0
100
AcDbLine
 62
7
  6
CONTINUOUS
 10
8.6718501553
 20
4.8678920806
 11
8.6718501553
 21
4.6428920806
  0
ARC
  5
2BD
100
AcDbEntity
  8
0
100
AcDbCircle
 62
7
  6
CONTINUOUS
 10
5.1483470771
 20
1.2363406386
 40
2.8320782072
100
AcDbArc
 50
89.27601375
 51
89.9999377247
  0
ARC
  5
2BE
100
AcDbEntity
  8
0
100
AcDbCircle
 62
7
  6
CONTINUOUS
 10
5.1483229465
 20
1.2412336542
 40
2.8271851917
100
AcDbArc
 50
89.9994485856
 51
90.7404117712
  0
ARC
  5
2BF
100
AcDbEntity
  8
0
100
AcDbCircle
 62
7
  6
CONTINUOUS
 10
5.1483484276
 20
1.3332509557
 40
2.7213385026
100
AcDbArc
 50
89.245798277
 51
89.9999636242
  0
ARC
  5
2C0
100
AcDbEntity
  8
0
100
AcDbCircle
 62
7
  6
CONTINUOUS
 10
5.1483171657
 20
1.3385796967
 40
2.7160097618
100
AcDbArc
 50
89.9993040665
 51
90.7648277521
  0
ARC
  5
2C1
100
AcDbEntity
  8
0
100
AcDbCircle
 62
7
  6
CONTINUOUS
 10
5.1448181337
 20
1.4450223661
 40
2.6233683499
100
AcDbArc
 50
90.7213862879
 51
92.0506491316
  0
ARC
  5
2C2
100
AcDbEntity
  8
0
100
AcDbCircle
 62
7
  6
CONTINUOUS
 10
5.1210597585
 20
2.0912584991
 40
1.9627772265
100
AcDbArc
 50
93.0076097209
 51
93.408401522
  0
ARC
  5
2C3
100
AcDbEntity
  8
02___PRT_ALL_AXES
100
AcDbCircle
 62
7
  6
CONTINUOUS
 10
5.1483494515
 20
2.1617310655
 40
1.882191814
100
AcDbArc
 50
89.0942203499
 51
89.9999785748
  0
ARC
  5
2C4
100
AcDbEntity
  8
02___PRT_ALL_AXES
100
AcDbCircle
 62
7
  6
CONTINUOUS
 10
5.1483093553
 20
2.1669880072
 40
1.8769348728
100
AcDbArc
 50
89.9987545311
 51
90.9081553543
  0
ARC
  5
2C5
100
AcDbEntity
  8
0
100
AcDbCircle
 62
7
  6
CONTINUOUS
 10
5.106220477
 20
2.3314534877
 40
1.7221249602
100
AcDbArc
 50
93.3906757147
 51
94.2692640738
  0
ARC
  5
2C6
100
AcDbEntity
  8
02___PRT_ALL_AXES
100
AcDbCircle
 62
7
  6
CONTINUOUS
 10
2.6098501553
 20
3.2783920806
 40
1.375
100
AcDbArc
 50
90.0
 51
100.96
  0
ARC
  5
2C7
100
AcDbEntity
  8
02___PRT_ALL_AXES
100
AcDbCircle
 62
7
  6
CONTINUOUS
 10
5.1237410127
 20
2.7786682299
 40
1.2647003908
100
AcDbArc
 50
93.4834634141
 51
93.7227020772
  0
ARC
  5
2C8
100
AcDbEntity
  8
0
100
AcDbCircle
 62
7
  6
CONTINUOUS
 10
5.000543229
 20
3.3727283103
 40
0.7351878545
100
AcDbArc
 50
97.7262777104
 51
98.0185279692
  0
ARC
  5
2C9
100
AcDbEntity
  8
02___PRT_ALL_AXES
100
AcDbCircle
 62
7
  6
CONTINUOUS
 10
5.0317301674
 20
3.5173331432
 40
0.6517866247
100
AcDbArc
 50
97.1191406996
 51
97.9176618376
  0
ARC
  5
2CA
100
AcDbEntity
  8
02___PRT_ALL_AXES
100
AcDbCircle
 62
7
  6
CONTINUOUS
 10
5.0223077042
 20
3.5853569014
 40
0.5831133919
100
AcDbArc
 50
97.9213587689
 51
98.2102423733
  0
ARC
  5
2CB
100
AcDbEntity
  8
02___PRT_ALL_AXES
100
AcDbCircle
 62
7
  6
CONTINUOUS
 10
5.0186818209
 20
3.6105030738
 40
0.5577071523
100
AcDbArc
 50
98.2104787057
 51
98.3504038663
  0
ARC
  5
2CC
100
AcDbEntity
  8
02___PRT_ALL_AXES
100
AcDbCircle
 62
7
  6
CONTINUOUS
 10
5.0424030514
 20
3.6029552557
 40
0.4361889848
100
AcDbArc
 50
98.0355698708
 51
98.6589129329
  0
ARC
  5
2CD
100
AcDbEntity
  8
02___PRT_ALL_AXES
100
AcDbCircle
 62
7
  6
CONTINUOUS
 10
1.924689494
 20
4.0529037914
 40
0.895
100
AcDbArc
 50
79.04
 51
90.9820362042
  0
ARC
  5
2CE
100
AcDbEntity
  8
0
100
AcDbCircle
 62
7
  6
CONTINUOUS
 10
1.9017605431
 20
4.5103381679
 40
0.4375
100
AcDbArc
 50
89.0060010065
 51
122.4675202279
  0
ARC
  5
2CF
100
AcDbEntity
  8
0
100
AcDbCircle
 62
7
  6
CONTINUOUS
 10
1.9017605431
 20
5.0004459932
 40
0.4375
100
AcDbArc
 50
237.5324797721
 51
270.9939989935
  0
ARC
  5
2D0
100
AcDbEntity
  8
02___PRT_ALL_AXES
100
AcDbCircle
 62
7
  6
CONTINUOUS
 10
1.8523501553
 20
4.7553920806
 40
0.2475
100
AcDbArc
 50
156.80823049
 51
203.19176951
  0
ARC
  5
2D1
100
AcDbEntity
  8
0
100
AcDbCircle
 62
7
  6
CONTINUOUS
 10
1.6348501553
 20
4.6428920806
 40
0.01
100
AcDbArc
 50
180.0
 51
270.0
  0
ARC
  5
2D2
100
AcDbEntity
  8
0
100
AcDbCircle
 62
7
  6
CONTINUOUS
 10
1.6348501553
 20
4.8678920806
 40
0.01
100
AcDbArc
 50
90.0
 51
180.0
  0
ARC
  5
2D3
100
AcDbEntity
  8
0
100
AcDbCircle
 62
7
  6
CONTINUOUS
 10
1.6615329571
 20
4.6228920806
 40
0.01
100
AcDbArc
 50
57.5324797706
 51
90.0
  0
ARC
  5
2D4
100
AcDbEntity
  8
0
100
AcDbCircle
 62
7
  6
CONTINUOUS
 10
1.6615329571
 20
4.8878920806
 40
0.01
100
AcDbArc
 50
270.0
 51
302.4675202294
  0
ARC
  5
2D5
100
AcDbEntity
  8
ALL_FEATURES
100
AcDbCircle
 62
7
  6
CONTINUOUS
 10
3.1798501553
 20
4.7553920806
 40
0.5275
100
AcDbArc
 50
191.1504078638
 51
168.8495921362
  0
ARC
  5
2D6
100
AcDbEntity
  8
ALL_FEATURES
100
AcDbCircle
 62
7
  6
CONTINUOUS
 10
3.1798501553
 20
4.7553920806
 40
0.4425
100
AcDbArc
 50
193.327590374
 51
166.672409626
  0
ARC
  5
2D7
100
AcDbEntity
  8
ALL_FEATURES
100
AcDbCircle
 62
7
  6
CONTINUOUS
 10
3.1798501553
 20
4.7553920806
 40
0.425
100
AcDbArc
 50
196.049924592
 51
163.950075408
  0
ARC
  5
2D8
100
AcDbEntity
  8
02___PRT_ALL_AXES
100
AcDbCircle
 62
7
  6
CONTINUOUS
 10
3.1798501553
 20
4.7553920806
 40
0.3483129374
100
AcDbArc
 50
195.832562418
 51
164.167437582
  0
ARC
  5
2D9
100
AcDbEntity
  8
02___PRT_ALL_AXES
100
AcDbCircle
 62
7
  6
CONTINUOUS
 10
3.1798501553
 20
4.7553920806
 40
0.3325
100
AcDbArc
 50
196.6059049845
 51
163.3940950155
  0
ARC
  5
2DA
100
AcDbEntity
  8
0
100
AcDbCircle
 62
7
  6
CONTINUOUS
 10
3.1798501553
 20
4.7553920806
 40
0.2949999867
100
AcDbArc
 50
198.7840233218
 51
161.2162399954
  0
ARC
  5
2DB
100
AcDbEntity
  8
0
100
AcDbCircle
 62
7
  6
CONTINUOUS
 10
3.1798501553
 20
4.7553920806
 40
0.28
100
AcDbArc
 50
199.8280394734
 51
160.1718619707
  0
ARC
  5
2DC
100
AcDbEntity
  8
0
100
AcDbCircle
 62
7
  6
CONTINUOUS
 10
3.1798501553
 20
4.7553920806
 40
0.2707112034
100
AcDbArc
 50
200.5457783728
 51
159.4537601465
  0
CIRCLE
  5
2DD
100
AcDbEntity
  8
02___PRT_ALL_AXES
100
AcDbCircle
 62
7
  6
CONTINUOUS
 10
3.1798501553
 20
4.7553920806
 40
0.1954213942
  0
CIRCLE
  5
2DE
100
AcDbEntity
  8
0
100
AcDbCircle
 62
7
  6
CONTINUOUS
 10
3.1798501553
 20
4.7553920806
 40
0.1785
  0
CIRCLE
  5
2DF
100
AcDbEntity
  8
0
100
AcDbCircle
 62
7
  6
CONTINUOUS
 10
3.1798501553
 20
4.7553920806
 40
0.1734999973
  0
CIRCLE
  5
2E0
100
AcDbEntity
  8
0
100
AcDbCircle
 62
7
  6
CONTINUOUS
 10
3.1798501553
 20
4.7553920806
 40
0.15
  0
CIRCLE
  5
2E1
100
AcDbEntity
  8
0
100
AcDbCircle
 62
7
  6
CONTINUOUS
 10
3.1798501553
 20
4.7553920806
 40
0.1472307693
  0
ARC
  5
2E2
100
AcDbEntity
  8
0
100
AcDbCircle
 62
7
  6
CONTINUOUS
 10
2.7898501553
 20
4.8628920806
 40
0.01
100
AcDbArc
 50
0.0
 51
90.0
  0
ARC
  5
2E3
100
AcDbEntity
  8
0
100
AcDbCircle
 62
7
  6
CONTINUOUS
 10
2.7898501553
 20
4.6478920806
 40
0.01
100
AcDbArc
 50
270.0
 51
360.0
  0
ARC
  5
2E4
100
AcDbEntity
  8
0
100
AcDbCircle
 62
7
  6
CONTINUOUS
 10
2.7698501553
 20
4.8628920806
 40
0.01
100
AcDbArc
 50
90.0
 51
180.0
  0
ARC
  5
2E5
100
AcDbEntity
  8
0
100
AcDbCircle
 62
7
  6
CONTINUOUS
 10
2.7698501553
 20
4.6478920806
 40
0.01
100
AcDbArc
 50
180.0
 51
270.0
  0
ARC
  5
2E6
100
AcDbEntity
  8
02___PRT_ALL_AXES
100
AcDbCircle
 62
7
  6
CONTINUOUS
 10
2.6098501553
 20
6.2323920806
 40
1.375
100
AcDbArc
 50
259.04
 51
270.0
  0
ARC
  5
2E7
100
AcDbEntity
  8
02___PRT_ALL_AXES
100
AcDbCircle
 62
7
  6
CONTINUOUS
 10
1.924689494
 20
5.4578803697
 40
0.895
100
AcDbArc
 50
269.0179637958
 51
280.96
  0
ARC
  5
2E8
100
AcDbEntity
  8
0
100
AcDbCircle
 62
7
  6
CONTINUOUS
 10
5.1483500171
 20
4.7553919748
 40
0.2656247152
100
AcDbArc
 50
0.0000228176
 51
89.999970191
  0
ARC
  5
2E9
100
AcDbEntity
  8
0
100
AcDbCircle
 62
7
  6
CONTINUOUS
 10
5.0450079062
 20
4.2912447936
 40
0.2586844201
100
AcDbArc
 50
259.6255875116
 51
260.3823152462
  0
ARC
  5
2EA
100
AcDbEntity
  8
0
100
AcDbCircle
 62
7
  6
CONTINUOUS
 10
4.9811247404
 20
4.0186498535
 40
0.0113933368
100
AcDbArc
 50
123.1988641408
 51
126.0985146211
  0
ARC
  5
2EB
100
AcDbEntity
  8
0
100
AcDbCircle
 62
7
  6
CONTINUOUS
 10
4.9784963768
 20
4.0224862584
 40
0.0087099335
100
AcDbArc
 50
95.1390893073
 51
96.6778353287
  0
ARC
  5
2EC
100
AcDbEntity
  8
0
100
AcDbCircle
 62
7
  6
CONTINUOUS
 10
5.1138534508
 20
4.0254179464
 40
0.0051201797
100
AcDbArc
 50
0.0391215712
 51
29.2308161563
  0
ARC
  5
2ED
100
AcDbEntity
  8
0
100
AcDbCircle
 62
7
  6
CONTINUOUS
 10
4.9734795956
 20
4.0312347678
 40
0.0042290739
100
AcDbArc
 50
13.0109564615
 51
16.3927429335
  0
ARC
  5
2EE
100
AcDbEntity
  8
0
100
AcDbCircle
 62
7
  6
CONTINUOUS
 10
4.8318395593
 20
4.0781490608
 40
0.0041143039
100
AcDbArc
 50
171.422812842
 51
179.9908305678
  0
ARC
  5
2EF
100
AcDbEntity
  8
0
100
AcDbCircle
 62
7
  6
CONTINUOUS
 10
4.9737973241
 20
4.0313271415
 40
0.0038981916
100
AcDbArc
 50
16.4081860711
 51
19.9802758232
  0
ARC
  5
2F0
100
AcDbEntity
  8
0
100
AcDbCircle
 62
7
  6
CONTINUOUS
 10
5.1135037449
 20
4.0251700918
 40
0.0025607833
100
AcDbArc
 50
0.0763844194
 51
29.3348789062
  0
ARC
  5
2F1
100
AcDbEntity
  8
0
100
AcDbCircle
 62
7
  6
CONTINUOUS
 10
5.110048931
 20
4.0215213802
 40
0.002551897
100
AcDbArc
 50
0.0654279422
 51
29.420423591
  0
ARC
  5
2F2
100
AcDbEntity
  8
0
100
AcDbCircle
 62
7
  6
CONTINUOUS
 10
4.9748215424
 20
4.0239960603
 40
0.002539457
100
AcDbArc
 50
323.466135088
 51
345.3776699823
  0
ARC
  5
2F3
100
AcDbEntity
  8
0
100
AcDbCircle
 62
7
  6
CONTINUOUS
 10
4.9748384741
 20
4.0239947921
 40
0.0025227554
100
AcDbArc
 50
345.3084630729
 51
359.9579056726
  0
ARC
  5
2F4
100
AcDbEntity
  8
0
100
AcDbCircle
 62
7
  6
CONTINUOUS
 10
5.0267132561
 20
4.0082193097
 40
0.0025
100
AcDbArc
 50
265.369354153
 51
278.1751488602
  0
ARC
  5
2F5
100
AcDbEntity
  8
0
100
AcDbCircle
 62
7
  6
CONTINUOUS
 10
5.0467972931
 20
4.0111045722
 40
0.0025
100
AcDbArc
 50
278.2016138296
 51
360.0
  0
ARC
  5
2F6
100
AcDbEntity
  8
0
100
AcDbCircle
 62
7
  6
CONTINUOUS
 10
4.9792858517
 20
4.0135533792
 40
0.0025
100
AcDbArc
 50
180.0
 51
261.0969869258
  0
ARC
  5
2F7
100
AcDbEntity
  8
0
100
AcDbCircle
 62
7
  6
CONTINUOUS
 10
4.9425969987
 20
4.0235058446
 40
0.0025
100
AcDbArc
 50
235.2813091375
 51
270.7792383857
  0
ARC
  5
2F8
100
AcDbEntity
  8
0
100
AcDbCircle
 62
7
  6
CONTINUOUS
 10
4.9748974114
 20
4.0239451662
 40
0.0025
100
AcDbArc
 50
270.7619820189
 51
360.0
  0
ARC
  5
2F9
100
AcDbEntity
  8
0
100
AcDbCircle
 62
7
  6
CONTINUOUS
 10
4.9748913106
 20
4.0306675207
 40
0.0025
100
AcDbArc
 50
302.2700102284
 51
0.0018770092
  0
ARC
  5
2FA
100
AcDbEntity
  8
0
100
AcDbCircle
 62
7
  6
CONTINUOUS
 10
5.0046037947
 20
4.0387558641
 40
0.0025
100
AcDbArc
 50
264.9488296634
 51
279.0694965891
  0
ARC
  5
2FB
100
AcDbEntity
  8
0
100
AcDbCircle
 62
7
  6
CONTINUOUS
 10
5.1150866371
 20
4.0041062648
 40
0.0025
100
AcDbArc
 50
180.0
 51
268.9807653517
  0
ARC
  5
2FC
100
AcDbEntity
  8
0
100
AcDbCircle
 62
7
  6
CONTINUOUS
 10
4.9425535552
 20
4.0234656634
 40
0.0024442705
100
AcDbArc
 50
248.8752116511
 51
271.018406324
  0
ARC
  5
2FD
100
AcDbEntity
  8
0
100
AcDbCircle
 62
7
  6
CONTINUOUS
 10
4.9425485673
 20
4.0234354571
 40
0.0024144638
100
AcDbArc
 50
235.4899905019
 51
241.9238833099
  0
ARC
  5
2FE
100
AcDbEntity
  8
0
100
AcDbCircle
 62
7
  6
CONTINUOUS
 10
4.974940613
 20
4.0305969495
 40
0.0024139737
100
AcDbArc
 50
268.8297349017
 51
302.1742443971
  0
ARC
  5
2FF
100
AcDbEntity
  8
0
100
AcDbCircle
 62
7
  6
CONTINUOUS
 10
4.9425379494
 20
4.0234155283
 40
0.0023918829
100
AcDbArc
 50
241.9236228123
 51
248.7910948439
  0
ARC
  5
300
100
AcDbEntity
  8
0
100
AcDbCircle
 62
7
  6
CONTINUOUS
 10
5.050807556
 20
4.0287191782
 40
0.0019425046
100
AcDbArc
 50
86.3669628781
 51
98.1029648085
  0
ARC
  5
301
100
AcDbEntity
  8
0
100
AcDbCircle
 62
7
  6
CONTINUOUS
 10
5.0047352729
 20
4.0379261993
 40
0.001659617
100
AcDbArc
 50
265.4561510238
 51
279.0787340337
  0
ARC
  5
302
100
AcDbEntity
  8
0
100
AcDbCircle
 62
7
  6
CONTINUOUS
 10
4.9791533706
 20
4.0126996627
 40
0.001635723
100
AcDbArc
 50
261.0925913821
 51
274.6456126797
  0
ARC
  5
303
100
AcDbEntity
  8
0
100
AcDbCircle
 62
7
  6
CONTINUOUS
 10
5.0268488411
 20
4.0072690675
 40
0.0015398044
100
AcDbArc
 50
264.9483686244
 51
278.2092619275
  0
ARC
  5
304
100
AcDbEntity
  8
0
100
AcDbCircle
 62
7
  6
CONTINUOUS
 10
5.0469328564
 20
4.0101541396
 40
0.0015396128
100
AcDbArc
 50
264.9485496727
 51
278.2110733894
  0
ARC
  5
305
100
AcDbEntity
  8
0
100
AcDbCircle
 62
7
  6
CONTINUOUS
 10
5.1483486379
 20
5.8415298508
 40
1.8402246244
100
AcDbArc
 50
268.962906251
 51
271.0518162873
  0
ARC
  5
306
100
AcDbEntity
  8
0
100
AcDbCircle
 62
7
  6
CONTINUOUS
 10
5.1483459903
 20
5.5612780865
 40
1.5562933763
100
AcDbArc
 50
268.9029555381
 51
271.0986556838
  0
ARC
  5
307
100
AcDbEntity
  8
0
100
AcDbCircle
 62
7
  6
CONTINUOUS
 10
5.1483500291
 20
5.5358697324
 40
1.5281191399
100
AcDbArc
 50
268.8984841742
 51
271.1028372995
  0
ARC
  5
308
100
AcDbEntity
  8
0
100
AcDbCircle
 62
7
  6
CONTINUOUS
 10
5.1743233674
 20
2.0677600131
 40
1.9863124628
100
AcDbArc
 50
86.5939702887
 51
86.9900117849
  0
ARC
  5
309
100
AcDbEntity
  8
0
100
AcDbCircle
 62
7
  6
CONTINUOUS
 10
5.1869810746
 20
2.2791898276
 40
1.774504111
100
AcDbArc
 50
85.7439803413
 51
86.5963596726
  0
ARC
  5
30A
100
AcDbEntity
  8
02___PRT_ALL_AXES
100
AcDbCircle
 62
7
  6
CONTINUOUS
 10
7.6868501553
 20
3.2783920806
 40
1.375
100
AcDbArc
 50
79.04
 51
90.0
  0
ARC
  5
30B
100
AcDbEntity
  8
0
100
AcDbCircle
 62
7
  6
CONTINUOUS
 10
5.229627294
 20
2.7862255669
 40
1.325500418
100
AcDbArc
 50
84.5172901528
 51
84.8146260106
  0
ARC
  5
30C
100
AcDbEntity
  8
02___PRT_ALL_AXES
100
AcDbCircle
 62
7
  6
CONTINUOUS
 10
5.1723482013
 20
2.7689642848
 40
1.2744235376
100
AcDbArc
 50
86.2782082248
 51
86.5169034394
  0
ARC
  5
30D
100
AcDbEntity
  8
0
100
AcDbCircle
 62
7
  6
CONTINUOUS
 10
5.2359006923
 20
2.8521335752
 40
1.2592945407
100
AcDbArc
 50
84.3926335345
 51
84.5149011783
  0
ARC
  5
30E
100
AcDbEntity
  8
02___PRT_ALL_AXES
100
AcDbCircle
 62
7
  6
CONTINUOUS
 10
5.263546457
 20
3.5067427835
 40
0.6624717667
100
AcDbArc
 50
81.972002325
 51
82.8582613466
  0
ARC
  5
30F
100
AcDbEntity
  8
02___PRT_ALL_AXES
100
AcDbCircle
 62
7
  6
CONTINUOUS
 10
5.2748893774
 20
3.5888042688
 40
0.5796304157
100
AcDbArc
 50
81.7896958602
 51
81.9493955905
  0
ARC
  5
310
100
AcDbEntity
  8
02___PRT_ALL_AXES
100
AcDbCircle
 62
7
  6
CONTINUOUS
 10
5.2780860126
 20
3.6109813382
 40
0.5572241471
100
AcDbArc
 50
81.5845008593
 51
81.7893701348
  0
ARC
  5
311
100
AcDbEntity
  8
02___PRT_ALL_AXES
100
AcDbCircle
 62
7
  6
CONTINUOUS
 10
5.2528708725
 20
3.5932330708
 40
0.4460151069
100
AcDbArc
 50
81.3488231028
 51
81.9575782075
  0
ARC
  5
312
100
AcDbEntity
  8
0
100
AcDbCircle
 62
7
  6
CONTINUOUS
 10
5.2499324266
 20
4.0111069147
 40
0.0025
100
AcDbArc
 50
179.9581989497
 51
262.0450783771
  0
ARC
  5
313
100
AcDbEntity
  8
0
100
AcDbCircle
 62
7
  6
CONTINUOUS
 10
5.1820827593
 20
4.004114872
 40
0.0025
100
AcDbArc
 50
271.0586670148
 51
359.9999570924
  0
ARC
  5
314
100
AcDbEntity
  8
0
100
AcDbCircle
 62
7
  6
CONTINUOUS
 10
5.2459175948
 20
4.0286676786
 40
0.001995778
100
AcDbArc
 50
82.1419062225
 51
93.5024519031
  0
ARC
  5
315
100
AcDbEntity
  8
0
100
AcDbCircle
 62
7
  6
CONTINUOUS
 10
5.249796002
 20
4.0101237908
 40
0.001507129
100
AcDbArc
 50
262.0090960658
 51
275.1934957495
  0
ARC
  5
316
100
AcDbEntity
  8
02___PRT_ALL_AXES
100
AcDbCircle
 62
7
  6
CONTINUOUS
 10
5.1483501553
 20
4.7553920806
 40
0.625
100
AcDbArc
 50
295.154993206
 51
244.845006794
  0
ARC
  5
317
100
AcDbEntity
  8
02___PRT_ALL_AXES
100
AcDbCircle
 62
7
  6
CONTINUOUS
 10
5.1483501553
 20
4.7553920806
 40
0.5275
100
AcDbArc
 50
300.2376831692
 51
239.7623168308
  0
ARC
  5
318
100
AcDbEntity
  8
02___PRT_ALL_AXES
100
AcDbCircle
 62
7
  6
CONTINUOUS
 10
5.1483501553
 20
4.7553920806
 40
0.46
100
AcDbArc
 50
305.2769634248
 51
234.7230365752
  0
ARC
  5
319
100
AcDbEntity
  8
02___PRT_ALL_AXES
100
AcDbCircle
 62
7
  6
CONTINUOUS
 10
5.1483501553
 20
4.7553920806
 40
0.42
100
AcDbArc
 50
309.2361198795
 51
230.7638801205
  0
ARC
  5
31A
100
AcDbEntity
  8
02___PRT_ALL_AXES
100
AcDbCircle
 62
7
  6
CONTINUOUS
 10
5.1483501553
 20
4.7553920806
 40
0.31575
100
AcDbArc
 50
327.2967881844
 51
212.7032118156
  0
ARC
  5
31B
100
AcDbEntity
  8
02___PRT_ALL_AXES
100
AcDbCircle
 62
7
  6
CONTINUOUS
 10
5.1483501553
 20
4.7553920806
 40
0.2695
100
AcDbArc
 50
350.3686459183
 51
189.6313540817
  0
ARC
  5
31C
100
AcDbEntity
  8
0
100
AcDbCircle
 62
7
  6
CONTINUOUS
 10
5.1483502935
 20
4.7553919748
 40
0.2656247152
100
AcDbArc
 50
90.0000298092
 51
179.9999771826
  0
ARC
  5
31D
100
AcDbEntity
  8
0
100
AcDbCircle
 62
7
  6
CONTINUOUS
 10
5.2531343908
 20
4.2830592613
 40
0.2503730143
100
AcDbArc
 50
279.6093052817
 51
280.4390590573
  0
ARC
  5
31E
100
AcDbEntity
  8
0
100
AcDbCircle
 62
7
  6
CONTINUOUS
 10
5.3152745427
 20
4.0182174203
 40
0.0119170055
100
AcDbArc
 50
53.9815372908
 51
56.7851133656
  0
ARC
  5
31F
100
AcDbEntity
  8
0
100
AcDbCircle
 62
7
  6
CONTINUOUS
 10
5.2920757346
 20
4.0387591792
 40
0.0025
100
AcDbArc
 50
260.9372831368
 51
275.1957940891
  0
ARC
  5
320
100
AcDbEntity
  8
0
100
AcDbCircle
 62
7
  6
CONTINUOUS
 10
5.3218028991
 20
4.0306715213
 40
0.0025
100
AcDbArc
 50
180.0
 51
236.867214138
  0
ARC
  5
321
100
AcDbEntity
  8
0
100
AcDbCircle
 62
7
  6
CONTINUOUS
 10
5.321809
 20
4.0239491668
 40
0.0025
100
AcDbArc
 50
179.9879097479
 51
269.3089502107
  0
ARC
  5
322
100
AcDbEntity
  8
0
100
AcDbCircle
 62
7
  6
CONTINUOUS
 10
5.3541796681
 20
4.0235587222
 40
0.0025
100
AcDbArc
 50
269.3027450564
 51
304.5184388598
  0
ARC
  5
323
100
AcDbEntity
  8
0
100
AcDbCircle
 62
7
  6
CONTINUOUS
 10
5.3176921606
 20
4.0135968555
 40
0.0025
100
AcDbArc
 50
278.7884381278
 51
0.0039315977
  0
ARC
  5
324
100
AcDbEntity
  8
0
100
AcDbCircle
 62
7
  6
CONTINUOUS
 10
5.2703727403
 20
4.0082506136
 40
0.0025
100
AcDbArc
 50
262.0359634096
 51
274.6506004413
  0
ARC
  5
325
100
AcDbEntity
  8
0
100
AcDbCircle
 62
7
  6
CONTINUOUS
 10
5.3542265907
 20
4.0234957723
 40
0.0024215449
100
AcDbArc
 50
268.8897151258
 51
304.4474129276
  0
ARC
  5
326
100
AcDbEntity
  8
0
100
AcDbCircle
 62
7
  6
CONTINUOUS
 10
5.3217535607
 20
4.0306007965
 40
0.0024138188
100
AcDbArc
 50
236.9305974845
 51
271.171193516
  0
ARC
  5
327
100
AcDbEntity
  8
0
100
AcDbCircle
 62
7
  6
CONTINUOUS
 10
5.2919440917
 20
4.0379318174
 40
0.0016619259
100
AcDbArc
 50
260.9312514108
 51
274.5432177969
  0
ARC
  5
328
100
AcDbEntity
  8
0
100
AcDbCircle
 62
7
  6
CONTINUOUS
 10
5.31782455
 20
4.0127494179
 40
0.0016419739
100
AcDbArc
 50
265.3753227467
 51
278.7417312647
  0
ARC
  5
329
100
AcDbEntity
  8
0
100
AcDbCircle
 62
7
  6
CONTINUOUS
 10
5.2702363712
 20
4.0072696248
 40
0.0015092504
100
AcDbArc
 50
262.0178161834
 51
275.184063247
  0
ARC
  5
32A
100
AcDbEntity
  8
0
100
AcDbCircle
 62
7
  6
CONTINUOUS
 10
5.2922121522
 20
4.0372496202
 40
0.0009840086
100
AcDbArc
 50
262.0311588639
 51
275.2451526616
  0
ARC
  5
32B
100
AcDbEntity
  8
0
100
AcDbCircle
 62
7
  6
CONTINUOUS
 10
5.1483785274
 20
5.8392918229
 40
1.8379708812
100
AcDbArc
 50
268.9621266275
 51
271.0507631972
  0
ARC
  5
32C
100
AcDbEntity
  8
02___PRT_ALL_AXES
100
AcDbCircle
 62
7
  6
CONTINUOUS
 10
8.3720108166
 20
4.0529037914
 40
0.895
100
AcDbArc
 50
89.0179637958
 51
100.96
  0
ARC
  5
32D
100
AcDbEntity
  8
ALL_FEATURES
100
AcDbCircle
 62
7
  6
CONTINUOUS
 10
7.1168501553
 20
4.7553920806
 40
0.5275
100
AcDbArc
 50
11.1504078638
 51
348.8495921362
  0
ARC
  5
32E
100
AcDbEntity
  8
ALL_FEATURES
100
AcDbCircle
 62
7
  6
CONTINUOUS
 10
7.1168501553
 20
4.7553920806
 40
0.4425
100
AcDbArc
 50
13.327590374
 51
346.672409626
  0
ARC
  5
32F
100
AcDbEntity
  8
0
100
AcDbCircle
 62
7
  6
CONTINUOUS
 10
8.3949397675
 20
4.5103381679
 40
0.4375
100
AcDbArc
 50
57.5324797721
 51
90.9939989935
  0
ARC
  5
330
100
AcDbEntity
  8
0
100
AcDbCircle
 62
7
  6
CONTINUOUS
 10
8.3949397675
 20
5.0004459932
 40
0.4375
100
AcDbArc
 50
269.0060010065
 51
302.4675202279
  0
ARC
  5
331
100
AcDbEntity
  8
ALL_FEATURES
100
AcDbCircle
 62
7
  6
CONTINUOUS
 10
7.1168501553
 20
4.7553920806
 40
0.425
100
AcDbArc
 50
16.049924592
 51
343.950075408
  0
ARC
  5
332
100
AcDbEntity
  8
02___PRT_ALL_AXES
100
AcDbCircle
 62
7
  6
CONTINUOUS
 10
7.1168501553
 20
4.7553920806
 40
0.3483129374
100
AcDbArc
 50
15.832562418
 51
344.167437582
  0
ARC
  5
333
100
AcDbEntity
  8
02___PRT_ALL_AXES
100
AcDbCircle
 62
7
  6
CONTINUOUS
 10
7.1168501553
 20
4.7553920806
 40
0.3325
100
AcDbArc
 50
16.6059049845
 51
343.3940950155
  0
ARC
  5
334
100
AcDbEntity
  8
0
100
AcDbCircle
 62
7
  6
CONTINUOUS
 10
7.1168501553
 20
4.7553920806
 40
0.2949999867
100
AcDbArc
 50
18.7840233218
 51
341.2162399954
  0
ARC
  5
335
100
AcDbEntity
  8
0
100
AcDbCircle
 62
7
  6
CONTINUOUS
 10
7.1168501553
 20
4.7553920806
 40
0.28
100
AcDbArc
 50
19.8344100043
 51
340.1653420229
  0
ARC
  5
336
100
AcDbEntity
  8
0
100
AcDbCircle
 62
7
  6
CONTINUOUS
 10
7.1168501553
 20
4.7553920806
 40
0.2707112034
100
AcDbArc
 50
20.5457783728
 51
339.4537601465
  0
ARC
  5
337
100
AcDbEntity
  8
02___PRT_ALL_AXES
100
AcDbCircle
 62
7
  6
CONTINUOUS
 10
8.4443501553
 20
4.7553920806
 40
0.2475
100
AcDbArc
 50
336.80823049
 51
23.19176951
  0
CIRCLE
  5
338
100
AcDbEntity
  8
02___PRT_ALL_AXES
100
AcDbCircle
 62
7
  6
CONTINUOUS
 10
7.1168501553
 20
4.7553920806
 40
0.1954213942
  0
CIRCLE
  5
339
100
AcDbEntity
  8
0
100
AcDbCircle
 62
7
  6
CONTINUOUS
 10
7.1168501553
 20
4.7553920806
 40
0.1785
  0
CIRCLE
  5
33A
100
AcDbEntity
  8
0
100
AcDbCircle
 62
7
  6
CONTINUOUS
 10
7.1168501553
 20
4.7553920806
 40
0.1734999973
  0
CIRCLE
  5
33B
100
AcDbEntity
  8
0
100
AcDbCircle
 62
7
  6
CONTINUOUS
 10
7.1168501553
 20
4.7553920806
 40
0.15
  0
CIRCLE
  5
33C
100
AcDbEntity
  8
0
100
AcDbCircle
 62
7
  6
CONTINUOUS
 10
7.1168501553
 20
4.7553920806
 40
0.1472307693
  0
ARC
  5
33D
100
AcDbEntity
  8
0
100
AcDbCircle
 62
7
  6
CONTINUOUS
 10
8.6618501553
 20
4.8678920806
 40
0.01
100
AcDbArc
 50
0.0
 51
90.0
  0
ARC
  5
33E
100
AcDbEntity
  8
0
100
AcDbCircle
 62
7
  6
CONTINUOUS
 10
8.6618501553
 20
4.6428920806
 40
0.01
100
AcDbArc
 50
270.0
 51
360.0
  0
ARC
  5
33F
100
AcDbEntity
  8
0
100
AcDbCircle
 62
7
  6
CONTINUOUS
 10
8.6351673534
 20
4.8878920806
 40
0.01
100
AcDbArc
 50
237.5324797705
 51
270.0
  0
ARC
  5
340
100
AcDbEntity
  8
0
100
AcDbCircle
 62
7
  6
CONTINUOUS
 10
8.6351673534
 20
4.6228920806
 40
0.01
100
AcDbArc
 50
90.0
 51
122.4675202295
  0
ARC
  5
341
100
AcDbEntity
  8
0
100
AcDbCircle
 62
7
  6
CONTINUOUS
 10
7.5068501553
 20
4.6478920806
 40
0.01
100
AcDbArc
 50
180.0
 51
270.0
  0
ARC
  5
342
100
AcDbEntity
  8
0
100
AcDbCircle
 62
7
  6
CONTINUOUS
 10
7.5068501553
 20
4.8628920806
 40
0.01
100
AcDbArc
 50
90.0
 51
180.0
  0
ARC
  5
343
100
AcDbEntity
  8
0
100
AcDbCircle
 62
7
  6
CONTINUOUS
 10
7.5268501553
 20
4.6478920806
 40
0.01
100
AcDbArc
 50
270.0
 51
360.0
  0
ARC
  5
344
100
AcDbEntity
  8
0
100
AcDbCircle
 62
7
  6
CONTINUOUS
 10
7.5268501553
 20
4.8628920806
 40
0.01
100
AcDbArc
 50
0.0
 51
90.0
  0
ARC
  5
345
100
AcDbEntity
  8
02___PRT_ALL_AXES
100
AcDbCircle
 62
7
  6
CONTINUOUS
 10
7.6868501553
 20
6.2323920806
 40
1.375
100
AcDbArc
 50
270.0
 51
280.96
  0
ARC
  5
346
100
AcDbEntity
  8
02___PRT_ALL_AXES
100
AcDbCircle
 62
7
  6
CONTINUOUS
 10
8.3720108166
 20
5.4578803697
 40
0.895
100
AcDbArc
 50
259.04
 51
270.9820362042
  0
SPLINE
  5
347
100
AcDbEntity
  8
0
100
AcDbSpline
 62
7
  6
CONTINUOUS
 70
0
 71
3
 72
28
 73
24
 74
0
 42
0.0000001
 43
0.0000001
 44
0.0000000001
 40
0.0
 40
0.0
 40
0.0
 40
0.0
 40
0.0778918002
 40
0.1553476958
 40
0.2317780557
 40
0.3067275019
 40
0.3797740801
 40
0.450510183
 40
0.5185814347
 40
0.583706764
 40
0.615105624
 40
0.6457014132
 40
0.704429717
 40
0.7325848371
 40
0.7599449881
 40
0.8123551717
 40
0.8619951675
 40
0.8859353059
 40
0.9093770049
 40
0.9324067588
 40
0.9551185906
 40
0.9776138858
 40
1.0
 40
1.0
 40
1.0
 40
1.0
 10
7.3872970559
 20
4.7553920806
 30
0.0
 10
7.3872970559
 20
4.7584959215
 30
0.0
 10
7.3874715958
 20
4.7646876315
 30
0.0
 10
7.3882513981
 20
4.7738953425
 30
0.0
 10
7.389545001
 20
4.7829271174
 30
0.0
 10
7.3913379404
 20
4.7916941162
 30
0.0
 10
7.3936139799
 20
4.8001138926
 30
0.0
 10
7.3963507332
 20
4.8081069482
 30
0.0
 10
7.3995233191
 20
4.8155960716
 30
0.0
 10
7.4025409979
 20
4.8214282707
 30
0.0
 10
7.4051535605
 20
4.825769875
 30
0.0
 10
7.4078151541
 20
4.8297783739
 30
0.0
 10
7.4106745233
 20
4.8334965687
 30
0.0
 10
7.4137294998
 20
4.8368743786
 30
0.0
 10
7.4167879195
 20
4.83990051
 30
0.0
 10
7.4207655427
 20
4.843203718
 30
0.0
 10
7.4250305308
 20
4.8458858637
 30
0.0
 10
7.4285141228
 20
4.8475700748
 30
0.0
 10
7.4311288308
 20
4.8485957645
 30
0.0
 10
7.433769844
 20
4.8493966773
 30
0.0
 10
7.4364309576
 20
4.8499706117
 30
0.0
 10
7.4391053981
 20
4.850315167
 30
0.0
 10
7.4408947731
 20
4.8503917893
 30
0.0
 10
7.4417868174
 20
4.8503917893
 30
0.0
  0
SPLINE
  5
348
100
AcDbEntity
  8
0
100
AcDbSpline
 62
7
  6
CONTINUOUS
 70
0
 71
3
 72
28
 73
24
 74
0
 42
0.0000001
 43
0.0000001
 44
0.0000000001
 40
0.0
 40
0.0
 40
0.0
 40
0.0
 40
0.0223861142
 40
0.0448814094
 40
0.0675932412
 40
0.0906229951
 40
0.1140646941
 40
0.1380048325
 40
0.1876448283
 40
0.2400550119
 40
0.2674151629
 40
0.295570283
 40
0.3542985868
 40
0.384894376
 40
0.416293236
 40
0.4814185653
 40
0.549489817
 40
0.6202259199
 40
0.6932724981
 40
0.7682219443
 40
0.8446523042
 40
0.9221081998
 40
1.0
 40
1.0
 40
1.0
 40
1.0
 10
7.4417868174
 20
4.6603923718
 30
0.0
 10
7.4408947731
 20
4.6603923718
 30
0.0
 10
7.4391053981
 20
4.6604689941
 30
0.0
 10
7.4364309576
 20
4.6608135494
 30
0.0
 10
7.433769844
 20
4.6613874838
 30
0.0
 10
7.4311288308
 20
4.6621883966
 30
0.0
 10
7.4285141228
 20
4.6632140863
 30
0.0
 10
7.4250305308
 20
4.6648982975
 30
0.0
 10
7.4207655427
 20
4.6675804432
 30
0.0
 10
7.4167879195
 20
4.6708836511
 30
0.0
 10
7.4137294998
 20
4.6739097826
 30
0.0
 10
7.4106745233
 20
4.6772875924
 30
0.0
 10
7.4078151541
 20
4.6810057872
 30
0.0
 10
7.4051535605
 20
4.6850142861
 30
0.0
 10
7.4025409979
 20
4.6893558905
 30
0.0
 10
7.3995233191
 20
4.6951880896
 30
0.0
 10
7.3963507332
 20
4.7026772129
 30
0.0
 10
7.3936139799
 20
4.7106702685
 30
0.0
 10
7.3913379404
 20
4.7190900449
 30
0.0
 10
7.389545001
 20
4.7278570438
 30
0.0
 10
7.3882513981
 20
4.7368888187
 30
0.0
 10
7.3874715958
 20
4.7460965296
 30
0.0
 10
7.3872970559
 20
4.7522882397
 30
0.0
 10
7.3872970559
 20
4.7553920806
 30
0.0
  0
SPLINE
  5
349
100
AcDbEntity
  8
0
100
AcDbSpline
 62
7
  6
CONTINUOUS
 70
0
 71
3
 72
19
 73
15
 74
0
 42
0.0000001
 43
0.0000001
 44
0.0000000001
 40
0.0
 40
0.0
 40
0.0
 40
0.0
 40
0.2156340708
 40
0.2726631212
 40
0.331110835
 40
0.3910524729
 40
0.4525679523
 40
0.5157513488
 40
0.5806288186
 40
0.6471705492
 40
0.715355414
 40
0.8559086505
 40
0.9277630857
 40
1.0
 40
1.0
 40
1.0
 40
1.0
 10
7.3064081038
 20
4.8027069563
 30
0.0
 10
7.3085012877
 20
4.7997238825
 30
0.0
 10
7.3109532483
 20
4.7958063678
 30
0.0
 10
7.3135572432
 20
4.7908530899
 30
0.0
 10
7.3148518576
 20
4.7881854523
 30
0.0
 10
7.3160848839
 20
4.7854056615
 30
0.0
 10
7.3172457614
 20
4.7825084506
 30
0.0
 10
7.3183236216
 20
4.7794905212
 30
0.0
 10
7.3193055428
 20
4.7763508226
 30
0.0
 10
7.3201762409
 20
4.7730906584
 30
0.0
 10
7.3211769141
 20
4.7685462246
 30
0.0
 10
7.3218747496
 20
4.7638471131
 30
0.0
 10
7.3222312499
 20
4.759048471
 30
0.0
 10
7.3222929908
 20
4.756612877
 30
0.0
 10
7.3222932127
 20
4.7553920806
 30
0.0
  0
SPLINE
  5
34A
100
AcDbEntity
  8
0
100
AcDbSpline
 62
7
  6
CONTINUOUS
 70
0
 71
3
 72
19
 73
15
 74
0
 42
0.0000001
 43
0.0000001
 44
0.0000000001
 40
0.0
 40
0.0
 40
0.0
 40
0.0
 40
0.0722360811
 40
0.1440899093
 40
0.284642271
 40
0.3528270208
 40
0.4193685266
 40
0.484245919
 40
0.5474297614
 40
0.608945473
 40
0.6688872304
 40
0.7273352987
 40
0.7843647426
 40
1.0
 40
1.0
 40
1.0
 40
1.0
 10
7.3222932127
 20
4.7553920806
 30
0.0
 10
7.322292999
 20
4.7541713549
 30
0.0
 10
7.3222312672
 20
4.7517358979
 30
0.0
 10
7.3218747924
 20
4.7469375174
 30
0.0
 10
7.321177026
 20
4.7422386472
 30
0.0
 10
7.3201764552
 20
4.7376944331
 30
0.0
 10
7.3193058417
 20
4.7344344158
 30
0.0
 10
7.3183240072
 20
4.7312948476
 30
0.0
 10
7.3172462387
 20
4.7282770328
 30
0.0
 10
7.3160854732
 20
4.7253799189
 30
0.0
 10
7.3148525641
 20
4.7226002173
 30
0.0
 10
7.3135580438
 20
4.7199326707
 30
0.0
 10
7.3109542628
 20
4.714979537
 30
0.0
 10
7.3085024782
 20
4.7110621346
 30
0.0
 10
7.3064094573
 20
4.7080791285
 30
0.0
  0
SPLINE
  5
34B
100
AcDbEntity
  8
0
100
AcDbSpline
 62
7
  6
CONTINUOUS
 70
0
 71
3
 72
28
 73
24
 74
0
 42
0.0000001
 43
0.0000001
 44
0.0000000001
 40
0.0
 40
0.0
 40
0.0
 40
0.0
 40
0.0778918002
 40
0.1553476958
 40
0.2317780557
 40
0.3067275019
 40
0.3797740801
 40
0.450510183
 40
0.5185814347
 40
0.583706764
 40
0.615105624
 40
0.6457014132
 40
0.704429717
 40
0.7325848371
 40
0.7599449881
 40
0.8123551717
 40
0.8619951675
 40
0.8859353059
 40
0.9093770049
 40
0.9324067588
 40
0.9551185906
 40
0.9776138858
 40
1.0
 40
1.0
 40
1.0
 40
1.0
 10
2.9094032546
 20
4.7553920806
 30
0.0
 10
2.9094032546
 20
4.7522882397
 30
0.0
 10
2.9092287147
 20
4.7460965296
 30
0.0
 10
2.9084489124
 20
4.7368888187
 30
0.0
 10
2.9071553096
 20
4.7278570438
 30
0.0
 10
2.9053623701
 20
4.7190900449
 30
0.0
 10
2.9030863307
 20
4.7106702685
 30
0.0
 10
2.9003495774
 20
4.7026772129
 30
0.0
 10
2.8971769915
 20
4.6951880896
 30
0.0
 10
2.8941593126
 20
4.6893558905
 30
0.0
 10
2.8915467501
 20
4.6850142861
 30
0.0
 10
2.8888851564
 20
4.6810057872
 30
0.0
 10
2.8860257873
 20
4.6772875924
 30
0.0
 10
2.8829708108
 20
4.6739097826
 30
0.0
 10
2.879912391
 20
4.6708836511
 30
0.0
 10
2.8759347679
 20
4.6675804432
 30
0.0
 10
2.8716697798
 20
4.6648982975
 30
0.0
 10
2.8681861878
 20
4.6632140863
 30
0.0
 10
2.8655714797
 20
4.6621883966
 30
0.0
 10
2.8629304666
 20
4.6613874838
 30
0.0
 10
2.8602693529
 20
4.6608135494
 30
0.0
 10
2.8575949125
 20
4.6604689941
 30
0.0
 10
2.8558055375
 20
4.6603923718
 30
0.0
 10
2.8549134932
 20
4.6603923718
 30
0.0
  0
SPLINE
  5
34C
100
AcDbEntity
  8
0
100
AcDbSpline
 62
7
  6
CONTINUOUS
 70
0
 71
3
 72
28
 73
24
 74
0
 42
0.0000001
 43
0.0000001
 44
0.0000000001
 40
0.0
 40
0.0
 40
0.0
 40
0.0
 40
0.0223861142
 40
0.0448814094
 40
0.0675932412
 40
0.0906229951
 40
0.1140646941
 40
0.1380048325
 40
0.1876448283
 40
0.2400550119
 40
0.2674151629
 40
0.295570283
 40
0.3542985868
 40
0.384894376
 40
0.416293236
 40
0.4814185653
 40
0.549489817
 40
0.6202259199
 40
0.6932724981
 40
0.7682219443
 40
0.8446523042
 40
0.9221081998
 40
1.0
 40
1.0
 40
1.0
 40
1.0
 10
2.8549134932
 20
4.8503917893
 30
0.0
 10
2.8558055375
 20
4.8503917893
 30
0.0
 10
2.8575949125
 20
4.850315167
 30
0.0
 10
2.8602693529
 20
4.8499706117
 30
0.0
 10
2.8629304666
 20
4.8493966773
 30
0.0
 10
2.8655714797
 20
4.8485957645
 30
0.0
 10
2.8681861878
 20
4.8475700748
 30
0.0
 10
2.8716697798
 20
4.8458858637
 30
0.0
 10
2.8759347679
 20
4.843203718
 30
0.0
 10
2.879912391
 20
4.83990051
 30
0.0
 10
2.8829708108
 20
4.8368743786
 30
0.0
 10
2.8860257873
 20
4.8334965687
 30
0.0
 10
2.8888851564
 20
4.8297783739
 30
0.0
 10
2.8915467501
 20
4.825769875
 30
0.0
 10
2.8941593126
 20
4.8214282707
 30
0.0
 10
2.8971769915
 20
4.8155960716
 30
0.0
 10
2.9003495774
 20
4.8081069482
 30
0.0
 10
2.9030863307
 20
4.8001138926
 30
0.0
 10
2.9053623701
 20
4.7916941162
 30
0.0
 10
2.9071553096
 20
4.7829271174
 30
0.0
 10
2.9084489124
 20
4.7738953425
 30
0.0
 10
2.9092287147
 20
4.7646876315
 30
0.0
 10
2.9094032546
 20
4.7584959215
 30
0.0
 10
2.9094032546
 20
4.7553920806
 30
0.0
  0
SPLINE
  5
34D
100
AcDbEntity
  8
0
100
AcDbSpline
 62
7
  6
CONTINUOUS
 70
0
 71
3
 72
19
 73
15
 74
0
 42
0.0000001
 43
0.0000001
 44
0.0000000001
 40
0.0
 40
0.0
 40
0.0
 40
0.0
 40
0.2156340708
 40
0.2726631212
 40
0.331110835
 40
0.3910524729
 40
0.4525679523
 40
0.5157513488
 40
0.5806288186
 40
0.6471705492
 40
0.715355414
 40
0.8559086505
 40
0.9277630857
 40
1.0
 40
1.0
 40
1.0
 40
1.0
 10
2.9902922068
 20
4.7080772048
 30
0.0
 10
2.9881990228
 20
4.7110602786
 30
0.0
 10
2.9857470623
 20
4.7149777933
 30
0.0
 10
2.9831430673
 20
4.7199310713
 30
0.0
 10
2.9818484529
 20
4.7225987088
 30
0.0
 10
2.9806154267
 20
4.7253784996
 30
0.0
 10
2.9794545491
 20
4.7282757105
 30
0.0
 10
2.978376689
 20
4.73129364
 30
0.0
 10
2.9773947678
 20
4.7344333385
 30
0.0
 10
2.9765240696
 20
4.7376935027
 30
0.0
 10
2.9755233964
 20
4.7422379366
 30
0.0
 10
2.974825561
 20
4.7469370481
 30
0.0
 10
2.9744690606
 20
4.7517356901
 30
0.0
 10
2.9744073197
 20
4.7541712841
 30
0.0
 10
2.9744070978
 20
4.7553920806
 30
0.0
  0
SPLINE
  5
34E
100
AcDbEntity
  8
0
100
AcDbSpline
 62
7
  6
CONTINUOUS
 70
0
 71
3
 72
19
 73
15
 74
0
 42
0.0000001
 43
0.0000001
 44
0.0000000001
 40
0.0
 40
0.0
 40
0.0
 40
0.0
 40
0.0722360811
 40
0.1440899093
 40
0.284642271
 40
0.3528270208
 40
0.4193685266
 40
0.484245919
 40
0.5474297614
 40
0.608945473
 40
0.6688872304
 40
0.7273352987
 40
0.7843647426
 40
1.0
 40
1.0
 40
1.0
 40
1.0
 10
2.9744070978
 20
4.7553920806
 30
0.0
 10
2.9744073116
 20
4.7566128063
 30
0.0
 10
2.9744690433
 20
4.7590482633
 30
0.0
 10
2.9748255181
 20
4.7638466438
 30
0.0
 10
2.9755232845
 20
4.7685455139
 30
0.0
 10
2.9765238554
 20
4.773089728
 30
0.0
 10
2.9773944688
 20
4.7763497453
 30
0.0
 10
2.9783763033
 20
4.7794893135
 30
0.0
 10
2.9794540718
 20
4.7825071283
 30
0.0
 10
2.9806148374
 20
4.7854042422
 30
0.0
 10
2.9818477465
 20
4.7881839438
 30
0.0
 10
2.9831422668
 20
4.7908514904
 30
0.0
 10
2.9857460478
 20
4.7958046241
 30
0.0
 10
2.9881978324
 20
4.7997220265
 30
0.0
 10
2.9902908532
 20
4.8027050326
 30
0.0
  0
SPLINE
  5
34F
100
AcDbEntity
  8
0
100
AcDbSpline
 62
7
  6
CONTINUOUS
 70
0
 71
3
 72
11
 73
7
 74
0
 42
0.0000001
 43
0.0000001
 44
0.0000000001
 40
0.0
 40
0.0
 40
0.0
 40
0.0
 40
0.2175779031
 40
0.4579485933
 40
0.7193969363
 40
1.0
 40
1.0
 40
1.0
 40
1.0
 10
5.2916819843
 20
4.0362903818
 30
0.0
 10
5.2886558129
 20
4.036773028
 30
0.0
 10
5.2822714641
 20
4.037695683
 30
0.0
 10
5.2722130106
 20
4.0389207402
 30
0.0
 10
5.2612504246
 20
4.040047809
 30
0.0
 10
5.2536441604
 20
4.0407062671
 30
0.0
 10
5.2497045535
 20
4.0410200054
 30
0.0
  0
SPLINE
  5
350
100
AcDbEntity
  8
0
100
AcDbSpline
 62
7
  6
CONTINUOUS
 70
0
 71
3
 72
11
 73
7
 74
0
 42
0.0000001
 43
0.0000001
 44
0.0000000001
 40
0.0
 40
0.0
 40
0.0
 40
0.0
 40
0.2806158777
 40
0.5420685112
 40
0.7824349155
 40
1.0
 40
1.0
 40
1.0
 40
1.0
 10
5.0469664336
 20
4.0410176696
 30
0.0
 10
5.043027454
 20
4.0407038451
 30
0.0
 10
5.0354225111
 20
4.0400452241
 30
0.0
 10
5.0244620081
 20
4.0389179092
 30
0.0
 10
5.0144058265
 20
4.0376926297
 30
0.0
 10
5.0080230605
 20
4.0367698178
 30
0.0
 10
5.0049977117
 20
4.0362870932
 30
0.0
  0
SPLINE
  5
351
100
AcDbEntity
  8
0
100
AcDbSpline
 62
7
  6
CONTINUOUS
 70
0
 71
3
 72
14
 73
10
 74
0
 42
0.0000001
 43
0.0000001
 44
0.0000000001
 40
0.0
 40
0.0
 40
0.0
 40
0.0
 40
0.4282218554
 40
0.5961581926
 40
0.73418227
 40
0.843083691
 40
0.9234268885
 40
0.975307742
 40
1.0
 40
1.0
 40
1.0
 40
1.0
 10
4.9762628033
 20
4.0285773035
 30
0.0
 10
4.976029611
 20
4.0284242948
 30
0.0
 10
4.9757125137
 20
4.0281985366
 30
0.0
 10
4.9753496171
 20
4.0278867296
 30
0.0
 10
4.9751572304
 20
4.027696593
 30
0.0
 10
4.975017816
 20
4.0275351027
 30
0.0
 10
4.974924647
 20
4.0274083607
 30
0.0
 10
4.9748714636
 20
4.0273210903
 30
0.0
 10
4.9748491286
 20
4.0272762261
 30
0.0
 10
4.9748439322
 20
4.0272610062
 30
0.0
  0
SPLINE
  5
352
100
AcDbEntity
  8
0
100
AcDbSpline
 62
7
  6
CONTINUOUS
 70
0
 71
3
 72
11
 73
7
 74
0
 42
0.0000001
 43
0.0000001
 44
0.0000000001
 40
0.0
 40
0.0
 40
0.0
 40
0.0
 40
0.239192305
 40
0.4865422411
 40
0.7407027601
 40
1.0
 40
1.0
 40
1.0
 40
1.0
 10
5.0492769057
 20
4.0264801368
 30
0.0
 10
5.0541213731
 20
4.0261857787
 30
0.0
 10
5.0639790141
 20
4.025643287
 30
0.0
 10
5.0789937644
 20
4.0249733622
 30
0.0
 10
5.0944220389
 20
4.0244362649
 30
0.0
 10
5.1048372909
 20
4.024170722
 30
0.0
 10
5.1100974772
 20
4.0240602139
 30
0.0
  0
SPLINE
  5
353
100
AcDbEntity
  8
0
100
AcDbSpline
 62
7
  6
CONTINUOUS
 70
0
 71
3
 72
19
 73
15
 74
0
 42
0.0000001
 43
0.0000001
 44
0.0000000001
 40
0.0
 40
0.0
 40
0.0
 40
0.0
 40
0.1492044521
 40
0.2959804525
 40
0.4378820602
 40
0.5726292942
 40
0.6366322917
 40
0.6980451362
 40
0.7566290654
 40
0.8121612424
 40
0.8644318244
 40
0.9132627089
 40
0.9584902018
 40
1.0
 40
1.0
 40
1.0
 40
1.0
 10
5.1483501553
 20
4.0314802608
 30
0.0
 10
5.1543632369
 20
4.0314802608
 30
0.0
 10
5.1662917163
 20
4.0315668556
 30
0.0
 10
5.1839351566
 20
4.0319550736
 30
0.0
 10
5.2009882855
 20
4.0325950095
 30
0.0
 10
5.2146974434
 20
4.0333406209
 30
0.0
 10
5.2251575293
 20
4.0340626388
 30
0.0
 10
5.2325497362
 20
4.0346501206
 30
0.0
 10
5.2395948371
 20
4.0352905468
 30
0.0
 10
5.2462648993
 20
4.0359813562
 30
0.0
 10
5.2525342277
 20
4.036720229
 30
0.0
 10
5.2583793604
 20
4.0375043851
 30
0.0
 10
5.2637802521
 20
4.0383315029
 30
0.0
 10
5.2672234731
 20
4.0389367791
 30
0.0
 10
5.2688668787
 20
4.039249446
 30
0.0
  0
SPLINE
  5
354
100
AcDbEntity
  8
0
100
AcDbSpline
 62
7
  6
CONTINUOUS
 70
0
 71
3
 72
11
 73
7
 74
0
 42
0.0000001
 43
0.0000001
 44
0.0000000001
 40
0.0
 40
0.0
 40
0.0
 40
0.0
 40
0.2200666683
 40
0.4610745675
 40
0.7215894518
 40
1.0
 40
1.0
 40
1.0
 40
1.0
 10
4.9789000735
 20
4.0110833235
 30
0.0
 10
4.982373278
 20
4.0105408715
 30
0.0
 10
4.9896656197
 20
4.0095022196
 30
0.0
 10
5.0011091733
 20
4.0081161267
 30
0.0
 10
5.0135025292
 20
4.0068379329
 30
0.0
 10
5.0220787146
 20
4.0060863832
 30
0.0
 10
5.0265114934
 20
4.0057274646
 30
0.0
  0
SPLINE
  5
355
100
AcDbEntity
  8
0
100
AcDbSpline
 62
7
  6
CONTINUOUS
 70
0
 71
3
 72
19
 73
15
 74
0
 42
0.0000001
 43
0.0000001
 44
0.0000000001
 40
0.0
 40
0.0
 40
0.0
 40
0.0
 40
0.0415105332
 40
0.0867384316
 40
0.135569925
 40
0.1878410662
 40
0.2433731969
 40
0.3019572092
 40
0.3633698244
 40
0.4273727581
 40
0.5621195694
 40
0.7040209421
 40
0.8507958146
 40
1.0
 40
1.0
 40
1.0
 40
1.0
 10
5.027833766
 20
4.0392493867
 30
0.0
 10
5.0294771965
 20
4.0389367173
 30
0.0
 10
5.0329204532
 20
4.0383314355
 30
0.0
 10
5.0383214003
 20
4.0375043141
 30
0.0
 10
5.044166582
 20
4.0367201711
 30
0.0
 10
5.0504359382
 20
4.0359813
 30
0.0
 10
5.0571060057
 20
4.035290491
 30
0.0
 10
5.0641510803
 20
4.0346500809
 30
0.0
 10
5.071543258
 20
4.0340626006
 30
0.0
 10
5.0820032866
 20
4.0333405991
 30
0.0
 10
5.095712377
 20
4.032594991
 30
0.0
 10
5.1127653865
 20
4.0319550686
 30
0.0
 10
5.1304087116
 20
4.0315668524
 30
0.0
 10
5.1423371013
 20
4.0314802608
 30
0.0
 10
5.1483501553
 20
4.0314802608
 30
0.0
  0
SPLINE
  5
356
100
AcDbEntity
  8
0
100
AcDbSpline
 62
7
  6
CONTINUOUS
 70
0
 71
3
 72
10
 73
6
 74
0
 42
0.0000001
 43
0.0000001
 44
0.0000000001
 40
0.0
 40
0.0
 40
0.0
 40
0.0
 40
0.242283914
 40
0.4880899904
 40
1.0
 40
1.0
 40
1.0
 40
1.0
 10
4.9383813068
 20
4.0241235275
 30
0.0
 10
4.9385573989
 20
4.0238630155
 30
0.0
 10
4.9389473104
 20
4.0233613958
 30
0.0
 10
4.93985198
 20
4.022428363
 30
0.0
 10
4.9406331272
 20
4.0218222175
 30
0.0
 10
4.941180581
 20
4.0214458056
 30
0.0
  0
SPLINE
  5
357
100
AcDbEntity
  8
0
100
AcDbSpline
 62
7
  6
CONTINUOUS
 70
0
 71
3
 72
10
 73
6
 74
0
 42
0.0000001
 43
0.0000001
 44
0.0000000001
 40
0.0
 40
0.0
 40
0.0
 40
0.0
 40
0.5112239437
 40
0.7572239524
 40
1.0
 40
1.0
 40
1.0
 40
1.0
 10
5.3556099137
 20
4.0215082594
 30
0.0
 10
5.3561387909
 20
4.0218771636
 30
0.0
 10
5.3568935961
 20
4.0224706378
 30
0.0
 10
5.3577689785
 20
4.0233810654
 30
0.0
 10
5.358147495
 20
4.0238699015
 30
0.0
 10
5.3583189784
 20
4.0241236058
 30
0.0
  0
SPLINE
  5
358
100
AcDbEntity
  8
0
100
AcDbSpline
 62
7
  6
CONTINUOUS
 70
0
 71
3
 72
11
 73
7
 74
0
 42
0.0000001
 43
0.0000001
 44
0.0000000001
 40
0.0
 40
0.0
 40
0.0
 40
0.0
 40
0.2785387902
 40
0.5390956481
 40
0.7800601747
 40
1.0
 40
1.0
 40
1.0
 40
1.0
 10
5.2705754689
 20
4.0057588469
 30
0.0
 10
5.2750004326
 20
4.0061188591
 30
0.0
 10
5.283560224
 20
4.0068724896
 30
0.0
 10
5.295927844
 20
4.0081538465
 30
0.0
 10
5.3073435454
 20
4.0095428613
 30
0.0
 10
5.314616555
 20
4.0105835884
 30
0.0
 10
5.3180797531
 20
4.0111270839
 30
0.0
  0
SPLINE
  5
359
100
AcDbEntity
  8
0
100
AcDbSpline
 62
7
  6
CONTINUOUS
 70
0
 71
3
 72
11
 73
7
 74
0
 42
0.0000001
 43
0.0000001
 44
0.0000000001
 40
0.0
 40
0.0
 40
0.0
 40
0.0
 40
0.2592773243
 40
0.5134188435
 40
0.7607695328
 40
1.0
 40
1.0
 40
1.0
 40
1.0
 10
5.1870672915
 20
4.0240700328
 30
0.0
 10
5.1922896233
 20
4.0241811247
 30
0.0
 10
5.2026299258
 20
4.0244472146
 30
0.0
 10
5.2179475648
 20
4.0249832722
 30
0.0
 10
5.2328558047
 20
4.025650328
 30
0.0
 10
5.2426440586
 20
4.0261896121
 30
0.0
 10
5.2474548194
 20
4.0264820431
 30
0.0
  0
SPLINE
  5
35A
100
AcDbEntity
  8
0
100
AcDbSpline
 62
7
  6
CONTINUOUS
 70
0
 71
3
 72
14
 73
10
 74
0
 42
0.0000001
 43
0.0000001
 44
0.0000000001
 40
0.0
 40
0.0
 40
0.0
 40
0.0
 40
0.024339662
 40
0.0759308015
 40
0.1561105883
 40
0.2649619902
 40
0.4030397738
 40
0.5711341761
 40
1.0
 40
1.0
 40
1.0
 40
1.0
 10
5.3218565146
 20
4.0272606312
 30
0.0
 10
5.3218514356
 20
4.0272757022
 30
0.0
 10
5.3218292474
 20
4.0273203586
 30
0.0
 10
5.321776253
 20
4.0274075041
 30
0.0
 10
5.3216830246
 20
4.0275344293
 30
0.0
 10
5.3215432746
 20
4.0276963962
 30
0.0
 10
5.3213501969
 20
4.0278872256
 30
0.0
 10
5.3209856274
 20
4.0282003072
 30
0.0
 10
5.3206669614
 20
4.0284269339
 30
0.0
 10
5.3204325812
 20
4.0285805338
 30
0.0
  0
SPLINE
  5
35B
100
AcDbEntity
  8
0
100
AcDbSpline
 62
7
  6
CONTINUOUS
 70
0
 71
3
 72
11
 73
7
 74
0
 42
0.0000001
 43
0.0000001
 44
0.0000000001
 40
0.0
 40
0.0
 40
0.0
 40
0.0
 40
0.2546677939
 40
0.5094496659
 40
0.7592238421
 40
1.0
 40
1.0
 40
1.0
 40
1.0
 10
5.0066661325
 20
4.0334086217
 30
0.0
 10
5.0066661115
 20
4.0336732015
 30
0.0
 10
5.0066415906
 20
4.0342027486
 30
0.0
 10
5.0065354946
 20
4.034985395
 30
0.0
 10
5.0063611581
 20
4.0357409586
 30
0.0
 10
5.0061992521
 20
4.0362252794
 30
0.0
 10
5.0061072325
 20
4.0364578867
 30
0.0
  0
LINE
  5
35C
100
AcDbEntity
  8
0
100
AcDbLine
 62
7
  6
CONTINUOUS
 10
5.2474325113
 20
4.0284954228
 11
5.2484894966
 21
4.0287255081
  0
SPLINE
  5
35D
100
AcDbEntity
  8
0
100
AcDbSpline
 62
7
  6
CONTINUOUS
 70
0
 71
3
 72
11
 73
7
 74
0
 42
0.0000001
 43
0.0000001
 44
0.0000000001
 40
0.0
 40
0.0
 40
0.0
 40
0.0
 40
0.2593455349
 40
0.5135198643
 40
0.760853549
 40
1.0
 40
1.0
 40
1.0
 40
1.0
 10
5.1870141045
 20
4.0240854179
 30
0.0
 10
5.1922423724
 20
4.0241966361
 30
0.0
 10
5.2025937403
 20
4.0244631215
 30
0.0
 10
5.2179264325
 20
4.0250002532
 30
0.0
 10
5.232846277
 20
4.025668795
 30
0.0
 10
5.2426409939
 20
4.0262094075
 30
0.0
 10
5.2474542299
 20
4.0265025733
 30
0.0
  0
SPLINE
  5
35E
100
AcDbEntity
  8
0
100
AcDbSpline
 62
7
  6
CONTINUOUS
 70
0
 71
3
 72
11
 73
7
 74
0
 42
0.0000001
 43
0.0000001
 44
0.0000000001
 40
0.0
 40
0.0
 40
0.0
 40
0.0
 40
0.2787562891
 40
0.5394094417
 40
0.7803045043
 40
1.0
 40
1.0
 40
1.0
 40
1.0
 10
5.2705758197
 20
4.0057835785
 30
0.0
 10
5.2749680309
 20
4.0061418377
 30
0.0
 10
5.2834628124
 20
4.0068909416
 30
0.0
 10
5.2957331884
 20
4.0081639111
 30
0.0
 10
5.3070521582
 20
4.0095425521
 30
0.0
 10
5.3142608691
 20
4.0105743427
 30
0.0
 10
5.3176919932
 20
4.0111128047
 30
0.0
  0
SPLINE
  5
35F
100
AcDbEntity
  8
0
100
AcDbSpline
 62
7
  6
CONTINUOUS
 70
0
 71
3
 72
11
 73
7
 74
0
 42
0.0000001
 43
0.0000001
 44
0.0000000001
 40
0.0
 40
0.0
 40
0.0
 40
0.0
 40
0.2516411352
 40
0.5026481074
 40
0.7522588302
 40
1.0
 40
1.0
 40
1.0
 40
1.0
 10
5.1183216245
 20
4.027918279
 30
0.0
 10
5.1181110432
 20
4.0282950926
 30
0.0
 10
5.1175920411
 20
4.0289973203
 30
0.0
 10
5.1165774062
 20
4.0298166659
 30
0.0
 10
5.1153928082
 20
4.0303470833
 30
0.0
 10
5.1145383649
 20
4.0304819558
 30
0.0
 10
5.1141135047
 20
4.0304917507
 30
0.0
  0
LINE
  5
360
100
AcDbEntity
  8
0
100
AcDbLine
 62
7
  6
CONTINUOUS
 10
5.3541900296
 20
4.0210745316
 11
5.3552496612
 21
4.0219102776
  0
LINE
  5
361
100
AcDbEntity
  8
0
100
AcDbLine
 62
7
  6
CONTINUOUS
 10
5.3552496612
 20
4.0219102776
 11
5.3560387239
 21
4.0227479958
  0
SPLINE
  5
362
100
AcDbEntity
  8
0
100
AcDbSpline
 62
7
  6
CONTINUOUS
 70
0
 71
3
 72
11
 73
7
 74
0
 42
0.0000001
 43
0.0000001
 44
0.0000000001
 40
0.0
 40
0.0
 40
0.0
 40
0.0
 40
0.2775989893
 40
0.5313644278
 40
0.7690371271
 40
1.0
 40
1.0
 40
1.0
 40
1.0
 10
5.3560387239
 20
4.0227479958
 30
0.0
 10
5.3561792363
 20
4.0229278327
 30
0.0
 10
5.3564269221
 20
4.0232898749
 30
0.0
 10
5.3566964567
 20
4.0238653592
 30
0.0
 10
5.3568426795
 20
4.0244450327
 30
0.0
 10
5.3568557962
 20
4.024833613
 30
0.0
 10
5.356841763
 20
4.0250229744
 30
0.0
  0
SPLINE
  5
363
100
AcDbEntity
  8
0
100
AcDbSpline
 62
7
  6
CONTINUOUS
 70
0
 71
3
 72
11
 73
7
 74
0
 42
0.0000001
 43
0.0000001
 44
0.0000000001
 40
0.0
 40
0.0
 40
0.0
 40
0.0
 40
0.2296889372
 40
0.4665675134
 40
0.7206376576
 40
1.0
 40
1.0
 40
1.0
 40
1.0
 10
4.9398573813
 20
4.025019546
 30
0.0
 10
4.9398430121
 20
4.0248256022
 30
0.0
 10
4.9398576253
 20
4.0244270082
 30
0.0
 10
4.9400136366
 20
4.0238326841
 30
0.0
 10
4.9403009991
 20
4.0232432715
 30
0.0
 10
4.9405639799
 20
4.0228737492
 30
0.0
 10
4.9407129576
 20
4.0226900275
 30
0.0
  0
LINE
  5
364
100
AcDbEntity
  8
0
100
AcDbLine
 62
7
  6
CONTINUOUS
 10
4.9407129576
 20
4.0226900275
 11
4.9415239557
 21
4.0218547139
  0
LINE
  5
365
100
AcDbEntity
  8
0
100
AcDbLine
 62
7
  6
CONTINUOUS
 10
4.9415239557
 20
4.0218547139
 11
4.9426004453
 21
4.0210218259
  0
SPLINE
  5
366
100
AcDbEntity
  8
0
100
AcDbSpline
 62
7
  6
CONTINUOUS
 70
0
 71
3
 72
11
 73
7
 74
0
 42
0.0000001
 43
0.0000001
 44
0.0000000001
 40
0.0
 40
0.0
 40
0.0
 40
0.0
 40
0.2198409884
 40
0.4608114934
 40
0.7214112565
 40
1.0
 40
1.0
 40
1.0
 40
1.0
 10
4.9792858516
 20
4.0110693136
 30
0.0
 10
4.9827273809
 20
4.0105318087
 30
0.0
 10
4.9899564569
 20
4.0095018342
 30
0.0
 10
5.0013043628
 20
4.0081263401
 30
0.0
 10
5.0136006419
 20
4.0068561209
 30
0.0
 10
5.0221113223
 20
4.0061083947
 30
0.0
 10
5.0265109254
 20
4.0057512641
 30
0.0
  0
SPLINE
  5
367
100
AcDbEntity
  8
0
100
AcDbSpline
 62
7
  6
CONTINUOUS
 70
0
 71
3
 72
11
 73
7
 74
0
 42
0.0000001
 43
0.0000001
 44
0.0000000001
 40
0.0
 40
0.0
 40
0.0
 40
0.0
 40
0.2391104101
 40
0.4864448246
 40
0.7406361109
 40
1.0
 40
1.0
 40
1.0
 40
1.0
 10
5.0492777553
 20
4.02650064
 30
0.0
 10
5.0541246433
 20
4.0262055519
 30
0.0
 10
5.0639886336
 20
4.0256617565
 30
0.0
 10
5.0790147475
 20
4.0249903735
 30
0.0
 10
5.0944577701
 20
4.0244520897
 30
0.0
 10
5.1048838454
 20
4.0241860872
 30
0.0
 10
5.1101498543
 20
4.0240754569
 30
0.0
  0
SPLINE
  5
368
100
AcDbEntity
  8
0
100
AcDbSpline
 62
7
  6
CONTINUOUS
 70
0
 71
3
 72
11
 73
7
 74
0
 42
0.0000001
 43
0.0000001
 44
0.0000000001
 40
0.0
 40
0.0
 40
0.0
 40
0.0
 40
0.2636898271
 40
0.5198424909
 40
0.7660436075
 40
1.0
 40
1.0
 40
1.0
 40
1.0
 10
5.1136201812
 20
4.0277314144
 30
0.0
 10
5.1081048051
 20
4.0278565586
 30
0.0
 10
5.0972329732
 20
4.0281642841
 30
0.0
 10
5.0812186934
 20
4.0288077278
 30
0.0
 10
5.0658350688
 20
4.0296220049
 30
0.0
 10
5.0558113776
 20
4.0302921315
 30
0.0
 10
5.0509303304
 20
4.0306578178
 30
0.0
  0
SPLINE
  5
369
100
AcDbEntity
  8
0
100
AcDbSpline
 62
7
  6
CONTINUOUS
 70
0
 71
3
 72
11
 73
7
 74
0
 42
0.0000001
 43
0.0000001
 44
0.0000000001
 40
0.0
 40
0.0
 40
0.0
 40
0.0
 40
0.2339570705
 40
0.4801582838
 40
0.7363103394
 40
1.0
 40
1.0
 40
1.0
 40
1.0
 10
5.052314048
 20
4.0333765734
 30
0.0
 10
5.0571257828
 20
4.0330160799
 30
0.0
 10
5.0670071228
 20
4.0323554872
 30
0.0
 10
5.0821722546
 20
4.0315527803
 30
0.0
 10
5.0979590665
 20
4.0309184696
 30
0.0
 10
5.1086764679
 20
4.0306151156
 30
0.0
 10
5.1141135047
 20
4.0304917507
 30
0.0
  0
LINE
  5
36A
100
AcDbEntity
  8
0
100
AcDbLine
 62
7
  6
CONTINUOUS
 10
5.0482398053
 20
4.0287231988
 11
5.0492972083
 21
4.0284930332
  0
SPLINE
  5
36B
100
AcDbEntity
  8
0
100
AcDbSpline
 62
7
  6
CONTINUOUS
 70
0
 71
3
 72
12
 73
8
 74
0
 42
0.0000001
 43
0.0000001
 44
0.0000000001
 40
0.0
 40
0.0
 40
0.0
 40
0.0
 40
0.2801494782
 40
0.5413649019
 40
0.7819187779
 40
0.8938948442
 40
1.0
 40
1.0
 40
1.0
 40
1.0
 10
5.046788835
 20
4.0086192915
 30
0.0
 10
5.0428375712
 20
4.008933958
 30
0.0
 10
5.0352062361
 20
4.0095961312
 30
0.0
 10
5.0242007176
 20
4.0107290333
 30
0.0
 10
5.0155798535
 20
4.0117779907
 30
0.0
 10
5.0091525732
 20
4.0126727131
 30
0.0
 10
5.0061019348
 20
4.0131365248
 30
0.0
 10
5.0046194134
 20
4.0133729732
 30
0.0
  0
SPLINE
  5
36C
100
AcDbEntity
  8
0
100
AcDbSpline
 62
7
  6
CONTINUOUS
 70
0
 71
3
 72
11
 73
7
 74
0
 42
0.0000001
 43
0.0000001
 44
0.0000000001
 40
0.0
 40
0.0
 40
0.0
 40
0.0
 40
0.2179790393
 40
0.4584377448
 40
0.7197298048
 40
1.0
 40
1.0
 40
1.0
 40
1.0
 10
5.0066661325
 20
4.0160201622
 30
0.0
 10
5.0096687332
 20
4.0155412753
 30
0.0
 10
5.0159984347
 20
4.0146264057
 30
0.0
 10
5.0259647681
 20
4.0134124082
 30
0.0
 10
5.0368163759
 20
4.0122966684
 30
0.0
 10
5.0443427057
 20
4.0116450925
 30
0.0
 10
5.0482398053
 20
4.0113347394
 30
0.0
  0
LINE
  5
36D
100
AcDbEntity
  8
0
100
AcDbLine
 62
7
  6
CONTINUOUS
 10
5.0025500811
 20
4.0364255353
 11
5.0017886202
 21
4.0361963004
  0
SPLINE
  5
36E
100
AcDbEntity
  8
0
100
AcDbSpline
 62
7
  6
CONTINUOUS
 70
0
 71
3
 72
23
 73
19
 74
0
 42
0.0000001
 43
0.0000001
 44
0.0000000001
 40
0.0
 40
0.0
 40
0.0
 40
0.0
 40
0.0846826162
 40
0.1624706596
 40
0.2337468031
 40
0.2990101957
 40
0.3589125067
 40
0.414297262
 40
0.4662340414
 40
0.5160206218
 40
0.5651258404
 40
0.615078604
 40
0.6673334277
 40
0.7231646246
 40
0.7836158487
 40
0.8495079637
 40
0.9214743147
 40
1.0
 40
1.0
 40
1.0
 40
1.0
 10
4.9748925222
 20
4.0214610341
 30
0.0
 10
4.9747001312
 20
4.0215871165
 30
0.0
 10
4.9743373294
 20
4.0218389335
 30
0.0
 10
4.9738400993
 20
4.022234598
 30
0.0
 10
4.9734134676
 20
4.0226317436
 30
0.0
 10
4.973057468
 20
4.0230304231
 30
0.0
 10
4.9727722328
 20
4.0234308048
 30
0.0
 10
4.9725581424
 20
4.0238331025
 30
0.0
 10
4.9724159136
 20
4.0242373939
 30
0.0
 10
4.9723464709
 20
4.02464329
 30
0.0
 10
4.9723505011
 20
4.0250497725
 30
0.0
 10
4.9724279571
 20
4.0254555316
 30
0.0
 10
4.9725780958
 20
4.0258596122
 30
0.0
 10
4.9727999972
 20
4.026261692
 30
0.0
 10
4.9730929817
 20
4.0266618773
 30
0.0
 10
4.9734567119
 20
4.0270603861
 30
0.0
 10
4.9738910462
 20
4.027457356
 30
0.0
 10
4.9742131734
 20
4.0277096505
 30
0.0
 10
4.97438506
 20
4.0278359513
 30
0.0
  0
LINE
  5
36F
100
AcDbEntity
  8
0
100
AcDbLine
 62
7
  6
CONTINUOUS
 10
5.004604851
 20
4.036271705
 11
5.0049821536
 21
4.0363316715
  0
SPLINE
  5
370
100
AcDbEntity
  8
0
100
AcDbSpline
 62
7
  6
CONTINUOUS
 70
0
 71
3
 72
11
 73
7
 74
0
 42
0.0000001
 43
0.0000001
 44
0.0000000001
 40
0.0
 40
0.0
 40
0.0
 40
0.0
 40
0.2188498238
 40
0.459549325
 40
0.7205146194
 40
1.0
 40
1.0
 40
1.0
 40
1.0
 10
5.0049821536
 20
4.0363316715
 30
0.0
 10
5.0079481823
 20
4.0368012327
 30
0.0
 10
5.0141902933
 20
4.0377000614
 30
0.0
 10
5.0240048351
 20
4.0388964162
 30
0.0
 10
5.0346670938
 20
4.0399991344
 30
0.0
 10
5.0420549645
 20
4.0406461974
 30
0.0
 10
5.0458775114
 20
4.0409548008
 30
0.0
  0
SPLINE
  5
371
100
AcDbEntity
  8
0
100
AcDbSpline
 62
7
  6
CONTINUOUS
 70
0
 71
3
 72
12
 73
8
 74
0
 42
0.0000001
 43
0.0000001
 44
0.0000000001
 40
0.0
 40
0.0
 40
0.0
 40
0.0
 40
0.2794048456
 40
0.5402847886
 40
0.781021671
 40
0.8933553619
 40
1.0
 40
1.0
 40
1.0
 40
1.0
 10
5.2508235913
 20
4.0409548535
 30
0.0
 10
5.2546431054
 20
4.0406464919
 30
0.0
 10
5.2620250003
 20
4.0400000557
 30
0.0
 10
5.2726800233
 20
4.0388977001
 30
0.0
 10
5.2810390076
 20
4.0378796175
 30
0.0
 10
5.2872842057
 20
4.0370136341
 30
0.0
 10
5.2902538385
 20
4.0365651081
 30
0.0
 10
5.2916984664
 20
4.036336563
 30
0.0
  0
LINE
  5
372
100
AcDbEntity
  8
0
100
AcDbLine
 62
7
  6
CONTINUOUS
 10
5.2916984664
 20
4.036336563
 11
5.2920818288
 21
4.0362756677
  0
SPLINE
  5
373
100
AcDbEntity
  8
0
100
AcDbSpline
 62
7
  6
CONTINUOUS
 70
0
 71
3
 72
23
 73
19
 74
0
 42
0.0000001
 43
0.0000001
 44
0.0000000001
 40
0.0
 40
0.0
 40
0.0
 40
0.0
 40
0.0785503631
 40
0.1505744013
 40
0.2165350095
 40
0.2770455083
 40
0.3329111783
 40
0.3851698242
 40
0.4351001611
 40
0.4841659887
 40
0.5339090335
 40
0.5858122075
 40
0.6411857609
 40
0.7010998239
 40
0.766383156
 40
0.8376653377
 40
0.9154194366
 40
1.0
 40
1.0
 40
1.0
 40
1.0
 10
5.322308714
 20
4.0278368952
 30
0.0
 10
5.3224807967
 20
4.0277106188
 30
0.0
 10
5.3228034417
 20
4.0274583952
 30
0.0
 10
5.3232388402
 20
4.0270616834
 30
0.0
 10
5.323603886
 20
4.0266634447
 30
0.0
 10
5.3238982771
 20
4.0262635318
 30
0.0
 10
5.3241215075
 20
4.0258616942
 30
0.0
 10
5.3242727436
 20
4.0254578023
 30
0.0
 10
5.3243510259
 20
4.0250521964
 30
0.0
 10
5.3243555645
 20
4.0246458397
 30
0.0
 10
5.3242862781
 20
4.0242400674
 30
0.0
 10
5.3241438434
 20
4.0238359201
 30
0.0
 10
5.3239291761
 20
4.0234338331
 30
0.0
 10
5.3236431679
 20
4.0230337183
 30
0.0
 10
5.3232864334
 20
4.02263531
 30
0.0
 10
5.3228593145
 20
4.0222384257
 30
0.0
 10
5.3223620633
 20
4.0218430028
 30
0.0
 10
5.3219995131
 20
4.0215912047
 30
0.0
 10
5.3218073557
 20
4.021465121
 30
0.0
  0
SPLINE
  5
374
100
AcDbEntity
  8
0
100
AcDbSpline
 62
7
  6
CONTINUOUS
 70
0
 71
3
 72
15
 73
11
 74
0
 42
0.0000001
 43
0.0000001
 44
0.0000000001
 40
0.0
 40
0.0
 40
0.0
 40
0.0
 40
0.165402874
 40
0.3168263275
 40
0.4550612865
 40
0.5811694329
 40
0.6965722329
 40
0.8031485201
 40
0.903317446
 40
1.0
 40
1.0
 40
1.0
 40
1.0
 10
5.3193450959
 20
4.0239968824
 30
0.0
 10
5.3195426737
 20
4.0241265228
 30
0.0
 10
5.3199144276
 20
4.0243853753
 30
0.0
 10
5.3204218069
 20
4.0247928287
 30
0.0
 10
5.3208536074
 20
4.0252018981
 30
0.0
 10
5.3212096065
 20
4.0256126984
 30
0.0
 10
5.3214894421
 20
4.0260254687
 30
0.0
 10
5.321692374
 20
4.0264405881
 30
0.0
 10
5.3218173185
 20
4.0268578598
 30
0.0
 10
5.3218480781
 20
4.0271393487
 30
0.0
 10
5.3218500127
 20
4.0272774664
 30
0.0
  0
LINE
  5
375
100
AcDbEntity
  8
0
100
AcDbLine
 62
7
  6
CONTINUOUS
 10
5.2900546642
 20
4.0334118897
 11
5.2936397946
 21
4.0334709896
  0
SPLINE
  5
376
100
AcDbEntity
  8
0
100
AcDbSpline
 62
7
  6
CONTINUOUS
 70
0
 71
3
 72
11
 73
7
 74
0
 42
0.0000001
 43
0.0000001
 44
0.0000000001
 40
0.0
 40
0.0
 40
0.0
 40
0.0
 40
0.2179504002
 40
0.4584133028
 40
0.7197236722
 40
1.0
 40
1.0
 40
1.0
 40
1.0
 10
5.2920945412
 20
4.0133769325
 30
0.0
 10
5.2890499759
 20
4.0128911417
 30
0.0
 10
5.2826313663
 20
4.0119625317
 30
0.0
 10
5.272524436
 20
4.010730988
 30
0.0
 10
5.2615192546
 20
4.0095989399
 30
0.0
 10
5.2538863614
 20
4.0089374852
 30
0.0
 10
5.2499341581
 20
4.0086226071
 30
0.0
  0
SPLINE
  5
377
100
AcDbEntity
  8
0
100
AcDbSpline
 62
7
  6
CONTINUOUS
 70
0
 71
3
 72
11
 73
7
 74
0
 42
0.0000001
 43
0.0000001
 44
0.0000000001
 40
0.0
 40
0.0
 40
0.0
 40
0.0
 40
0.2802826444
 40
0.5415788217
 40
0.7820333352
 40
1.0
 40
1.0
 40
1.0
 40
1.0
 10
5.2484894966
 20
4.0113370487
 30
0.0
 10
5.2523859821
 20
4.0116474876
 30
0.0
 10
5.259911019
 20
4.012299226
 30
0.0
 10
5.2707605902
 20
4.013415212
 30
0.0
 10
5.2807247063
 20
4.0146294341
 30
0.0
 10
5.2870528645
 20
4.0155444632
 30
0.0
 10
5.2900546642
 20
4.0160234303
 30
0.0
  0
SPLINE
  5
378
100
AcDbEntity
  8
0
100
AcDbSpline
 62
7
  6
CONTINUOUS
 70
0
 71
3
 72
11
 73
7
 74
0
 42
0.0000001
 43
0.0000001
 44
0.0000000001
 40
0.0
 40
0.0
 40
0.0
 40
0.0
 40
0.2339485427
 40
0.480146387
 40
0.7363017855
 40
1.0
 40
1.0
 40
1.0
 40
1.0
 10
5.2457959974
 20
4.0306597707
 30
0.0
 10
5.240915475
 20
4.0302939829
 30
0.0
 10
5.2308927536
 20
4.0296236553
 30
0.0
 10
5.21551043
 20
4.0288090508
 30
0.0
 10
5.1994971495
 20
4.0281653101
 30
0.0
 10
5.1886258712
 20
4.0278574181
 30
0.0
 10
5.1831107184
 20
4.0277321641
 30
0.0
  0
SPLINE
  5
379
100
AcDbEntity
  8
0
100
AcDbSpline
 62
7
  6
CONTINUOUS
 70
0
 71
3
 72
11
 73
7
 74
0
 42
0.0000001
 43
0.0000001
 44
0.0000000001
 40
0.0
 40
0.0
 40
0.0
 40
0.0
 40
0.2636971889
 40
0.5198520216
 40
0.766050586
 40
1.0
 40
1.0
 40
1.0
 40
1.0
 10
5.1826170174
 20
4.0304924365
 30
0.0
 10
5.1880538129
 20
4.030615911
 30
0.0
 10
5.1987706439
 20
4.0309194746
 30
0.0
 10
5.2145564558
 20
4.0315540987
 30
0.0
 10
5.2297203145
 20
4.0323571074
 30
0.0
 10
5.239600709
 20
4.0330179029
 30
0.0
 10
5.2444119274
 20
4.0333784965
 30
0.0
  0
SPLINE
  5
37A
100
AcDbEntity
  8
0
100
AcDbSpline
 62
7
  6
CONTINUOUS
 70
0
 71
3
 72
16
 73
12
 74
0
 42
0.0000001
 43
0.0000001
 44
0.0000000001
 40
0.0
 40
0.0
 40
0.0
 40
0.0
 40
0.1502202045
 40
0.2997866925
 40
0.4439467436
 40
0.512937372
 40
0.5793523533
 40
0.7032138289
 40
0.8141756562
 40
0.9123441642
 40
1.0
 40
1.0
 40
1.0
 40
1.0
 10
5.2444119274
 20
4.0333784965
 30
0.0
 10
5.2444119277
 20
4.0332155417
 30
0.0
 10
5.244430025
 20
4.0328901028
 30
0.0
 10
5.2445071906
 20
4.0324138729
 30
0.0
 10
5.2446138704
 20
4.0320340785
 30
0.0
 10
5.2447228649
 20
4.0317508666
 30
0.0
 10
5.2448411575
 20
4.0314955265
 30
0.0
 10
5.2450097166
 20
4.0312139907
 30
0.0
 10
5.2452473348
 20
4.0309387802
 30
0.0
 10
5.2455091896
 20
4.0307461658
 30
0.0
 10
5.2457023456
 20
4.0306756528
 30
0.0
 10
5.2457960943
 20
4.0306597574
 30
0.0
  0
SPLINE
  5
37B
100
AcDbEntity
  8
0
100
AcDbSpline
 62
7
  6
CONTINUOUS
 70
0
 71
3
 72
18
 73
14
 74
0
 42
0.0000001
 43
0.0000001
 44
0.0000000001
 40
0.0
 40
0.0
 40
0.0
 40
0.0
 40
0.17165443
 40
0.3429226979
 40
0.5058895817
 40
0.654140101
 40
0.7818854892
 40
0.8365472238
 40
0.8843163192
 40
0.9247073306
 40
0.9574724822
 40
0.9825095112
 40
1.0
 40
1.0
 40
1.0
 40
1.0
 10
5.1777616671
 20
4.0254221204
 30
0.0
 10
5.1779294566
 20
4.0254253733
 30
0.0
 10
5.1782647461
 20
4.0254278586
 30
0.0
 10
5.1787593247
 20
4.0254206339
 30
0.0
 10
5.179230738
 20
4.0254024234
 30
0.0
 10
5.1796590274
 20
4.02537432
 30
0.0
 10
5.1799808214
 20
4.0253422949
 30
0.0
 10
5.1802037611
 20
4.0253114886
 30
0.0
 10
5.180341447
 20
4.0252879979
 30
0.0
 10
5.1804570381
 20
4.0252631182
 30
0.0
 10
5.1805496763
 20
4.0252372646
 30
0.0
 10
5.1806183517
 20
4.0252109643
 30
0.0
 10
5.1806549687
 20
4.0251898178
 30
0.0
 10
5.1806674639
 20
4.0251781439
 30
0.0
  0
SPLINE
  5
37C
100
AcDbEntity
  8
0
100
AcDbSpline
 62
7
  6
CONTINUOUS
 70
0
 71
3
 72
11
 73
7
 74
0
 42
0.0000001
 43
0.0000001
 44
0.0000000001
 40
0.0
 40
0.0
 40
0.0
 40
0.0
 40
0.2496965684
 40
0.5001569638
 40
0.7505339016
 40
1.0
 40
1.0
 40
1.0
 40
1.0
 10
5.1150866371
 20
4.0016221992
 30
0.0
 10
5.1147625807
 20
4.0016261078
 30
0.0
 10
5.1141081792
 20
4.0017639945
 30
0.0
 10
5.1132835393
 20
4.0023261283
 30
0.0
 10
5.1127309224
 20
4.0031568484
 30
0.0
 10
5.112600827
 20
4.003812467
 30
0.0
 10
5.112600827
 20
4.0041362478
 30
0.0
  0
SPLINE
  5
37D
100
AcDbEntity
  8
0
100
AcDbSpline
 62
7
  6
CONTINUOUS
 70
0
 71
3
 72
11
 73
7
 74
0
 42
0.0000001
 43
0.0000001
 44
0.0000000001
 40
0.0
 40
0.0
 40
0.0
 40
0.0
 40
0.2495063078
 40
0.4998743669
 40
0.7503158518
 40
1.0
 40
1.0
 40
1.0
 40
1.0
 10
5.1160645262
 20
4.0077852231
 30
0.0
 10
5.1160645262
 20
4.0074613902
 30
0.0
 10
5.1161946623
 20
4.0068057304
 30
0.0
 10
5.1167473238
 20
4.0059750263
 30
0.0
 10
5.1175719358
 20
4.00541295
 30
0.0
 10
5.1182262962
 20
4.0052750829
 30
0.0
 10
5.1185503364
 20
4.0052711744
 30
0.0
  0
SPLINE
  5
37E
100
AcDbEntity
  8
0
100
AcDbSpline
 62
7
  6
CONTINUOUS
 70
0
 71
3
 72
18
 73
14
 74
0
 42
0.0000001
 43
0.0000001
 44
0.0000000001
 40
0.0
 40
0.0
 40
0.0
 40
0.0
 40
0.1727829048
 40
0.3451251422
 40
0.5089211053
 40
0.6576161172
 40
0.7853047598
 40
0.8397286257
 40
0.887115453
 40
0.9269721305
 40
0.9590594338
 40
0.9833118265
 40
1.0
 40
1.0
 40
1.0
 40
1.0
 10
5.1189736293
 20
4.008032983
 30
0.0
 10
5.1188044599
 20
4.0080362591
 30
0.0
 10
5.118466463
 20
4.008038722
 30
0.0
 10
5.1179681067
 20
4.0080312978
 30
0.0
 10
5.1174936316
 20
4.00801272
 30
0.0
 10
5.1170634749
 20
4.0079841206
 30
0.0
 10
5.1167410481
 20
4.007951562
 30
0.0
 10
5.1165184761
 20
4.0079202474
 30
0.0
 10
5.1163817552
 20
4.0078964355
 30
0.0
 10
5.1162676344
 20
4.0078712585
 30
0.0
 10
5.1161769144
 20
4.0078451076
 30
0.0
 10
5.1161106173
 20
4.0078185961
 30
0.0
 10
5.1160757771
 20
4.0077970758
 30
0.0
 10
5.1160645262
 20
4.0077852231
 30
0.0
  0
SPLINE
  5
37F
100
AcDbEntity
  8
0
100
AcDbSpline
 62
7
  6
CONTINUOUS
 70
0
 71
3
 72
17
 73
13
 74
0
 42
0.0000001
 43
0.0000001
 44
0.0000000001
 40
0.0
 40
0.0
 40
0.0
 40
0.0
 40
0.0201212805
 40
0.0466350305
 40
0.0800991061
 40
0.120633702
 40
0.222183831
 40
0.348246597
 40
0.4946541363
 40
0.6562224995
 40
0.8271169166
 40
1.0
 40
1.0
 40
1.0
 40
1.0
 10
5.1185503364
 20
4.0052711744
 30
0.0
 10
5.1185661994
 20
4.0052815829
 30
0.0
 10
5.1185974053
 20
4.0053137583
 30
0.0
 10
5.1186374514
 20
4.0053779687
 30
0.0
 10
5.1186770654
 20
4.005464316
 30
0.0
 10
5.118732612
 20
4.0056203745
 30
0.0
 10
5.1187940031
 20
4.0058661499
 30
0.0
 10
5.1188557992
 20
4.0062134839
 30
0.0
 10
5.1189066327
 20
4.0066197487
 30
0.0
 10
5.1189447709
 20
4.0070697703
 30
0.0
 10
5.1189681293
 20
4.0075457897
 30
0.0
 10
5.1189736293
 20
4.007869967
 30
0.0
 10
5.1189736293
 20
4.008032983
 30
0.0
  0
SPLINE
  5
380
100
AcDbEntity
  8
0
100
AcDbSpline
 62
7
  6
CONTINUOUS
 70
0
 71
3
 72
11
 73
7
 74
0
 42
0.0000001
 43
0.0000001
 44
0.0000000001
 40
0.0
 40
0.0
 40
0.0
 40
0.0
 40
0.2529784972
 40
0.5045742458
 40
0.7537552981
 40
1.0
 40
1.0
 40
1.0
 40
1.0
 10
5.1122717322
 20
4.0227749085
 30
0.0
 10
5.1121645093
 20
4.0229655715
 30
0.0
 10
5.1119006794
 20
4.0233200571
 30
0.0
 10
5.1113869993
 20
4.0237322091
 30
0.0
 10
5.1107912635
 20
4.023999178
 30
0.0
 10
5.1103628121
 20
4.0240691754
 30
0.0
 10
5.110149987
 20
4.0240755968
 30
0.0
  0
SPLINE
  5
381
100
AcDbEntity
  8
0
100
AcDbSpline
 62
7
  6
CONTINUOUS
 70
0
 71
3
 72
18
 73
14
 74
0
 42
0.0000001
 43
0.0000001
 44
0.0000000001
 40
0.0
 40
0.0
 40
0.0
 40
0.0
 40
0.0166937366
 40
0.0409594518
 40
0.0730602184
 40
0.1129224984
 40
0.1603109442
 40
0.2147384467
 40
0.3424281848
 40
0.4911136658
 40
0.6548945188
 40
0.8272217505
 40
1.0
 40
1.0
 40
1.0
 40
1.0
 10
5.1160645262
 20
4.0251736825
 30
0.0
 10
5.1160757808
 20
4.0251855392
 30
0.0
 10
5.116110645
 20
4.025207059
 30
0.0
 10
5.1161769737
 20
4.0252335725
 30
0.0
 10
5.1162677255
 20
4.0252597279
 30
0.0
 10
5.1163818642
 20
4.0252849162
 30
0.0
 10
5.1165185952
 20
4.0253087324
 30
0.0
 10
5.1167411742
 20
4.0253400397
 30
0.0
 10
5.1170635968
 20
4.0253725885
 30
0.0
 10
5.11749373
 20
4.0254011831
 30
0.0
 10
5.1179681658
 20
4.0254197589
 30
0.0
 10
5.1184664875
 20
4.0254271829
 30
0.0
 10
5.1188044646
 20
4.0254247185
 30
0.0
 10
5.1189736293
 20
4.0254214424
 30
0.0
  0
SPLINE
  5
382
100
AcDbEntity
  8
0
100
AcDbSpline
 62
7
  6
CONTINUOUS
 70
0
 71
3
 72
11
 73
7
 74
0
 42
0.0000001
 43
0.0000001
 44
0.0000000001
 40
0.0
 40
0.0
 40
0.0
 40
0.0
 40
0.2454385056
 40
0.4943754555
 40
0.746290355
 40
1.0
 40
1.0
 40
1.0
 40
1.0
 10
5.1136201812
 20
4.0277314144
 30
0.0
 10
5.113832101
 20
4.0277242878
 30
0.0
 10
5.114259013
 20
4.0276530146
 30
0.0
 10
5.1148527889
 20
4.0273847091
 30
0.0
 10
5.1153655351
 20
4.0269712469
 30
0.0
 10
5.1156290175
 20
4.0266158657
 30
0.0
 10
5.115736162
 20
4.0264246534
 30
0.0
  0
SPLINE
  5
383
100
AcDbEntity
  8
0
100
AcDbSpline
 62
7
  6
CONTINUOUS
 70
0
 71
3
 72
17
 73
13
 74
0
 42
0.0000001
 43
0.0000001
 44
0.0000000001
 40
0.0
 40
0.0
 40
0.0
 40
0.0
 40
0.1716179686
 40
0.3413013507
 40
0.5018452625
 40
0.6475384566
 40
0.7733367563
 40
0.8752436313
 40
0.9162858562
 40
0.9505498555
 40
0.9782324621
 40
1.0
 40
1.0
 40
1.0
 40
1.0
 10
5.1141144415
 20
4.0304917294
 30
0.0
 10
5.1141144024
 20
4.0303287188
 30
0.0
 10
5.1141079169
 20
4.0300045089
 30
0.0
 10
5.1140805695
 20
4.0295284991
 30
0.0
 10
5.114035992
 20
4.0290785198
 30
0.0
 10
5.1139765863
 20
4.0286722531
 30
0.0
 10
5.1139043884
 20
4.0283248396
 30
0.0
 10
5.1138326098
 20
4.0280792184
 30
0.0
 10
5.1137678387
 20
4.0279236706
 30
0.0
 10
5.1137214354
 20
4.0278372647
 30
0.0
 10
5.1136743218
 20
4.027772899
 30
0.0
 10
5.1136382263
 20
4.0277415071
 30
0.0
 10
5.1136201812
 20
4.0277314144
 30
0.0
  0
SPLINE
  5
384
100
AcDbEntity
  8
0
100
AcDbSpline
 62
7
  6
CONTINUOUS
 70
0
 71
3
 72
17
 73
13
 74
0
 42
0.0000001
 43
0.0000001
 44
0.0000000001
 40
0.0
 40
0.0
 40
0.0
 40
0.0
 40
0.1728479963
 40
0.3436789988
 40
0.505224415
 40
0.6516453859
 40
0.7777263892
 40
0.8792947602
 40
0.9198413571
 40
0.9533261695
 40
0.9798618564
 40
1.0
 40
1.0
 40
1.0
 40
1.0
 10
5.1777616671
 20
4.0080336609
 30
0.0
 10
5.1777616671
 20
4.0078706703
 30
0.0
 10
5.1777671606
 20
4.0075465704
 30
0.0
 10
5.1777905459
 20
4.0070706442
 30
0.0
 10
5.177828727
 20
4.0066206739
 30
0.0
 10
5.1778796049
 20
4.0062143867
 30
0.0
 10
5.1779414627
 20
4.0058669991
 30
0.0
 10
5.1780029271
 20
4.00562118
 30
0.0
 10
5.1780585668
 20
4.0054650953
 30
0.0
 10
5.1780982375
 20
4.0053787124
 30
0.0
 10
5.1781383366
 20
4.0053144653
 30
0.0
 10
5.1781695812
 20
4.0052822709
 30
0.0
 10
5.1781854641
 20
4.0052718621
 30
0.0
  0
SPLINE
  5
385
100
AcDbEntity
  8
0
100
AcDbSpline
 62
7
  6
CONTINUOUS
 70
0
 71
3
 72
18
 73
14
 74
0
 42
0.0000001
 43
0.0000001
 44
0.0000000001
 40
0.0
 40
0.0
 40
0.0
 40
0.0
 40
0.0174908188
 40
0.0425281308
 40
0.0752935121
 40
0.1156847015
 40
0.1634539216
 40
0.2181157269
 40
0.345861112
 40
0.4941114626
 40
0.657078054
 40
0.8283459542
 40
1.0
 40
1.0
 40
1.0
 40
1.0
 10
5.1806674626
 20
4.0077896857
 30
0.0
 10
5.1806549671
 20
4.0078013596
 30
0.0
 10
5.1806183496
 20
4.0078225064
 30
0.0
 10
5.1805496734
 20
4.007848807
 30
0.0
 10
5.1804570347
 20
4.0078746608
 30
0.0
 10
5.1803414431
 20
4.0078995407
 30
0.0
 10
5.1802037569
 20
4.0079230316
 30
0.0
 10
5.1799808171
 20
4.0079538381
 30
0.0
 10
5.1796590233
 20
4.0079858633
 30
0.0
 10
5.1792307345
 20
4.0080139665
 30
0.0
 10
5.1787593222
 20
4.0080321765
 30
0.0
 10
5.1782647448
 20
4.0080394004
 30
0.0
 10
5.1779294561
 20
4.0080369143
 30
0.0
 10
5.1777616671
 20
4.0080336609
 30
0.0
  0
SPLINE
  5
386
100
AcDbEntity
  8
0
100
AcDbSpline
 62
7
  6
CONTINUOUS
 70
0
 71
3
 72
11
 73
7
 74
0
 42
0.0000001
 43
0.0000001
 44
0.0000000001
 40
0.0
 40
0.0
 40
0.0
 40
0.0
 40
0.2494713443
 40
0.4999160454
 40
0.7504192476
 40
1.0
 40
1.0
 40
1.0
 40
1.0
 10
5.1781854641
 20
4.0052718621
 30
0.0
 10
5.1785091379
 20
4.0052762644
 30
0.0
 10
5.1791628222
 20
4.0054153124
 30
0.0
 10
5.1799860039
 20
4.0059787666
 30
0.0
 10
5.1805375485
 20
4.0068101183
 30
0.0
 10
5.1806674626
 20
4.00746584
 30
0.0
 10
5.1806674626
 20
4.0077896857
 30
0.0
  0
SPLINE
  5
387
100
AcDbEntity
  8
0
100
AcDbSpline
 62
7
  6
CONTINUOUS
 70
0
 71
3
 72
11
 73
7
 74
0
 42
0.0000001
 43
0.0000001
 44
0.0000000001
 40
0.0
 40
0.0
 40
0.0
 40
0.0
 40
0.2496288974
 40
0.5001198901
 40
0.7505408338
 40
1.0
 40
1.0
 40
1.0
 40
1.0
 10
5.1845647577
 20
4.00414863
 30
0.0
 10
5.1845647577
 20
4.0038247219
 30
0.0
 10
5.1844347962
 20
4.003168953
 30
0.0
 10
5.1838832009
 20
4.0023376228
 30
0.0
 10
5.1830600543
 20
4.0017742357
 30
0.0
 10
5.1824064172
 20
4.0016352085
 30
0.0
 10
5.1820827593
 20
4.0016308064
 30
0.0
  0
SPLINE
  5
388
100
AcDbEntity
  8
0
100
AcDbSpline
 62
7
  6
CONTINUOUS
 70
0
 71
3
 72
15
 73
11
 74
0
 42
0.0000001
 43
0.0000001
 44
0.0000000001
 40
0.0
 40
0.0
 40
0.0
 40
0.0
 40
0.1225610068
 40
0.246408838
 40
0.3710890749
 40
0.4965397952
 40
0.6224584837
 40
0.7485121001
 40
0.8745625834
 40
1.0
 40
1.0
 40
1.0
 40
1.0
 10
5.1870145588
 20
4.0240854138
 30
0.0
 10
5.1868552979
 20
4.0240807856
 30
0.0
 10
5.1865352159
 20
4.0240394116
 30
0.0
 10
5.186074898
 20
4.0238857684
 30
0.0
 10
5.1856492992
 20
4.0236444817
 30
0.0
 10
5.1852755286
 20
4.0233248326
 30
0.0
 10
5.1849675886
 20
4.0229390626
 30
0.0
 10
5.1847382051
 20
4.0225009821
 30
0.0
 10
5.1845970451
 20
4.0220279175
 30
0.0
 10
5.1845647692
 20
4.0217001568
 30
0.0
 10
5.1845647577
 20
4.0215370894
 30
0.0
  0
SPLINE
  5
389
100
AcDbEntity
  8
0
100
AcDbSpline
 62
7
  6
CONTINUOUS
 70
0
 71
3
 72
17
 73
13
 74
0
 42
0.0000001
 43
0.0000001
 44
0.0000000001
 40
0.0
 40
0.0
 40
0.0
 40
0.0
 40
0.0217639922
 40
0.0494441488
 40
0.083706473
 40
0.1247475812
 40
0.2266533975
 40
0.3524517273
 40
0.498145845
 40
0.6586915831
 40
0.8283778514
 40
1.0
 40
1.0
 40
1.0
 40
1.0
 10
5.1831107734
 20
4.0277321116
 30
0.0
 10
5.1830927335
 20
4.0277422055
 30
0.0
 10
5.1830566496
 20
4.0277735999
 30
0.0
 10
5.1830095533
 20
4.0278379664
 30
0.0
 10
5.1829631676
 20
4.027924373
 30
0.0
 10
5.1828984228
 20
4.0280799228
 30
0.0
 10
5.1828266805
 20
4.0283255451
 30
0.0
 10
5.1827545327
 20
4.0286729591
 30
0.0
 10
5.1826951886
 20
4.0290792264
 30
0.0
 10
5.1826506867
 20
4.0295292063
 30
0.0
 10
5.1826234305
 20
4.030005217
 30
0.0
 10
5.182617017
 20
4.0303294264
 30
0.0
 10
5.1826170174
 20
4.0304924365
 30
0.0
  0
SPLINE
  5
38A
100
AcDbEntity
  8
0
100
AcDbSpline
 62
7
  6
CONTINUOUS
 70
0
 71
3
 72
15
 73
11
 74
0
 42
0.0000001
 43
0.0000001
 44
0.0000000001
 40
0.0
 40
0.0
 40
0.0
 40
0.0
 40
0.1256954986
 40
0.2520262546
 40
0.3783160732
 40
0.5043857928
 40
0.6298692233
 40
0.7544136735
 40
0.877933263
 40
1.0
 40
1.0
 40
1.0
 40
1.0
 10
5.1806674626
 20
4.0251781451
 30
0.0
 10
5.1806674735
 20
4.0253414609
 30
0.0
 10
5.1806998136
 20
4.0256697416
 30
0.0
 10
5.1808410167
 20
4.0261435642
 30
0.0
 10
5.1810704079
 20
4.0265823162
 30
0.0
 10
5.1813780886
 20
4.0269686361
 30
0.0
 10
5.1817511724
 20
4.0272887579
 30
0.0
 10
5.1821755236
 20
4.0275305338
 30
0.0
 10
5.1826339825
 20
4.0276849325
 30
0.0
 10
5.1829527037
 20
4.0277270529
 30
0.0
 10
5.1831112236
 20
4.0277321238
 30
0.0
  0
LINE
  5
38B
100
AcDbEntity
  8
0
100
AcDbLine
 62
7
  6
CONTINUOUS
 10
5.2484894966
 20
4.0113370487
 11
5.2474325772
 21
4.0111087386
  0
SPLINE
  5
38C
100
AcDbEntity
  8
0
100
AcDbSpline
 62
7
  6
CONTINUOUS
 70
0
 71
3
 72
11
 73
7
 74
0
 42
0.0000001
 43
0.0000001
 44
0.0000000001
 40
0.0
 40
0.0
 40
0.0
 40
0.0
 40
0.2182798374
 40
0.4551804304
 40
0.7151775708
 40
1.0
 40
1.0
 40
1.0
 40
1.0
 10
5.2499324266
 20
4.0086228491
 30
0.0
 10
5.2498526917
 20
4.0086355661
 30
0.0
 10
5.2496897664
 20
4.0086861505
 30
0.0
 10
5.2494610025
 20
4.0088228633
 30
0.0
 10
5.2492461998
 20
4.0090188446
 30
0.0
 10
5.2491212392
 20
4.0091780611
 30
0.0
 10
5.2490617506
 20
4.0092650163
 30
0.0
  0
LINE
  5
38D
100
AcDbEntity
  8
0
100
AcDbLine
 62
7
  6
CONTINUOUS
 10
5.2490617506
 20
4.0092650163
 11
5.2486851409
 21
4.0100569495
  0
LINE
  5
38E
100
AcDbEntity
  8
0
100
AcDbLine
 62
7
  6
CONTINUOUS
 10
5.2486851409
 20
4.0100569495
 11
5.2484894966
 21
4.0113370487
  0
SPLINE
  5
38F
100
AcDbEntity
  8
0
100
AcDbSpline
 62
7
  6
CONTINUOUS
 70
0
 71
3
 72
15
 73
11
 74
0
 42
0.0000001
 43
0.0000001
 44
0.0000000001
 40
0.0
 40
0.0
 40
0.0
 40
0.0
 40
0.1337619071
 40
0.2680136632
 40
0.4003597688
 40
0.5293309187
 40
0.6539169599
 40
0.7737213585
 40
0.8889383982
 40
1.0
 40
1.0
 40
1.0
 40
1.0
 10
5.2900546642
 20
4.0160234303
 30
0.0
 10
5.2900546642
 20
4.0158606728
 30
0.0
 10
5.2900815017
 20
4.0155340501
 30
0.0
 10
5.2901967118
 20
4.0150587105
 30
0.0
 10
5.2903852364
 20
4.0146134751
 30
0.0
 10
5.2906383796
 20
4.0142152642
 30
0.0
 10
5.2909480016
 20
4.0138793557
 30
0.0
 10
5.2913025552
 20
4.0136178193
 30
0.0
 10
5.2916892142
 20
4.0134432672
 30
0.0
 10
5.2919618059
 20
4.0133874857
 30
0.0
 10
5.2920965159
 20
4.0133767578
 30
0.0
  0
LINE
  5
390
100
AcDbEntity
  8
0
100
AcDbLine
 62
7
  6
CONTINUOUS
 10
5.2936397949
 20
4.0160825301
 11
5.2900546642
 21
4.0160234303
  0
SPLINE
  5
391
100
AcDbEntity
  8
0
100
AcDbSpline
 62
7
  6
CONTINUOUS
 70
0
 71
3
 72
15
 73
11
 74
0
 42
0.0000001
 43
0.0000001
 44
0.0000000001
 40
0.0
 40
0.0
 40
0.0
 40
0.0
 40
0.0938476214
 40
0.1963757693
 40
0.3094735806
 40
0.4333942712
 40
0.5670460416
 40
0.7082026889
 40
0.8539082993
 40
1.0
 40
1.0
 40
1.0
 40
1.0
 10
5.2920965159
 20
4.0133767578
 30
0.0
 10
5.2922001037
 20
4.0133916392
 30
0.0
 10
5.2924124766
 20
4.0134586764
 30
0.0
 10
5.2927049946
 20
4.0136477562
 30
0.0
 10
5.2929711011
 20
4.0139207918
 30
0.0
 10
5.2932028947
 20
4.0142652482
 30
0.0
 10
5.293392261
 20
4.0146692127
 30
0.0
 10
5.2935333635
 20
4.0151177767
 30
0.0
 10
5.2936196229
 20
4.0155939443
 30
0.0
 10
5.2936397949
 20
4.0159196204
 30
0.0
 10
5.2936397949
 20
4.0160825301
 30
0.0
  0
LINE
  5
392
100
AcDbEntity
  8
0
100
AcDbLine
 62
7
  6
CONTINUOUS
 10
5.3192354396
 20
4.0138185622
 11
5.319028663
 21
4.0125468392
  0
SPLINE
  5
393
100
AcDbEntity
  8
0
100
AcDbSpline
 62
7
  6
CONTINUOUS
 70
0
 71
3
 72
13
 73
9
 74
0
 42
0.0000001
 43
0.0000001
 44
0.0000000001
 40
0.0
 40
0.0
 40
0.0
 40
0.0
 40
0.1460412998
 40
0.2870488787
 40
0.487328982
 40
0.6728717511
 40
0.8433029042
 40
1.0
 40
1.0
 40
1.0
 40
1.0
 10
5.319028663
 20
4.0125468392
 30
0.0
 10
5.318999636
 20
4.0124618077
 30
0.0
 10
5.3189362435
 20
4.012296738
 30
0.0
 10
5.3188063806
 20
4.0120261748
 30
0.0
 10
5.3186345855
 20
4.0117500375
 30
0.0
 10
5.3184114372
 20
4.0114885354
 30
0.0
 10
5.3181656839
 20
4.0112878267
 30
0.0
 10
5.3179843731
 20
4.0111956356
 30
0.0
 10
5.3178935782
 20
4.0111632278
 30
0.0
  0
LINE
  5
394
100
AcDbEntity
  8
0
100
AcDbLine
 62
7
  6
CONTINUOUS
 10
5.3178935782
 20
4.0111632278
 11
5.3176921606
 21
4.0111127899
  0
LINE
  5
395
100
AcDbEntity
  8
0
100
AcDbLine
 62
7
  6
CONTINUOUS
 10
5.2949289978
 20
4.0361992351
 11
5.2941530142
 21
4.0364363622
  0
SPLINE
  5
396
100
AcDbEntity
  8
0
100
AcDbSpline
 62
7
  6
CONTINUOUS
 70
0
 71
3
 72
15
 73
11
 74
0
 42
0.0000001
 43
0.0000001
 44
0.0000000001
 40
0.0
 40
0.0
 40
0.0
 40
0.0
 40
0.1539010252
 40
0.3066744743
 40
0.4535672328
 40
0.5908466191
 40
0.7153060068
 40
0.8247503624
 40
0.918936567
 40
1.0
 40
1.0
 40
1.0
 40
1.0
 10
5.2936397949
 20
4.0334709896
 30
0.0
 10
5.2936398079
 20
4.0336348923
 30
0.0
 10
5.2936574102
 20
4.0339617299
 30
0.0
 10
5.2937330379
 20
4.0344396666
 30
0.0
 10
5.2938550282
 20
4.0348897488
 30
0.0
 10
5.2940173168
 20
4.0352947252
 30
0.0
 10
5.2942120385
 20
4.0356402983
 30
0.0
 10
5.2944317448
 20
4.0359145791
 30
0.0
 10
5.2946685303
 20
4.0361082014
 30
0.0
 10
5.2948443913
 20
4.0361821206
 30
0.0
 10
5.2949290097
 20
4.0361992342
 30
0.0
  0
SPLINE
  5
397
100
AcDbEntity
  8
0
100
AcDbSpline
 62
7
  6
CONTINUOUS
 70
0
 71
3
 72
9
 73
5
 74
0
 42
0.0000001
 43
0.0000001
 44
0.0000000001
 40
0.0
 40
0.0
 40
0.0
 40
0.0
 40
0.3224613133
 40
1.0
 40
1.0
 40
1.0
 40
1.0
 10
5.3193450959
 20
4.0239968824
 30
0.0
 10
5.3193396788
 20
4.023993328
 30
0.0
 10
5.3193237087
 20
4.0239818589
 30
0.0
 10
5.3193095227
 20
4.0239633071
 30
0.0
 10
5.3193093734
 20
4.0239496943
 30
0.0
  0
SPLINE
  5
398
100
AcDbEntity
  8
0
100
AcDbSpline
 62
7
  6
CONTINUOUS
 70
0
 71
3
 72
11
 73
7
 74
0
 42
0.0000001
 43
0.0000001
 44
0.0000000001
 40
0.0
 40
0.0
 40
0.0
 40
0.0
 40
0.2480796433
 40
0.4981125872
 40
0.748810429
 40
1.0
 40
1.0
 40
1.0
 40
1.0
 10
5.321809
 20
4.0214651012
 30
0.0
 10
5.3216219119
 20
4.0214687243
 30
0.0
 10
5.3212458414
 20
4.0215200546
 30
0.0
 10
5.3207130832
 20
4.0217212651
 30
0.0
 10
5.3202373908
 20
4.0220386306
 30
0.0
 10
5.3199743378
 20
4.0223159979
 30
0.0
 10
5.3198601036
 20
4.0224671568
 30
0.0
  0
SPLINE
  5
399
100
AcDbEntity
  8
0
100
AcDbSpline
 62
7
  6
CONTINUOUS
 70
0
 71
3
 72
10
 73
6
 74
0
 42
0.0000001
 43
0.0000001
 44
0.0000000001
 40
0.0
 40
0.0
 40
0.0
 40
0.0
 40
0.2508674781
 40
0.501895163
 40
1.0
 40
1.0
 40
1.0
 40
1.0
 10
5.3198601036
 20
4.0224671568
 30
0.0
 10
5.3197775161
 20
4.0225764396
 30
0.0
 10
5.3196294585
 20
4.0228088668
 30
0.0
 10
5.3194135877
 20
4.0233120332
 30
0.0
 10
5.3193450959
 20
4.0237249051
 30
0.0
 10
5.3193450959
 20
4.0239968824
 30
0.0
  0
SPLINE
  5
39A
100
AcDbEntity
  8
0
100
AcDbSpline
 62
7
  6
CONTINUOUS
 70
0
 71
3
 72
17
 73
13
 74
0
 42
0.0000001
 43
0.0000001
 44
0.0000000001
 40
0.0
 40
0.0
 40
0.0
 40
0.0
 40
0.3833772287
 40
0.5532808083
 40
0.7008484482
 40
0.7648601367
 40
0.8216675644
 40
0.8709227163
 40
0.9123377412
 40
0.9456907305
 40
0.9709309861
 40
1.0
 40
1.0
 40
1.0
 40
1.0
 10
5.3215034268
 20
4.0309513039
 30
0.0
 10
5.3212164046
 20
4.0309474001
 30
0.0
 10
5.3208021659
 20
4.0309339794
 30
0.0
 10
5.320278683
 20
4.0308967743
 30
0.0
 10
5.3199944813
 20
4.0308675432
 30
0.0
 10
5.3197953738
 20
4.0308401109
 30
0.0
 10
5.319669782
 20
4.0308192152
 30
0.0
 10
5.3195614283
 20
4.030797102
 30
0.0
 10
5.3194717302
 20
4.0307744481
 30
0.0
 10
5.3193996108
 20
4.0307502672
 30
0.0
 10
5.3193424409
 20
4.0307246549
 30
0.0
 10
5.3193033618
 20
4.030693286
 30
0.0
 10
5.3193032543
 20
4.0306715213
 30
0.0
  0
SPLINE
  5
39B
100
AcDbEntity
  8
0
100
AcDbSpline
 62
7
  6
CONTINUOUS
 70
0
 71
3
 72
18
 73
14
 74
0
 42
0.0000001
 43
0.0000001
 44
0.0000000001
 40
0.0
 40
0.0
 40
0.0
 40
0.0
 40
0.0175198895
 40
0.042308931
 40
0.0746421463
 40
0.1144734941
 40
0.1616017614
 40
0.2155943242
 40
0.3421116479
 40
0.4896070728
 40
0.6526668051
 40
0.8252801274
 40
1.0
 40
1.0
 40
1.0
 40
1.0
 10
5.3218028991
 20
4.0281874556
 30
0.0
 10
5.3217909563
 20
4.0281986133
 30
0.0
 10
5.3217687535
 20
4.0282321256
 30
0.0
 10
5.321740836
 20
4.0282958684
 30
0.0
 10
5.3217130179
 20
4.0283821204
 30
0.0
 10
5.3216858567
 20
4.0284900627
 30
0.0
 10
5.3216597327
 20
4.0286189791
 30
0.0
 10
5.3216247233
 20
4.028828458
 30
0.0
 10
5.3215867425
 20
4.0291322024
 30
0.0
 10
5.3215507699
 20
4.0295384026
 30
0.0
 10
5.3215238277
 20
4.0299883917
 30
0.0
 10
5.3215073059
 20
4.0304642808
 30
0.0
 10
5.3215034268
 20
4.0307883115
 30
0.0
 10
5.3215034268
 20
4.0309513039
 30
0.0
  0
LINE
  5
39C
100
AcDbEntity
  8
0
100
AcDbLine
 62
7
  6
CONTINUOUS
 10
4.9751572952
 20
4.030947733
 11
4.9748913106
 21
4.028183455
  0
SPLINE
  5
39D
100
AcDbEntity
  8
0
100
AcDbSpline
 62
7
  6
CONTINUOUS
 70
0
 71
3
 72
12
 73
8
 74
0
 42
0.0000001
 43
0.0000001
 44
0.0000000001
 40
0.0
 40
0.0
 40
0.0
 40
0.0
 40
0.2510635767
 40
0.3766219326
 40
0.5020421895
 40
0.7520125195
 40
1.0
 40
1.0
 40
1.0
 40
1.0
 10
4.9768620092
 20
4.0224843271
 30
0.0
 10
4.9767480612
 20
4.0223302443
 30
0.0
 10
4.9765499689
 20
4.0221174544
 30
0.0
 10
4.9762445772
 20
4.0218850067
 30
0.0
 10
4.9759155912
 20
4.0216885844
 30
0.0
 10
4.975467046
 20
4.0215172952
 30
0.0
 10
4.9750866673
 20
4.0214647702
 30
0.0
 10
4.9748974114
 20
4.0214611006
 30
0.0
  0
LINE
  5
39E
100
AcDbEntity
  8
0
100
AcDbLine
 62
7
  6
CONTINUOUS
 10
5.0030549261
 20
4.0334653093
 11
5.0066661325
 21
4.0334086217
  0
SPLINE
  5
39F
100
AcDbEntity
  8
0
100
AcDbSpline
 62
7
  6
CONTINUOUS
 70
0
 71
3
 72
15
 73
11
 74
0
 42
0.0000001
 43
0.0000001
 44
0.0000000001
 40
0.0
 40
0.0
 40
0.0
 40
0.0
 40
0.0799419688
 40
0.1733018269
 40
0.2822809178
 40
0.4066552752
 40
0.544209722
 40
0.6916810288
 40
0.8452366557
 40
1.0
 40
1.0
 40
1.0
 40
1.0
 10
5.0017883667
 20
4.0361963481
 30
0.0
 10
5.0018714299
 20
4.0361790565
 30
0.0
 10
5.0020441815
 20
4.0361047201
 30
0.0
 10
5.0022762764
 20
4.0359111489
 30
0.0
 10
5.0024918592
 20
4.0356370493
 30
0.0
 10
5.0026831928
 20
4.0352915212
 30
0.0
 10
5.0028428752
 20
4.0348862777
 30
0.0
 10
5.0029630228
 20
4.0344355925
 30
0.0
 10
5.0030375631
 20
4.033956807
 30
0.0
 10
5.0030549117
 20
4.0336293557
 30
0.0
 10
5.003054919
 20
4.0334651026
 30
0.0
  0
LINE
  5
3A0
100
AcDbEntity
  8
0
100
AcDbLine
 62
7
  6
CONTINUOUS
 10
4.9777162725
 20
4.0311671834
 11
4.9776000966
 21
4.0321868904
  0
LINE
  5
3A1
100
AcDbEntity
  8
0
100
AcDbLine
 62
7
  6
CONTINUOUS
 10
4.977716198
 20
4.0137727204
 11
4.9767859154
 21
4.0135533792
  0
SPLINE
  5
3A2
100
AcDbEntity
  8
0
100
AcDbSpline
 62
7
  6
CONTINUOUS
 70
0
 71
3
 72
11
 73
7
 74
0
 42
0.0000001
 43
0.0000001
 44
0.0000000001
 40
0.0
 40
0.0
 40
0.0
 40
0.0
 40
0.223204644
 40
0.4622211913
 40
0.7206364856
 40
1.0
 40
1.0
 40
1.0
 40
1.0
 10
4.9792858517
 20
4.0110693136
 30
0.0
 10
4.9791982305
 20
4.0110815576
 30
0.0
 10
4.9790196834
 20
4.0111314366
 30
0.0
 10
4.9787672776
 20
4.0112694214
 30
0.0
 10
4.978530327
 20
4.0114687399
 30
0.0
 10
4.9783920095
 20
4.0116322233
 30
0.0
 10
4.9783264607
 20
4.0117214703
 30
0.0
  0
LINE
  5
3A3
100
AcDbEntity
  8
0
100
AcDbLine
 62
7
  6
CONTINUOUS
 10
4.9783264607
 20
4.0117214703
 11
4.9779221597
 21
4.0125139528
  0
LINE
  5
3A4
100
AcDbEntity
  8
0
100
AcDbLine
 62
7
  6
CONTINUOUS
 10
4.9779221597
 20
4.0125139528
 11
4.977716198
 21
4.0137727204
  0
SPLINE
  5
3A5
100
AcDbEntity
  8
0
100
AcDbSpline
 62
7
  6
CONTINUOUS
 70
0
 71
3
 72
15
 73
11
 74
0
 42
0.0000001
 43
0.0000001
 44
0.0000000001
 40
0.0
 40
0.0
 40
0.0
 40
0.0
 40
0.1454335111
 40
0.2905449882
 40
0.4312129235
 40
0.5645715002
 40
0.6884920972
 40
0.8019339071
 40
0.9051631424
 40
1.0
 40
1.0
 40
1.0
 40
1.0
 10
5.0030549222
 20
4.0160768496
 30
0.0
 10
5.0030549222
 20
4.015913923
 30
0.0
 10
5.0030754847
 20
4.0155881355
 30
0.0
 10
5.0031632565
 20
4.0151119185
 30
0.0
 10
5.0033068417
 20
4.014663435
 30
0.0
 10
5.0034995891
 20
4.014259716
 30
0.0
 10
5.003735476
 20
4.0139156097
 30
0.0
 10
5.0040062663
 20
4.013643038
 30
0.0
 10
5.0043038084
 20
4.0134546024
 30
0.0
 10
5.0045193543
 20
4.0133881462
 30
0.0
 10
5.0046245759
 20
4.0133734427
 30
0.0
  0
LINE
  5
3A6
100
AcDbEntity
  8
0
100
AcDbLine
 62
7
  6
CONTINUOUS
 10
5.0066661325
 20
4.0160201622
 11
5.0030549222
 21
4.0160768496
  0
SPLINE
  5
3A7
100
AcDbEntity
  8
0
100
AcDbSpline
 62
7
  6
CONTINUOUS
 70
0
 71
3
 72
14
 73
10
 74
0
 42
0.0000001
 43
0.0000001
 44
0.0000000001
 40
0.0
 40
0.0
 40
0.0
 40
0.0
 40
0.1111361815
 40
0.2264150865
 40
0.3463110464
 40
0.4710071951
 40
0.7316617811
 40
0.8660871881
 40
1.0
 40
1.0
 40
1.0
 40
1.0
 10
5.0046245759
 20
4.0133734427
 30
0.0
 10
5.0047592454
 20
4.013384172
 30
0.0
 10
5.0050317523
 20
4.0134398852
 30
0.0
 10
5.0054182566
 20
4.0136144161
 30
0.0
 10
5.0057727689
 20
4.0138760027
 30
0.0
 10
5.0061910323
 20
4.0143296153
 30
0.0
 10
5.0064874811
 20
4.0149039823
 30
0.0
 10
5.006639179
 20
4.0155305279
 30
0.0
 10
5.0066661325
 20
4.015857379
 30
0.0
 10
5.0066661325
 20
4.0160201622
 30
0.0
  0
LINE
  5
3A8
100
AcDbEntity
  8
0
100
AcDbLine
 62
7
  6
CONTINUOUS
 10
5.0482398053
 20
4.0113347394
 11
5.0480525596
 21
4.0100810425
  0
SPLINE
  5
3A9
100
AcDbEntity
  8
0
100
AcDbSpline
 62
7
  6
CONTINUOUS
 70
0
 71
3
 72
11
 73
7
 74
0
 42
0.0000001
 43
0.0000001
 44
0.0000000001
 40
0.0
 40
0.0
 40
0.0
 40
0.0
 40
0.2919946142
 40
0.5579705467
 40
0.7936550452
 40
1.0
 40
1.0
 40
1.0
 40
1.0
 10
5.0480525596
 20
4.0100810425
 30
0.0
 10
5.0479996906
 20
4.0099119383
 30
0.0
 10
5.047876162
 20
4.0095950507
 30
0.0
 10
5.0476275979
 20
4.0091794788
 30
0.0
 10
5.0473344758
 20
4.0088604946
 30
0.0
 10
5.0471016849
 20
4.0087169912
 30
0.0
 10
5.0469849176
 20
4.008671804
 30
0.0
  0
LINE
  5
3AA
100
AcDbEntity
  8
0
100
AcDbLine
 62
7
  6
CONTINUOUS
 10
5.0469849176
 20
4.008671804
 11
5.0467972931
 21
4.0086205065
  0
LINE
  5
3AB
100
AcDbEntity
  8
0
100
AcDbLine
 62
7
  6
CONTINUOUS
 10
5.0509302501
 20
4.0306578064
 11
5.0511108494
 21
4.0307099404
  0
SPLINE
  5
3AC
100
AcDbEntity
  8
0
100
AcDbSpline
 62
7
  6
CONTINUOUS
 70
0
 71
3
 72
15
 73
11
 74
0
 42
0.0000001
 43
0.0000001
 44
0.0000000001
 40
0.0
 40
0.0
 40
0.0
 40
0.0
 40
0.0912852617
 40
0.1933785455
 40
0.3071626746
 40
0.4320573993
 40
0.5664982488
 40
0.7081255221
 40
0.853961894
 40
1.0
 40
1.0
 40
1.0
 40
1.0
 10
5.0511108494
 20
4.0307099404
 30
0.0
 10
5.0511972711
 20
4.0307451542
 30
0.0
 10
5.0513697969
 20
4.0308468133
 30
0.0
 10
5.0515985337
 20
4.0310647978
 30
0.0
 10
5.0518044889
 20
4.0313476827
 30
0.0
 10
5.0519823228
 20
4.0316863928
 30
0.0
 10
5.0521267813
 20
4.0320709762
 30
0.0
 10
5.0522336533
 20
4.0324896745
 30
0.0
 10
5.0522988025
 20
4.0329287201
 30
0.0
 10
5.0523140476
 20
4.0332272793
 30
0.0
 10
5.052314048
 20
4.0333765734
 30
0.0
  0
SPLINE
  5
3AD
100
AcDbEntity
  8
0
100
AcDbSpline
 62
7
  6
CONTINUOUS
 70
0
 71
3
 72
10
 73
6
 74
0
 42
0.0000001
 43
0.0000001
 44
0.0000000001
 40
0.0
 40
0.0
 40
0.0
 40
0.0
 40
0.1975616346
 40
0.5443114916
 40
1.0
 40
1.0
 40
1.0
 40
1.0
 10
4.9773970562
 20
4.0239451663
 30
0.0
 10
4.9773970764
 20
4.0239492418
 30
0.0
 10
4.9773948567
 20
4.0239605552
 30
0.0
 10
4.97738236
 20
4.0239777142
 30
0.0
 10
4.9773690914
 20
4.0239877859
 30
0.0
 10
4.9773612288
 20
4.0239929386
 30
0.0
  0
LINE
  5
3AE
100
AcDbEntity
  8
0
100
AcDbLine
 62
7
  6
CONTINUOUS
 10
5.0492972083
 20
4.0111045722
 11
5.0482398053
 21
4.0113347394
  0
SPLINE
  5
3AF
100
AcDbEntity
  8
0
100
AcDbSpline
 62
7
  6
CONTINUOUS
 70
0
 71
3
 72
15
 73
11
 74
0
 42
0.0000001
 43
0.0000001
 44
0.0000000001
 40
0.0
 40
0.0
 40
0.0
 40
0.0
 40
0.0966391912
 40
0.1967707679
 40
0.3033207778
 40
0.4187118129
 40
0.5448244399
 40
0.6830807374
 40
0.8345423861
 40
1.0
 40
1.0
 40
1.0
 40
1.0
 10
4.974850297
 20
4.0272775226
 30
0.0
 10
4.9748522305
 20
4.0271392336
 30
0.0
 10
4.9748830565
 20
4.026857383
 30
0.0
 10
4.9750082981
 20
4.0264395881
 30
0.0
 10
4.9752117182
 20
4.0260239561
 30
0.0
 10
4.9754922292
 20
4.0256106824
 30
0.0
 10
4.9758490881
 20
4.0251993849
 30
0.0
 10
4.9762819323
 20
4.024789823
 30
0.0
 10
4.9767905388
 20
4.0243818813
 30
0.0
 10
4.9771631787
 20
4.0241227297
 30
0.0
 10
4.9773612288
 20
4.0239929386
 30
0.0
  0
SPLINE
  5
3B0
100
AcDbEntity
  8
0
100
AcDbSpline
 62
7
  6
CONTINUOUS
 70
0
 71
3
 72
19
 73
15
 74
0
 42
0.0000001
 43
0.0000001
 44
0.0000000001
 40
0.0
 40
0.0
 40
0.0
 40
0.0
 40
0.0399585063
 40
0.0839816001
 40
0.1319018443
 40
0.1835221384
 40
0.2386351106
 40
0.2970072356
 40
0.3583942434
 40
0.4225367782
 40
0.5579832468
 40
0.7010198276
 40
0.8492238108
 40
1.0
 40
1.0
 40
1.0
 40
1.0
 10
5.2615849146
 20
4.0399824819
 30
0.0
 10
5.2601009453
 20
4.0396858773
 30
0.0
 10
5.2569723694
 20
4.0391105805
 30
0.0
 10
5.2520388754
 20
4.0383241918
 30
0.0
 10
5.2466532623
 20
4.0375755218
 30
0.0
 10
5.2408388603
 20
4.0368677221
 30
0.0
 10
5.2346210193
 20
4.0362043824
 30
0.0
 10
5.2280267657
 20
4.0355882249
 30
0.0
 10
5.2210848764
 20
4.0350221682
 30
0.0
 10
5.2112255788
 20
4.0343249487
 30
0.0
 10
5.1982687437
 20
4.0336045564
 30
0.0
 10
5.1821202659
 20
4.0329859863
 30
0.0
 10
5.1653836468
 20
4.0326104454
 30
0.0
 10
5.1540603967
 20
4.0325266522
 30
0.0
 10
5.1483501553
 20
4.0325266522
 30
0.0
  0
SPLINE
  5
3B1
100
AcDbEntity
  8
0
100
AcDbSpline
 62
7
  6
CONTINUOUS
 70
0
 71
3
 72
19
 73
15
 74
0
 42
0.0000001
 43
0.0000001
 44
0.0000000001
 40
0.0
 40
0.0
 40
0.0
 40
0.0
 40
0.150776335
 40
0.2989804482
 40
0.4420171291
 40
0.5774636535
 40
0.6416061957
 40
0.7029931953
 40
0.7613652955
 40
0.816478225
 40
0.8680984577
 40
0.9160186211
 40
0.9600416142
 40
1.0
 40
1.0
 40
1.0
 40
1.0
 10
5.1483501553
 20
4.0325266522
 30
0.0
 10
5.1426398998
 20
4.0325266522
 30
0.0
 10
5.1313166221
 20
4.0326104458
 30
0.0
 10
5.1145799635
 20
4.0329859885
 30
0.0
 10
5.0984314507
 20
4.0336045616
 30
0.0
 10
5.0854745899
 20
4.0343249574
 30
0.0
 10
5.0756152756
 20
4.0350221802
 30
0.0
 10
5.0686733769
 20
4.0355882395
 30
0.0
 10
5.0620791164
 20
4.0362043998
 30
0.0
 10
5.0558612712
 20
4.0368677425
 30
0.0
 10
5.0500468677
 20
4.0375755452
 30
0.0
 10
5.044661256
 20
4.0383242183
 30
0.0
 10
5.0397277665
 20
4.0391106103
 30
0.0
 10
5.0365991947
 20
4.0396859096
 30
0.0
 10
5.0351152279
 20
4.0399825155
 30
0.0
  0
SPLINE
  5
3B2
100
AcDbEntity
  8
0
100
AcDbSpline
 62
7
  6
CONTINUOUS
 70
0
 71
3
 72
19
 73
15
 74
0
 42
0.0000001
 43
0.0000001
 44
0.0000000001
 40
0.0
 40
0.0
 40
0.0
 40
0.0
 40
0.0405993254
 40
0.0851557107
 40
0.1335033541
 40
0.1854496363
 40
0.2407872304
 40
0.2992916981
 40
0.3607209134
 40
0.4248240517
 40
0.5599737105
 40
0.7024827974
 40
0.8499923557
 40
1.0
 40
1.0
 40
1.0
 40
1.0
 10
5.0282487176
 20
4.0392928394
 30
0.0
 10
5.0298496554
 20
4.0389831076
 30
0.0
 10
5.0332170858
 20
4.0383822517
 30
0.0
 10
5.0385159813
 20
4.0375597717
 30
0.0
 10
5.0442811767
 20
4.0367772832
 30
0.0
 10
5.0504883084
 20
4.0360380473
 30
0.0
 10
5.0571110924
 20
4.0353454781
 30
0.0
 10
5.0641214148
 20
4.0347026333
 30
0.0
 10
5.0714895702
 20
4.0341121888
 30
0.0
 10
5.0819344829
 20
4.0333857083
 30
0.0
 10
5.0956412483
 20
4.0326350273
 30
0.0
 10
5.1127061886
 20
4.0319905627
 30
0.0
 10
5.1303756558
 20
4.0315993823
 30
0.0
 10
5.1423252739
 20
4.0315121295
 30
0.0
 10
5.1483501553
 20
4.0315121295
 30
0.0
  0
SPLINE
  5
3B3
100
AcDbEntity
  8
0
100
AcDbSpline
 62
7
  6
CONTINUOUS
 70
0
 71
3
 72
19
 73
15
 74
0
 42
0.0000001
 43
0.0000001
 44
0.0000000001
 40
0.0
 40
0.0
 40
0.0
 40
0.0
 40
0.1500077267
 40
0.2975173613
 40
0.4400264999
 40
0.5751761863
 40
0.6392793275
 40
0.7007085376
 40
0.7592129909
 40
0.8145505615
 40
0.8664968098
 40
0.9148444094
 40
0.9594007399
 40
1.0
 40
1.0
 40
1.0
 40
1.0
 10
5.1483501553
 20
4.0315121295
 30
0.0
 10
5.1543750451
 20
4.0315121295
 30
0.0
 10
5.1663246797
 20
4.0315993826
 30
0.0
 10
5.1839941704
 20
4.031990564
 30
0.0
 10
5.2010591314
 20
4.0326350304
 30
0.0
 10
5.2147659117
 20
4.0333857134
 30
0.0
 10
5.2252108342
 20
4.0341121958
 30
0.0
 10
5.2325789951
 20
4.0347026418
 30
0.0
 10
5.2395893216
 20
4.0353454882
 30
0.0
 10
5.2462121083
 20
4.0360380591
 30
0.0
 10
5.252419241
 20
4.0367772968
 30
0.0
 10
5.2581844358
 20
4.0375597871
 30
0.0
 10
5.263483329
 20
4.038382269
 30
0.0
 10
5.2668507571
 20
4.0389831263
 30
0.0
 10
5.2684516936
 20
4.0392928588
 30
0.0
  0
SPLINE
  5
3B4
100
AcDbEntity
  8
0
100
AcDbSpline
 62
7
  6
CONTINUOUS
 70
0
 71
3
 72
11
 73
7
 74
0
 42
0.0000001
 43
0.0000001
 44
0.0000000001
 40
0.0
 40
0.0
 40
0.0
 40
0.0
 40
0.2408368497
 40
0.4906197236
 40
0.7453747622
 40
1.0
 40
1.0
 40
1.0
 40
1.0
 10
5.2906105769
 20
4.0364550632
 30
0.0
 10
5.2905190353
 20
4.0362227759
 30
0.0
 10
5.2903579788
 20
4.0357392575
 30
0.0
 10
5.2901845836
 20
4.034985144
 30
0.0
 10
5.2900790832
 20
4.0342041959
 30
0.0
 10
5.2900546934
 20
4.0336758584
 30
0.0
 10
5.2900546642
 20
4.0334118897
 30
0.0
  0
SPLINE
  5
3B5
100
AcDbEntity
  8
0
100
AcDbSpline
 62
7
  6
CONTINUOUS
 70
0
 71
3
 72
10
 73
6
 74
0
 42
0.0000001
 43
0.0000001
 44
0.0000000001
 40
0.0
 40
0.0
 40
0.0
 40
0.0
 40
0.2578138976
 40
0.511969009
 40
1.0
 40
1.0
 40
1.0
 40
1.0
 10
5.2484894966
 20
4.0287255081
 30
0.0
 10
5.2484894989
 20
4.0289758842
 30
0.0
 10
5.2484584807
 20
4.0294738472
 30
0.0
 10
5.248277395
 20
4.0304292831
 30
0.0
 10
5.2480023622
 20
4.0311092173
 30
0.0
 10
5.2477593126
 20
4.0315161043
 30
0.0
  0
SPLINE
  5
3B6
100
AcDbEntity
  8
0
100
AcDbSpline
 62
7
  6
CONTINUOUS
 70
0
 71
3
 72
14
 73
10
 74
0
 42
0.0000001
 43
0.0000001
 44
0.0000000001
 40
0.0
 40
0.0
 40
0.0
 40
0.0
 40
0.2612542029
 40
0.3877532642
 40
0.5118889172
 40
0.6343921724
 40
0.756123856
 40
0.8778239192
 40
1.0
 40
1.0
 40
1.0
 40
1.0
 10
5.2477593126
 20
4.0315161043
 30
0.0
 10
5.2475791049
 20
4.0318177881
 30
0.0
 10
5.2472574581
 20
4.0322374211
 30
0.0
 10
5.2467381607
 20
4.0326919721
 30
0.0
 10
5.2463170758
 20
4.0329682797
 30
0.0
 10
5.2458668944
 20
4.0331793361
 30
0.0
 10
5.2453935899
 20
4.0333209927
 30
0.0
 10
5.244905203
 20
4.0333914639
 30
0.0
 10
5.2445758072
 20
4.0333907463
 30
0.0
 10
5.2444119274
 20
4.0333784965
 30
0.0
  0
SPLINE
  5
3B7
100
AcDbEntity
  8
0
100
AcDbSpline
 62
7
  6
CONTINUOUS
 70
0
 71
3
 72
15
 73
11
 74
0
 42
0.0000001
 43
0.0000001
 44
0.0000000001
 40
0.0
 40
0.0
 40
0.0
 40
0.0
 40
0.1234786406
 40
0.2479015144
 40
0.3728178764
 40
0.498205282
 40
0.6238280754
 40
0.7494461138
 40
0.8750180289
 40
1.0
 40
1.0
 40
1.0
 40
1.0
 10
5.1826170174
 20
4.0304924365
 30
0.0
 10
5.1822979785
 20
4.0304851404
 30
0.0
 10
5.1816572368
 20
4.0304049299
 30
0.0
 10
5.1807376967
 20
4.0300977603
 30
0.0
 10
5.1798915217
 20
4.029613852
 30
0.0
 10
5.1791526964
 20
4.0289737443
 30
0.0
 10
5.178547594
 20
4.0282038121
 30
0.0
 10
5.1780992034
 20
4.0273325686
 30
0.0
 10
5.1778243866
 20
4.0263942536
 30
0.0
 10
5.1777616935
 20
4.0257451279
 30
0.0
 10
5.1777616671
 20
4.0254221204
 30
0.0
  0
SPLINE
  5
3B8
100
AcDbEntity
  8
0
100
AcDbSpline
 62
7
  6
CONTINUOUS
 70
0
 71
3
 72
19
 73
15
 74
0
 42
0.0000001
 43
0.0000001
 44
0.0000000001
 40
0.0
 40
0.0
 40
0.0
 40
0.0
 40
0.0122072089
 40
0.0202228143
 40
0.0299633184
 40
0.0552401352
 40
0.0886602565
 40
0.130162071
 40
0.1795121531
 40
0.2364119798
 40
0.3005070488
 40
0.4481606929
 40
0.6179098752
 40
1.0
 40
1.0
 40
1.0
 40
1.0
 10
4.9773909381
 20
4.0306676025
 30
0.0
 10
4.977390864
 20
4.0306768867
 30
0.0
 10
4.97738328
 20
4.0306919429
 30
0.0
 10
4.977366681
 20
4.0307074096
 30
0.0
 10
4.9773395328
 20
4.030725997
 30
0.0
 10
4.9772918697
 20
4.0307475089
 30
0.0
 10
4.9772194043
 20
4.0307712598
 30
0.0
 10
4.9771276717
 20
4.030794307
 30
0.0
 10
4.9770174804
 20
4.0308164813
 30
0.0
 10
4.9768896158
 20
4.0308375134
 30
0.0
 10
4.9766871313
 20
4.0308650285
 30
0.0
 10
4.9763983694
 20
4.0308942632
 30
0.0
 10
4.9758675926
 20
4.0309312208
 30
0.0
 10
4.9754478811
 20
4.030944228
 30
0.0
 10
4.9751572952
 20
4.030947733
 30
0.0
  0
SPLINE
  5
3B9
100
AcDbEntity
  8
0
100
AcDbSpline
 62
7
  6
CONTINUOUS
 70
0
 71
3
 72
14
 73
10
 74
0
 42
0.0000001
 43
0.0000001
 44
0.0000000001
 40
0.0
 40
0.0
 40
0.0
 40
0.0
 40
0.1221670981
 40
0.2438584614
 40
0.3655843801
 40
0.4880881315
 40
0.6122293885
 40
0.7387357227
 40
1.0
 40
1.0
 40
1.0
 40
1.0
 10
5.052314048
 20
4.0333765734
 30
0.0
 10
5.0521502119
 20
4.0333888171
 30
0.0
 10
5.0518208993
 20
4.0333894848
 30
0.0
 10
5.0513326607
 20
4.033318841
 30
0.0
 10
5.050859549
 20
4.0331769266
 30
0.0
 10
5.0504096066
 20
4.0329655829
 30
0.0
 10
5.0499888069
 20
4.0326889847
 30
0.0
 10
5.0494699599
 20
4.0322340756
 30
0.0
 10
5.0491486856
 20
4.0318142665
 30
0.0
 10
5.0489687084
 20
4.031512509
 30
0.0
  0
SPLINE
  5
3BA
100
AcDbEntity
  8
0
100
AcDbSpline
 62
7
  6
CONTINUOUS
 70
0
 71
3
 72
10
 73
6
 74
0
 42
0.0000001
 43
0.0000001
 44
0.0000000001
 40
0.0
 40
0.0
 40
0.0
 40
0.0
 40
0.4880549192
 40
0.7422044217
 40
1.0
 40
1.0
 40
1.0
 40
1.0
 10
5.0489687084
 20
4.031512509
 30
0.0
 10
5.0487260581
 20
4.0311056711
 30
0.0
 10
5.0484515236
 20
4.0304259991
 30
0.0
 10
5.0482707725
 20
4.029471068
 30
0.0
 10
5.0482398064
 20
4.0289734145
 30
0.0
 10
5.0482398053
 20
4.0287231988
 30
0.0
  0
LINE
  5
3BB
100
AcDbEntity
  8
0
100
AcDbLine
 62
7
  6
CONTINUOUS
 10
5.3201920964
 20
4.0135970271
 11
5.3192354396
 21
4.0138185622
  0
LINE
  5
3BC
100
AcDbEntity
  8
02___PRT_ALL_AXES
100
AcDbLine
 62
7
  6
CONTINUOUS
 10
5.178103476
 20
4.0436876863
 11
5.1799467713
 21
4.0436575404
  0
SPLINE
  5
3BD
100
AcDbEntity
  8
02___PRT_ALL_AXES
100
AcDbSpline
 62
7
  6
CONTINUOUS
 70
0
 71
3
 72
9
 73
5
 74
0
 42
0.0000001
 43
0.0000001
 44
0.0000000001
 40
0.0
 40
0.0
 40
0.0
 40
0.0
 40
0.5135895692
 40
1.0
 40
1.0
 40
1.0
 40
1.0
 10
5.1799467713
 20
4.0436575404
 30
0.0
 10
5.1914898198
 20
4.0434629832
 30
0.0
 10
5.2139620754
 20
4.0428733257
 30
0.0
 10
5.2364181145
 20
4.0418239976
 30
0.0
 10
5.2473328764
 20
4.0411800085
 30
0.0
  0
LINE
  5
3BE
100
AcDbEntity
  8
02___PRT_ALL_AXES
100
AcDbLine
 62
7
  6
CONTINUOUS
 10
5.2473328764
 20
4.0411800085
 11
5.2497746136
 21
4.0410336633
  0
SPLINE
  5
3BF
100
AcDbEntity
  8
02___PRT_ALL_AXES
100
AcDbSpline
 62
7
  6
CONTINUOUS
 70
0
 71
3
 72
9
 73
5
 74
0
 42
0.0000001
 43
0.0000001
 44
0.0000000001
 40
0.0
 40
0.0
 40
0.0
 40
0.0
 40
0.5191447076
 40
1.0
 40
1.0
 40
1.0
 40
1.0
 10
5.2550733895
 20
4.0407000656
 30
0.0
 10
5.2614492366
 20
4.04028517
 30
0.0
 10
5.2737248233
 20
4.0393920327
 30
0.0
 10
5.2859825356
 20
4.0382764769
 30
0.0
 10
5.2918698565
 20
4.0376737997
 30
0.0
  0
LINE
  5
3C0
100
AcDbEntity
  8
02___PRT_ALL_AXES
100
AcDbLine
 62
7
  6
CONTINUOUS
 10
5.2918698565
 20
4.0376737997
 11
5.2924710538
 21
4.0376120201
  0
LINE
  5
3C1
100
AcDbEntity
  8
02___PRT_ALL_AXES
100
AcDbLine
 62
7
  6
CONTINUOUS
 10
5.2924710538
 20
4.0376120201
 11
5.2935444926
 21
4.0375005284
  0
LINE
  5
3C2
100
AcDbEntity
  8
02___PRT_ALL_AXES
100
AcDbLine
 62
7
  6
CONTINUOUS
 10
5.2935444926
 20
4.0375005284
 11
5.3152711768
 21
4.0348615092
  0
SPLINE
  5
3C3
100
AcDbEntity
  8
02___PRT_ALL_AXES
100
AcDbSpline
 62
7
  6
CONTINUOUS
 70
0
 71
3
 72
14
 73
10
 74
0
 42
0.0000001
 43
0.0000001
 44
0.0000000001
 40
0.0
 40
0.0
 40
0.0
 40
0.0
 40
0.3271674073
 40
0.4721085949
 40
0.6041580921
 40
0.7230618859
 40
0.8286914719
 40
0.9209879829
 40
1.0
 40
1.0
 40
1.0
 40
1.0
 10
5.3199597719
 20
4.0341736055
 30
0.0
 10
5.3240275177
 20
4.0335539487
 30
0.0
 10
5.3298857315
 20
4.032575063
 30
0.0
 10
5.3373352934
 20
4.0310760675
 30
0.0
 10
5.3421903836
 20
4.0299689981
 30
0.0
 10
5.3465304607
 20
4.0288362589
 30
0.0
 10
5.3503455852
 20
4.0276816676
 30
0.0
 10
5.3536267439
 20
4.0265089281
 30
0.0
 10
5.3556062958
 20
4.0256515312
 30
0.0
 10
5.3564972645
 20
4.0252114987
 30
0.0
  0
LINE
  5
3C4
100
AcDbEntity
  8
02___PRT_ALL_AXES
100
AcDbLine
 62
7
  6
CONTINUOUS
 10
5.3564972645
 20
4.0252114987
 11
5.3594599592
 21
4.023446422
  0
SPLINE
  5
3C5
100
AcDbEntity
  8
02___PRT_ALL_AXES
100
AcDbSpline
 62
7
  6
CONTINUOUS
 70
0
 71
3
 72
11
 73
7
 74
0
 42
0.0000001
 43
0.0000001
 44
0.0000000001
 40
0.0
 40
0.0
 40
0.0
 40
0.0
 40
0.3080494021
 40
0.569808857
 40
0.7952494076
 40
1.0
 40
1.0
 40
1.0
 40
1.0
 10
5.3594599592
 20
4.023446422
 30
0.0
 10
5.3598267398
 20
4.0231722429
 30
0.0
 10
5.3604790014
 20
4.0226270091
 30
0.0
 10
5.3612546358
 20
4.0217253703
 30
0.0
 10
5.3617369968
 20
4.0208036796
 30
0.0
 10
5.3618501553
 20
4.0201605199
 30
0.0
 10
5.3618501553
 20
4.0198561469
 30
0.0
  0
SPLINE
  5
3C6
100
AcDbEntity
  8
0
100
AcDbSpline
 62
7
  6
CONTINUOUS
 70
0
 71
3
 72
34
 73
30
 74
0
 42
0.0000001
 43
0.0000001
 44
0.0000000001
 40
0.0
 40
0.0
 40
0.0
 40
0.0
 40
0.0917138239
 40
0.1826547128
 40
0.2718108136
 40
0.3583348641
 40
0.4414377475
 40
0.5203455059
 40
0.5943025546
 40
0.6626513719
 40
0.7248115042
 40
0.7803241634
 40
0.8288593146
 40
0.8504631019
 40
0.8703241513
 40
0.8885225591
 40
0.905167084
 40
0.9204403584
 40
0.9276370473
 40
0.9346502443
 40
0.9416354667
 40
0.9487625397
 40
0.9524360716
 40
0.9562053192
 40
0.9640016738
 40
0.972152765
 40
0.9808064219
 40
0.9901810409
 40
1.0
 40
1.0
 40
1.0
 40
1.0
 10
5.1483501552
 20
3.9850431635
 30
0.0
 10
5.1585524672
 20
3.9850431635
 30
0.0
 10
5.1788712892
 20
3.9851568178
 30
0.0
 10
5.2091040895
 20
3.9856637596
 30
0.0
 10
5.238751976
 20
3.9865049591
 30
0.0
 10
5.26751634
 20
3.9876703923
 30
0.0
 10
5.2951247567
 20
3.9891498491
 30
0.0
 10
5.3213147112
 20
3.9909273119
 30
0.0
 10
5.3458375246
 20
3.9929872103
 30
0.0
 10
5.3684650853
 20
3.9953095369
 30
0.0
 10
5.3890009
 20
3.9978738756
 30
0.0
 10
5.4072810274
 20
4.0006623479
 30
0.0
 10
5.421021367
 20
4.0032516264
 30
0.0
 10
5.430785296
 20
4.0054700719
 30
0.0
 10
5.4372121941
 20
4.0071315025
 30
0.0
 10
5.4430456528
 20
4.0088699045
 30
0.0
 10
5.448312802
 20
4.0107039287
 30
0.0
 10
5.4523314348
 20
4.0123819976
 30
0.0
 10
5.4552807232
 20
4.0138186847
 30
0.0
 10
5.4573488583
 20
4.0149534254
 30
0.0
 10
5.4593361254
 20
4.0162110118
 30
0.0
 10
5.4609300717
 20
4.0173863284
 30
0.0
 10
5.4621799368
 20
4.0184187039
 30
0.0
 10
5.4634459798
 20
4.0195464464
 30
0.0
 10
5.4649741458
 20
4.0211272722
 30
0.0
 10
5.4665870631
 20
4.0233524345
 30
0.0
 10
5.467855689
 20
4.0259949006
 30
0.0
 10
5.4686203037
 20
4.0290143052
 30
0.0
 10
5.4688097875
 20
4.0311506778
 30
0.0
 10
5.4688217884
 20
4.0322428799
 30
0.0
  0
SPLINE
  5
3C7
100
AcDbEntity
  8
0
100
AcDbSpline
 62
7
  6
CONTINUOUS
 70
0
 71
3
 72
35
 73
31
 74
0
 42
0.0000001
 43
0.0000001
 44
0.0000000001
 40
0.0
 40
0.0
 40
0.0
 40
0.0
 40
0.0097551773
 40
0.0144606181
 40
0.0189945363
 40
0.0276481277
 40
0.0359170374
 40
0.0438230986
 40
0.0512790094
 40
0.0583842207
 40
0.0653427821
 40
0.0723413994
 40
0.0795414673
 40
0.0870221723
 40
0.0948144137
 40
0.1114440231
 40
0.1296239946
 40
0.1494660689
 40
0.1710551624
 40
0.2195641418
 40
0.2750583529
 40
0.3372086103
 40
0.4055563072
 40
0.4795195631
 40
0.5584397458
 40
0.6415602178
 40
0.7281061855
 40
0.817287725
 40
0.9082567474
 40
1.0
 40
1.0
 40
1.0
 40
1.0
 10
4.8278785221
 20
4.0323100701
 30
0.0
 10
4.8278665963
 20
4.0312246994
 30
0.0
 10
4.827972883
 20
4.0296091857
 30
0.0
 10
4.8283970239
 20
4.0275358134
 30
0.0
 10
4.8289982206
 20
4.0256342821
 30
0.0
 10
4.8300573329
 20
4.0234774618
 30
0.0
 10
4.8316846004
 20
4.0212323602
 30
0.0
 10
4.833496967
 20
4.0193204009
 30
0.0
 10
4.835373432
 20
4.0176645607
 30
0.0
 10
4.8372956903
 20
4.0162324026
 30
0.0
 10
4.8392799523
 20
4.0149816045
 30
0.0
 10
4.8413490145
 20
4.0138563488
 30
0.0
 10
4.8435183606
 20
4.0128001453
 30
0.0
 10
4.8458054177
 20
4.0117879334
 30
0.0
 10
4.8490988095
 20
4.0104619679
 30
0.0
 10
4.8535748876
 20
4.0088940553
 30
0.0
 10
4.8594028502
 20
4.0071527145
 30
0.0
 10
4.8658255071
 20
4.0054913717
 30
0.0
 10
4.8755848195
 20
4.0032718478
 30
0.0
 10
4.8893211749
 20
4.0006786988
 30
0.0
 10
4.9075992953
 20
3.9978873337
 30
0.0
 10
4.9281365878
 20
3.9953207277
 30
0.0
 10
4.950768907
 20
3.9929958995
 30
0.0
 10
4.9752994806
 20
3.9909337271
 30
0.0
 10
5.0014997315
 20
3.9891543569
 30
0.0
 10
5.0291205689
 20
3.9876733027
 30
0.0
 10
5.0578991055
 20
3.9865065877
 30
0.0
 10
5.0875625692
 20
3.9856644509
 30
0.0
 10
5.1178119357
 20
3.9851569443
 30
0.0
 10
5.1381420932
 20
3.9850431635
 30
0.0
 10
5.1483501552
 20
3.9850431635
 30
0.0
  0
SPLINE
  5
3C8
100
AcDbEntity
  8
0
100
AcDbSpline
 62
7
  6
CONTINUOUS
 70
0
 71
3
 72
21
 73
17
 74
0
 42
0.0000001
 43
0.0000001
 44
0.0000000001
 40
0.0
 40
0.0
 40
0.0
 40
0.0
 40
0.0744669727
 40
0.1418281783
 40
0.1735009048
 40
0.2038420166
 40
0.261075576
 40
0.3154354178
 40
0.3683235746
 40
0.420670427
 40
0.4735739208
 40
0.5281219051
 40
0.5852841026
 40
0.7091507062
 40
0.8470377595
 40
1.0
 40
1.0
 40
1.0
 40
1.0
 10
5.4689751553
 20
4.0781497193
 30
0.0
 10
5.4689751553
 20
4.0794863161
 30
0.0
 10
5.4686725475
 20
4.0820445325
 30
0.0
 10
5.4675808588
 20
4.0849873614
 30
0.0
 10
5.4664579115
 20
4.0870227575
 30
0.0
 10
5.4652706079
 20
4.088806032
 30
0.0
 10
5.4636189948
 20
4.0907592879
 30
0.0
 10
5.4614088331
 20
4.0927280066
 30
0.0
 10
5.4590750097
 20
4.0943950296
 30
0.0
 10
5.4566520281
 20
4.0958773209
 30
0.0
 10
5.4541095023
 20
4.0972088521
 30
0.0
 10
5.4514189289
 20
4.0984325078
 30
0.0
 10
5.4474984956
 20
4.1000190048
 30
0.0
 10
5.4420812835
 20
4.1018809486
 30
0.0
 10
5.4349221558
 20
4.103927486
 30
0.0
 10
5.4298483743
 20
4.1051616305
 30
0.0
 10
5.4271711213
 20
4.1057699647
 30
0.0
  0
SPLINE
  5
3C9
100
AcDbEntity
  8
0
100
AcDbSpline
 62
7
  6
CONTINUOUS
 70
0
 71
3
 72
9
 73
5
 74
0
 42
0.0000001
 43
0.0000001
 44
0.0000000001
 40
0.0
 40
0.0
 40
0.0
 40
0.0
 40
0.4671303229
 40
1.0
 40
1.0
 40
1.0
 40
1.0
 10
5.4271711213
 20
4.1057699647
 30
0.0
 10
5.4223947799
 20
4.1068552606
 30
0.0
 10
5.41210846
 20
4.1089087296
 30
0.0
 10
5.4017579939
 20
4.110596015
 30
0.0
 10
5.3962320159
 20
4.1114222245
 30
0.0
  0
SPLINE
  5
3CA
100
AcDbEntity
  8
0
100
AcDbSpline
 62
7
  6
CONTINUOUS
 70
0
 71
3
 72
9
 73
5
 74
0
 42
0.0000001
 43
0.0000001
 44
0.0000000001
 40
0.0
 40
0.0
 40
0.0
 40
0.0
 40
0.5329183636
 40
1.0
 40
1.0
 40
1.0
 40
1.0
 10
4.9004682888
 20
4.1114222236
 30
0.0
 10
4.8949355913
 20
4.1105950094
 30
0.0
 10
4.8845735098
 20
4.10890566
 30
0.0
 10
4.8742757542
 20
4.1068491498
 30
0.0
 10
4.8694946813
 20
4.1057621261
 30
0.0
  0
SPLINE
  5
3CB
100
AcDbEntity
  8
0
100
AcDbSpline
 62
7
  6
CONTINUOUS
 70
0
 71
3
 72
21
 73
17
 74
0
 42
0.0000001
 43
0.0000001
 44
0.0000000001
 40
0.0
 40
0.0
 40
0.0
 40
0.0
 40
0.1529257716
 40
0.2907839849
 40
0.4146327161
 40
0.4717918416
 40
0.5263376248
 40
0.579240501
 40
0.6315909717
 40
0.684490932
 40
0.7388687806
 40
0.796120004
 40
0.826468648
 40
0.85814931
 40
0.9255257845
 40
1.0
 40
1.0
 40
1.0
 40
1.0
 10
4.8694946813
 20
4.1057621261
 30
0.0
 10
4.8668199058
 20
4.1051539896
 30
0.0
 10
4.8617507666
 20
4.1039202412
 30
0.0
 10
4.854598099
 20
4.1018743463
 30
0.0
 10
4.8491856176
 20
4.1000129639
 30
0.0
 10
4.8452684707
 20
4.0984268689
 30
0.0
 10
4.8425799682
 20
4.0972036137
 30
0.0
 10
4.8400393502
 20
4.0958724681
 30
0.0
 10
4.8376181719
 20
4.0943902841
 30
0.0
 10
4.8352859853
 20
4.092723192
 30
0.0
 10
4.8330770717
 20
4.0907547352
 30
0.0
 10
4.8314264313
 20
4.0888018289
 30
0.0
 10
4.8302400711
 20
4.0870189027
 30
0.0
 10
4.8291181304
 20
4.0849840687
 30
0.0
 10
4.8280275288
 20
4.0820424838
 30
0.0
 10
4.8277251553
 20
4.0794855671
 30
0.0
 10
4.8277251553
 20
4.0781497193
 30
0.0
  0
SPLINE
  5
3CC
100
AcDbEntity
  8
02___PRT_ALL_AXES
100
AcDbSpline
 62
7
  6
CONTINUOUS
 70
0
 71
3
 72
14
 73
10
 74
0
 42
0.0000001
 43
0.0000001
 44
0.0000000001
 40
0.0
 40
0.0
 40
0.0
 40
0.0
 40
0.0859353337
 40
0.176913946
 40
0.2771812992
 40
0.3899010602
 40
0.517279744
 40
0.660820551
 40
1.0
 40
1.0
 40
1.0
 40
1.0
 10
4.9348501553
 20
4.0198561469
 30
0.0
 10
4.9348501553
 20
4.0200828839
 30
0.0
 10
4.934910483
 20
4.0205514696
 30
0.0
 10
4.9351753116
 20
4.0212391999
 30
0.0
 10
4.9356089378
 20
4.02191901
 30
0.0
 10
4.9362076989
 20
4.0225921724
 30
0.0
 10
4.9369703777
 20
4.0232607884
 30
0.0
 10
4.9382799798
 20
4.0241999119
 30
0.0
 10
4.9394006584
 20
4.0248152147
 30
0.0
 10
4.940203046
 20
4.0252114987
 30
0.0
  0
SPLINE
  5
3CD
100
AcDbEntity
  8
02___PRT_ALL_AXES
100
AcDbSpline
 62
7
  6
CONTINUOUS
 70
0
 71
3
 72
14
 73
10
 74
0
 42
0.0000001
 43
0.0000001
 44
0.0000000001
 40
0.0
 40
0.0
 40
0.0
 40
0.0
 40
0.0790152098
 40
0.1713139074
 40
0.2769446895
 40
0.3958487245
 40
0.5278975724
 40
0.6728373494
 40
1.0
 40
1.0
 40
1.0
 40
1.0
 10
4.940203046
 20
4.0252114987
 30
0.0
 10
4.9410938936
 20
4.0256514713
 30
0.0
 10
4.9430731525
 20
4.0265087564
 30
0.0
 10
4.9463537966
 20
4.0276813549
 30
0.0
 10
4.9501682752
 20
4.0288358101
 30
0.0
 10
4.9545075786
 20
4.0299684197
 30
0.0
 10
4.9593617722
 20
4.0310753675
 30
0.0
 10
4.9668099116
 20
4.0325742033
 30
0.0
 10
4.9726669996
 20
4.0335529989
 30
0.0
 10
4.9767339588
 20
4.0341726032
 30
0.0
  0
LINE
  5
3CE
100
AcDbEntity
  8
02___PRT_ALL_AXES
100
AcDbLine
 62
7
  6
CONTINUOUS
 10
4.9814291338
 20
4.0348615092
 11
5.0031558179
 21
4.0375005284
  0
LINE
  5
3CF
100
AcDbEntity
  8
02___PRT_ALL_AXES
100
AcDbLine
 62
7
  6
CONTINUOUS
 10
5.0031558179
 20
4.0375005284
 11
5.0042147648
 21
4.037610525
  0
LINE
  5
3D0
100
AcDbEntity
  8
02___PRT_ALL_AXES
100
AcDbLine
 62
7
  6
CONTINUOUS
 10
5.0042147648
 20
4.037610525
 11
5.0048101903
 21
4.037671725
  0
SPLINE
  5
3D1
100
AcDbEntity
  8
02___PRT_ALL_AXES
100
AcDbSpline
 62
7
  6
CONTINUOUS
 70
0
 71
3
 72
9
 73
5
 74
0
 42
0.0000001
 43
0.0000001
 44
0.0000000001
 40
0.0
 40
0.0
 40
0.0
 40
0.0
 40
0.4808412023
 40
1.0
 40
1.0
 40
1.0
 40
1.0
 10
5.0048101903
 20
4.037671725
 30
0.0
 10
5.0107005706
 20
4.0382748707
 30
0.0
 10
5.0229650279
 20
4.0393912466
 30
0.0
 10
5.0352473835
 20
4.0402849299
 30
0.0
 10
5.041626921
 20
4.0407000656
 30
0.0
  0
LINE
  5
3D2
100
AcDbEntity
  8
02___PRT_ALL_AXES
100
AcDbLine
 62
7
  6
CONTINUOUS
 10
5.0468972385
 20
4.0410319306
 11
5.0493377424
 21
4.0411782563
  0
SPLINE
  5
3D3
100
AcDbEntity
  8
02___PRT_ALL_AXES
100
AcDbSpline
 62
7
  6
CONTINUOUS
 70
0
 71
3
 72
9
 73
5
 74
0
 42
0.0000001
 43
0.0000001
 44
0.0000000001
 40
0.0
 40
0.0
 40
0.0
 40
0.0
 40
0.486393729
 40
1.0
 40
1.0
 40
1.0
 40
1.0
 10
5.0493377424
 20
4.0411782563
 30
0.0
 10
5.0602696298
 20
4.0418235024
 30
0.0
 10
5.0827617108
 20
4.0428745354
 30
0.0
 10
5.1052700501
 20
4.0434644788
 30
0.0
 10
5.1168320065
 20
4.0436588612
 30
0.0
  0
LINE
  5
3D4
100
AcDbEntity
  8
02___PRT_ALL_AXES
100
AcDbLine
 62
7
  6
CONTINUOUS
 10
5.1168320065
 20
4.0436588612
 11
5.1185606182
 21
4.0436871118
  0
SPLINE
  5
3D5
100
AcDbEntity
  8
02___PRT_ALL_AXES
100
AcDbSpline
 62
7
  6
CONTINUOUS
 70
0
 71
3
 72
18
 73
14
 74
0
 42
0.0000001
 43
0.0000001
 44
0.0000000001
 40
0.0
 40
0.0
 40
0.0
 40
0.0
 40
0.163537437
 40
0.3224459018
 40
0.4000027623
 40
0.4758361257
 40
0.5492906035
 40
0.6196288116
 40
0.6860660248
 40
0.7479762485
 40
0.8562994935
 40
0.9404827724
 40
1.0
 40
1.0
 40
1.0
 40
1.0
 10
5.4139751553
 20
4.1440594286
 30
0.0
 10
5.4139751553
 20
4.1414979452
 30
0.0
 10
5.4143565997
 20
4.1364399247
 30
0.0
 10
5.4157529871
 20
4.130307393
 30
0.0
 10
5.4173740082
 20
4.1256880842
 30
0.0
 10
5.4187915066
 20
4.1224267177
 30
0.0
 10
5.4203752338
 20
4.1193701264
 30
0.0
 10
5.422081225
 20
4.1165508797
 30
0.0
 10
5.4238691571
 20
4.1140006694
 30
0.0
 10
5.4261985609
 20
4.1111141607
 30
0.0
 10
5.4289695853
 20
4.1082378526
 30
0.0
 10
5.4319856509
 20
4.1056818336
 30
0.0
 10
5.433836617
 20
4.1043952829
 30
0.0
 10
5.4346266033
 20
4.1039003585
 30
0.0
  0
SPLINE
  5
3D6
100
AcDbEntity
  8
02___PRT_ALL_AXES
100
AcDbSpline
 62
7
  6
CONTINUOUS
 70
0
 71
3
 72
17
 73
13
 74
0
 42
0.0000001
 43
0.0000001
 44
0.0000000001
 40
0.0
 40
0.0
 40
0.0
 40
0.0
 40
0.143660956
 40
0.2520229913
 40
0.3139579926
 40
0.3803842911
 40
0.4507007081
 40
0.5241389812
 40
0.5999739125
 40
0.677561424
 40
0.8365685391
 40
1.0
 40
1.0
 40
1.0
 40
1.0
 10
4.8620772748
 20
4.1039035116
 30
0.0
 10
4.863982631
 20
4.1050994512
 30
0.0
 10
4.867093846
 20
4.1075730191
 30
0.0
 10
4.8705061679
 20
4.1111216749
 30
0.0
 10
4.8728362132
 20
4.1140081635
 30
0.0
 10
4.8746249444
 20
4.1165565497
 30
0.0
 10
4.876330321
 20
4.1193743857
 30
0.0
 10
4.877912768
 20
4.12243002
 30
0.0
 10
4.8793287011
 20
4.125691381
 30
0.0
 10
4.8809475849
 20
4.1303123004
 30
0.0
 10
4.8823423879
 20
4.1364437479
 30
0.0
 10
4.8827251553
 20
4.1415002522
 30
0.0
 10
4.8827251553
 20
4.1440594286
 30
0.0
  0
SPLINE
  5
3D7
100
AcDbEntity
  8
0
100
AcDbSpline
 62
7
  6
CONTINUOUS
 70
0
 71
3
 72
9
 73
5
 74
0
 42
0.0000001
 43
0.0000001
 44
0.0000000001
 40
0.0
 40
0.0
 40
0.0
 40
0.0
 40
0.2536396869
 40
1.0
 40
1.0
 40
1.0
 40
1.0
 10
5.1847637309
 20
4.0681846885
 30
0.0
 10
5.1899192006
 20
4.0681182747
 30
0.0
 10
5.2102443791
 20
4.0678002715
 30
0.0
 10
5.2305661607
 20
4.0672564227
 30
0.0
 10
5.2457281225
 20
4.0667116031
 30
0.0
  0
SPLINE
  5
3D8
100
AcDbEntity
  8
0
100
AcDbSpline
 62
7
  6
CONTINUOUS
 70
0
 71
3
 72
11
 73
7
 74
0
 42
0.0000001
 43
0.0000001
 44
0.0000000001
 40
0.0
 40
0.0
 40
0.0
 40
0.0
 40
0.2701333031
 40
0.5286117884
 40
0.7727497481
 40
1.0
 40
1.0
 40
1.0
 40
1.0
 10
5.2457281225
 20
4.0667116031
 30
0.0
 10
5.2560065884
 20
4.0663422638
 30
0.0
 10
5.2761158387
 20
4.0654941663
 30
0.0
 10
5.3054927871
 20
4.0638523305
 30
0.0
 10
5.3332131293
 20
4.0618837175
 30
0.0
 10
5.3510925563
 20
4.0603053345
 30
0.0
 10
5.3597029898
 20
4.059454555
 30
0.0
  0
SPLINE
  5
3D9
100
AcDbEntity
  8
0
100
AcDbSpline
 62
7
  6
CONTINUOUS
 70
0
 71
3
 72
25
 73
21
 74
0
 42
0.0000001
 43
0.0000001
 44
0.0000000001
 40
0.0
 40
0.0
 40
0.0
 40
0.0
 40
0.2130098366
 40
0.4033595811
 40
0.4894096339
 40
0.569064813
 40
0.6421488327
 40
0.7085042135
 40
0.7679893479
 40
0.8205156035
 40
0.8660714052
 40
0.9047128864
 40
0.9214962535
 40
0.9366391818
 40
0.9502123169
 40
0.9623167217
 40
0.9730975904
 40
0.9827630392
 40
0.9916037213
 40
1.0
 40
1.0
 40
1.0
 40
1.0
 10
5.3597029898
 20
4.059454555
 30
0.0
 10
5.3678475276
 20
4.0586498096
 30
0.0
 10
5.3832557502
 20
4.0569733995
 30
0.0
 10
5.4018951867
 20
4.0544695004
 30
0.0
 10
5.4154043161
 20
4.0523083303
 30
0.0
 10
5.4244351928
 20
4.0506865796
 30
0.0
 10
5.4326863089
 20
4.0490146984
 30
0.0
 10
5.4401351648
 20
4.047297963
 30
0.0
 10
5.4467608515
 20
4.0455413254
 30
0.0
 10
5.4525462355
 20
4.0437501008
 30
0.0
 10
5.4574770674
 20
4.0419305762
 30
0.0
 10
5.4610174152
 20
4.0403293515
 30
0.0
 10
5.4633908163
 20
4.0390154961
 30
0.0
 10
5.4648641183
 20
4.0380718049
 30
0.0
 10
5.4661158387
 20
4.0371234989
 30
0.0
 10
5.4671459201
 20
4.0361700491
 30
0.0
 10
5.4679540187
 20
4.0352103149
 30
0.0
 10
5.4685383939
 20
4.0342419057
 30
0.0
 10
5.4688943607
 20
4.0332636935
 30
0.0
 10
5.4689751552
 20
4.0325990743
 30
0.0
 10
5.4689751553
 20
4.032276475
 30
0.0
  0
SPLINE
  5
3DA
100
AcDbEntity
  8
0
100
AcDbSpline
 62
7
  6
CONTINUOUS
 70
0
 71
3
 72
15
 73
11
 74
0
 42
0.0000001
 43
0.0000001
 44
0.0000000001
 40
0.0
 40
0.0
 40
0.0
 40
0.0
 40
0.1440574162
 40
0.2863404897
 40
0.4247792513
 40
0.5576176532
 40
0.6831460541
 40
0.7996955141
 40
0.9057667026
 40
1.0
 40
1.0
 40
1.0
 40
1.0
 10
5.1483501553
 20
4.1253494694
 30
0.0
 10
5.1602808734
 20
4.1253494694
 30
0.0
 10
5.1839956504
 20
4.1251952517
 30
0.0
 10
5.2191697703
 20
4.1245063181
 30
0.0
 10
5.2534026868
 20
4.1233670454
 30
0.0
 10
5.2862294221
 20
4.1217943142
 30
0.0
 10
5.3172177583
 20
4.1198111052
 30
0.0
 10
5.3459557953
 20
4.1174437822
 30
0.0
 10
5.3720586071
 20
4.1147281919
 30
0.0
 10
5.3885106611
 20
4.1125763356
 30
0.0
 10
5.3962292125
 20
4.1114224493
 30
0.0
  0
SPLINE
  5
3DB
100
AcDbEntity
  8
0
100
AcDbSpline
 62
7
  6
CONTINUOUS
 70
0
 71
3
 72
25
 73
21
 74
0
 42
0.0000001
 43
0.0000001
 44
0.0000000001
 40
0.0
 40
0.0
 40
0.0
 40
0.0
 40
0.0083984485
 40
0.0172477575
 40
0.0269262792
 40
0.0377227853
 40
0.0498439648
 40
0.0634340322
 40
0.078593403
 40
0.0953922795
 40
0.1340607947
 40
0.1796373328
 40
0.2321775438
 40
0.2916696591
 40
0.3580249719
 40
0.4311020675
 40
0.5107437243
 40
0.5967739638
 40
0.7870668685
 40
1.0
 40
1.0
 40
1.0
 40
1.0
 10
4.827725189
 20
4.0322930159
 30
0.0
 10
4.8277265024
 20
4.0326155122
 30
0.0
 10
4.8278099668
 20
4.0332798142
 30
0.0
 10
4.8281693495
 20
4.0342570733
 30
0.0
 10
4.8287566829
 20
4.0352245695
 30
0.0
 10
4.8295673523
 20
4.0361834495
 30
0.0
 10
4.8305996538
 20
4.0371360849
 30
0.0
 10
4.8318532539
 20
4.0380835972
 30
0.0
 10
4.8333280954
 20
4.0390265028
 30
0.0
 10
4.8357029747
 20
4.0403391595
 30
0.0
 10
4.8392441627
 20
4.0419389904
 30
0.0
 10
4.8441748734
 20
4.0437570257
 30
0.0
 10
4.8499587723
 20
4.045546776
 30
0.0
 10
4.8565816313
 20
4.0473019679
 30
0.0
 10
4.8640263412
 20
4.0490173057
 30
0.0
 10
4.8722720343
 20
4.0506878465
 30
0.0
 10
4.881296261
 20
4.0523083279
 30
0.0
 10
4.8947942664
 20
4.0544678114
 30
0.0
 10
4.9134171937
 20
4.0569699404
 30
0.0
 10
4.9288114859
 20
4.0586453995
 30
0.0
 10
4.9369484246
 20
4.0594497227
 30
0.0
  0
SPLINE
  5
3DC
100
AcDbEntity
  8
0
100
AcDbSpline
 62
7
  6
CONTINUOUS
 70
0
 71
3
 72
11
 73
7
 74
0
 42
0.0000001
 43
0.0000001
 44
0.0000000001
 40
0.0
 40
0.0
 40
0.0
 40
0.0
 40
0.2272362075
 40
0.4713704032
 40
0.7298541561
 40
1.0
 40
1.0
 40
1.0
 40
1.0
 10
4.9369484246
 20
4.0594497227
 30
0.0
 10
4.9455600432
 20
4.0603009672
 30
0.0
 10
4.9634423805
 20
4.0618802051
 30
0.0
 10
4.9911678376
 20
4.0638498625
 30
0.0
 10
5.0205512673
 20
4.0654925814
 30
0.0
 10
5.0406652752
 20
4.0663411334
 30
0.0
 10
5.0509463052
 20
4.0667106731
 30
0.0
  0
SPLINE
  5
3DD
100
AcDbEntity
  8
02___PRT_ALL_AXES
100
AcDbSpline
 62
7
  6
CONTINUOUS
 70
0
 71
3
 72
14
 73
10
 74
0
 42
0.0000001
 43
0.0000001
 44
0.0000000001
 40
0.0
 40
0.0
 40
0.0
 40
0.0
 40
0.2793541194
 40
0.4152647737
 40
0.5466390418
 40
0.6721080444
 40
0.7903294393
 40
0.9000082826
 40
1.0
 40
1.0
 40
1.0
 40
1.0
 10
5.1483501553
 20
4.1740019385
 30
0.0
 10
5.1667797872
 20
4.1740019385
 30
0.0
 10
5.194177409
 20
4.1736846773
 30
0.0
 10
5.2302248378
 20
4.1726013214
 30
0.0
 10
5.2561125751
 20
4.1714867808
 30
0.0
 10
5.2808170124
 20
4.1700750898
 30
0.0
 10
5.3040693047
 20
4.1683842414
 30
0.0
 10
5.3256139347
 20
4.1664313094
 30
0.0
 10
5.3393624173
 20
4.1648957941
 30
0.0
 10
5.3459078187
 20
4.1640748516
 30
0.0
  0
SPLINE
  5
3DE
100
AcDbEntity
  8
02___PRT_ALL_AXES
100
AcDbSpline
 62
7
  6
CONTINUOUS
 70
0
 71
3
 72
20
 73
16
 74
0
 42
0.0000001
 43
0.0000001
 44
0.0000000001
 40
0.0
 40
0.0
 40
0.0
 40
0.0
 40
0.2125694315
 40
0.4007443248
 40
0.5635027764
 40
0.6351403183
 40
0.7001912867
 40
0.7586190339
 40
0.8104542783
 40
0.8557980035
 40
0.8948365016
 40
0.9279041942
 40
0.9556041543
 40
0.9790321467
 40
1.0
 40
1.0
 40
1.0
 40
1.0
 10
5.3596361188
 20
4.1622057301
 30
0.0
 10
5.3637736649
 20
4.1615935206
 30
0.0
 10
5.3715614863
 20
4.1603507906
 30
0.0
 10
5.3824549566
 20
4.1582752303
 30
0.0
 10
5.3905597311
 20
4.1564035201
 30
0.0
 10
5.3962411687
 20
4.1548392517
 30
0.0
 10
5.3999082117
 20
4.1536997695
 30
0.0
 10
5.4031600325
 20
4.1525453304
 30
0.0
 10
5.4059922363
 20
4.1513779477
 30
0.0
 10
5.4084022666
 20
4.1501997856
 30
0.0
 10
5.4103888192
 20
4.1490119536
 30
0.0
 10
5.411952233
 20
4.1478138544
 30
0.0
 10
5.4130929536
 20
4.1465982143
 30
0.0
 10
5.4138051623
 20
4.1453509731
 30
0.0
 10
5.4139738128
 20
4.1444719997
 30
0.0
 10
5.4139738128
 20
4.1440594286
 30
0.0
  0
SPLINE
  5
3DF
100
AcDbEntity
  8
02___PRT_ALL_AXES
100
AcDbSpline
 62
7
  6
CONTINUOUS
 70
0
 71
3
 72
15
 73
11
 74
0
 42
0.0000001
 43
0.0000001
 44
0.0000000001
 40
0.0
 40
0.0
 40
0.0
 40
0.0
 40
0.1440087614
 40
0.2863079447
 40
0.4247589056
 40
0.5575828966
 40
0.6830951854
 40
0.7996604218
 40
0.9057396882
 40
1.0
 40
1.0
 40
1.0
 40
1.0
 10
5.1483501553
 20
3.9957894142
 30
0.0
 10
5.1401496717
 20
3.9957894142
 30
0.0
 10
5.123845859
 20
3.9958956464
 30
0.0
 10
5.0996621877
 20
3.9963687465
 30
0.0
 10
5.0761237277
 20
3.9971520878
 30
0.0
 10
5.0535539086
 20
3.9982325743
 30
0.0
 10
5.0322479959
 20
3.9995964725
 30
0.0
 10
5.0124878789
 20
4.0012225286
 30
0.0
 10
4.9945373923
 20
4.0030900512
 30
0.0
 10
4.9832231897
 20
4.0045682325
 30
0.0
 10
4.9779145484
 20
4.0053615555
 30
0.0
  0
SPLINE
  5
3E0
100
AcDbEntity
  8
02___PRT_ALL_AXES
100
AcDbSpline
 62
7
  6
CONTINUOUS
 70
0
 71
3
 72
19
 73
15
 74
0
 42
0.0000001
 43
0.0000001
 44
0.0000000001
 40
0.0
 40
0.0
 40
0.0
 40
0.0
 40
0.2124750545
 40
0.400581128
 40
0.5632607122
 40
0.6998295526
 40
0.7582512011
 40
0.8101022687
 40
0.8554545764
 40
0.8944979504
 40
0.9275953652
 40
0.9553717713
 40
0.9789116644
 40
1.0
 40
1.0
 40
1.0
 40
1.0
 10
4.9779145484
 20
4.0053615555
 30
0.0
 10
4.9746344727
 20
4.0058517298
 30
0.0
 10
4.9684607191
 20
4.0068468953
 30
0.0
 10
4.9598249915
 20
4.0085060702
 30
0.0
 10
4.9524144777
 20
4.0102332082
 30
0.0
 10
4.9470471783
 20
4.0117865212
 30
0.0
 10
4.9434179648
 20
4.0130839372
 30
0.0
 10
4.941173245
 20
4.0140156681
 30
0.0
 10
4.9392636997
 20
4.0149560502
 30
0.0
 10
4.9376906566
 20
4.0159044864
 30
0.0
 10
4.9364530631
 20
4.0168612155
 30
0.0
 10
4.9355495621
 20
4.017831442
 30
0.0
 10
4.9349843865
 20
4.0188261251
 30
0.0
 10
4.9348501553
 20
4.0195269814
 30
0.0
 10
4.9348501553
 20
4.0198561469
 30
0.0
  0
SPLINE
  5
3E1
100
AcDbEntity
  8
02___PRT_ALL_AXES
100
AcDbSpline
 62
7
  6
CONTINUOUS
 70
0
 71
3
 72
19
 73
15
 74
0
 42
0.0000001
 43
0.0000001
 44
0.0000000001
 40
0.0
 40
0.0
 40
0.0
 40
0.0
 40
0.0211434893
 40
0.0447295891
 40
0.0725398329
 40
0.105659092
 40
0.1447137481
 40
0.1900682779
 40
0.2419146186
 40
0.3003259658
 40
0.436861209
 40
0.5994959964
 40
0.7875587983
 40
1.0
 40
1.0
 40
1.0
 40
1.0
 10
5.3618501553
 20
4.0198561469
 30
0.0
 10
5.3618501553
 20
4.0195281408
 30
0.0
 10
5.3617169571
 20
4.0188300031
 30
0.0
 10
5.361155795
 20
4.0178387099
 30
0.0
 10
5.3602584554
 20
4.0168716613
 30
0.0
 10
5.3590292341
 20
4.0159180458
 30
0.0
 10
5.3574668193
 20
4.0149726813
 30
0.0
 10
5.3555701617
 20
4.0140353016
 30
0.0
 10
5.3533405433
 20
4.013106505
 30
0.0
 10
5.3497357444
 20
4.0118131134
 30
0.0
 10
5.3444041552
 20
4.0102643268
 30
0.0
 10
5.3370423368
 20
4.0085417485
 30
0.0
 10
5.328462591
 20
4.0068864903
 30
0.0
 10
5.3223284994
 20
4.0058933271
 30
0.0
 10
5.3190693514
 20
4.0054040327
 30
0.0
  0
SPLINE
  5
3E2
100
AcDbEntity
  8
02___PRT_ALL_AXES
100
AcDbSpline
 62
7
  6
CONTINUOUS
 70
0
 71
3
 72
15
 73
11
 74
0
 42
0.0000001
 43
0.0000001
 44
0.0000000001
 40
0.0
 40
0.0
 40
0.0
 40
0.0
 40
0.0941033833
 40
0.2000839134
 40
0.316603157
 40
0.4421165907
 40
0.5749802594
 40
0.7135005829
 40
0.8558901624
 40
1.0
 40
1.0
 40
1.0
 40
1.0
 10
5.3190693514
 20
4.0054040327
 30
0.0
 10
5.3137611892
 20
4.0046071208
 30
0.0
 10
5.3024432026
 20
4.0031224314
 30
0.0
 10
5.2844803643
 20
4.0012470794
 30
0.0
 10
5.2646956485
 20
3.9996139148
 30
0.0
 10
5.2433545089
 20
3.9982439099
 30
0.0
 10
5.2207406616
 20
3.9971584608
 30
0.0
 10
5.1971513855
 20
3.9963714731
 30
0.0
 10
5.1729122677
 20
3.9958961452
 30
0.0
 10
5.1565701679
 20
3.9957894142
 30
0.0
 10
5.1483501553
 20
3.9957894142
 30
0.0
  0
SPLINE
  5
3E3
100
AcDbEntity
  8
0
100
AcDbSpline
 62
7
  6
CONTINUOUS
 70
0
 71
3
 72
9
 73
5
 74
0
 42
0.0000001
 43
0.0000001
 44
0.0000000001
 40
0.0
 40
0.0
 40
0.0
 40
0.0
 40
0.5113355888
 40
1.0
 40
1.0
 40
1.0
 40
1.0
 10
5.1841691971
 20
4.0543536951
 30
0.0
 10
5.2002762897
 20
4.0541412678
 30
0.0
 10
5.2317733226
 20
4.0534437438
 30
0.0
 10
5.2632516878
 20
4.0521408124
 30
0.0
 10
5.2786247218
 20
4.0513321512
 30
0.0
  0
SPLINE
  5
3E4
100
AcDbEntity
  8
0
100
AcDbSpline
 62
7
  6
CONTINUOUS
 70
0
 71
3
 72
47
 73
43
 74
0
 42
0.0000001
 43
0.0000001
 44
0.0000000001
 40
0.0
 40
0.0
 40
0.0
 40
0.0
 40
0.043645976
 40
0.0846804062
 40
0.1228492981
 40
0.157923551
 40
0.1896982106
 40
0.2179859178
 40
0.2426446378
 40
0.2535760344
 40
0.2635599869
 40
0.2725933975
 40
0.280677466
 40
0.2878191471
 40
0.2940347415
 40
0.2993586603
 40
0.3038561112
 40
0.3076394817
 40
0.3109000145
 40
0.3124288799
 40
0.3139459138
 40
0.3171171869
 40
0.3207465629
 40
0.3250506131
 40
0.3301582402
 40
0.3361443735
 40
0.3430501773
 40
0.3508953296
 40
0.3596887174
 40
0.369432756
 40
0.3917568571
 40
0.4177868567
 40
0.4473966035
 40
0.4804280574
 40
0.5166833052
 40
0.5559521994
 40
0.5979926235
 40
0.6425484042
 40
0.6893447749
 40
0.788457779
 40
0.8929019415
 40
1.0
 40
1.0
 40
1.0
 40
1.0
 10
5.3193544313
 20
4.0487494439
 30
0.0
 10
5.3259862856
 20
4.0482507178
 30
0.0
 10
5.338847315
 20
4.0472023401
 30
0.0
 10
5.357481614
 20
4.0454138574
 30
0.0
 10
5.3747863407
 20
4.0434658061
 30
0.0
 10
5.3906519366
 20
4.0413712183
 30
0.0
 10
5.4049782573
 20
4.0391458756
 30
0.0
 10
5.4176751866
 20
4.0368028794
 30
0.0
 10
5.4271807141
 20
4.0346932927
 30
0.0
 10
5.4338985841
 20
4.0329309701
 30
0.0
 10
5.4382772482
 20
4.0316426737
 30
0.0
 10
5.442196087
 20
4.0303369521
 30
0.0
 10
5.4456500531
 20
4.0290159762
 30
0.0
 10
5.448634749
 20
4.0276820379
 30
0.0
 10
5.4511468401
 20
4.0263365902
 30
0.0
 10
5.4531852474
 20
4.0249799881
 30
0.0
 10
5.4547514137
 20
4.0236092533
 30
0.0
 10
5.4558470048
 20
4.0222163179
 30
0.0
 10
5.4563626137
 20
4.0209909601
 30
0.0
 10
5.4564918702
 20
4.0200338502
 30
0.0
 10
5.4564501464
 20
4.0190825536
 30
0.0
 10
5.4560480347
 20
4.017854256
 30
0.0
 10
5.4550724981
 20
4.0164521182
 30
0.0
 10
5.4536252429
 20
4.0150768574
 30
0.0
 10
5.4517062328
 20
4.0137172276
 30
0.0
 10
5.4493138065
 20
4.0123689348
 30
0.0
 10
5.4464481879
 20
4.0110320267
 30
0.0
 10
5.4431123338
 20
4.0097075877
 30
0.0
 10
5.4393104596
 20
4.0083976864
 30
0.0
 10
5.4333508523
 20
4.006590988
 30
0.0
 10
5.4247617433
 20
4.0044276009
 30
0.0
 10
5.4131259537
 20
4.0020209335
 30
0.0
 10
5.3998098845
 20
3.9997202796
 30
0.0
 10
5.3848973903
 20
3.9975421455
 30
0.0
 10
5.3684815939
 20
3.9955004208
 30
0.0
 10
5.3506667322
 20
3.9936108095
 30
0.0
 10
5.3315651287
 20
3.9918846437
 30
0.0
 10
5.3112980071
 20
3.9903339592
 30
0.0
 10
5.2823345069
 20
3.9884790364
 30
0.0
 10
5.2442253116
 20
3.9866945356
 30
0.0
 10
5.1969039605
 20
3.9854099298
 30
0.0
 10
5.1646692827
 20
3.9851228354
 30
0.0
 10
5.1483501553
 20
3.9851228354
 30
0.0
  0
SPLINE
  5
3E5
100
AcDbEntity
  8
0
100
AcDbSpline
 62
7
  6
CONTINUOUS
 70
0
 71
3
 72
15
 73
11
 74
0
 42
0.0000001
 43
0.0000001
 44
0.0000000001
 40
0.0
 40
0.0
 40
0.0
 40
0.0
 40
0.0942457652
 40
0.2003246262
 40
0.3168833503
 40
0.4424226192
 40
0.5752809489
 40
0.7137231613
 40
0.8559617398
 40
1.0
 40
1.0
 40
1.0
 40
1.0
 10
4.9004706604
 20
4.1114224871
 30
0.0
 10
4.9081902518
 20
4.112576492
 30
0.0
 10
4.9246440255
 20
4.1147282788
 30
0.0
 10
4.950749281
 20
4.1174443259
 30
0.0
 10
4.979489681
 20
4.1198116618
 30
0.0
 10
5.0104813928
 20
4.1217948869
 30
0.0
 10
5.0433110251
 20
4.1233676421
 30
0.0
 10
5.0775422654
 20
4.1245064164
 30
0.0
 10
5.112711453
 20
4.1251956721
 30
0.0
 10
5.136421003
 20
4.1253494694
 30
0.0
 10
5.1483501553
 20
4.1253494694
 30
0.0
  0
SPLINE
  5
3E6
100
AcDbEntity
  8
0
100
AcDbSpline
 62
7
  6
CONTINUOUS
 70
0
 71
3
 72
20
 73
16
 74
0
 42
0.0000001
 43
0.0000001
 44
0.0000000001
 40
0.0
 40
0.0
 40
0.0
 40
0.0
 40
0.020767496
 40
0.044752269
 40
0.0733810854
 40
0.1074821315
 40
0.1475279051
 40
0.1937782995
 40
0.2463484817
 40
0.3052823378
 40
0.3705826985
 40
0.4422256637
 40
0.6042374468
 40
0.7904984702
 40
1.0
 40
1.0
 40
1.0
 40
1.0
 10
4.8277712704
 20
4.0787626749
 30
0.0
 10
4.8278489261
 20
4.0792785569
 30
0.0
 10
4.8282318032
 20
4.0803614924
 30
0.0
 10
4.8293314843
 20
4.0818614404
 30
0.0
 10
4.830950802
 20
4.0833335149
 30
0.0
 10
4.8330904465
 20
4.0847886895
 30
0.0
 10
4.8357526148
 20
4.0862317802
 30
0.0
 10
4.8389370638
 20
4.0876618601
 30
0.0
 10
4.8426401459
 20
4.089077777
 30
0.0
 10
4.84685671
 20
4.0904768964
 30
0.0
 10
4.851580758
 20
4.0918567917
 30
0.0
 10
4.8588503763
 20
4.0937450937
 30
0.0
 10
4.8691588077
 20
4.0960008056
 30
0.0
 10
4.8829477826
 20
4.0985001183
 30
0.0
 10
4.8927780738
 20
4.0999940394
 30
0.0
 10
4.8979894338
 20
4.1007282419
 30
0.0
  0
SPLINE
  5
3E7
100
AcDbEntity
  8
0
100
AcDbSpline
 62
7
  6
CONTINUOUS
 70
0
 71
3
 72
9
 73
5
 74
0
 42
0.0000001
 43
0.0000001
 44
0.0000000001
 40
0.0
 40
0.0
 40
0.0
 40
0.0
 40
0.4779832012
 40
1.0
 40
1.0
 40
1.0
 40
1.0
 10
4.9017040824
 20
4.1012418684
 30
0.0
 10
4.9081489958
 20
4.1021165371
 30
0.0
 10
4.9216558028
 20
4.1037766978
 30
0.0
 10
4.9351924253
 20
4.1051681871
 30
0.0
 10
4.9422640386
 20
4.1058369731
 30
0.0
  0
LINE
  5
3E8
100
AcDbEntity
  8
0
100
AcDbLine
 62
7
  6
CONTINUOUS
 10
4.9422640386
 20
4.1058369731
 11
4.9443302165
 21
4.1060307228
  0
LINE
  5
3E9
100
AcDbEntity
  8
0
100
AcDbLine
 62
7
  6
CONTINUOUS
 10
4.9443302165
 20
4.1060307228
 11
4.946682386
 21
4.1062473197
  0
SPLINE
  5
3EA
100
AcDbEntity
  8
0
100
AcDbSpline
 62
7
  6
CONTINUOUS
 70
0
 71
3
 72
11
 73
7
 74
0
 42
0.0000001
 43
0.0000001
 44
0.0000000001
 40
0.0
 40
0.0
 40
0.0
 40
0.0
 40
0.2240426672
 40
0.4701248868
 40
0.7312780793
 40
1.0
 40
1.0
 40
1.0
 40
1.0
 10
4.946682386
 20
4.1062473197
 30
0.0
 10
4.9616973094
 20
4.1076166561
 30
0.0
 10
4.993251783
 20
4.1099759717
 30
0.0
 10
5.0424059169
 20
4.1124431991
 30
0.0
 10
5.0946066096
 20
4.1139543339
 30
0.0
 10
5.1302661737
 20
4.11429209
 30
0.0
 10
5.1483501553
 20
4.11429209
 30
0.0
  0
SPLINE
  5
3EB
100
AcDbEntity
  8
02___PRT_ALL_AXES
100
AcDbSpline
 62
7
  6
CONTINUOUS
 70
0
 71
3
 72
20
 73
16
 74
0
 42
0.0000001
 43
0.0000001
 44
0.0000000001
 40
0.0
 40
0.0
 40
0.0
 40
0.0
 40
0.0208733538
 40
0.0442225103
 40
0.0718653951
 40
0.1048965449
 40
0.1439160731
 40
0.189255696
 40
0.2410995136
 40
0.2995466521
 40
0.3646244204
 40
0.436293913
 40
0.5991261034
 40
0.7873764541
 40
1.0
 40
1.0
 40
1.0
 40
1.0
 10
4.8827264977
 20
4.1440594286
 30
0.0
 10
4.8827264977
 20
4.1444745251
 30
0.0
 10
4.8828974209
 20
4.1453594373
 30
0.0
 10
4.8836184797
 20
4.1466140593
 30
0.0
 10
4.8847728
 20
4.147836589
 30
0.0
 10
4.8863546606
 20
4.1490414491
 30
0.0
 10
4.8883645953
 20
4.1502359566
 30
0.0
 10
4.8908029555
 20
4.1514206664
 30
0.0
 10
4.8936683994
 20
4.1525944212
 30
0.0
 10
4.8969582771
 20
4.1537549848
 30
0.0
 10
4.9006680352
 20
4.1549003488
 30
0.0
 10
4.9064152992
 20
4.1564724057
 30
0.0
 10
4.9146128916
 20
4.1583527033
 30
0.0
 10
4.9256293946
 20
4.1604365587
 30
0.0
 10
4.9335043881
 20
4.1616835674
 30
0.0
 10
4.9376878828
 20
4.1622976458
 30
0.0
  0
LINE
  5
3EC
100
AcDbEntity
  8
02___PRT_ALL_AXES
100
AcDbLine
 62
7
  6
CONTINUOUS
 10
4.950952311
 20
4.1640948784
 11
4.9518262878
 21
4.1642037562
  0
SPLINE
  5
3ED
100
AcDbEntity
  8
02___PRT_ALL_AXES
100
AcDbSpline
 62
7
  6
CONTINUOUS
 70
0
 71
3
 72
14
 73
10
 74
0
 42
0.0000001
 43
0.0000001
 44
0.0000000001
 40
0.0
 40
0.0
 40
0.0
 40
0.0
 40
0.1003548551
 40
0.2102607398
 40
0.3285857866
 40
0.4540505244
 40
0.5853327174
 40
0.7210840788
 40
1.0
 40
1.0
 40
1.0
 40
1.0
 10
4.9518262878
 20
4.1642037562
 30
0.0
 10
4.9583620546
 20
4.1650139509
 30
0.0
 10
4.9720783866
 20
4.1665297353
 30
0.0
 10
4.9935565814
 20
4.1684582733
 30
0.0
 10
5.0167088647
 20
4.1701274322
 30
0.0
 10
5.0412843658
 20
4.1715206206
 30
0.0
 10
5.0670194241
 20
4.1726202934
 30
0.0
 10
5.1028321058
 20
4.1736888844
 30
0.0
 10
5.1300462835
 20
4.1740019385
 30
0.0
 10
5.1483501553
 20
4.1740019385
 30
0.0
  0
SPLINE
  5
3EE
100
AcDbEntity
  8
0
100
AcDbSpline
 62
7
  6
CONTINUOUS
 70
0
 71
3
 72
47
 73
43
 74
0
 42
0.0000001
 43
0.0000001
 44
0.0000000001
 40
0.0
 40
0.0
 40
0.0
 40
0.0
 40
0.1071086472
 40
0.2115644249
 40
0.310690781
 40
0.3574947276
 40
0.402058833
 40
0.4441083707
 40
0.4833872398
 40
0.5196533316
 40
0.5526965335
 40
0.5823189562
 40
0.6083624776
 40
0.6307009295
 40
0.6404523874
 40
0.6492533131
 40
0.6571060861
 40
0.6640195319
 40
0.6700132124
 40
0.6751280576
 40
0.6794386479
 40
0.6830732731
 40
0.6862475612
 40
0.687764954
 40
0.689293352
 40
0.6925506656
 40
0.6963285312
 40
0.7008190191
 40
0.7061350564
 40
0.7123421821
 40
0.7194750468
 40
0.727550069
 40
0.7365742746
 40
0.7465489107
 40
0.7574709376
 40
0.7821110314
 40
0.8103804012
 40
0.8421372729
 40
0.8771945836
 40
0.915347502
 40
0.9563672536
 40
1.0
 40
1.0
 40
1.0
 40
1.0
 10
5.1483501553
 20
3.9851228354
 30
0.0
 10
5.1320346451
 20
3.9851228354
 30
0.0
 10
5.0998069163
 20
3.9854098086
 30
0.0
 10
5.0524953099
 20
3.9866938527
 30
0.0
 10
5.0143933576
 20
3.9884775817
 30
0.0
 10
4.9854346623
 20
3.990331708
 30
0.0
 10
4.9651702036
 20
3.9918817469
 30
0.0
 10
4.9460705163
 20
3.9936072118
 30
0.0
 10
4.9282567641
 20
3.9954960709
 30
0.0
 10
4.9118412144
 20
3.9975370092
 30
0.0
 10
4.8969280557
 20
3.9997143362
 30
0.0
 10
4.8836103764
 20
4.0020141662
 30
0.0
 10
4.8719720037
 20
4.0044200244
 30
0.0
 10
4.8633800981
 20
4.0065826566
 30
0.0
 10
4.8574177175
 20
4.0083887059
 30
0.0
 10
4.8536134343
 20
4.0096982073
 30
0.0
 10
4.8502749312
 20
4.0110222565
 30
0.0
 10
4.8474064286
 20
4.0123587843
 30
0.0
 10
4.8450108938
 20
4.0137066942
 30
0.0
 10
4.8430885799
 20
4.0150659266
 30
0.0
 10
4.8416378314
 20
4.0164407247
 30
0.0
 10
4.8406585386
 20
4.0178422112
 30
0.0
 10
4.8402526412
 20
4.0190701373
 30
0.0
 10
4.8402079034
 20
4.020021435
 30
0.0
 10
4.8403340414
 20
4.0209781386
 30
0.0
 10
4.8408454844
 20
4.022203331
 30
0.0
 10
4.841936422
 20
4.0235962606
 30
0.0
 10
4.8434977528
 20
4.0249668498
 30
0.0
 10
4.8455311001
 20
4.026323267
 30
0.0
 10
4.8480379171
 20
4.0276685315
 30
0.0
 10
4.851017157
 20
4.0290022974
 30
0.0
 10
4.8544654995
 20
4.0303231286
 30
0.0
 10
4.858378558
 20
4.031628735
 30
0.0
 10
4.8627512943
 20
4.0329169505
 30
0.0
 10
4.8694609894
 20
4.0346792714
 30
0.0
 10
4.8789560914
 20
4.0367888909
 30
0.0
 10
4.8916403107
 20
4.0391320169
 30
0.0
 10
4.9059537082
 20
4.0413576371
 30
0.0
 10
4.9218062862
 20
4.0434526439
 30
0.0
 10
4.9390980357
 20
4.0454012831
 30
0.0
 10
4.9577195232
 20
4.0471904945
 30
0.0
 10
4.9705720939
 20
4.048239418
 30
0.0
 10
4.977199767
 20
4.0487384473
 30
0.0
  0
LINE
  5
3EF
100
AcDbEntity
  8
0
100
AcDbLine
 62
7
  6
CONTINUOUS
 10
4.977199767
 20
4.0487384473
 11
4.9780189803
 21
4.048799916
  0
SPLINE
  5
3F0
100
AcDbEntity
  8
0
100
AcDbSpline
 62
7
  6
CONTINUOUS
 70
0
 71
3
 72
9
 73
5
 74
0
 42
0.0000001
 43
0.0000001
 44
0.0000000001
 40
0.0
 40
0.0
 40
0.0
 40
0.0
 40
0.4886864003
 40
1.0
 40
1.0
 40
1.0
 40
1.0
 10
5.018075608
 20
4.0513321472
 30
0.0
 10
5.0333731584
 20
4.0521368371
 30
0.0
 10
5.0646954588
 20
4.0534349969
 30
0.0
 10
5.096036316
 20
4.0541333212
 30
0.0
 10
5.1120628732
 20
4.05434748
 30
0.0
  0
SPLINE
  5
3F1
100
AcDbEntity
  8
0
100
AcDbSpline
 62
7
  6
CONTINUOUS
 70
0
 71
3
 72
11
 73
7
 74
0
 42
0.0000001
 43
0.0000001
 44
0.0000000001
 40
0.0
 40
0.0
 40
0.0
 40
0.0
 40
0.2676835779
 40
0.5282291987
 40
0.7745017871
 40
1.0
 40
1.0
 40
1.0
 40
1.0
 10
5.1483501553
 20
4.11429209
 30
0.0
 10
5.1659402037
 20
4.11429209
 30
0.0
 10
5.2006521183
 20
4.1139718728
 30
0.0
 10
5.2515293545
 20
4.1125406362
 30
0.0
 10
5.2995978584
 20
4.1102000433
 30
0.0
 10
5.3305226712
 20
4.1079661098
 30
0.0
 10
5.3452839121
 20
4.1066708498
 30
0.0
  0
LINE
  5
3F2
100
AcDbEntity
  8
0
100
AcDbLine
 62
7
  6
CONTINUOUS
 10
5.3452839121
 20
4.1066708498
 11
5.346213575
 21
4.1065889645
  0
LINE
  5
3F3
100
AcDbEntity
  8
0
100
AcDbLine
 62
7
  6
CONTINUOUS
 10
5.346776624
 20
4.1065390682
 11
5.3494238424
 21
4.1063013773
  0
LINE
  5
3F4
100
AcDbEntity
  8
0
100
AcDbLine
 62
7
  6
CONTINUOUS
 10
5.3589474379
 20
4.1054021972
 11
5.3596467368
 21
4.1053333335
  0
LINE
  5
3F5
100
AcDbEntity
  8
0
100
AcDbLine
 62
7
  6
CONTINUOUS
 10
5.3596467368
 20
4.1053333335
 11
5.3605201199
 21
4.1052467598
  0
LINE
  5
3F6
100
AcDbEntity
  8
0
100
AcDbLine
 62
7
  6
CONTINUOUS
 10
5.3605201199
 20
4.1052467598
 11
5.3616243455
 21
4.1051363933
  0
SPLINE
  5
3F7
100
AcDbEntity
  8
0
100
AcDbSpline
 62
7
  6
CONTINUOUS
 70
0
 71
3
 72
25
 73
21
 74
0
 42
0.0000001
 43
0.0000001
 44
0.0000000001
 40
0.0
 40
0.0
 40
0.0
 40
0.0
 40
0.2130703147
 40
0.4033811824
 40
0.4893904103
 40
0.5689961348
 40
0.6420258908
 40
0.7083288943
 40
0.7677698524
 40
0.8202594731
 40
0.8657913616
 40
0.9044300482
 40
0.9212226937
 40
0.936381213
 40
0.949976343
 40
0.9621105807
 40
0.972930329
 40
0.9826442009
 40
0.9915417945
 40
1.0
 40
1.0
 40
1.0
 40
1.0
 10
5.3616243455
 20
4.1051363933
 30
0.0
 10
5.3696334616
 20
4.1043321739
 30
0.0
 10
5.3847817059
 20
4.1026590997
 30
0.0
 10
5.4031038476
 20
4.1001648203
 30
0.0
 10
5.4163777713
 20
4.0980151046
 30
0.0
 10
5.4252487249
 20
4.0964033116
 30
0.0
 10
5.4333522138
 20
4.0947427112
 30
0.0
 10
5.4406666915
 20
4.0930384703
 30
0.0
 10
5.4471720356
 20
4.0912956112
 30
0.0
 10
5.4528516114
 20
4.0895190088
 30
0.0
 10
5.4576917297
 20
4.0877148341
 30
0.0
 10
5.4611662929
 20
4.0861276368
 30
0.0
 10
5.4634954085
 20
4.0848259084
 30
0.0
 10
5.4649414895
 20
4.0838907766
 30
0.0
 10
5.4661699188
 20
4.0829510712
 30
0.0
 10
5.467180672
 20
4.082006311
 30
0.0
 10
5.4679734529
 20
4.0810553806
 30
0.0
 10
5.4685465978
 20
4.0800959995
 30
0.0
 10
5.4688956354
 20
4.0791271784
 30
0.0
 10
5.4689749459
 20
4.0784692542
 30
0.0
 10
5.4689750551
 20
4.0781497193
 30
0.0
  0
ENDSEC
  0
SECTION
  2
OBJECTS
  0
DICTIONARY
  5
C
100
AcDbDictionary
280
0
281
1
  3
ACAD_GROUP
350
D
  3
ACAD_MLINESTYLE
350
17
  3
ACAD_LAYOUT
350
1A
  3
ACAD_PLOTSETTINGS
350
19
  3
ACAD_PLOTSTYLENAME
350
E
  0
DICTIONARY
  5
D
102
{ACAD_REACTORS
330
C
102
}
100
AcDbDictionary
280
0
281
1
  0
ACDBDICTIONARYWDFLT
  5
E
102
{ACAD_REACTORS
330
C
102
}
100
AcDbDictionary
281
1
  3
Normal
350
F
100
AcDbDictionaryWithDefault
340
F
  0
DICTIONARY
  5
17
102
{ACAD_REACTORS
330
C
102
}
100
AcDbDictionary
280
0
281
1
  3
Standard
350
18
  0
DICTIONARY
  5
19
102
{ACAD_REACTORS
330
C
102
}
100
AcDbDictionary
281
1
  0
DICTIONARY
  5
1A
102
{ACAD_REACTORS
330
C
102
}
100
AcDbDictionary
281
1
  3
Model
350
3F8
  3
Layout1
350
3F9
  0
ACDBPLACEHOLDER
  5
F
102
{ACAD_REACTORS
330
E
102
}
  0
MLINESTYLE
  5
18
102
{ACAD_REACTORS
330
17
102
}
100
AcDbMlineStyle
  2
STANDARD
 70
0
  3

 62
256
 51
90.0
 52
90.0
 71
2
 49
0.5
 62
256
  6
BYLAYER
 49
-0.5
 62
256
  6
BYLAYER
  0
LAYOUT
  5
3F8
102
{ACAD_REACTORS
330
1A
102
}
100
AcDbPlotSettings
  1

  2
none_device
  4
ANSI_A_(11.00_x_8.50_Inches)
  6

 40
0.0
 41
0.0
 42
0.0
 43
0.0
 44
279.4
 45
215.9
 46
0.0
 47
0.0
 48
0.0
 49
0.0
140
0.0
141
0.0
142
1.0
143
1.0
 70
1024
 72
0
 73
0
 74
0
  7

 75
0
147
1.0
148
0.0
149
0.0
100
AcDbLayout
  1
Model
 70
0
 71
0
 10
0.0
 20
0.0
 11
11.0
 21
8.5
 12
0.0
 22
0.0
 32
0.0
 14
0.0
 24
0.0
 34
0.0
 15
0.0
 25
0.0
 35
0.0
146
0.0
 13
0.0
 23
0.0
 33
0.0
 16
1.0
 26
0.0
 36
0.0
 17
0.0
 27
1.0
 37
0.0
 76
0
330
219
345
0
346
0
  0
LAYOUT
  5
3F9
102
{ACAD_REACTORS
330
1A
102
}
100
AcDbPlotSettings
  1

  2
none_device
  4
ANSI_A_(11.00_x_8.50_Inches)
  6

 40
0.0
 41
0.0
 42
0.0
 43
0.0
 44
279.4
 45
215.9
 46
0.0
 47
0.0
 48
0.0
 49
0.0
140
0.0
141
0.0
142
1.0
143
1.0
 70
0
 72
0
 73
0
 74
0
  7

 75
0
147
1.0
148
0.0
149
0.0
100
AcDbLayout
  1
Layout1
 70
0
 71
1
 10
0.0
 20
0.0
 11
11.0
 21
8.5
 12
0.0
 22
0.0
 32
0.0
 14
0.0
 24
0.0
 34
0.0
 15
0.0
 25
0.0
 35
0.0
146
0.0
 13
0.0
 23
0.0
 33
0.0
 16
1.0
 26
0.0
 36
0.0
 17
0.0
 27
1.0
 37
0.0
 76
0
330
21A
345
0
346
0
  0
ENDSEC
  0
EOF
