999
DXF file: 3-2551_TOP.dxf
999
Pro/ENGINEER 2018400 by Parametric Technology Corporation
  0
SECTION
  2
HEADER
  9
$ACADVER
  1
AC1027
  9
$DWGCODEPAGE
  3
ANSI_1252
  9
$EXTMAX
 10
11.0
 20
8.5
 30
0.0
  9
$EXTMIN
 10
0.0
 20
0.0
 30
0.0
  9
$LIMMIN
 10
0.0
 20
0.0
  9
$LIMMAX
 10
11.0
 20
8.5
  9
$VIEWCTR
 10
5.5
 20
4.25
  9
$VIEWSIZE
 40
8.5
  9
$CLAYER
  8
0
  9
$LTSCALE
 40
0.605
  9
$CELTYPE
  6
BYLAYER
  9
$DIMSCALE
 40
1.0
  9
$DIMASZ
 40
0.1
  9
$DIMEXO
 40
0.0625
  9
$DIMDLI
 40
0.418
  9
$DIMEXE
 40
0.125
  9
$DIMCEN
 40
0.099
  9
$DIMLFAC
 40
1.0
  9
$DIMBLK
  1
_FILLED
  9
$DIMALT
 70
1
  9
$DIMALTD
 70
2
  9
$DIMALTTD
 70
2
  9
$DIMALTF
 40
25.4
  9
$DIMTXT
 40
0.08
  9
$DIMTOL
 70
1
  9
$DIMLIM
 70
0
  9
$DIMTFAC
 40
1.0
  9
$DIMTP
 40
0.001
  9
$DIMTM
 40
0.001
  9
$DIMGAP
 40
0.09
  9
$DIMDSEP
 70
46
  9
$AUNITS
 70
0
  9
$PDMODE
 70
3
  9
$PDSIZE
 40
0.3125
  9
$HANDSEED
  5
340
  9
$TILEMODE
 70
1
  9
$MEASUREMENT
 70
0
  9
$INSUNITS
 70
1
  0
ENDSEC
  0
SECTION
  2
CLASSES
  0
CLASS
  1
ACDBDICTIONARYWDFLT
  2
AcDbDictionaryWithDefault
  3
AutoCAD 2000
 90
0
 91
1
280
0
281
0
  0
CLASS
  1
ACDBPLACEHOLDER
  2
AcDbPlaceHolder
  3
AutoCAD 2000
 90
0
 91
1
280
0
281
0
  0
CLASS
  1
LAYOUT
  2
AcDbLayout
  3
AutoCAD 2000
 90
0
 91
0
280
0
281
0
  0
ENDSEC
  0
SECTION
  2
TABLES
  0
TABLE
  2
VPORT
  5
8
100
AcDbSymbolTable
 70
2
  0
VPORT
  5
1F4
100
AcDbSymbolTableRecord
100
AcDbViewportTableRecord
  2
*ACTIVE
 70
0
 10
0.0
 20
0.0
 11
1.0
 21
1.0
 12
5.5
 22
4.25
 13
0.0
 23
0.0
 14
1.0
 24
1.0
 15
0.0
 25
0.0
 16
0.0
 26
0.0
 36
1.0
 17
0.0
 27
0.0
 37
0.0
 40
8.5
 41
1.2941176471
 42
50.0
 43
0.0
 44
0.0
 50
0.0
 51
0.0
 71
0
 72
100
 73
1
 74
1
 75
0
 76
0
 77
0
 78
0
  0
ENDTAB
  0
TABLE
  2
LTYPE
  5
5
100
AcDbSymbolTable
 70
6
  0
LTYPE
  5
14
100
AcDbSymbolTableRecord
100
AcDbLinetypeTableRecord
  2
BYBLOCK
 70
0
  3

 72
65
 73
0
 40
0.0
  0
LTYPE
  5
15
100
AcDbSymbolTableRecord
100
AcDbLinetypeTableRecord
  2
BYLAYER
 70
0
  3

 72
65
 73
0
 40
0.0
  0
LTYPE
  5
16
100
AcDbSymbolTableRecord
100
AcDbLinetypeTableRecord
  2
CONTINUOUS
 70
64
  3
Solid line
 72
65
 73
0
 40
0.0
  0
LTYPE
  5
1F5
100
AcDbSymbolTableRecord
100
AcDbLinetypeTableRecord
  2
CENTER
 70
64
  3
____ _ ____ _ ____ _ ____ _ ____ _ ____ _ ____
 72
65
 73
4
 40
0.6
 49
0.375
 74
0
 49
-0.075
 74
0
 49
0.075
 74
0
 49
-0.075
 74
0
  0
LTYPE
  5
1F6
100
AcDbSymbolTableRecord
100
AcDbLinetypeTableRecord
  2
HIDDEN
 70
64
  3
- - - - - - - - - - - - - - - - - - - -
 72
65
 73
2
 40
0.2
 49
0.1
 74
0
 49
-0.1
 74
0
  0
LTYPE
  5
1F7
100
AcDbSymbolTableRecord
100
AcDbLinetypeTableRecord
  2
PHANTOM
 70
64
  3
_____ _ _ _____ _ _ _____ _ _ _____
 72
65
 73
6
 40
0.8
 49
0.45
 74
0
 49
-0.05
 74
0
 49
0.1
 74
0
 49
-0.05
 74
0
 49
0.1
 74
0
 49
-0.05
 74
0
  0
LTYPE
  5
1F8
100
AcDbSymbolTableRecord
100
AcDbLinetypeTableRecord
  2
DOT
 70
64
  3
. . . . . . . . . . . . . . . . . . . .
 72
65
 73
2
 40
0.2
 49
0.1
 74
0
 49
-0.1
 74
0
  0
LTYPE
  5
1F9
100
AcDbSymbolTableRecord
100
AcDbLinetypeTableRecord
  2
DASHED
 70
64
  3
- - - - - - - - - - - - - - - - - - - -
 72
65
 73
2
 40
0.2
 49
0.1
 74
0
 49
-0.1
 74
0
  0
ENDTAB
  0
TABLE
  2
LAYER
  5
2
100
AcDbSymbolTable
 70
36
  0
LAYER
  5
10
100
AcDbSymbolTableRecord
100
AcDbLayerTableRecord
  2
0
 70
0
 62
7
  6
CONTINUOUS
370
-3
390
F
  0
LAYER
  5
1FA
100
AcDbSymbolTableRecord
100
AcDbLayerTableRecord
  2
DEFAULT_1
 70
0
 62
7
  6
CENTER
370
-3
390
F
  0
LAYER
  5
1FB
100
AcDbSymbolTableRecord
100
AcDbLayerTableRecord
  2
DEFAULT_2
 70
0
 62
8
  6
HIDDEN
370
-3
390
F
  0
LAYER
  5
1FC
100
AcDbSymbolTableRecord
100
AcDbLayerTableRecord
  2
DEFAULT_3
 70
0
 62
7
  6
PHANTOM
370
-3
390
F
  0
LAYER
  5
1FD
100
AcDbSymbolTableRecord
100
AcDbLayerTableRecord
  2
01___PRT_ALL_DTM_PLN
 70
0
 62
7
  6
CONTINUOUS
370
-3
390
F
  0
LAYER
  5
1FE
100
AcDbSymbolTableRecord
100
AcDbLayerTableRecord
  2
01___PRT_DEF_DTM_PLN
 70
0
 62
7
  6
CONTINUOUS
370
-3
390
F
  0
LAYER
  5
1FF
100
AcDbSymbolTableRecord
100
AcDbLayerTableRecord
  2
02___PRT_ALL_AXES
 70
0
 62
7
  6
CONTINUOUS
370
-3
390
F
  0
LAYER
  5
200
100
AcDbSymbolTableRecord
100
AcDbLayerTableRecord
  2
03___PRT_ALL_CURVES
 70
0
 62
7
  6
CONTINUOUS
370
-3
390
F
  0
LAYER
  5
201
100
AcDbSymbolTableRecord
100
AcDbLayerTableRecord
  2
04___PRT_ALL_DTM_PNT
 70
0
 62
7
  6
CONTINUOUS
370
-3
390
F
  0
LAYER
  5
202
100
AcDbSymbolTableRecord
100
AcDbLayerTableRecord
  2
05___PRT_ALL_DTM_CSYS
 70
0
 62
7
  6
CONTINUOUS
370
-3
390
F
  0
LAYER
  5
203
100
AcDbSymbolTableRecord
100
AcDbLayerTableRecord
  2
05___PRT_DEF_DTM_CSYS
 70
0
 62
7
  6
CONTINUOUS
370
-3
390
F
  0
LAYER
  5
204
100
AcDbSymbolTableRecord
100
AcDbLayerTableRecord
  2
06___PRT_ALL_SURFS
 70
0
 62
7
  6
CONTINUOUS
370
-3
390
F
  0
LAYER
  5
205
100
AcDbSymbolTableRecord
100
AcDbLayerTableRecord
  2
ALL_FEATURES
 70
0
 62
7
  6
CONTINUOUS
370
-3
390
F
  0
LAYER
  5
206
100
AcDbSymbolTableRecord
100
AcDbLayerTableRecord
  2
AXES_FEATURES
 70
0
 62
7
  6
CONTINUOUS
370
-3
390
F
  0
LAYER
  5
207
100
AcDbSymbolTableRecord
100
AcDbLayerTableRecord
  2
CHAMFER_FEATURES
 70
0
 62
7
  6
CONTINUOUS
370
-3
390
F
  0
LAYER
  5
208
100
AcDbSymbolTableRecord
100
AcDbLayerTableRecord
  2
CUT_FEATURES
 70
0
 62
7
  6
CONTINUOUS
370
-3
390
F
  0
LAYER
  5
209
100
AcDbSymbolTableRecord
100
AcDbLayerTableRecord
  2
DATUM_CURVES
 70
0
 62
7
  6
CONTINUOUS
370
-3
390
F
  0
LAYER
  5
20A
100
AcDbSymbolTableRecord
100
AcDbLayerTableRecord
  2
DATUM_PLANES
 70
0
 62
7
  6
CONTINUOUS
370
-3
390
F
  0
LAYER
  5
20B
100
AcDbSymbolTableRecord
100
AcDbLayerTableRecord
  2
DEFAULT_COORDINATE_SYSTEM
 70
0
 62
7
  6
CONTINUOUS
370
-3
390
F
  0
LAYER
  5
20C
100
AcDbSymbolTableRecord
100
AcDbLayerTableRecord
  2
DEFAULT_DATUM_AXES
 70
0
 62
7
  6
CONTINUOUS
370
-3
390
F
  0
LAYER
  5
20D
100
AcDbSymbolTableRecord
100
AcDbLayerTableRecord
  2
DEFAULT_DATUM_CURVES
 70
0
 62
7
  6
CONTINUOUS
370
-3
390
F
  0
LAYER
  5
20E
100
AcDbSymbolTableRecord
100
AcDbLayerTableRecord
  2
DEFAULT_DATUM_PLANES
 70
0
 62
7
  6
CONTINUOUS
370
-3
390
F
  0
LAYER
  5
20F
100
AcDbSymbolTableRecord
100
AcDbLayerTableRecord
  2
DEFAULT_SURFACES
 70
0
 62
7
  6
CONTINUOUS
370
-3
390
F
  0
LAYER
  5
210
100
AcDbSymbolTableRecord
100
AcDbLayerTableRecord
  2
DIMENSIONS
 70
0
 62
7
  6
CONTINUOUS
370
-3
390
F
  0
LAYER
  5
211
100
AcDbSymbolTableRecord
100
AcDbLayerTableRecord
  2
HOLE_FEATURES
 70
0
 62
7
  6
CONTINUOUS
370
-3
390
F
  0
LAYER
  5
212
100
AcDbSymbolTableRecord
100
AcDbLayerTableRecord
  2
NONE
 70
0
 62
7
  6
CONTINUOUS
370
-3
390
F
  0
LAYER
  5
213
100
AcDbSymbolTableRecord
100
AcDbLayerTableRecord
  2
PLATED_SURFACE_AREA
 70
0
 62
7
  6
CONTINUOUS
370
-3
390
F
  0
LAYER
  5
214
100
AcDbSymbolTableRecord
100
AcDbLayerTableRecord
  2
PROTRUSION_FEATURES
 70
0
 62
7
  6
CONTINUOUS
370
-3
390
F
  0
LAYER
  5
215
100
AcDbSymbolTableRecord
100
AcDbLayerTableRecord
  2
WETTED_SURFACES
 70
0
 62
7
  6
CONTINUOUS
370
-3
390
F
  0
LAYER
  5
216
100
AcDbSymbolTableRecord
100
AcDbLayerTableRecord
  2
XSEC_DATUMS
 70
0
 62
7
  6
CONTINUOUS
370
-3
390
F
  0
ENDTAB
  0
TABLE
  2
STYLE
  5
3
100
AcDbSymbolTable
 70
1
  0
STYLE
  5
11
100
AcDbSymbolTableRecord
100
AcDbTextStyleTableRecord
  2
STANDARD
 70
0
 40
0.0
 41
0.8
 50
0.0
 71
0
 42
0.2
  3
txt
  4

  0
STYLE
  5
217
100
AcDbSymbolTableRecord
100
AcDbTextStyleTableRecord
  2
TEXTSTYLE_1
 70
0
 40
0.0
 41
0.8
 50
0.0
 71
0
 42
0.2
  3
gdt
  4

  0
ENDTAB
  0
TABLE
  2
VIEW
  5
6
100
AcDbSymbolTable
 70
0
  0
ENDTAB
  0
TABLE
  2
UCS
  5
7
100
AcDbSymbolTable
 70
0
  0
ENDTAB
  0
TABLE
  2
APPID
  5
9
100
AcDbSymbolTable
 70
1
  0
APPID
  5
218
100
AcDbSymbolTableRecord
100
AcDbRegAppTableRecord
  2
ACAD
 70
0
  0
ENDTAB
  0
TABLE
  2
BLOCK_RECORD
  5
1
100
AcDbSymbolTable
 70
0
  0
BLOCK_RECORD
  5
219
100
AcDbSymbolTableRecord
100
AcDbBlockTableRecord
  2
*Model_Space
  0
BLOCK_RECORD
  5
21A
100
AcDbSymbolTableRecord
100
AcDbBlockTableRecord
  2
*Paper_Space
  0
BLOCK_RECORD
  5
21B
100
AcDbSymbolTableRecord
100
AcDbBlockTableRecord
  2
_FILLED
  0
ENDTAB
  0
TABLE
  2
DIMSTYLE
  5
A
100
AcDbSymbolTable
 70
1
100
AcDbDimStyleTable
 71
0
  0
DIMSTYLE
105
21C
100
AcDbSymbolTableRecord
100
AcDbDimStyleTableRecord
  2
STANDARD
 70
0
  3

  4

 40
1.0
 41
0.1
 42
0.0625
 43
0.38
 44
0.125
 45
0.0
 46
0.0
 47
0.001
 48
0.001
140
0.08
141
0.09
142
0.0
143
25.4
144
1.0
145
0.0
146
1.0
147
0.09
 71
1.0
 72
0.0
 73
1
 74
1
 75
0
 76
0
 77
0
 78
4
 79
1
170
1
171
2
172
0
173
0
174
0
175
0
176
0
177
0
178
0
270
2
179
3
271
3
272
3
273
2
274
2
275
0
280
0
281
0
282
0
283
1
284
4
285
0
286
0
287
3
288
0
340
11
278
46
341
21B
342
21B
343
21B
344
21B
  0
ENDTAB
  0
ENDSEC
  0
SECTION
  2
BLOCKS
  0
BLOCK
  5
20
100
AcDbEntity
  8
0
100
AcDbBlockBegin
  2
*Model_Space
 70
0
 10
0.0
 20
0.0
 30
0.0
  3
*Model_Space
  1

  0
ENDBLK
  5
21
100
AcDbEntity
  8
0
100
AcDbBlockEnd
  0
BLOCK
  5
1C
100
AcDbEntity
  8
0
100
AcDbBlockBegin
  2
*Paper_Space
 70
0
 10
0.0
 20
0.0
 30
0.0
  3
*Paper_Space
  1

  0
ENDBLK
  5
1D
100
AcDbEntity
  8
0
100
AcDbBlockEnd
  0
BLOCK
  5
21D
100
AcDbEntity
  8
0
100
AcDbBlockBegin
  2
_FILLED
 70
64
 10
0.0
 20
0.0
  3
_FILLED
  1

  0
SOLID
  5
21E
100
AcDbEntity
  8
0
  6
BYBLOCK
 62
0
100
AcDbTrace
 10
0.0
 20
0.0
 11
-1.0
 21
0.2
 12
-1.0
 22
-0.2
 13
-1.0
 23
-0.2
  0
ENDBLK
  5
21F
100
AcDbEntity
  8
0
  6
BYBLOCK
 62
0
100
AcDbBlockEnd
  0
ENDSEC
  0
SECTION
  2
ENTITIES
  0
MTEXT
  5
220
100
AcDbEntity
  8
0
100
AcDbMText
 62
2
  6
CONTINUOUS
  7
STANDARD
 71
3
 72
1
 10
1.8855007764
 20
0.8333492178
 30
0.0
 11
1.0
 21
0.0
 31
0.0
 73
2
 44
0.9
  1
SCALE  .500
 40
0.08
 41
0.704
  0
LINE
  5
221
100
AcDbEntity
  8
0
100
AcDbLine
 62
7
  6
CONTINUOUS
 10
0.0
 20
0.0
 11
0.0
 21
8.5
  0
LINE
  5
222
100
AcDbEntity
  8
0
100
AcDbLine
 62
7
  6
CONTINUOUS
 10
0.0
 20
0.0
 11
11.0
 21
0.0
  0
LINE
  5
223
100
AcDbEntity
  8
0
100
AcDbLine
 62
7
  6
CONTINUOUS
 10
0.0
 20
8.5
 11
11.0
 21
8.5
  0
LINE
  5
224
100
AcDbEntity
  8
0
100
AcDbLine
 62
7
  6
CONTINUOUS
 10
11.0
 20
0.0
 11
11.0
 21
8.5
  0
LINE
  5
225
100
AcDbEntity
  8
0
100
AcDbLine
 62
7
  6
CONTINUOUS
 10
1.6248501553
 20
5.0642920865
 11
1.6248501553
 21
5.2892891453
  0
LINE
  5
226
100
AcDbEntity
  8
0
100
AcDbLine
 62
7
  6
CONTINUOUS
 10
1.6348501553
 20
5.0542920865
 11
1.6348501553
 21
5.2992920865
  0
LINE
  5
227
100
AcDbEntity
  8
0
100
AcDbLine
 62
7
  6
CONTINUOUS
 10
1.6615329571
 20
5.0542920865
 11
1.6615329571
 21
5.2992920865
  0
LINE
  5
228
100
AcDbEntity
  8
0
100
AcDbLine
 62
7
  6
CONTINUOUS
 10
1.6669011713
 20
5.0527290455
 11
1.6669011713
 21
5.3008551276
  0
LINE
  5
229
100
AcDbEntity
  8
02___PRT_ALL_AXES
100
AcDbLine
 62
7
  6
CONTINUOUS
 10
1.9093501553
 20
4.9844118352
 11
1.9093501553
 21
5.3691723378
  0
LINE
  5
22A
100
AcDbEntity
  8
02___PRT_ALL_AXES
100
AcDbLine
 62
7
  6
CONTINUOUS
 10
2.0948501553
 20
5.0006050378
 11
2.0948501553
 21
5.3529791352
  0
LINE
  5
22B
100
AcDbEntity
  8
02___PRT_ALL_AXES
100
AcDbLine
 62
7
  6
CONTINUOUS
 10
2.3484301449
 20
5.0497122983
 11
2.3484301449
 21
5.3038718747
  0
LINE
  5
22C
100
AcDbEntity
  8
02___PRT_ALL_AXES
100
AcDbLine
 62
7
  6
CONTINUOUS
 10
2.6098501553
 20
5.0747920865
 11
2.6098501553
 21
5.2787920865
  0
LINE
  5
22D
100
AcDbEntity
  8
ALL_FEATURES
100
AcDbLine
 62
7
  6
CONTINUOUS
 10
2.6523501553
 20
6.8377920865
 11
2.6523501553
 21
6.7977920865
  0
LINE
  5
22E
100
AcDbEntity
  8
ALL_FEATURES
100
AcDbLine
 62
7
  6
CONTINUOUS
 10
2.7548501553
 20
6.7127920865
 11
2.7548501553
 21
6.6777920865
  0
LINE
  5
22F
100
AcDbEntity
  8
0
100
AcDbLine
 62
7
  6
CONTINUOUS
 10
2.7598501553
 20
5.0692920865
 11
2.7598501553
 21
5.2842920865
  0
LINE
  5
230
100
AcDbEntity
  8
0
100
AcDbLine
 62
7
  6
CONTINUOUS
 10
2.7698501553
 20
5.0592920865
 11
2.7698501553
 21
5.2942920865
  0
LINE
  5
231
100
AcDbEntity
  8
0
100
AcDbLine
 62
7
  6
CONTINUOUS
 10
2.7898501553
 20
5.0592920865
 11
2.7898501553
 21
5.2942920865
  0
LINE
  5
232
100
AcDbEntity
  8
0
100
AcDbLine
 62
7
  6
CONTINUOUS
 10
2.7998501553
 20
5.0692920865
 11
2.7998501553
 21
5.2842920865
  0
LINE
  5
233
100
AcDbEntity
  8
02___PRT_ALL_AXES
100
AcDbLine
 62
7
  6
CONTINUOUS
 10
2.8473501553
 20
6.6127920865
 11
2.8473501553
 21
6.5767920865
  0
LINE
  5
234
100
AcDbEntity
  8
02___PRT_ALL_AXES
100
AcDbLine
 62
7
  6
CONTINUOUS
 10
2.8473501553
 20
6.4987920865
 11
2.8473501553
 21
6.4627920865
  0
LINE
  5
235
100
AcDbEntity
  8
0
100
AcDbLine
 62
7
  6
CONTINUOUS
 10
2.8998501553
 20
6.4477920865
 11
2.8998501553
 21
5.612444079
  0
LINE
  5
236
100
AcDbEntity
  8
0
100
AcDbLine
 62
7
  6
CONTINUOUS
 10
3.0013501553
 20
5.0018533174
 11
3.0013501553
 21
5.0268533174
  0
LINE
  5
237
100
AcDbEntity
  8
0
100
AcDbLine
 62
7
  6
CONTINUOUS
 10
3.0013501553
 20
5.0867920865
 11
3.0013501553
 21
5.1117920865
  0
LINE
  5
238
100
AcDbEntity
  8
0
100
AcDbLine
 62
7
  6
CONTINUOUS
 10
3.0298501553
 20
4.9964312951
 11
3.0298501553
 21
4.9968533174
  0
LINE
  5
239
100
AcDbEntity
  8
0
100
AcDbLine
 62
7
  6
CONTINUOUS
 10
3.0373501553
 20
5.1167920865
 11
3.0373501553
 21
5.1290841453
  0
LINE
  5
23A
100
AcDbEntity
  8
0
100
AcDbLine
 62
7
  6
CONTINUOUS
 10
3.0748501553
 20
5.4692920865
 11
3.0748501553
 21
5.4827920865
  0
LINE
  5
23B
100
AcDbEntity
  8
0
100
AcDbLine
 62
7
  6
CONTINUOUS
 10
3.2848501553
 20
5.4692920865
 11
3.2848501553
 21
5.4827920865
  0
LINE
  5
23C
100
AcDbEntity
  8
0
100
AcDbLine
 62
7
  6
CONTINUOUS
 10
3.3223501553
 20
5.1167920865
 11
3.3223501553
 21
5.4228566475
  0
LINE
  5
23D
100
AcDbEntity
  8
0
100
AcDbLine
 62
7
  6
CONTINUOUS
 10
3.3298501553
 20
4.9964312951
 11
3.3298501553
 21
4.9968533174
  0
LINE
  5
23E
100
AcDbEntity
  8
0
100
AcDbLine
 62
7
  6
CONTINUOUS
 10
3.3583501553
 20
5.0018533174
 11
3.3583501553
 21
5.0268533174
  0
LINE
  5
23F
100
AcDbEntity
  8
0
100
AcDbLine
 62
7
  6
CONTINUOUS
 10
3.3583501553
 20
5.0867920865
 11
3.3583501553
 21
5.1117920865
  0
LINE
  5
240
100
AcDbEntity
  8
0
100
AcDbLine
 62
7
  6
CONTINUOUS
 10
3.4598501553
 20
6.4477920865
 11
3.4598501553
 21
5.612444079
  0
LINE
  5
241
100
AcDbEntity
  8
02___PRT_ALL_AXES
100
AcDbLine
 62
7
  6
CONTINUOUS
 10
3.5123501553
 20
6.6127920865
 11
3.5123501553
 21
6.5767920865
  0
LINE
  5
242
100
AcDbEntity
  8
02___PRT_ALL_AXES
100
AcDbLine
 62
7
  6
CONTINUOUS
 10
3.5123501553
 20
6.4987920865
 11
3.5123501553
 21
6.4627920865
  0
LINE
  5
243
100
AcDbEntity
  8
0
100
AcDbLine
 62
7
  6
CONTINUOUS
 10
2.8004237317
 20
5.2719729345
 11
3.0202932127
 21
5.4259272025
  0
LINE
  5
244
100
AcDbEntity
  8
0
100
AcDbLine
 62
7
  6
CONTINUOUS
 10
2.9094032546
 20
5.1163340461
 11
2.9744070978
 21
5.1618502271
  0
LINE
  5
245
100
AcDbEntity
  8
ALL_FEATURES
100
AcDbLine
 62
7
  6
CONTINUOUS
 10
3.6048501553
 20
6.7127920865
 11
3.6048501553
 21
6.6777920865
  0
LINE
  5
246
100
AcDbEntity
  8
ALL_FEATURES
100
AcDbLine
 62
7
  6
CONTINUOUS
 10
3.7073501553
 20
6.8377920865
 11
3.7073501553
 21
6.7977920865
  0
LINE
  5
247
100
AcDbEntity
  8
0
100
AcDbLine
 62
7
  6
CONTINUOUS
 10
2.8004237317
 20
5.2719729345
 11
2.9094032546
 21
5.1163340461
  0
LINE
  5
248
100
AcDbEntity
  8
0
100
AcDbLine
 62
7
  6
CONTINUOUS
 10
4.8827259689
 20
3.5352920865
 11
5.4139743416
 21
3.5352920865
  0
LINE
  5
249
100
AcDbEntity
  8
ALL_FEATURES
100
AcDbLine
 62
7
  6
CONTINUOUS
 10
4.5858501553
 20
6.8377920865
 11
4.5858501553
 21
6.8452920865
  0
LINE
  5
24A
100
AcDbEntity
  8
02___PRT_ALL_AXES
100
AcDbLine
 62
7
  6
CONTINUOUS
 10
4.6208501553
 20
6.7377920865
 11
4.6208501553
 21
6.6977920865
  0
LINE
  5
24B
100
AcDbEntity
  8
02___PRT_ALL_AXES
100
AcDbLine
 62
7
  6
CONTINUOUS
 10
4.8277251553
 20
2.8432062841
 11
4.8277251553
 21
2.838002064
  0
LINE
  5
24C
100
AcDbEntity
  8
02___PRT_ALL_AXES
100
AcDbLine
 62
7
  6
CONTINUOUS
 10
4.8326001553
 20
6.5302920865
 11
4.8326001553
 21
6.3277920865
  0
LWPOLYLINE
  5
24D
100
AcDbEntity
  8
0
100
AcDbPolyline
 62
7
  6
CONTINUOUS
 90
9
 70
0
 10
4.8831727089
 20
6.3277920865
 10
4.8831051042
 20
6.1133089843
 10
4.8830042555
 20
5.7439819176
 10
4.882918969
 20
5.3746548496
 10
4.8828492449
 20
5.0053277809
 10
4.8827950832
 20
4.6360007136
 10
4.8827564838
 20
4.2666736484
 10
4.8827334467
 20
3.8973465844
 10
4.8827259689
 20
2.8506835976
  0
LWPOLYLINE
  5
24E
100
AcDbEntity
  8
0
100
AcDbPolyline
 62
7
  6
CONTINUOUS
 90
8
 70
0
 10
5.4139668639
 20
3.8973465844
 10
5.4139438268
 20
4.2666736484
 10
5.4139052274
 20
4.6360007136
 10
5.4138510656
 20
5.0053277809
 10
5.4137813415
 20
5.3746548496
 10
5.4136960551
 20
5.7439819176
 10
5.4135952063
 20
6.1133089843
 10
5.4135276017
 20
6.3277920865
  0
LINE
  5
24F
100
AcDbEntity
  8
0
100
AcDbLine
 62
7
  6
CONTINUOUS
 10
5.4139743416
 20
2.8506835976
 11
5.4139668639
 21
3.8973465844
  0
LINE
  5
250
100
AcDbEntity
  8
02___PRT_ALL_AXES
100
AcDbLine
 62
7
  6
CONTINUOUS
 10
8.2018501553
 20
5.3529791352
 11
7.9482701656
 21
5.3038718747
  0
LINE
  5
251
100
AcDbEntity
  8
0
100
AcDbLine
 62
7
  6
CONTINUOUS
 10
3.032619386
 20
4.9919565137
 11
3.3270809245
 21
4.9919565137
  0
LINE
  5
252
100
AcDbEntity
  8
0
100
AcDbLine
 62
7
  6
CONTINUOUS
 10
6.969619386
 20
4.9919565137
 11
7.2640809245
 21
4.9919565137
  0
LINE
  5
253
100
AcDbEntity
  8
02___PRT_ALL_AXES
100
AcDbLine
 62
7
  6
CONTINUOUS
 10
2.0948501553
 20
5.3529791352
 11
2.3484301449
 21
5.3038718747
  0
LINE
  5
254
100
AcDbEntity
  8
02___PRT_ALL_AXES
100
AcDbLine
 62
7
  6
CONTINUOUS
 10
5.4641001553
 20
6.5302920865
 11
5.4641001553
 21
6.3277920865
  0
LINE
  5
255
100
AcDbEntity
  8
02___PRT_ALL_AXES
100
AcDbLine
 62
7
  6
CONTINUOUS
 10
5.4689751553
 20
2.8432062841
 11
5.4689751553
 21
2.838002064
  0
LINE
  5
256
100
AcDbEntity
  8
02___PRT_ALL_AXES
100
AcDbLine
 62
7
  6
CONTINUOUS
 10
5.6758501553
 20
6.7377920865
 11
5.6758501553
 21
6.6977920865
  0
LINE
  5
257
100
AcDbEntity
  8
ALL_FEATURES
100
AcDbLine
 62
7
  6
CONTINUOUS
 10
5.7108501553
 20
6.8377920865
 11
5.7108501553
 21
6.8452920865
  0
LINE
  5
258
100
AcDbEntity
  8
0
100
AcDbLine
 62
7
  6
CONTINUOUS
 10
3.0298501553
 20
4.9964312951
 11
3.3298501553
 21
4.9964312951
  0
LINE
  5
259
100
AcDbEntity
  8
0
100
AcDbLine
 62
7
  6
CONTINUOUS
 10
6.9668501553
 20
4.9964312951
 11
7.2668501553
 21
4.9964312951
  0
LINE
  5
25A
100
AcDbEntity
  8
0
100
AcDbLine
 62
7
  6
CONTINUOUS
 10
3.0063501553
 20
4.9968533174
 11
3.3533501553
 21
4.9968533174
  0
LINE
  5
25B
100
AcDbEntity
  8
0
100
AcDbLine
 62
7
  6
CONTINUOUS
 10
6.9433501553
 20
4.9968533174
 11
7.2903501553
 21
4.9968533174
  0
LINE
  5
25C
100
AcDbEntity
  8
0
100
AcDbLine
 62
7
  6
CONTINUOUS
 10
3.0013501553
 20
5.0018533174
 11
3.3583501553
 21
5.0018533174
  0
LINE
  5
25D
100
AcDbEntity
  8
0
100
AcDbLine
 62
7
  6
CONTINUOUS
 10
6.9383501553
 20
5.0018533174
 11
7.2953501553
 21
5.0018533174
  0
LINE
  5
25E
100
AcDbEntity
  8
02___PRT_ALL_AXES
100
AcDbLine
 62
7
  6
CONTINUOUS
 10
3.3583501553
 20
5.0268533174
 11
3.0013501553
 21
5.0268533174
  0
LINE
  5
25F
100
AcDbEntity
  8
02___PRT_ALL_AXES
100
AcDbLine
 62
7
  6
CONTINUOUS
 10
6.9383501553
 20
5.0268533174
 11
7.2953501553
 21
5.0268533174
  0
LINE
  5
260
100
AcDbEntity
  8
02___PRT_ALL_AXES
100
AcDbLine
 62
7
  6
CONTINUOUS
 10
8.6618501553
 20
5.0542920865
 11
8.6351673534
 21
5.0542920865
  0
LINE
  5
261
100
AcDbEntity
  8
02___PRT_ALL_AXES
100
AcDbLine
 62
7
  6
CONTINUOUS
 10
1.6348501553
 20
5.0542920865
 11
1.6615329571
 21
5.0542920865
  0
LINE
  5
262
100
AcDbEntity
  8
02___PRT_ALL_AXES
100
AcDbLine
 62
7
  6
CONTINUOUS
 10
7.5268501553
 20
5.0592920865
 11
7.5068501553
 21
5.0592920865
  0
LINE
  5
263
100
AcDbEntity
  8
02___PRT_ALL_AXES
100
AcDbLine
 62
7
  6
CONTINUOUS
 10
2.7698501553
 20
5.0592920865
 11
2.7898501553
 21
5.0592920865
  0
LINE
  5
264
100
AcDbEntity
  8
02___PRT_ALL_AXES
100
AcDbLine
 62
7
  6
CONTINUOUS
 10
7.6868501553
 20
5.0747920865
 11
7.5368501553
 21
5.0747920865
  0
LINE
  5
265
100
AcDbEntity
  8
02___PRT_ALL_AXES
100
AcDbLine
 62
7
  6
CONTINUOUS
 10
2.6098501553
 20
5.0747920865
 11
2.7598501553
 21
5.0747920865
  0
LINE
  5
266
100
AcDbEntity
  8
02___PRT_ALL_AXES
100
AcDbLine
 62
7
  6
CONTINUOUS
 10
3.3583501553
 20
5.0867920865
 11
3.0013501553
 21
5.0867920865
  0
LINE
  5
267
100
AcDbEntity
  8
02___PRT_ALL_AXES
100
AcDbLine
 62
7
  6
CONTINUOUS
 10
6.9383501553
 20
5.0867920865
 11
7.2953501553
 21
5.0867920865
  0
LINE
  5
268
100
AcDbEntity
  8
0
100
AcDbLine
 62
7
  6
CONTINUOUS
 10
3.0013501553
 20
5.1117920865
 11
3.3583501553
 21
5.1117920865
  0
LINE
  5
269
100
AcDbEntity
  8
0
100
AcDbLine
 62
7
  6
CONTINUOUS
 10
6.9383501553
 20
5.1117920865
 11
7.2953501553
 21
5.1117920865
  0
LINE
  5
26A
100
AcDbEntity
  8
0
100
AcDbLine
 62
7
  6
CONTINUOUS
 10
3.0063501553
 20
5.1167920865
 11
3.3533501553
 21
5.1167920865
  0
LINE
  5
26B
100
AcDbEntity
  8
0
100
AcDbLine
 62
7
  6
CONTINUOUS
 10
6.9433501553
 20
5.1167920865
 11
7.2903501553
 21
5.1167920865
  0
LINE
  5
26C
100
AcDbEntity
  8
02___PRT_ALL_AXES
100
AcDbLine
 62
7
  6
CONTINUOUS
 10
7.6868501553
 20
5.2787920865
 11
7.5368501553
 21
5.2787920865
  0
LINE
  5
26D
100
AcDbEntity
  8
02___PRT_ALL_AXES
100
AcDbLine
 62
7
  6
CONTINUOUS
 10
2.6098501553
 20
5.2787920865
 11
2.7598501553
 21
5.2787920865
  0
LINE
  5
26E
100
AcDbEntity
  8
02___PRT_ALL_AXES
100
AcDbLine
 62
7
  6
CONTINUOUS
 10
7.5268501553
 20
5.2942920865
 11
7.5068501553
 21
5.2942920865
  0
LINE
  5
26F
100
AcDbEntity
  8
02___PRT_ALL_AXES
100
AcDbLine
 62
7
  6
CONTINUOUS
 10
2.7698501553
 20
5.2942920865
 11
2.7898501553
 21
5.2942920865
  0
LINE
  5
270
100
AcDbEntity
  8
02___PRT_ALL_AXES
100
AcDbLine
 62
7
  6
CONTINUOUS
 10
8.6618501553
 20
5.2992920865
 11
8.6351673534
 21
5.2992920865
  0
LINE
  5
271
100
AcDbEntity
  8
02___PRT_ALL_AXES
100
AcDbLine
 62
7
  6
CONTINUOUS
 10
1.6348501553
 20
5.2992920865
 11
1.6615329571
 21
5.2992920865
  0
LINE
  5
272
100
AcDbEntity
  8
0
100
AcDbLine
 62
7
  6
CONTINUOUS
 10
3.0621396778
 20
5.4228576201
 11
3.3223501553
 21
5.4228566475
  0
LINE
  5
273
100
AcDbEntity
  8
0
100
AcDbLine
 62
7
  6
CONTINUOUS
 10
6.9743501553
 20
5.4228566475
 11
7.2345606544
 21
5.4228576361
  0
LINE
  5
274
100
AcDbEntity
  8
0
100
AcDbLine
 62
7
  6
CONTINUOUS
 10
3.0882255832
 20
5.461960182
 11
3.2907712079
 21
5.4619601751
  0
LINE
  5
275
100
AcDbEntity
  8
0
100
AcDbLine
 62
7
  6
CONTINUOUS
 10
7.0059291026
 20
5.4619601751
 11
7.2084747359
 21
5.4619601818
  0
LINE
  5
276
100
AcDbEntity
  8
0
100
AcDbLine
 62
7
  6
CONTINUOUS
 10
7.2218501553
 20
5.4692920865
 11
7.0118501553
 21
5.4692920865
  0
LINE
  5
277
100
AcDbEntity
  8
0
100
AcDbLine
 62
7
  6
CONTINUOUS
 10
3.2848501553
 20
5.4692920865
 11
3.0748501553
 21
5.4692920865
  0
LINE
  5
278
100
AcDbEntity
  8
0
100
AcDbLine
 62
7
  6
CONTINUOUS
 10
7.2602475457
 20
5.4827920865
 11
6.9734527649
 21
5.4827920865
  0
LINE
  5
279
100
AcDbEntity
  8
0
100
AcDbLine
 62
7
  6
CONTINUOUS
 10
3.3232475457
 20
5.4827920865
 11
3.0364527649
 21
5.4827920865
  0
LINE
  5
27A
100
AcDbEntity
  8
0
100
AcDbLine
 62
7
  6
CONTINUOUS
 10
3.333166225
 20
5.4915193731
 11
3.0265340855
 21
5.4915193731
  0
LINE
  5
27B
100
AcDbEntity
  8
0
100
AcDbLine
 62
7
  6
CONTINUOUS
 10
7.270166225
 20
5.4915193731
 11
6.9635340855
 21
5.4915193731
  0
LINE
  5
27C
100
AcDbEntity
  8
02___PRT_ALL_AXES
100
AcDbLine
 62
7
  6
CONTINUOUS
 10
2.0948501553
 20
5.0006050378
 11
2.3484301449
 21
5.0497122983
  0
LINE
  5
27D
100
AcDbEntity
  8
0
100
AcDbLine
 62
7
  6
CONTINUOUS
 10
7.3875613721
 20
5.6024694026
 11
6.8461389384
 21
5.6024694026
  0
LINE
  5
27E
100
AcDbEntity
  8
0
100
AcDbLine
 62
7
  6
CONTINUOUS
 10
3.4505613721
 20
5.6024694026
 11
2.9091389384
 21
5.6024694026
  0
LINE
  5
27F
100
AcDbEntity
  8
0
100
AcDbLine
 62
7
  6
CONTINUOUS
 10
7.3968501553
 20
5.612444079
 11
6.8368501553
 21
5.612444079
  0
LINE
  5
280
100
AcDbEntity
  8
0
100
AcDbLine
 62
7
  6
CONTINUOUS
 10
3.4598501553
 20
5.612444079
 11
2.8998501553
 21
5.612444079
  0
LINE
  5
281
100
AcDbEntity
  8
02___PRT_ALL_AXES
100
AcDbLine
 62
7
  6
CONTINUOUS
 10
8.2018501553
 20
5.0006050378
 11
7.9482701656
 21
5.0497122983
  0
LINE
  5
282
100
AcDbEntity
  8
ALL_FEATURES
100
AcDbLine
 62
7
  6
CONTINUOUS
 10
6.5893501553
 20
6.8377920865
 11
6.5893501553
 21
6.7977920865
  0
LINE
  5
283
100
AcDbEntity
  8
ALL_FEATURES
100
AcDbLine
 62
7
  6
CONTINUOUS
 10
6.6918501553
 20
6.7127920865
 11
6.6918501553
 21
6.6777920865
  0
LINE
  5
284
100
AcDbEntity
  8
02___PRT_ALL_AXES
100
AcDbLine
 62
7
  6
CONTINUOUS
 10
6.7843501553
 20
6.6127920865
 11
6.7843501553
 21
6.5767920865
  0
LINE
  5
285
100
AcDbEntity
  8
02___PRT_ALL_AXES
100
AcDbLine
 62
7
  6
CONTINUOUS
 10
6.7843501553
 20
6.4987920865
 11
6.7843501553
 21
6.4627920865
  0
LINE
  5
286
100
AcDbEntity
  8
0
100
AcDbLine
 62
7
  6
CONTINUOUS
 10
6.8368501553
 20
6.4477920865
 11
6.8368501553
 21
5.612444079
  0
LINE
  5
287
100
AcDbEntity
  8
0
100
AcDbLine
 62
7
  6
CONTINUOUS
 10
7.3872970559
 20
5.1163340461
 11
7.4962765788
 21
5.2719729345
  0
LINE
  5
288
100
AcDbEntity
  8
02___PRT_ALL_AXES
100
AcDbLine
 62
7
  6
CONTINUOUS
 10
5.4641001553
 20
6.3277920865
 11
4.8326001553
 21
6.3277920865
  0
LINE
  5
289
100
AcDbEntity
  8
0
100
AcDbLine
 62
7
  6
CONTINUOUS
 10
7.3872970559
 20
5.1163340461
 11
7.3222932127
 21
5.1618502271
  0
LINE
  5
28A
100
AcDbEntity
  8
0
100
AcDbLine
 62
7
  6
CONTINUOUS
 10
6.9383501553
 20
5.0018533174
 11
6.9383501553
 21
5.0268533174
  0
LINE
  5
28B
100
AcDbEntity
  8
0
100
AcDbLine
 62
7
  6
CONTINUOUS
 10
6.9383501553
 20
5.0867920865
 11
6.9383501553
 21
5.1117920865
  0
LINE
  5
28C
100
AcDbEntity
  8
0
100
AcDbLine
 62
7
  6
CONTINUOUS
 10
6.9668501553
 20
4.9964312951
 11
6.9668501553
 21
4.9968533174
  0
LINE
  5
28D
100
AcDbEntity
  8
0
100
AcDbLine
 62
7
  6
CONTINUOUS
 10
6.9743501553
 20
5.1167920865
 11
6.9743501553
 21
5.4228566475
  0
LINE
  5
28E
100
AcDbEntity
  8
0
100
AcDbLine
 62
7
  6
CONTINUOUS
 10
7.0118501553
 20
5.4692920865
 11
7.0118501553
 21
5.4827920865
  0
LINE
  5
28F
100
AcDbEntity
  8
0
100
AcDbLine
 62
7
  6
CONTINUOUS
 10
2.8998501553
 20
6.4477920865
 11
3.4598501553
 21
6.4477920865
  0
LINE
  5
290
100
AcDbEntity
  8
0
100
AcDbLine
 62
7
  6
CONTINUOUS
 10
6.8368501553
 20
6.4477920865
 11
7.3968501553
 21
6.4477920865
  0
LINE
  5
291
100
AcDbEntity
  8
02___PRT_ALL_AXES
100
AcDbLine
 62
7
  6
CONTINUOUS
 10
7.4493501553
 20
6.4627920865
 11
6.7843501553
 21
6.4627920865
  0
LINE
  5
292
100
AcDbEntity
  8
02___PRT_ALL_AXES
100
AcDbLine
 62
7
  6
CONTINUOUS
 10
2.8473501553
 20
6.4627920865
 11
3.5123501553
 21
6.4627920865
  0
LINE
  5
293
100
AcDbEntity
  8
02___PRT_ALL_AXES
100
AcDbLine
 62
7
  6
CONTINUOUS
 10
7.4493501553
 20
6.4987920865
 11
6.7843501553
 21
6.4987920865
  0
LINE
  5
294
100
AcDbEntity
  8
02___PRT_ALL_AXES
100
AcDbLine
 62
7
  6
CONTINUOUS
 10
2.8473501553
 20
6.4987920865
 11
3.5123501553
 21
6.4987920865
  0
LINE
  5
295
100
AcDbEntity
  8
02___PRT_ALL_AXES
100
AcDbLine
 62
7
  6
CONTINUOUS
 10
5.4641001553
 20
6.5302920865
 11
4.8326001553
 21
6.5302920865
  0
LINE
  5
296
100
AcDbEntity
  8
02___PRT_ALL_AXES
100
AcDbLine
 62
7
  6
CONTINUOUS
 10
7.4493501553
 20
6.5767920865
 11
6.7843501553
 21
6.5767920865
  0
LINE
  5
297
100
AcDbEntity
  8
02___PRT_ALL_AXES
100
AcDbLine
 62
7
  6
CONTINUOUS
 10
2.8473501553
 20
6.5767920865
 11
3.5123501553
 21
6.5767920865
  0
LINE
  5
298
100
AcDbEntity
  8
02___PRT_ALL_AXES
100
AcDbLine
 62
7
  6
CONTINUOUS
 10
5.6083501553
 20
6.6027920865
 11
4.6883501553
 21
6.6027920865
  0
LINE
  5
299
100
AcDbEntity
  8
02___PRT_ALL_AXES
100
AcDbLine
 62
7
  6
CONTINUOUS
 10
7.4493501553
 20
6.6127920865
 11
6.7843501553
 21
6.6127920865
  0
LINE
  5
29A
100
AcDbEntity
  8
02___PRT_ALL_AXES
100
AcDbLine
 62
7
  6
CONTINUOUS
 10
2.8473501553
 20
6.6127920865
 11
3.5123501553
 21
6.6127920865
  0
LINE
  5
29B
100
AcDbEntity
  8
0
100
AcDbLine
 62
7
  6
CONTINUOUS
 10
7.4962765788
 20
5.2719729345
 11
7.2764070978
 21
5.4259272025
  0
LINE
  5
29C
100
AcDbEntity
  8
0
100
AcDbLine
 62
7
  6
CONTINUOUS
 10
7.2218501553
 20
5.4692920865
 11
7.2218501553
 21
5.4827920865
  0
LINE
  5
29D
100
AcDbEntity
  8
0
100
AcDbLine
 62
7
  6
CONTINUOUS
 10
7.2593501553
 20
5.1167920865
 11
7.2593501553
 21
5.1290841453
  0
LINE
  5
29E
100
AcDbEntity
  8
0
100
AcDbLine
 62
7
  6
CONTINUOUS
 10
7.2668501553
 20
4.9964312951
 11
7.2668501553
 21
4.9968533174
  0
LINE
  5
29F
100
AcDbEntity
  8
0
100
AcDbLine
 62
7
  6
CONTINUOUS
 10
7.2953501553
 20
5.0018533174
 11
7.2953501553
 21
5.0268533174
  0
LINE
  5
2A0
100
AcDbEntity
  8
0
100
AcDbLine
 62
7
  6
CONTINUOUS
 10
7.2953501553
 20
5.0867920865
 11
7.2953501553
 21
5.1117920865
  0
LINE
  5
2A1
100
AcDbEntity
  8
0
100
AcDbLine
 62
7
  6
CONTINUOUS
 10
7.3968501553
 20
6.4477920865
 11
7.3968501553
 21
5.612444079
  0
LINE
  5
2A2
100
AcDbEntity
  8
ALL_FEATURES
100
AcDbLine
 62
7
  6
CONTINUOUS
 10
7.5418501553
 20
6.6777920865
 11
6.6918501553
 21
6.6777920865
  0
LINE
  5
2A3
100
AcDbEntity
  8
ALL_FEATURES
100
AcDbLine
 62
7
  6
CONTINUOUS
 10
2.7548501553
 20
6.6777920865
 11
3.6048501553
 21
6.6777920865
  0
LINE
  5
2A4
100
AcDbEntity
  8
02___PRT_ALL_AXES
100
AcDbLine
 62
7
  6
CONTINUOUS
 10
5.6758501553
 20
6.6977920865
 11
4.6208501553
 21
6.6977920865
  0
LINE
  5
2A5
100
AcDbEntity
  8
ALL_FEATURES
100
AcDbLine
 62
7
  6
CONTINUOUS
 10
7.5593501553
 20
6.7127920865
 11
6.6743501553
 21
6.7127920865
  0
LINE
  5
2A6
100
AcDbEntity
  8
ALL_FEATURES
100
AcDbLine
 62
7
  6
CONTINUOUS
 10
2.7373501553
 20
6.7127920865
 11
3.6223501553
 21
6.7127920865
  0
LINE
  5
2A7
100
AcDbEntity
  8
02___PRT_ALL_AXES
100
AcDbLine
 62
7
  6
CONTINUOUS
 10
5.6758501553
 20
6.7377920865
 11
4.6208501553
 21
6.7377920865
  0
LINE
  5
2A8
100
AcDbEntity
  8
ALL_FEATURES
100
AcDbLine
 62
7
  6
CONTINUOUS
 10
7.6443501553
 20
6.7977920865
 11
6.5893501553
 21
6.7977920865
  0
LINE
  5
2A9
100
AcDbEntity
  8
ALL_FEATURES
100
AcDbLine
 62
7
  6
CONTINUOUS
 10
2.6523501553
 20
6.7977920865
 11
3.7073501553
 21
6.7977920865
  0
LINE
  5
2AA
100
AcDbEntity
  8
ALL_FEATURES
100
AcDbLine
 62
7
  6
CONTINUOUS
 10
7.6443501553
 20
6.8377920865
 11
6.5893501553
 21
6.8377920865
  0
LINE
  5
2AB
100
AcDbEntity
  8
02___PRT_ALL_AXES
100
AcDbLine
 62
7
  6
CONTINUOUS
 10
5.7733501553
 20
6.8377920865
 11
4.5233501553
 21
6.8377920865
  0
LINE
  5
2AC
100
AcDbEntity
  8
ALL_FEATURES
100
AcDbLine
 62
7
  6
CONTINUOUS
 10
2.6523501553
 20
6.8377920865
 11
3.7073501553
 21
6.8377920865
  0
LINE
  5
2AD
100
AcDbEntity
  8
ALL_FEATURES
100
AcDbLine
 62
7
  6
CONTINUOUS
 10
2.7209225215
 20
6.8442920865
 11
3.6387777891
 21
6.8442920865
  0
LINE
  5
2AE
100
AcDbEntity
  8
ALL_FEATURES
100
AcDbLine
 62
7
  6
CONTINUOUS
 10
6.6579225215
 20
6.8442920865
 11
7.5757777891
 21
6.8442920865
  0
LINE
  5
2AF
100
AcDbEntity
  8
ALL_FEATURES
100
AcDbLine
 62
7
  6
CONTINUOUS
 10
4.5858501553
 20
6.8452920865
 11
5.7108501553
 21
6.8452920865
  0
LINE
  5
2B0
100
AcDbEntity
  8
02___PRT_ALL_AXES
100
AcDbLine
 62
7
  6
CONTINUOUS
 10
7.4493501553
 20
6.6127920865
 11
7.4493501553
 21
6.5767920865
  0
LINE
  5
2B1
100
AcDbEntity
  8
02___PRT_ALL_AXES
100
AcDbLine
 62
7
  6
CONTINUOUS
 10
7.4493501553
 20
6.4987920865
 11
7.4493501553
 21
6.4627920865
  0
LINE
  5
2B2
100
AcDbEntity
  8
0
100
AcDbLine
 62
7
  6
CONTINUOUS
 10
7.4968501553
 20
5.2842920865
 11
7.4968501553
 21
5.0692920865
  0
LINE
  5
2B3
100
AcDbEntity
  8
0
100
AcDbLine
 62
7
  6
CONTINUOUS
 10
7.5068501553
 20
5.2942920865
 11
7.5068501553
 21
5.0592920865
  0
LINE
  5
2B4
100
AcDbEntity
  8
0
100
AcDbLine
 62
7
  6
CONTINUOUS
 10
7.5268501553
 20
5.2942920865
 11
7.5268501553
 21
5.0592920865
  0
LINE
  5
2B5
100
AcDbEntity
  8
0
100
AcDbLine
 62
7
  6
CONTINUOUS
 10
7.5368501553
 20
5.2842920865
 11
7.5368501553
 21
5.0692920865
  0
LINE
  5
2B6
100
AcDbEntity
  8
ALL_FEATURES
100
AcDbLine
 62
7
  6
CONTINUOUS
 10
7.5418501553
 20
6.7127920865
 11
7.5418501553
 21
6.6777920865
  0
LINE
  5
2B7
100
AcDbEntity
  8
ALL_FEATURES
100
AcDbLine
 62
7
  6
CONTINUOUS
 10
7.6443501553
 20
6.8377920865
 11
7.6443501553
 21
6.7977920865
  0
LINE
  5
2B8
100
AcDbEntity
  8
02___PRT_ALL_AXES
100
AcDbLine
 62
7
  6
CONTINUOUS
 10
7.6868501553
 20
5.0747920865
 11
7.6868501553
 21
5.2787920865
  0
LINE
  5
2B9
100
AcDbEntity
  8
02___PRT_ALL_AXES
100
AcDbLine
 62
7
  6
CONTINUOUS
 10
7.9482701656
 20
5.0497122983
 11
7.9482701656
 21
5.3038718747
  0
LINE
  5
2BA
100
AcDbEntity
  8
02___PRT_ALL_AXES
100
AcDbLine
 62
7
  6
CONTINUOUS
 10
8.2018501553
 20
5.0006050378
 11
8.2018501553
 21
5.3529791352
  0
LINE
  5
2BB
100
AcDbEntity
  8
02___PRT_ALL_AXES
100
AcDbLine
 62
7
  6
CONTINUOUS
 10
8.3873501553
 20
4.9844118352
 11
8.3873501553
 21
5.3691723378
  0
LINE
  5
2BC
100
AcDbEntity
  8
0
100
AcDbLine
 62
7
  6
CONTINUOUS
 10
8.6297991392
 20
5.3008551276
 11
8.6297991392
 21
5.0527290455
  0
LINE
  5
2BD
100
AcDbEntity
  8
0
100
AcDbLine
 62
7
  6
CONTINUOUS
 10
8.6351673534
 20
5.2992920865
 11
8.6351673534
 21
5.0542920865
  0
LINE
  5
2BE
100
AcDbEntity
  8
0
100
AcDbLine
 62
7
  6
CONTINUOUS
 10
8.6618501553
 20
5.2992920865
 11
8.6618501553
 21
5.0542920865
  0
LINE
  5
2BF
100
AcDbEntity
  8
0
100
AcDbLine
 62
7
  6
CONTINUOUS
 10
8.6718501553
 20
5.2892891453
 11
8.6718501553
 21
5.0642950277
  0
ARC
  5
2C0
100
AcDbEntity
  8
02___PRT_ALL_AXES
100
AcDbCircle
 62
7
  6
CONTINUOUS
 10
2.6098501553
 20
3.6997920865
 40
1.375
100
AcDbArc
 50
90.0
 51
100.96
  0
ARC
  5
2C1
100
AcDbEntity
  8
02___PRT_ALL_AXES
100
AcDbCircle
 62
7
  6
CONTINUOUS
 10
1.924689494
 20
4.4743037974
 40
0.895
100
AcDbArc
 50
79.04
 51
90.9820362042
  0
ARC
  5
2C2
100
AcDbEntity
  8
02___PRT_ALL_AXES
100
AcDbCircle
 62
7
  6
CONTINUOUS
 10
1.9017605431
 20
4.9317381739
 40
0.4375
100
AcDbArc
 50
89.0060010065
 51
122.4675202279
  0
ARC
  5
2C3
100
AcDbEntity
  8
0
100
AcDbCircle
 62
7
  6
CONTINUOUS
 10
5.1441421831
 20
2.8380125304
 40
0.316417028
100
AcDbArc
 50
180.0018952137
 51
183.7783719195
  0
ARC
  5
2C4
100
AcDbEntity
  8
02___PRT_ALL_AXES
100
AcDbCircle
 62
7
  6
CONTINUOUS
 10
1.9017605431
 20
5.4218459991
 40
0.4375
100
AcDbArc
 50
237.5324797721
 51
270.9939989935
  0
ARC
  5
2C5
100
AcDbEntity
  8
02___PRT_ALL_AXES
100
AcDbCircle
 62
7
  6
CONTINUOUS
 10
1.8523501553
 20
5.1767920865
 40
0.2475
100
AcDbArc
 50
156.80823049
 51
203.19176951
  0
ARC
  5
2C6
100
AcDbEntity
  8
0
100
AcDbCircle
 62
7
  6
CONTINUOUS
 10
1.6615329571
 20
5.3092920865
 40
0.01
100
AcDbArc
 50
270.0
 51
302.4675202279
  0
ARC
  5
2C7
100
AcDbEntity
  8
0
100
AcDbCircle
 62
7
  6
CONTINUOUS
 10
1.6615329571
 20
5.0442920865
 40
0.01
100
AcDbArc
 50
57.5324797721
 51
90.0
  0
ARC
  5
2C8
100
AcDbEntity
  8
0
100
AcDbCircle
 62
7
  6
CONTINUOUS
 10
1.6348501553
 20
5.2892920865
 40
0.01
100
AcDbArc
 50
90.0
 51
180.0
  0
ARC
  5
2C9
100
AcDbEntity
  8
0
100
AcDbCircle
 62
7
  6
CONTINUOUS
 10
1.6348501553
 20
5.0642920865
 40
0.01
100
AcDbArc
 50
180.0
 51
270.0
  0
ARC
  5
2CA
100
AcDbEntity
  8
02___PRT_ALL_AXES
100
AcDbCircle
 62
7
  6
CONTINUOUS
 10
1.924689494
 20
5.8792803756
 40
0.895
100
AcDbArc
 50
269.0179637958
 51
280.96
  0
ARC
  5
2CB
100
AcDbEntity
  8
0
100
AcDbCircle
 62
7
  6
CONTINUOUS
 10
3.1798501553
 20
5.2872920865
 40
0.33
100
AcDbArc
 50
243.5028148323
 51
296.4971851677
  0
ARC
  5
2CC
100
AcDbEntity
  8
0
100
AcDbCircle
 62
7
  6
CONTINUOUS
 10
2.7998501553
 20
5.2727920865
 40
0.191
100
AcDbArc
 50
270.0
 51
305.0
  0
ARC
  5
2CD
100
AcDbEntity
  8
0
100
AcDbCircle
 62
7
  6
CONTINUOUS
 10
3.0683365421
 20
5.4218023255
 40
0.0400000035
100
AcDbArc
 50
91.1898955866
 51
152.5395343482
  0
ARC
  5
2CE
100
AcDbEntity
  8
0
100
AcDbCircle
 62
7
  6
CONTINUOUS
 10
3.2823501553
 20
5.4228566475
 40
0.04
100
AcDbArc
 50
0.0
 51
77.846802531
  0
ARC
  5
2CF
100
AcDbEntity
  8
0
100
AcDbCircle
 62
7
  6
CONTINUOUS
 10
2.9973502214
 20
5.1290842951
 40
0.0399999749
100
AcDbArc
 50
359.9997854858
 51
125.0002005874
  0
ARC
  5
2D0
100
AcDbEntity
  8
02___PRT_ALL_AXES
100
AcDbCircle
 62
7
  6
CONTINUOUS
 10
3.3402715495
 20
5.056822702
 40
0.035
100
AcDbArc
 50
301.0998839864
 51
58.9001160136
  0
ARC
  5
2D1
100
AcDbEntity
  8
02___PRT_ALL_AXES
100
AcDbCircle
 62
7
  6
CONTINUOUS
 10
3.0194287611
 20
5.056822702
 40
0.035
100
AcDbArc
 50
121.0998839864
 51
238.9001160136
  0
ARC
  5
2D2
100
AcDbEntity
  8
0
100
AcDbCircle
 62
7
  6
CONTINUOUS
 10
2.7698501553
 20
5.0692920865
 40
0.01
100
AcDbArc
 50
180.0
 51
270.0
  0
ARC
  5
2D3
100
AcDbEntity
  8
0
100
AcDbCircle
 62
7
  6
CONTINUOUS
 10
2.7698501553
 20
5.2842920865
 40
0.01
100
AcDbArc
 50
90.0
 51
180.0
  0
ARC
  5
2D4
100
AcDbEntity
  8
0
100
AcDbCircle
 62
7
  6
CONTINUOUS
 10
2.7898501553
 20
5.0692920865
 40
0.01
100
AcDbArc
 50
270.0
 51
360.0
  0
ARC
  5
2D5
100
AcDbEntity
  8
0
100
AcDbCircle
 62
7
  6
CONTINUOUS
 10
2.7898501553
 20
5.2842920865
 40
0.01
100
AcDbArc
 50
0.0
 51
90.0
  0
ARC
  5
2D6
100
AcDbEntity
  8
0
100
AcDbCircle
 62
7
  6
CONTINUOUS
 10
3.3248501553
 20
4.9964312951
 40
0.005
100
AcDbArc
 50
296.4971851672
 51
360.0
  0
ARC
  5
2D7
100
AcDbEntity
  8
0
100
AcDbCircle
 62
7
  6
CONTINUOUS
 10
3.0348501553
 20
4.9964312951
 40
0.005
100
AcDbArc
 50
180.0
 51
243.5028148328
  0
ARC
  5
2D8
100
AcDbEntity
  8
0
100
AcDbCircle
 62
7
  6
CONTINUOUS
 10
3.3533501553
 20
5.0018533174
 40
0.005
100
AcDbArc
 50
270.0
 51
360.0
  0
ARC
  5
2D9
100
AcDbEntity
  8
0
100
AcDbCircle
 62
7
  6
CONTINUOUS
 10
3.0063501553
 20
5.0018533174
 40
0.005
100
AcDbArc
 50
180.0
 51
270.0
  0
ARC
  5
2DA
100
AcDbEntity
  8
0
100
AcDbCircle
 62
7
  6
CONTINUOUS
 10
3.3533501553
 20
5.1117920865
 40
0.005
100
AcDbArc
 50
0.0
 51
90.0
  0
ARC
  5
2DB
100
AcDbEntity
  8
0
100
AcDbCircle
 62
7
  6
CONTINUOUS
 10
3.0063501553
 20
5.1117920865
 40
0.005
100
AcDbArc
 50
90.0
 51
180.0
  0
ARC
  5
2DC
100
AcDbEntity
  8
0
100
AcDbCircle
 62
7
  6
CONTINUOUS
 10
2.7998501553
 20
5.2727920865
 40
0.001
100
AcDbArc
 50
270.0
 51
305.0
  0
ARC
  5
2DD
100
AcDbEntity
  8
0
100
AcDbCircle
 62
7
  6
CONTINUOUS
 10
2.9000709234
 20
5.4752922777
 40
0.1275
100
AcDbArc
 50
7.3119416293
 51
85.9215842941
  0
ARC
  5
2DE
100
AcDbEntity
  8
0
100
AcDbCircle
 62
7
  6
CONTINUOUS
 10
2.9973502192
 20
5.4586932468
 40
0.03999998
100
AcDbArc
 50
304.999955716
 51
332.5394939517
  0
ARC
  5
2DF
100
AcDbEntity
  8
0
100
AcDbCircle
 62
7
  6
CONTINUOUS
 10
2.9098501553
 20
5.612444079
 40
0.01
100
AcDbArc
 50
180.0
 51
265.9215842941
  0
ARC
  5
2E0
100
AcDbEntity
  8
0
100
AcDbCircle
 62
7
  6
CONTINUOUS
 10
3.0364527649
 20
5.4927920865
 40
0.01
100
AcDbArc
 50
187.3119416294
 51
270.0
  0
ARC
  5
2E1
100
AcDbEntity
  8
0
100
AcDbCircle
 62
7
  6
CONTINUOUS
 10
3.3232475457
 20
5.4927920865
 40
0.01
100
AcDbArc
 50
270.0
 51
352.6880583706
  0
ARC
  5
2E2
100
AcDbEntity
  8
0
100
AcDbCircle
 62
7
  6
CONTINUOUS
 10
3.0673501553
 20
5.4692920865
 40
0.0075
100
AcDbArc
 50
271.1898799053
 51
360.0
  0
ARC
  5
2E3
100
AcDbEntity
  8
0
100
AcDbCircle
 62
7
  6
CONTINUOUS
 10
3.2923501553
 20
5.4692920865
 40
0.0075
100
AcDbArc
 50
180.0
 51
257.846802531
  0
ARC
  5
2E4
100
AcDbEntity
  8
02___PRT_ALL_AXES
100
AcDbCircle
 62
7
  6
CONTINUOUS
 10
2.6098501553
 20
6.6537920865
 40
1.375
100
AcDbArc
 50
259.04
 51
270.0
  0
ARC
  5
2E5
100
AcDbEntity
  8
0
100
AcDbCircle
 62
7
  6
CONTINUOUS
 10
2.7528561257
 20
6.5113040273
 40
0.1665
100
AcDbArc
 50
37.5560971095
 51
89.3138005363
  0
ARC
  5
2E6
100
AcDbEntity
  8
ALL_FEATURES
100
AcDbCircle
 62
7
  6
CONTINUOUS
 10
2.7373501553
 20
6.7977920865
 40
0.085
100
AcDbArc
 50
180.0
 51
270.0
  0
ARC
  5
2E7
100
AcDbEntity
  8
02___PRT_ALL_AXES
100
AcDbCircle
 62
7
  6
CONTINUOUS
 10
2.8875372179
 20
6.5377920865
 40
0.056
100
AcDbArc
 50
135.8588345181
 51
224.1411654819
  0
ARC
  5
2E8
100
AcDbEntity
  8
ALL_FEATURES
100
AcDbCircle
 62
7
  6
CONTINUOUS
 10
2.7198501553
 20
6.8185420865
 40
0.02575
100
AcDbArc
 50
90.0
 51
131.5882460846
  0
ARC
  5
2E9
100
AcDbEntity
  8
0
100
AcDbCircle
 62
7
  6
CONTINUOUS
 10
2.8848501553
 20
6.4477920865
 40
0.015
100
AcDbArc
 50
0.0
 51
90.0
  0
ARC
  5
2EA
100
AcDbEntity
  8
0
100
AcDbCircle
 62
7
  6
CONTINUOUS
 10
3.4596293872
 20
5.4752922777
 40
0.1275
100
AcDbArc
 50
94.0784157059
 51
172.6880583707
  0
ARC
  5
2EB
100
AcDbEntity
  8
0
100
AcDbCircle
 62
7
  6
CONTINUOUS
 10
3.4498501553
 20
5.612444079
 40
0.01
100
AcDbArc
 50
274.0784157059
 51
360.0
  0
ARC
  5
2EC
100
AcDbEntity
  8
02___PRT_ALL_AXES
100
AcDbCircle
 62
7
  6
CONTINUOUS
 10
5.146948851
 20
7.0935059869
 40
0.645
100
AcDbArc
 50
229.5344875733
 51
240.8326386112
  0
ARC
  5
2ED
100
AcDbEntity
  8
0
100
AcDbCircle
 62
7
  6
CONTINUOUS
 10
3.6068441849
 20
6.5113040273
 40
0.1665
100
AcDbArc
 50
90.6861994637
 51
142.4439028905
  0
ARC
  5
2EE
100
AcDbEntity
  8
02___PRT_ALL_AXES
100
AcDbCircle
 62
7
  6
CONTINUOUS
 10
4.5883510724
 20
6.6032203697
 40
0.1
100
AcDbArc
 50
359.7546110354
 51
71.0349806546
  0
ARC
  5
2EF
100
AcDbEntity
  8
02___PRT_ALL_AXES
100
AcDbCircle
 62
7
  6
CONTINUOUS
 10
4.6233501504
 20
6.8377608318
 40
0.1
100
AcDbArc
 50
179.9820923401
 51
268.5674590618
  0
ARC
  5
2F0
100
AcDbEntity
  8
ALL_FEATURES
100
AcDbCircle
 62
7
  6
CONTINUOUS
 10
3.6223501553
 20
6.7977920865
 40
0.085
100
AcDbArc
 50
270.0
 51
360.0
  0
ARC
  5
2F1
100
AcDbEntity
  8
02___PRT_ALL_AXES
100
AcDbCircle
 62
7
  6
CONTINUOUS
 10
3.4721630927
 20
6.5377920865
 40
0.056
100
AcDbArc
 50
315.8588345181
 51
44.1411654819
  0
ARC
  5
2F2
100
AcDbEntity
  8
ALL_FEATURES
100
AcDbCircle
 62
7
  6
CONTINUOUS
 10
3.6398501553
 20
6.8185420865
 40
0.02575
100
AcDbArc
 50
48.4117539154
 51
90.0
  0
ARC
  5
2F3
100
AcDbEntity
  8
0
100
AcDbCircle
 62
7
  6
CONTINUOUS
 10
3.4748501553
 20
6.4477920865
 40
0.015
100
AcDbArc
 50
90.0
 51
180.0
  0
ARC
  5
2F4
100
AcDbEntity
  8
02___PRT_ALL_AXES
100
AcDbCircle
 62
7
  6
CONTINUOUS
 10
7.6868501553
 20
3.6997920865
 40
1.375
100
AcDbArc
 50
79.04
 51
90.0
  0
ARC
  5
2F5
100
AcDbEntity
  8
02___PRT_ALL_AXES
100
AcDbCircle
 62
7
  6
CONTINUOUS
 10
8.3720108166
 20
4.4743037974
 40
0.895
100
AcDbArc
 50
89.0179637958
 51
100.96
  0
ARC
  5
2F6
100
AcDbEntity
  8
02___PRT_ALL_AXES
100
AcDbCircle
 62
7
  6
CONTINUOUS
 10
8.3949397675
 20
4.9317381739
 40
0.4375
100
AcDbArc
 50
57.5324797721
 51
90.9939989935
  0
ARC
  5
2F7
100
AcDbEntity
  8
0
100
AcDbCircle
 62
7
  6
CONTINUOUS
 10
5.1528203986
 20
2.8432191227
 40
0.3161546568
100
AcDbArc
 50
359.0548399335
 51
359.9976733039
  0
ARC
  5
2F8
100
AcDbEntity
  8
0
100
AcDbCircle
 62
7
  6
CONTINUOUS
 10
6.8370709234
 20
5.4752922777
 40
0.1275
100
AcDbArc
 50
7.3119416293
 51
85.9215842941
  0
ARC
  5
2F9
100
AcDbEntity
  8
0
100
AcDbCircle
 62
7
  6
CONTINUOUS
 10
6.8468501553
 20
5.612444079
 40
0.01
100
AcDbArc
 50
180.0
 51
265.9215842941
  0
ARC
  5
2FA
100
AcDbEntity
  8
02___PRT_ALL_AXES
100
AcDbCircle
 62
7
  6
CONTINUOUS
 10
5.1497514596
 20
7.0935059869
 40
0.645
100
AcDbArc
 50
299.1673613888
 51
310.4655124267
  0
ARC
  5
2FB
100
AcDbEntity
  8
0
100
AcDbCircle
 62
7
  6
CONTINUOUS
 10
6.6898561257
 20
6.5113040273
 40
0.1665
100
AcDbArc
 50
37.5560971095
 51
89.3138005363
  0
ARC
  5
2FC
100
AcDbEntity
  8
02___PRT_ALL_AXES
100
AcDbCircle
 62
7
  6
CONTINUOUS
 10
5.7083492381
 20
6.6032203697
 40
0.1
100
AcDbArc
 50
108.9650193454
 51
180.2453889646
  0
ARC
  5
2FD
100
AcDbEntity
  8
02___PRT_ALL_AXES
100
AcDbCircle
 62
7
  6
CONTINUOUS
 10
5.6733501602
 20
6.8377608318
 40
0.1
100
AcDbArc
 50
271.4325409382
 51
0.0179076599
  0
ARC
  5
2FE
100
AcDbEntity
  8
ALL_FEATURES
100
AcDbCircle
 62
7
  6
CONTINUOUS
 10
6.6743501553
 20
6.7977920865
 40
0.085
100
AcDbArc
 50
180.0
 51
270.0
  0
ARC
  5
2FF
100
AcDbEntity
  8
02___PRT_ALL_AXES
100
AcDbCircle
 62
7
  6
CONTINUOUS
 10
6.8245372179
 20
6.5377920865
 40
0.056
100
AcDbArc
 50
135.8588345181
 51
224.1411654819
  0
ARC
  5
300
100
AcDbEntity
  8
ALL_FEATURES
100
AcDbCircle
 62
7
  6
CONTINUOUS
 10
6.6568501553
 20
6.8185420865
 40
0.02575
100
AcDbArc
 50
90.0
 51
131.5882460846
  0
ARC
  5
301
100
AcDbEntity
  8
0
100
AcDbCircle
 62
7
  6
CONTINUOUS
 10
6.8218501553
 20
6.4477920865
 40
0.015
100
AcDbArc
 50
0.0
 51
90.0
  0
ARC
  5
302
100
AcDbEntity
  8
0
100
AcDbCircle
 62
7
  6
CONTINUOUS
 10
7.1168501553
 20
5.2872920865
 40
0.33
100
AcDbArc
 50
243.5028148323
 51
296.4971851677
  0
ARC
  5
303
100
AcDbEntity
  8
0
100
AcDbCircle
 62
7
  6
CONTINUOUS
 10
7.4968501553
 20
5.2727920865
 40
0.191
100
AcDbArc
 50
235.0
 51
270.0
  0
ARC
  5
304
100
AcDbEntity
  8
0
100
AcDbCircle
 62
7
  6
CONTINUOUS
 10
7.2283637684
 20
5.4218023255
 40
0.0400000035
100
AcDbArc
 50
27.4604656518
 51
88.8101044134
  0
ARC
  5
305
100
AcDbEntity
  8
0
100
AcDbCircle
 62
7
  6
CONTINUOUS
 10
7.0143501553
 20
5.4228566475
 40
0.04
100
AcDbArc
 50
102.153197469
 51
180.0
  0
ARC
  5
306
100
AcDbEntity
  8
0
100
AcDbCircle
 62
7
  6
CONTINUOUS
 10
7.2993500892
 20
5.1290842951
 40
0.0399999749
100
AcDbArc
 50
54.9997994126
 51
180.0002145142
  0
ARC
  5
307
100
AcDbEntity
  8
02___PRT_ALL_AXES
100
AcDbCircle
 62
7
  6
CONTINUOUS
 10
6.9564287611
 20
5.056822702
 40
0.035
100
AcDbArc
 50
121.0998839864
 51
238.9001160136
  0
ARC
  5
308
100
AcDbEntity
  8
02___PRT_ALL_AXES
100
AcDbCircle
 62
7
  6
CONTINUOUS
 10
7.2772715495
 20
5.056822702
 40
0.035
100
AcDbArc
 50
301.0998839864
 51
58.9001160136
  0
ARC
  5
309
100
AcDbEntity
  8
0
100
AcDbCircle
 62
7
  6
CONTINUOUS
 10
7.5268501553
 20
5.0692920865
 40
0.01
100
AcDbArc
 50
270.0
 51
360.0
  0
ARC
  5
30A
100
AcDbEntity
  8
0
100
AcDbCircle
 62
7
  6
CONTINUOUS
 10
7.5268501553
 20
5.2842920865
 40
0.01
100
AcDbArc
 50
0.0
 51
90.0
  0
ARC
  5
30B
100
AcDbEntity
  8
0
100
AcDbCircle
 62
7
  6
CONTINUOUS
 10
7.5068501553
 20
5.0692920865
 40
0.01
100
AcDbArc
 50
180.0
 51
270.0
  0
ARC
  5
30C
100
AcDbEntity
  8
0
100
AcDbCircle
 62
7
  6
CONTINUOUS
 10
7.5068501553
 20
5.2842920865
 40
0.01
100
AcDbArc
 50
90.0
 51
180.0
  0
ARC
  5
30D
100
AcDbEntity
  8
0
100
AcDbCircle
 62
7
  6
CONTINUOUS
 10
6.9718501553
 20
4.9964312951
 40
0.005
100
AcDbArc
 50
180.0
 51
243.5028148328
  0
ARC
  5
30E
100
AcDbEntity
  8
0
100
AcDbCircle
 62
7
  6
CONTINUOUS
 10
7.2618501553
 20
4.9964312951
 40
0.005
100
AcDbArc
 50
296.4971851672
 51
360.0
  0
ARC
  5
30F
100
AcDbEntity
  8
0
100
AcDbCircle
 62
7
  6
CONTINUOUS
 10
6.9433501553
 20
5.0018533174
 40
0.005
100
AcDbArc
 50
180.0
 51
270.0
  0
ARC
  5
310
100
AcDbEntity
  8
0
100
AcDbCircle
 62
7
  6
CONTINUOUS
 10
7.2903501553
 20
5.0018533174
 40
0.005
100
AcDbArc
 50
270.0
 51
360.0
  0
ARC
  5
311
100
AcDbEntity
  8
0
100
AcDbCircle
 62
7
  6
CONTINUOUS
 10
6.9433501553
 20
5.1117920865
 40
0.005
100
AcDbArc
 50
90.0
 51
180.0
  0
ARC
  5
312
100
AcDbEntity
  8
0
100
AcDbCircle
 62
7
  6
CONTINUOUS
 10
7.2903501553
 20
5.1117920865
 40
0.005
100
AcDbArc
 50
0.0
 51
90.0
  0
ARC
  5
313
100
AcDbEntity
  8
0
100
AcDbCircle
 62
7
  6
CONTINUOUS
 10
7.4968501553
 20
5.2727920865
 40
0.001
100
AcDbArc
 50
235.0
 51
270.0
  0
ARC
  5
314
100
AcDbEntity
  8
0
100
AcDbCircle
 62
7
  6
CONTINUOUS
 10
7.3966293872
 20
5.4752922777
 40
0.1275
100
AcDbArc
 50
94.0784157059
 51
172.6880583707
  0
ARC
  5
315
100
AcDbEntity
  8
0
100
AcDbCircle
 62
7
  6
CONTINUOUS
 10
7.2993500913
 20
5.4586932468
 40
0.03999998
100
AcDbArc
 50
207.4605060483
 51
235.000044284
  0
ARC
  5
316
100
AcDbEntity
  8
0
100
AcDbCircle
 62
7
  6
CONTINUOUS
 10
7.3868501553
 20
5.612444079
 40
0.01
100
AcDbArc
 50
274.0784157059
 51
360.0
  0
ARC
  5
317
100
AcDbEntity
  8
0
100
AcDbCircle
 62
7
  6
CONTINUOUS
 10
7.2602475457
 20
5.4927920865
 40
0.01
100
AcDbArc
 50
270.0
 51
352.6880583706
  0
ARC
  5
318
100
AcDbEntity
  8
0
100
AcDbCircle
 62
7
  6
CONTINUOUS
 10
6.9734527649
 20
5.4927920865
 40
0.01
100
AcDbArc
 50
187.3119416294
 51
270.0
  0
ARC
  5
319
100
AcDbEntity
  8
0
100
AcDbCircle
 62
7
  6
CONTINUOUS
 10
7.2293501553
 20
5.4692920865
 40
0.0075
100
AcDbArc
 50
180.0
 51
268.8101200947
  0
ARC
  5
31A
100
AcDbEntity
  8
0
100
AcDbCircle
 62
7
  6
CONTINUOUS
 10
7.0043501553
 20
5.4692920865
 40
0.0075
100
AcDbArc
 50
282.153197469
 51
360.0
  0
ARC
  5
31B
100
AcDbEntity
  8
02___PRT_ALL_AXES
100
AcDbCircle
 62
7
  6
CONTINUOUS
 10
8.3949397675
 20
5.4218459991
 40
0.4375
100
AcDbArc
 50
269.0060010065
 51
302.4675202279
  0
ARC
  5
31C
100
AcDbEntity
  8
02___PRT_ALL_AXES
100
AcDbCircle
 62
7
  6
CONTINUOUS
 10
8.4443501553
 20
5.1767920865
 40
0.2475
100
AcDbArc
 50
336.80823049
 51
23.19176951
  0
ARC
  5
31D
100
AcDbEntity
  8
0
100
AcDbCircle
 62
7
  6
CONTINUOUS
 10
8.6351673534
 20
5.3092920865
 40
0.01
100
AcDbArc
 50
237.5324797721
 51
270.0
  0
ARC
  5
31E
100
AcDbEntity
  8
0
100
AcDbCircle
 62
7
  6
CONTINUOUS
 10
8.6351673534
 20
5.0442920865
 40
0.01
100
AcDbArc
 50
90.0
 51
122.4675202279
  0
ARC
  5
31F
100
AcDbEntity
  8
0
100
AcDbCircle
 62
7
  6
CONTINUOUS
 10
8.6618501553
 20
5.0642920865
 40
0.01
100
AcDbArc
 50
270.0
 51
360.0
  0
ARC
  5
320
100
AcDbEntity
  8
0
100
AcDbCircle
 62
7
  6
CONTINUOUS
 10
8.6618501553
 20
5.2892920865
 40
0.01
100
AcDbArc
 50
0.0
 51
90.0
  0
ARC
  5
321
100
AcDbEntity
  8
02___PRT_ALL_AXES
100
AcDbCircle
 62
7
  6
CONTINUOUS
 10
8.3720108166
 20
5.8792803756
 40
0.895
100
AcDbArc
 50
259.04
 51
270.9820362042
  0
ARC
  5
322
100
AcDbEntity
  8
02___PRT_ALL_AXES
100
AcDbCircle
 62
7
  6
CONTINUOUS
 10
7.6868501553
 20
6.6537920865
 40
1.375
100
AcDbArc
 50
270.0
 51
280.96
  0
ARC
  5
323
100
AcDbEntity
  8
0
100
AcDbCircle
 62
7
  6
CONTINUOUS
 10
7.5438441849
 20
6.5113040273
 40
0.1665
100
AcDbArc
 50
90.6861994637
 51
142.4439028905
  0
ARC
  5
324
100
AcDbEntity
  8
ALL_FEATURES
100
AcDbCircle
 62
7
  6
CONTINUOUS
 10
7.5593501553
 20
6.7977920865
 40
0.085
100
AcDbArc
 50
270.0
 51
360.0
  0
ARC
  5
325
100
AcDbEntity
  8
02___PRT_ALL_AXES
100
AcDbCircle
 62
7
  6
CONTINUOUS
 10
7.4091630927
 20
6.5377920865
 40
0.056
100
AcDbArc
 50
315.8588345181
 51
44.1411654819
  0
ARC
  5
326
100
AcDbEntity
  8
ALL_FEATURES
100
AcDbCircle
 62
7
  6
CONTINUOUS
 10
7.5768501553
 20
6.8185420865
 40
0.02575
100
AcDbArc
 50
48.4117539154
 51
90.0
  0
ARC
  5
327
100
AcDbEntity
  8
0
100
AcDbCircle
 62
7
  6
CONTINUOUS
 10
7.4118501553
 20
6.4477920865
 40
0.015
100
AcDbArc
 50
90.0
 51
180.0
  0
SPLINE
  5
328
100
AcDbEntity
  8
0
100
AcDbSpline
 62
7
  6
CONTINUOUS
 70
0
 71
3
 72
72
 73
68
 74
0
 42
0.0000001
 43
0.0000001
 44
0.0000000001
 40
0.0
 40
0.0
 40
0.0
 40
0.0
 40
0.0000042631
 40
0.0000172095
 40
0.0000388165
 40
0.0000690613
 40
0.0001079213
 40
0.0001553736
 40
0.0002759643
 40
0.0004306513
 40
0.0006192528
 40
0.0008415866
 40
0.0010974708
 40
0.0017091623
 40
0.002452871
 40
0.0033270372
 40
0.0043289533
 40
0.0054551981
 40
0.0067023398
 40
0.0080669467
 40
0.009545587
 40
0.0128312249
 40
0.0165308555
 40
0.0206146497
 40
0.0250526569
 40
0.0298149784
 40
0.0348745353
 40
0.0402084692
 40
0.0457942685
 40
0.0576320796
 40
0.0702364793
 40
0.0834936699
 40
0.0972965101
 40
0.1115677873
 40
0.126243925
 40
0.1412647942
 40
0.1721794716
 40
0.2040323692
 40
0.2366299299
 40
0.2698238933
 40
0.3035117385
 40
0.3376082525
 40
0.3720534447
 40
0.4067960905
 40
0.4417964072
 40
0.4770229717
 40
0.5124473961
 40
0.5480454453
 40
0.5837966615
 40
0.6196741664
 40
0.6556552843
 40
0.6916987624
 40
0.7277601759
 40
0.745774491
 40
0.763763494
 40
0.7817136592
 40
0.7996054198
 40
0.817420251
 40
0.8351368683
 40
0.8527279488
 40
0.8701657949
 40
0.8874196917
 40
0.9044548909
 40
0.937722664
 40
0.9538873057
 40
0.9696859185
 40
1.0
 40
1.0
 40
1.0
 40
1.0
 10
3.0373501553
 20
5.1290841453
 30
0.0
 10
3.0373498712
 20
5.1290838208
 30
0.0
 10
3.0373514275
 20
5.1290872807
 30
0.0
 10
3.0373516727
 20
5.1290892535
 30
0.0
 10
3.0373542964
 20
5.1290964801
 30
0.0
 10
3.0373569347
 20
5.129104747
 30
0.0
 10
3.0373607436
 20
5.1291161103
 30
0.0
 10
3.0373672904
 20
5.1291358939
 30
0.0
 10
3.037377608
 20
5.1291669323
 30
0.0
 10
3.0373923846
 20
5.1292114446
 30
0.0
 10
3.0374104244
 20
5.1292657562
 30
0.0
 10
3.0374316847
 20
5.129329772
 30
0.0
 10
3.0374664362
 20
5.1294344115
 30
0.0
 10
3.0375178045
 20
5.1295891063
 30
0.0
 10
3.0375888691
 20
5.129803167
 30
0.0
 10
3.0376723506
 20
5.1300546997
 30
0.0
 10
3.0377679904
 20
5.1303429712
 30
0.0
 10
3.0378754678
 20
5.1306670688
 30
0.0
 10
3.0379944396
 20
5.1310260102
 30
0.0
 10
3.038124562
 20
5.131418812
 30
0.0
 10
3.0383194275
 20
5.1320074063
 30
0.0
 10
3.0385882972
 20
5.1328203257
 30
0.0
 10
3.0389394739
 20
5.1338836067
 30
0.0
 10
3.0393266412
 20
5.1350577709
 30
0.0
 10
3.0397467888
 20
5.1363342579
 30
0.0
 10
3.0401969891
 20
5.137704773
 30
0.0
 10
3.0406745489
 20
5.1391616993
 30
0.0
 10
3.0411770299
 20
5.1406981226
 30
0.0
 10
3.0418911131
 20
5.1428867858
 30
0.0
 10
3.0428300227
 20
5.1457757498
 30
0.0
 10
3.0440027803
 20
5.1494047214
 30
0.0
 10
3.0452297817
 20
5.1532250665
 30
0.0
 10
3.0465004567
 20
5.1572084858
 30
0.0
 10
3.0478059637
 20
5.1613314545
 30
0.0
 10
3.0491389715
 20
5.1655749526
 30
0.0
 10
3.0509621615
 20
5.1714292543
 30
0.0
 10
3.0532721814
 20
5.1789518763
 30
0.0
 10
3.0560493198
 20
5.1881909457
 30
0.0
 10
3.0588289616
 20
5.1976698189
 30
0.0
 10
3.061587365
 20
5.2073480892
 30
0.0
 10
3.0643021725
 20
5.2171960957
 30
0.0
 10
3.0669534943
 20
5.227192442
 30
0.0
 10
3.0695188992
 20
5.2373213513
 30
0.0
 10
3.0719779475
 20
5.2475707324
 30
0.0
 10
3.074304724
 20
5.2579320923
 30
0.0
 10
3.0764725127
 20
5.2683984507
 30
0.0
 10
3.078451595
 20
5.2789638628
 30
0.0
 10
3.0802030033
 20
5.2896234327
 30
0.0
 10
3.0816894075
 20
5.3003698061
 30
0.0
 10
3.0828589017
 20
5.3111947218
 30
0.0
 10
3.0836596846
 20
5.3220834362
 30
0.0
 10
3.084029448
 20
5.3330145729
 30
0.0
 10
3.0839242353
 20
5.3421345705
 30
0.0
 10
3.0835614356
 20
5.3494165093
 30
0.0
 10
3.0831423639
 20
5.3548591887
 30
0.0
 10
3.082570226
 20
5.3602754713
 30
0.0
 10
3.0818416652
 20
5.3656552232
 30
0.0
 10
3.0809524099
 20
5.3709868755
 30
0.0
 10
3.0799009831
 20
5.3762579358
 30
0.0
 10
3.0786912055
 20
5.3814557951
 30
0.0
 10
3.0773252902
 20
5.3865663909
 30
0.0
 10
3.0758106708
 20
5.3915762067
 30
0.0
 10
3.0736260851
 20
5.3980528076
 30
0.0
 10
3.0711783485
 20
5.404320804
 30
0.0
 10
3.0685087161
 20
5.410356364
 30
0.0
 10
3.0657989565
 20
5.4160446771
 30
0.0
 10
3.0636293416
 20
5.4201770949
 30
0.0
 10
3.0621396778
 20
5.4228576201
 30
0.0
  0
SPLINE
  5
329
100
AcDbEntity
  8
0
100
AcDbSpline
 62
7
  6
CONTINUOUS
 70
0
 71
3
 72
22
 73
18
 74
0
 42
0.0000001
 43
0.0000001
 44
0.0000000001
 40
0.0
 40
0.0
 40
0.0
 40
0.0
 40
0.0563657604
 40
0.1134147402
 40
0.1712058986
 40
0.229812693
 40
0.2893266158
 40
0.3498161542
 40
0.4113058541
 40
0.4737808738
 40
0.6014174101
 40
0.6665194747
 40
0.7323195301
 40
0.7987163648
 40
0.8655955657
 40
0.9327700458
 40
1.0
 40
1.0
 40
1.0
 40
1.0
 10
3.0882255832
 20
5.461960182
 30
0.0
 10
3.0873084608
 20
5.4617210863
 30
0.0
 10
3.0854864001
 20
5.4611455325
 30
0.0
 10
3.0828359219
 20
5.4600109812
 30
0.0
 10
3.0802738228
 20
5.4586082036
 30
0.0
 10
3.0778212963
 20
5.4569470794
 30
0.0
 10
3.0754947824
 20
5.4550414713
 30
0.0
 10
3.0733112387
 20
5.4529040361
 30
0.0
 10
3.0712853246
 20
5.4505505434
 30
0.0
 10
3.068796568
 20
5.4471247614
 30
0.0
 10
3.0667028828
 20
5.4433549087
 30
0.0
 10
3.0650314885
 20
5.4393387593
 30
0.0
 10
3.0639864216
 20
5.4361867216
 30
0.0
 10
3.0631651484
 20
5.4329387059
 30
0.0
 10
3.0625750757
 20
5.4296172725
 30
0.0
 10
3.0622193591
 20
5.4262488378
 30
0.0
 10
3.0621395119
 20
5.4239880755
 30
0.0
 10
3.0621394728
 20
5.4228576201
 30
0.0
  0
SPLINE
  5
32A
100
AcDbEntity
  8
0
100
AcDbSpline
 62
7
  6
CONTINUOUS
 70
0
 71
3
 72
110
 73
106
 74
0
 42
0.0000001
 43
0.0000001
 44
0.0000000001
 40
0.0
 40
0.0
 40
0.0
 40
0.0
 40
0.0000066864
 40
0.0000260951
 40
0.0000581822
 40
0.0001029034
 40
0.0001602147
 40
0.0002300718
 40
0.0004072467
 40
0.0006340747
 40
0.0009102022
 40
0.0012352758
 40
0.001608942
 40
0.0025006379
 40
0.0035822756
 40
0.0048484587
 40
0.0062921431
 40
0.0079062523
 40
0.0096837097
 40
0.0137003699
 40
0.0182860195
 40
0.0233853588
 40
0.0289431624
 40
0.0349061142
 40
0.0412326876
 40
0.0478858535
 40
0.0620254535
 40
0.0770857903
 40
0.0928968235
 40
0.1093107581
 40
0.1262308073
 40
0.1435702249
 40
0.1612625832
 40
0.1792606159
 40
0.216002601
 40
0.2535475668
 40
0.2917190272
 40
0.3303985845
 40
0.3694948075
 40
0.389179339
 40
0.4089452086
 40
0.4287864315
 40
0.448698128
 40
0.468676306
 40
0.4887178061
 40
0.5088182441
 40
0.5289731191
 40
0.5491802509
 40
0.569438497
 40
0.5897398914
 40
0.6100779023
 40
0.6304509775
 40
0.6508430541
 40
0.671233253
 40
0.6916074144
 40
0.7119183043
 40
0.722035777
 40
0.7321205244
 40
0.7421616313
 40
0.7521468381
 40
0.7620649844
 40
0.7719058776
 40
0.7816576158
 40
0.7913067705
 40
0.8008395807
 40
0.8102428871
 40
0.8286189266
 40
0.8375730964
 40
0.8463547283
 40
0.8633745345
 40
0.8796261669
 40
0.8950523127
 40
0.9096136829
 40
0.9232604186
 40
0.9359490391
 40
0.9476324379
 40
0.9582617688
 40
0.9677891179
 40
0.9721239394
 40
0.9761652564
 40
0.9799075764
 40
0.9833452985
 40
0.9864727465
 40
0.9892849768
 40
0.9917779821
 40
0.9939477778
 40
0.994910218
 40
0.9957903466
 40
0.9965876618
 40
0.997301809
 40
0.9979326074
 40
0.9984798854
 40
0.9989434714
 40
0.9993231936
 40
0.999481552
 40
0.9996188799
 40
0.9997351558
 40
0.999830358
 40
0.9999044651
 40
0.9999336012
 40
0.9999574555
 40
0.9999760251
 40
0.9999893075
 40
0.9999973
 40
1.0
 40
1.0
 40
1.0
 40
1.0
 10
2.9744070978
 20
5.1618502271
 30
0.0
 10
2.974407561
 20
5.1618506988
 30
0.0
 10
2.9744086549
 20
5.1618531015
 30
0.0
 10
2.9744118997
 20
5.1618578152
 30
0.0
 10
2.9744167153
 20
5.1618660466
 30
0.0
 10
2.9744236741
 20
5.1618773234
 30
0.0
 10
2.9744324871
 20
5.161891859
 30
0.0
 10
2.9744481381
 20
5.1619175571
 30
0.0
 10
2.9744724728
 20
5.1619575939
 30
0.0
 10
2.9745074052
 20
5.1620150532
 30
0.0
 10
2.9745499218
 20
5.1620850157
 30
0.0
 10
2.9745999742
 20
5.1621673869
 30
0.0
 10
2.9746816243
 20
5.1623017751
 30
0.0
 10
2.9748021043
 20
5.1625000976
 30
0.0
 10
2.9749683919
 20
5.1627738434
 30
0.0
 10
2.9751629883
 20
5.1630942489
 30
0.0
 10
2.9753848632
 20
5.1634596818
 30
0.0
 10
2.9756329032
 20
5.1638683666
 30
0.0
 10
2.9760128072
 20
5.1644946002
 30
0.0
 10
2.9765447904
 20
5.1653722098
 30
0.0
 10
2.9772464175
 20
5.1665310537
 30
0.0
 10
2.9780261865
 20
5.1678207125
 30
0.0
 10
2.9788754658
 20
5.1692274743
 30
0.0
 10
2.9797863221
 20
5.1707387961
 30
0.0
 10
2.980751791
 20
5.1723436508
 30
0.0
 10
2.9821320367
 20
5.1746424278
 30
0.0
 10
2.9839524974
 20
5.1776840996
 30
0.0
 10
2.9862300189
 20
5.1815074363
 30
0.0
 10
2.9886134802
 20
5.1855293917
 30
0.0
 10
2.991080136
 20
5.1897157619
 30
0.0
 10
2.9936117149
 20
5.1940392515
 30
0.0
 10
2.9961940087
 20
5.1984794941
 30
0.0
 10
2.998815282
 20
5.2030203339
 30
0.0
 10
3.0023740301
 20
5.2092349919
 30
0.0
 10
3.0068633634
 20
5.2171785926
 30
0.0
 10
3.0122489482
 20
5.2269063055
 30
0.0
 10
3.0176255466
 20
5.2368573697
 30
0.0
 10
3.022952495
 20
5.2470087141
 30
0.0
 10
3.0273074027
 20
5.2556049867
 30
0.0
 10
3.030726648
 20
5.2625778399
 30
0.0
 10
3.0332583955
 20
5.2678652789
 30
0.0
 10
3.0357443779
 20
5.2731992036
 30
0.0
 10
3.0381765451
 20
5.2785809586
 30
0.0
 10
3.0405469092
 20
5.2840118624
 30
0.0
 10
3.0428480154
 20
5.2894927581
 30
0.0
 10
3.0450687853
 20
5.2950255938
 30
0.0
 10
3.0471953424
 20
5.3006129343
 30
0.0
 10
3.0492140464
 20
5.3062567962
 30
0.0
 10
3.0511115252
 20
5.3119579563
 30
0.0
 10
3.0528661705
 20
5.3177184186
 30
0.0
 10
3.0544540538
 20
5.3235390423
 30
0.0
 10
3.0558522518
 20
5.329417607
 30
0.0
 10
3.0570300752
 20
5.3353499251
 30
0.0
 10
3.0579509647
 20
5.3413281605
 30
0.0
 10
3.05857871
 20
5.3473365989
 30
0.0
 10
3.058826528
 20
5.3523565302
 30
0.0
 10
3.0588388803
 20
5.3563626716
 30
0.0
 10
3.0587504141
 20
5.3593521182
 30
0.0
 10
3.0585621549
 20
5.3623238478
 30
0.0
 10
3.0582721305
 20
5.3652708679
 30
0.0
 10
3.0578785035
 20
5.3681859288
 30
0.0
 10
3.0573788526
 20
5.3710613049
 30
0.0
 10
3.0567758889
 20
5.3738896065
 30
0.0
 10
3.0560736548
 20
5.3766634749
 30
0.0
 10
3.0552759305
 20
5.3793755844
 30
0.0
 10
3.0540986299
 20
5.3828725148
 30
0.0
 10
3.0527478974
 20
5.3862480161
 30
0.0
 10
3.0512460192
 20
5.3894877884
 30
0.0
 10
3.0496937782
 20
5.3925542232
 30
0.0
 10
3.0476355356
 20
5.3961702771
 30
0.0
 10
3.0450101492
 20
5.400209145
 30
0.0
 10
3.0423201521
 20
5.4039080182
 30
0.0
 10
3.0396230656
 20
5.4072768353
 30
0.0
 10
3.036973333
 20
5.4103323522
 30
0.0
 10
3.0344130475
 20
5.4130854426
 30
0.0
 10
3.0319828393
 20
5.4155497507
 30
0.0
 10
3.0297172577
 20
5.417735885
 30
0.0
 10
3.02793869
 20
5.4193793978
 30
0.0
 10
3.0266228144
 20
5.4205634169
 30
0.0
 10
3.0257256783
 20
5.4213576302
 30
0.0
 10
3.0248895045
 20
5.422086842
 30
0.0
 10
3.0241169375
 20
5.4227514789
 30
0.0
 10
3.0234106288
 20
5.4233521019
 30
0.0
 10
3.0227728233
 20
5.4238890792
 30
0.0
 10
3.0222052334
 20
5.4243624292
 30
0.0
 10
3.0217766136
 20
5.4247168515
 30
0.0
 10
3.0214702005
 20
5.424968818
 30
0.0
 10
3.0212683507
 20
5.4251342926
 30
0.0
 10
3.0210853126
 20
5.4252839918
 30
0.0
 10
3.0209212338
 20
5.4254179342
 30
0.0
 10
3.020776192
 20
5.4255361037
 30
0.0
 10
3.0206502577
 20
5.4256385048
 30
0.0
 10
3.0205434993
 20
5.4257251408
 30
0.0
 10
3.0204665373
 20
5.4257874698
 30
0.0
 10
3.0204146083
 20
5.4258294548
 30
0.0
 10
3.0203829203
 20
5.4258550452
 30
0.0
 10
3.0203560785
 20
5.4258766996
 30
0.0
 10
3.0203340887
 20
5.4258944085
 30
0.0
 10
3.0203188047
 20
5.4259067192
 30
0.0
 10
3.0203090021
 20
5.42591457
 30
0.0
 10
3.0203034954
 20
5.425919037
 30
0.0
 10
3.0202991664
 20
5.4259223791
 30
0.0
 10
3.0202961585
 20
5.4259250688
 30
0.0
 10
3.0202941819
 20
5.4259261402
 30
0.0
 10
3.0202934793
 20
5.4259272175
 30
0.0
 10
3.0202932127
 20
5.4259272025
 30
0.0
  0
LINE
  5
32B
100
AcDbEntity
  8
0
100
AcDbLine
 62
7
  6
CONTINUOUS
 10
3.0675058979
 20
5.4617937037
 11
3.0882255832
 21
5.461960182
  0
SPLINE
  5
32C
100
AcDbEntity
  8
0
100
AcDbSpline
 62
7
  6
CONTINUOUS
 70
0
 71
3
 72
28
 73
24
 74
0
 42
0.0000001
 43
0.0000001
 44
0.0000000001
 40
0.0
 40
0.0
 40
0.0
 40
0.0
 40
0.0002967731
 40
0.0011784134
 40
0.002643105
 40
0.0046890324
 40
0.0105173317
 40
0.0186487859
 40
0.0290688696
 40
0.0417630575
 40
0.0567142511
 40
0.0738862546
 40
0.1147135017
 40
0.163886214
 40
0.2210364516
 40
0.2856825533
 40
0.3572668488
 40
0.4352302521
 40
0.5189784466
 40
0.6078301131
 40
0.7010922381
 40
0.7980646712
 40
1.0
 40
1.0
 40
1.0
 40
1.0
 10
3.0328433507
 20
5.4402477772
 30
0.0
 10
3.0328463137
 20
5.4402461707
 30
0.0
 10
3.0328577887
 20
5.4402392736
 30
0.0
 10
3.0328838733
 20
5.4402244234
 30
0.0
 10
3.0329269877
 20
5.4401993304
 30
0.0
 10
3.0330188188
 20
5.4401462637
 30
0.0
 10
3.0331761189
 20
5.4400551598
 30
0.0
 10
3.0334157743
 20
5.4399164906
 30
0.0
 10
3.0337229055
 20
5.4397387395
 30
0.0
 10
3.0340970856
 20
5.4395222169
 30
0.0
 10
3.0345376418
 20
5.4392672973
 30
0.0
 10
3.0352547562
 20
5.4388523744
 30
0.0
 10
3.0363082853
 20
5.4382428286
 30
0.0
 10
3.0377548042
 20
5.4374058926
 30
0.0
 10
3.0394355019
 20
5.4364335429
 30
0.0
 10
3.0413361033
 20
5.4353330209
 30
0.0
 10
3.0434402221
 20
5.434112256
 30
0.0
 10
3.0457305181
 20
5.4327800898
 30
0.0
 10
3.0481879728
 20
5.4313452727
 30
0.0
 10
3.0507900294
 20
5.4298135554
 30
0.0
 10
3.0535132977
 20
5.4281917388
 30
0.0
 10
3.0573250799
 20
5.4258879456
 30
0.0
 10
3.0602078004
 20
5.4240945429
 30
0.0
 10
3.0621395488
 20
5.4228584297
 30
0.0
  0
SPLINE
  5
32D
100
AcDbEntity
  8
0
100
AcDbSpline
 62
7
  6
CONTINUOUS
 70
0
 71
3
 72
109
 73
105
 74
0
 42
0.0000001
 43
0.0000001
 44
0.0000000001
 40
0.0
 40
0.0
 40
0.0
 40
0.0
 40
0.0000027022
 40
0.0000106965
 40
0.0000239805
 40
0.0000425515
 40
0.0000664069
 40
0.000095544
 40
0.0001696524
 40
0.0002648554
 40
0.0003811315
 40
0.0005184593
 40
0.0006768173
 40
0.0010565384
 40
0.0015201237
 40
0.0020674022
 40
0.0026982033
 40
0.0034123565
 40
0.0042096805
 40
0.0050898173
 40
0.0060522649
 40
0.0082220756
 40
0.0107151007
 40
0.0135273605
 40
0.0166548485
 40
0.020092607
 40
0.0238349624
 40
0.027876319
 40
0.0322111892
 40
0.0417386439
 40
0.0523680863
 40
0.064051624
 40
0.0767403723
 40
0.090387283
 40
0.1049487805
 40
0.1203750912
 40
0.1366269661
 40
0.1536468929
 40
0.1624286714
 40
0.171382969
 40
0.1897591168
 40
0.1991625426
 40
0.2086954991
 40
0.2183447633
 40
0.2280965799
 40
0.2379375454
 40
0.2478558292
 40
0.2578411951
 40
0.2678824125
 40
0.2779671657
 40
0.2880847066
 40
0.3083959853
 40
0.3491484924
 40
0.3695409805
 40
0.3899141602
 40
0.4102524159
 40
0.4305541369
 40
0.4508125051
 40
0.4710197372
 40
0.4911748095
 40
0.5112754268
 40
0.5313169983
 40
0.5512953463
 40
0.5712073367
 40
0.591048939
 40
0.6108152204
 40
0.6305001279
 40
0.66959709
 40
0.7082774953
 40
0.7464496132
 40
0.7839951112
 40
0.8207374916
 40
0.8387357722
 40
0.856428378
 40
0.8737678915
 40
0.8906881881
 40
0.907102303
 40
0.9229134778
 40
0.9379740573
 40
0.9521137134
 40
0.9587669866
 40
0.9650936628
 40
0.9710566459
 40
0.9766144666
 40
0.9817138502
 40
0.9862995478
 40
0.99031624
 40
0.992093707
 40
0.993707823
 40
0.9951515122
 40
0.9964176987
 40
0.9974993388
 40
0.9983910286
 40
0.9987646899
 40
0.9990897589
 40
0.9993658832
 40
0.9995927104
 40
0.9997698881
 40
0.9998397482
 40
0.9998970638
 40
0.9999417908
 40
0.9999738851
 40
0.9999933028
 40
1.0
 40
1.0
 40
1.0
 40
1.0
 10
7.2764070978
 20
5.4259272025
 30
0.0
 10
7.2764068312
 20
5.4259272194
 30
0.0
 10
7.276406127
 20
5.4259261385
 30
0.0
 10
7.2764041506
 20
5.4259250707
 30
0.0
 10
7.2764011415
 20
5.4259223792
 30
0.0
 10
7.2763968121
 20
5.4259190381
 30
0.0
 10
7.2763913049
 20
5.4259145709
 30
0.0
 10
7.2763815019
 20
5.4259067205
 30
0.0
 10
7.2763662176
 20
5.4258944099
 30
0.0
 10
7.2763442277
 20
5.4258767013
 30
0.0
 10
7.2763173863
 20
5.4258550471
 30
0.0
 10
7.2762856987
 20
5.4258294569
 30
0.0
 10
7.2762337708
 20
5.4257874722
 30
0.0
 10
7.2761568104
 20
5.4257251434
 30
0.0
 10
7.2760500541
 20
5.4256385077
 30
0.0
 10
7.2759241218
 20
5.4255361069
 30
0.0
 10
7.2757790813
 20
5.4254179378
 30
0.0
 10
7.2756150032
 20
5.4252839961
 30
0.0
 10
7.2754319648
 20
5.425134298
 30
0.0
 10
7.2752301156
 20
5.424968824
 30
0.0
 10
7.2749237043
 20
5.4247168582
 30
0.0
 10
7.2744950873
 20
5.4243624365
 30
0.0
 10
7.2739274999
 20
5.4238890875
 30
0.0
 10
7.2732896946
 20
5.4233521121
 30
0.0
 10
7.2725833829
 20
5.4227514938
 30
0.0
 10
7.2718108181
 20
5.4220868564
 30
0.0
 10
7.2709746481
 20
5.4213576439
 30
0.0
 10
7.2700775155
 20
5.4205634302
 30
0.0
 10
7.2687616382
 20
5.4193794164
 30
0.0
 10
7.2669830709
 20
5.4177359077
 30
0.0
 10
7.2647175014
 20
5.4155497654
 30
0.0
 10
7.2622872772
 20
5.4130854794
 30
0.0
 10
7.259727013
 20
5.4103323718
 30
0.0
 10
7.2570772704
 20
5.4072768729
 30
0.0
 10
7.2543801837
 20
5.4039080629
 30
0.0
 10
7.251690208
 20
5.4002091779
 30
0.0
 10
7.2490648001
 20
5.3961703322
 30
0.0
 10
7.2470065518
 20
5.3925542804
 30
0.0
 10
7.2454543318
 20
5.389487838
 30
0.0
 10
7.2439524474
 20
5.3862480755
 30
0.0
 10
7.2426016683
 20
5.382872601
 30
0.0
 10
7.2414244197
 20
5.3793756608
 30
0.0
 10
7.2406266995
 20
5.3766635479
 30
0.0
 10
7.239924431
 20
5.3738896903
 30
0.0
 10
7.2393214395
 20
5.3710614034
 30
0.0
 10
7.2388218392
 20
5.3681860252
 30
0.0
 10
7.2384282187
 20
5.3652709633
 30
0.0
 10
7.2381381608
 20
5.3623239432
 30
0.0
 10
7.2379498665
 20
5.3593522215
 30
0.0
 10
7.2378614217
 20
5.3563628023
 30
0.0
 10
7.2378738071
 20
5.3523566124
 30
0.0
 10
7.2382210189
 20
5.3453236399
 30
0.0
 10
7.2392782621
 20
5.3373243756
 30
0.0
 10
7.2408480257
 20
5.329417918
 30
0.0
 10
7.2422461759
 20
5.3235391207
 30
0.0
 10
7.2438340701
 20
5.3177185642
 30
0.0
 10
7.245588772
 20
5.311958109
 30
0.0
 10
7.2474861625
 20
5.3062569438
 30
0.0
 10
7.2495048724
 20
5.300613115
 30
0.0
 10
7.2516315075
 20
5.2950258316
 30
0.0
 10
7.253852302
 20
5.2894930372
 30
0.0
 10
7.2561532198
 20
5.2840120957
 30
0.0
 10
7.2585235777
 20
5.2785812089
 30
0.0
 10
7.2609558056
 20
5.2731994685
 30
0.0
 10
7.2634418541
 20
5.2678655355
 30
0.0
 10
7.2659735389
 20
5.2625780177
 30
0.0
 10
7.2693927714
 20
5.2556050947
 30
0.0
 10
7.273747761
 20
5.2470087769
 30
0.0
 10
7.2790747459
 20
5.2368573586
 30
0.0
 10
7.2844513739
 20
5.2269062374
 30
0.0
 10
7.2898369847
 20
5.217178514
 30
0.0
 10
7.2943263195
 20
5.209234908
 30
0.0
 10
7.2978850703
 20
5.2030202502
 30
0.0
 10
7.3005063405
 20
5.1984794147
 30
0.0
 10
7.3030886324
 20
5.1940391756
 30
0.0
 10
7.3056202084
 20
5.1897156947
 30
0.0
 10
7.3080868635
 20
5.1855293273
 30
0.0
 10
7.3104703251
 20
5.1815073731
 30
0.0
 10
7.3127478435
 20
5.1776840468
 30
0.0
 10
7.3145683052
 20
5.1746423789
 30
0.0
 10
7.3159485508
 20
5.1723436092
 30
0.0
 10
7.3169140223
 20
5.1707387547
 30
0.0
 10
7.3178248759
 20
5.1692274389
 30
0.0
 10
7.3186741493
 20
5.167820686
 30
0.0
 10
7.3194539133
 20
5.166531033
 30
0.0
 10
7.3201555368
 20
5.1653721919
 30
0.0
 10
7.3206875173
 20
5.1644945848
 30
0.0
 10
7.3210674185
 20
5.1638683543
 30
0.0
 10
7.321315456
 20
5.1634596723
 30
0.0
 10
7.3215373285
 20
5.1630942422
 30
0.0
 10
7.3217319222
 20
5.1627738393
 30
0.0
 10
7.3218982069
 20
5.1625000963
 30
0.0
 10
7.3220186839
 20
5.1623017762
 30
0.0
 10
7.3221003315
 20
5.1621673906
 30
0.0
 10
7.3221503822
 20
5.1620850211
 30
0.0
 10
7.3221928976
 20
5.1620150601
 30
0.0
 10
7.3222278294
 20
5.1619576015
 30
0.0
 10
7.3222521643
 20
5.1619175649
 30
0.0
 10
7.3222678158
 20
5.1618918664
 30
0.0
 10
7.3222766297
 20
5.16187733
 30
0.0
 10
7.3222835894
 20
5.1618660519
 30
0.0
 10
7.322288407
 20
5.1618578194
 30
0.0
 10
7.3222916528
 20
5.1618531033
 30
0.0
 10
7.3222927488
 20
5.1618506996
 30
0.0
 10
7.3222932127
 20
5.1618502271
 30
0.0
  0
SPLINE
  5
32E
100
AcDbEntity
  8
0
100
AcDbSpline
 62
7
  6
CONTINUOUS
 70
0
 71
3
 72
72
 73
68
 74
0
 42
0.0000001
 43
0.0000001
 44
0.0000000001
 40
0.0
 40
0.0
 40
0.0
 40
0.0
 40
0.0303140567
 40
0.0461126486
 40
0.0622772568
 40
0.0955449753
 40
0.1125801654
 40
0.1298340506
 40
0.147271881
 40
0.1648629566
 40
0.1825795567
 40
0.2003943614
 40
0.2182861269
 40
0.2362362754
 40
0.2542252269
 40
0.2722395557
 40
0.3083009472
 40
0.34434445
 40
0.3803255103
 40
0.4162029238
 40
0.4519539679
 40
0.4875518681
 40
0.5229763013
 40
0.5582028754
 40
0.5932033117
 40
0.6279462691
 40
0.6623917307
 40
0.6964884539
 40
0.730176562
 40
0.7633705849
 40
0.7959681689
 40
0.8278209722
 40
0.8587356987
 40
0.8737564742
 40
0.8884325737
 40
0.9027039092
 40
0.9165066595
 40
0.9297638726
 40
0.9423683214
 40
0.9542060054
 40
0.9597917994
 40
0.9651257343
 40
0.9701852575
 40
0.9749474947
 40
0.9793854307
 40
0.9834691722
 40
0.9871687669
 40
0.9904543807
 40
0.9919330104
 40
0.9932976095
 40
0.9945447478
 40
0.9956709953
 40
0.9966729217
 40
0.9975471069
 40
0.9982908352
 40
0.9989025423
 40
0.9991584323
 40
0.9993807703
 40
0.999569374
 40
0.9997240611
 40
0.9998446496
 40
0.9998920998
 40
0.999930957
 40
0.9999611984
 40
0.9999828011
 40
0.9999957426
 40
1.0
 40
1.0
 40
1.0
 40
1.0
 10
7.2345606544
 20
5.4228576361
 30
0.0
 10
7.2330709884
 20
5.4201771147
 30
0.0
 10
7.2309013715
 20
5.4160447027
 30
0.0
 10
7.2281916111
 20
5.4103563983
 30
0.0
 10
7.2255219711
 20
5.4043208532
 30
0.0
 10
7.2230742332
 20
5.3980528671
 30
0.0
 10
7.220889644
 20
5.3915762749
 30
0.0
 10
7.2193750178
 20
5.3865664644
 30
0.0
 10
7.2180091169
 20
5.3814558677
 30
0.0
 10
7.2167993297
 20
5.3762580143
 30
0.0
 10
7.2157478983
 20
5.3709869592
 30
0.0
 10
7.2148586622
 20
5.3656553073
 30
0.0
 10
7.2141300918
 20
5.3602755604
 30
0.0
 10
7.2135579482
 20
5.3548592841
 30
0.0
 10
7.2131388956
 20
5.3494166083
 30
0.0
 10
7.2127760883
 20
5.3421346756
 30
0.0
 10
7.2126708539
 20
5.3330146755
 30
0.0
 10
7.2130406243
 20
5.322083544
 30
0.0
 10
7.2138413754
 20
5.3111948383
 30
0.0
 10
7.2150109539
 20
5.3003699632
 30
0.0
 10
7.2164973276
 20
5.2896236279
 30
0.0
 10
7.2182487164
 20
5.2789640852
 30
0.0
 10
7.2202278033
 20
5.2683986875
 30
0.0
 10
7.2223954477
 20
5.2579322837
 30
0.0
 10
7.2247223172
 20
5.2475708974
 30
0.0
 10
7.2271813634
 20
5.2373214426
 30
0.0
 10
7.2297467856
 20
5.227192454
 30
0.0
 10
7.2323981519
 20
5.2171960411
 30
0.0
 10
7.2351129785
 20
5.2073479832
 30
0.0
 10
7.2378713918
 20
5.1976696785
 30
0.0
 10
7.2406510388
 20
5.1881908072
 30
0.0
 10
7.2434281721
 20
5.1789517378
 30
0.0
 10
7.2457381893
 20
5.171429129
 30
0.0
 10
7.2475613744
 20
5.165574834
 30
0.0
 10
7.2488943791
 20
5.1613313424
 30
0.0
 10
7.250199883
 20
5.1572083797
 30
0.0
 10
7.2514705539
 20
5.1532249597
 30
0.0
 10
7.2526975507
 20
5.1494046147
 30
0.0
 10
7.2538703035
 20
5.1457756471
 30
0.0
 10
7.2548092093
 20
5.1428866905
 30
0.0
 10
7.25552329
 20
5.1406980402
 30
0.0
 10
7.256025772
 20
5.1391616212
 30
0.0
 10
7.2565033314
 20
5.1377047071
 30
0.0
 10
7.2569535301
 20
5.1363342115
 30
0.0
 10
7.2573736765
 20
5.1350577461
 30
0.0
 10
7.2577608437
 20
5.1338835988
 30
0.0
 10
7.2581120207
 20
5.1328203298
 30
0.0
 10
7.2583808892
 20
5.1320074175
 30
0.0
 10
7.2585757528
 20
5.1314188271
 30
0.0
 10
7.2587058738
 20
5.1310260271
 30
0.0
 10
7.2588248443
 20
5.1306670861
 30
0.0
 10
7.2589323209
 20
5.1303429872
 30
0.0
 10
7.2590279607
 20
5.1300547123
 30
0.0
 10
7.259111443
 20
5.1298031746
 30
0.0
 10
7.2591825089
 20
5.1295891085
 30
0.0
 10
7.2592338782
 20
5.1294344096
 30
0.0
 10
7.2592686303
 20
5.1293297676
 30
0.0
 10
7.2592898908
 20
5.1292657505
 30
0.0
 10
7.2593079305
 20
5.1292114383
 30
0.0
 10
7.2593227071
 20
5.129166926
 30
0.0
 10
7.2593330239
 20
5.1291358876
 30
0.0
 10
7.2593395707
 20
5.129116105
 30
0.0
 10
7.2593433781
 20
5.1291047416
 30
0.0
 10
7.2593460184
 20
5.1290964778
 30
0.0
 10
7.2593486356
 20
5.1290892474
 30
0.0
 10
7.2593488905
 20
5.1290872841
 30
0.0
 10
7.2593504349
 20
5.1290838178
 30
0.0
 10
7.2593501553
 20
5.1290841453
 30
0.0
  0
SPLINE
  5
32F
100
AcDbEntity
  8
0
100
AcDbSpline
 62
7
  6
CONTINUOUS
 70
0
 71
3
 72
23
 73
19
 74
0
 42
0.0000001
 43
0.0000001
 44
0.0000000001
 40
0.0
 40
0.0
 40
0.0
 40
0.0
 40
0.2019335218
 40
0.2989043051
 40
0.3921663063
 40
0.564766608
 40
0.7143147988
 40
0.7789612637
 40
0.8361100509
 40
0.8852830334
 40
0.9261114398
 40
0.9582343579
 40
0.9709286306
 40
0.9813495306
 40
0.9894820877
 40
0.9953113318
 40
0.9988222926
 40
1.0
 40
1.0
 40
1.0
 40
1.0
 10
7.2345608017
 20
5.422858461
 30
0.0
 10
7.2364925495
 20
5.424094528
 30
0.0
 10
7.2393753137
 20
5.425887774
 30
0.0
 10
7.2431871022
 20
5.4281914581
 30
0.0
 10
7.2467274491
 20
5.430300106
 30
0.0
 10
7.250799068
 20
5.432683415
 30
0.0
 10
7.2545978055
 20
5.4348894504
 30
0.0
 10
7.2572646667
 20
5.4364336119
 30
0.0
 10
7.2589453643
 20
5.4374059349
 30
0.0
 10
7.2603918728
 20
5.4382428814
 30
0.0
 10
7.2615923745
 20
5.4389374857
 30
0.0
 10
7.2624342921
 20
5.4394245982
 30
0.0
 10
7.2629772779
 20
5.4397387981
 30
0.0
 10
7.2632844743
 20
5.439916481
 30
0.0
 10
7.2635240893
 20
5.4400552822
 30
0.0
 10
7.2636960072
 20
5.4401543945
 30
0.0
 10
7.2637991187
 20
5.4402146934
 30
0.0
 10
7.2638454992
 20
5.4402408699
 30
0.0
 10
7.263856955
 20
5.4402477737
 30
0.0
  0
LINE
  5
330
100
AcDbEntity
  8
0
100
AcDbLine
 62
7
  6
CONTINUOUS
 10
7.2084747359
 20
5.4619601818
 11
7.2291944116
 21
5.4617937038
  0
SPLINE
  5
331
100
AcDbEntity
  8
0
100
AcDbSpline
 62
7
  6
CONTINUOUS
 70
0
 71
3
 72
22
 73
18
 74
0
 42
0.0000001
 43
0.0000001
 44
0.0000000001
 40
0.0
 40
0.0
 40
0.0
 40
0.0
 40
0.0563669384
 40
0.1134169383
 40
0.1712089309
 40
0.229816357
 40
0.2893307052
 40
0.3498204661
 40
0.4113101954
 40
0.4737850682
 40
0.6014208704
 40
0.6665224077
 40
0.7323218704
 40
0.7987180807
 40
0.8655966593
 40
0.932770555
 40
1.0
 40
1.0
 40
1.0
 40
1.0
 10
7.2084747359
 20
5.4619601818
 30
0.0
 10
7.2093918695
 20
5.4617210905
 30
0.0
 10
7.2112139511
 20
5.4611455499
 30
0.0
 10
7.2138644627
 20
5.4600110266
 30
0.0
 10
7.2164265936
 20
5.4586082861
 30
0.0
 10
7.2188791506
 20
5.4569472074
 30
0.0
 10
7.2212056937
 20
5.4550416525
 30
0.0
 10
7.2233892656
 20
5.4529042771
 30
0.0
 10
7.2254152073
 20
5.45055085
 30
0.0
 10
7.2279039971
 20
5.4471251663
 30
0.0
 10
7.2299977186
 20
5.4433554136
 30
0.0
 10
7.2316691478
 20
5.4393393633
 30
0.0
 10
7.23271424
 20
5.4361874026
 30
0.0
 10
7.2335355381
 20
5.4329394623
 30
0.0
 10
7.2341256356
 20
5.4296181014
 30
0.0
 10
7.2344813765
 20
5.4262497351
 30
0.0
 10
7.2345612393
 20
5.423989016
 30
0.0
 10
7.2345612862
 20
5.4228585815
 30
0.0
  0
SPLINE
  5
332
100
AcDbEntity
  8
0
100
AcDbSpline
 62
7
  6
CONTINUOUS
 70
0
 71
3
 72
23
 73
19
 74
0
 42
0.0000001
 43
0.0000001
 44
0.0000000001
 40
0.0
 40
0.0
 40
0.0
 40
0.0
 40
0.0623163522
 40
0.1246397686
 40
0.1869770584
 40
0.2493344574
 40
0.3117174701
 40
0.3741306069
 40
0.4365772632
 40
0.499059169
 40
0.5615769193
 40
0.6241310447
 40
0.6867200213
 40
0.749334977
 40
0.8119695377
 40
0.8746404264
 40
0.937348261
 40
1.0
 40
1.0
 40
1.0
 40
1.0
 10
5.4689751553
 20
2.8380019726
 30
0.0
 10
5.4689751508
 20
2.8275766006
 30
0.0
 10
5.4679413499
 20
2.8067102191
 30
0.0
 10
5.4633191932
 20
2.7757237872
 30
0.0
 10
5.4556554786
 20
2.7453361081
 30
0.0
 10
5.4450386855
 20
2.7158403738
 30
0.0
 10
5.4315573546
 20
2.6875247779
 30
0.0
 10
5.4153549919
 20
2.6606559999
 30
0.0
 10
5.396575217
 20
2.6355004536
 30
0.0
 10
5.375411328
 20
2.6122913295
 30
0.0
 10
5.3520564101
 20
2.5912616865
 30
0.0
 10
5.3267447437
 20
2.5726031742
 30
0.0
 10
5.2997118709
 20
2.5565078599
 30
0.0
 10
5.2712278345
 20
2.5431162707
 30
0.0
 10
5.241558387
 20
2.5325686976
 30
0.0
 10
5.2109867547
 20
2.5249570157
 30
0.0
 10
5.1798179875
 20
2.5203698551
 30
0.0
 10
5.1588316366
 20
2.5193409746
 30
0.0
 10
5.1483501553
 20
2.5193409746
 30
0.0
  0
SPLINE
  5
333
100
AcDbEntity
  8
0
100
AcDbSpline
 62
7
  6
CONTINUOUS
 70
0
 71
3
 72
23
 73
19
 74
0
 42
0.0000001
 43
0.0000001
 44
0.0000000001
 40
0.0
 40
0.0
 40
0.0
 40
0.0
 40
0.0626517497
 40
0.1253595907
 40
0.1880304804
 40
0.2506650409
 40
0.3132799956
 40
0.3758689678
 40
0.4384230875
 40
0.5009408313
 40
0.5634227317
 40
0.6258693818
 40
0.6882825148
 40
0.7506655244
 40
0.8130229242
 40
0.8753602161
 40
0.9376836393
 40
1.0
 40
1.0
 40
1.0
 40
1.0
 10
5.1483501554
 20
2.5193409746
 30
0.0
 10
5.1378686684
 20
2.5193409746
 30
0.0
 10
5.1168823069
 20
2.520369856
 30
0.0
 10
5.0857135258
 20
2.5249570212
 30
0.0
 10
5.0551418818
 20
2.5325687094
 30
0.0
 10
5.0254724255
 20
2.5431162918
 30
0.0
 10
4.9969883814
 20
2.5565078894
 30
0.0
 10
4.9699555045
 20
2.5726032155
 30
0.0
 10
4.944643835
 20
2.5912617385
 30
0.0
 10
4.9212889174
 20
2.6122913946
 30
0.0
 10
4.9001250287
 20
2.6355005302
 30
0.0
 10
4.8813452577
 20
2.6606560906
 30
0.0
 10
4.8651428989
 20
2.6875248818
 30
0.0
 10
4.8516615753
 20
2.7158404929
 30
0.0
 10
4.8410447902
 20
2.7453362421
 30
0.0
 10
4.8333810865
 20
2.7757239375
 30
0.0
 10
4.8287589448
 20
2.806710386
 30
0.0
 10
4.8277251508
 20
2.8275767783
 30
0.0
 10
4.8277251553
 20
2.8380021555
 30
0.0
  0
SPLINE
  5
334
100
AcDbEntity
  8
0
100
AcDbSpline
 62
7
  6
CONTINUOUS
 70
0
 71
3
 72
13
 73
9
 74
0
 42
0.0000001
 43
0.0000001
 44
0.0000000001
 40
0.0
 40
0.0
 40
0.0
 40
0.0
 40
0.2501239605
 40
0.3751929175
 40
0.5002190404
 40
0.6252376845
 40
0.7502817494
 40
1.0
 40
1.0
 40
1.0
 40
1.0
 10
5.4140162141
 20
3.0216115809
 30
0.0
 10
5.422893019
 20
3.0085544773
 30
0.0
 10
5.4347704538
 20
2.9879308274
 30
0.0
 10
5.4473890245
 20
2.9589644524
 30
0.0
 10
5.4552072052
 20
2.9365889974
 30
0.0
 10
5.4613362941
 20
2.9136946782
 30
0.0
 10
5.4671957003
 20
2.8826753322
 30
0.0
 10
5.4689751553
 20
2.8589694556
 30
0.0
 10
5.4689751553
 20
2.8432062841
 30
0.0
  0
SPLINE
  5
335
100
AcDbEntity
  8
0
100
AcDbSpline
 62
7
  6
CONTINUOUS
 70
0
 71
3
 72
13
 73
9
 74
0
 42
0.0000001
 43
0.0000001
 44
0.0000000001
 40
0.0
 40
0.0
 40
0.0
 40
0.0
 40
0.2497182422
 40
0.3747622984
 40
0.4997809393
 40
0.6248070643
 40
0.7498760266
 40
1.0
 40
1.0
 40
1.0
 40
1.0
 10
4.8277251553
 20
2.8432062841
 30
0.0
 10
4.8277251553
 20
2.8589694517
 30
0.0
 10
4.8295046086
 20
2.8826753222
 30
0.0
 10
4.8353640127
 20
2.9136946605
 30
0.0
 10
4.8414930986
 20
2.9365889746
 30
0.0
 10
4.8493112757
 20
2.9589644258
 30
0.0
 10
4.8619298417
 20
2.9879307968
 30
0.0
 10
4.8738072717
 20
3.0085544449
 30
0.0
 10
4.8826840737
 20
3.0216115475
 30
0.0
  0
SPLINE
  5
336
100
AcDbEntity
  8
02___PRT_ALL_AXES
100
AcDbSpline
 62
7
  6
CONTINUOUS
 70
0
 71
3
 72
22
 73
18
 74
0
 42
0.0000001
 43
0.0000001
 44
0.0000000001
 40
0.0
 40
0.0
 40
0.0
 40
0.0
 40
0.1252552048
 40
0.1879555095
 40
0.2506115384
 40
0.3132423357
 40
0.375847889
 40
0.4384163986
 40
0.5009455662
 40
0.563434632
 40
0.625886446
 40
0.688301359
 40
0.7506842062
 40
0.8130387258
 40
0.8753718716
 40
0.9376896941
 40
1.0
 40
1.0
 40
1.0
 40
1.0
 10
5.1483501553
 20
2.586751624
 30
0.0
 10
5.1657056912
 20
2.586751624
 30
0.0
 10
5.1918425698
 20
2.5893103793
 30
0.0
 10
5.2255748511
 20
2.5977093616
 30
0.0
 10
5.2501609316
 20
2.6064478841
 30
0.0
 10
5.273758629
 20
2.6175412937
 30
0.0
 10
5.2961539957
 20
2.6308751579
 30
0.0
 10
5.3171250909
 20
2.6463290027
 30
0.0
 10
5.3364711413
 20
2.6637502008
 30
0.0
 10
5.354005713
 20
2.6829719078
 30
0.0
 10
5.3695588233
 20
2.7038096137
 30
0.0
 10
5.3829842223
 20
2.7260607515
 30
0.0
 10
5.3941460662
 20
2.7495142555
 30
0.0
 10
5.4029456448
 20
2.7739402975
 30
0.0
 10
5.4092870401
 20
2.7991080698
 30
0.0
 10
5.413122199
 20
2.8247687831
 30
0.0
 10
5.4139738128
 20
2.8420497947
 30
0.0
 10
5.4139738128
 20
2.8506835976
 30
0.0
  0
SPLINE
  5
337
100
AcDbEntity
  8
0
100
AcDbSpline
 62
7
  6
CONTINUOUS
 70
0
 71
3
 72
34
 73
30
 74
0
 42
0.0000001
 43
0.0000001
 44
0.0000000001
 40
0.0
 40
0.0
 40
0.0
 40
0.0
 40
0.0624053893
 40
0.0936098501
 40
0.1248061647
 40
0.1559954496
 40
0.1871790005
 40
0.2495024896
 40
0.2806797009
 40
0.3118585642
 40
0.3430404752
 40
0.3742268815
 40
0.4054199103
 40
0.4366207079
 40
0.4678304114
 40
0.4990507385
 40
0.5302823502
 40
0.5615258617
 40
0.5927823711
 40
0.624051825
 40
0.6553340965
 40
0.6866297492
 40
0.7179384453
 40
0.7492597939
 40
0.8119017948
 40
0.8745734756
 40
0.9059387933
 40
0.9373140352
 40
1.0
 40
1.0
 40
1.0
 40
1.0
 10
4.8825827588
 20
3.0040061968
 30
0.0
 10
4.8755252061
 20
2.9923881867
 30
0.0
 10
4.8660771325
 20
2.9742292835
 30
0.0
 10
4.8559847915
 20
2.9489710978
 30
0.0
 10
4.8496886478
 20
2.9295643486
 30
0.0
 10
4.8446928418
 20
2.909787972
 30
0.0
 10
4.8398027827
 20
2.883054035
 30
0.0
 10
4.8375914562
 20
2.8558882308
 30
0.0
 10
4.8380957088
 20
2.8287191388
 30
0.0
 10
4.8398285942
 20
2.8084017287
 30
0.0
 10
4.8429041787
 20
2.788243082
 30
0.0
 10
4.8473144876
 20
2.7683301952
 30
0.0
 10
4.8530393852
 20
2.7487506594
 30
0.0
 10
4.8600493874
 20
2.7295881735
 30
0.0
 10
4.8683192266
 20
2.7109281379
 30
0.0
 10
4.8778118192
 20
2.6928520128
 30
0.0
 10
4.8884817136
 20
2.6754362178
 30
0.0
 10
4.9002872559
 20
2.6587595509
 30
0.0
 10
4.9131758605
 20
2.6428945849
 30
0.0
 10
4.9270877448
 20
2.6279073453
 30
0.0
 10
4.9419664658
 20
2.6138668251
 30
0.0
 10
4.9577459933
 20
2.6008340259
 30
0.0
 10
4.9743558953
 20
2.58886146
 30
0.0
 10
4.9975109667
 20
2.5743919884
 30
0.0
 10
5.0281804985
 20
2.5592025629
 30
0.0
 10
5.0605867078
 20
2.5481689195
 30
0.0
 10
5.0872046221
 20
2.5419431478
 30
0.0
 10
5.1141732305
 20
2.5374801284
 30
0.0
 10
5.1346953921
 20
2.5361298215
 30
0.0
 10
5.1483501553
 20
2.5361298215
 30
0.0
  0
SPLINE
  5
338
100
AcDbEntity
  8
0
100
AcDbSpline
 62
7
  6
CONTINUOUS
 70
0
 71
3
 72
22
 73
18
 74
0
 42
0.0000001
 43
0.0000001
 44
0.0000000001
 40
0.0
 40
0.0
 40
0.0
 40
0.0
 40
0.1252564075
 40
0.1879493132
 40
0.2506036394
 40
0.3132367248
 40
0.3758432042
 40
0.4384125234
 40
0.5009426364
 40
0.563433219
 40
0.6258859197
 40
0.6883020657
 40
0.7506859175
 40
0.8130411878
 40
0.8753744802
 40
0.9376913607
 40
1.0
 40
1.0
 40
1.0
 40
1.0
 10
5.1483501553
 20
2.5246248665
 30
0.0
 10
5.1690826623
 20
2.5246248664
 30
0.0
 10
5.2003016857
 20
2.5276483639
 30
0.0
 10
5.2406199934
 20
2.5375796122
 30
0.0
 10
5.2700245568
 20
2.5479128474
 30
0.0
 10
5.2982730625
 20
2.5610353336
 30
0.0
 10
5.3251150784
 20
2.5768119808
 30
0.0
 10
5.3502859673
 20
2.5951081213
 30
0.0
 10
5.3735560919
 20
2.6157391116
 30
0.0
 10
5.3946977928
 20
2.6385200219
 30
0.0
 10
5.4135210572
 20
2.6632274912
 30
0.0
 10
5.4298385537
 20
2.6896362542
 30
0.0
 10
5.4435061018
 20
2.7174909976
 30
0.0
 10
5.454384909
 20
2.7465337809
 30
0.0
 10
5.4623818714
 20
2.7764877648
 30
0.0
 10
5.4674125396
 20
2.8070692908
 30
0.0
 10
5.468761933
 20
2.8276920669
 30
0.0
 10
5.4689320398
 20
2.8380040229
 30
0.0
  0
SPLINE
  5
339
100
AcDbEntity
  8
02___PRT_ALL_AXES
100
AcDbSpline
 62
7
  6
CONTINUOUS
 70
0
 71
3
 72
22
 73
18
 74
0
 42
0.0000001
 43
0.0000001
 44
0.0000000001
 40
0.0
 40
0.0
 40
0.0
 40
0.0
 40
0.0623103059
 40
0.1246281284
 40
0.1869612742
 40
0.2493157938
 40
0.311698641
 40
0.374113554
 40
0.436565368
 40
0.4990544338
 40
0.5615836014
 40
0.624152111
 40
0.6867576643
 40
0.7493884616
 40
0.8120444905
 40
0.8747447952
 40
1.0
 40
1.0
 40
1.0
 40
1.0
 10
4.8827264977
 20
2.8506835976
 30
0.0
 10
4.8827264977
 20
2.8420497947
 30
0.0
 10
4.8835781116
 20
2.8247687831
 30
0.0
 10
4.8874132705
 20
2.7991080698
 30
0.0
 10
4.8937546658
 20
2.7739402975
 30
0.0
 10
4.9025542444
 20
2.7495142555
 30
0.0
 10
4.9137160882
 20
2.7260607515
 30
0.0
 10
4.9271414872
 20
2.7038096137
 30
0.0
 10
4.9426945975
 20
2.6829719078
 30
0.0
 10
4.9602291693
 20
2.6637502008
 30
0.0
 10
4.9795752197
 20
2.6463290027
 30
0.0
 10
5.0005463149
 20
2.6308751579
 30
0.0
 10
5.0229416816
 20
2.6175412937
 30
0.0
 10
5.046539379
 20
2.6064478841
 30
0.0
 10
5.0711254594
 20
2.5977093616
 30
0.0
 10
5.1048577408
 20
2.5893103793
 30
0.0
 10
5.1309946194
 20
2.586751624
 30
0.0
 10
5.1483501553
 20
2.586751624
 30
0.0
  0
SPLINE
  5
33A
100
AcDbEntity
  8
0
100
AcDbSpline
 62
7
  6
CONTINUOUS
 70
0
 71
3
 72
31
 73
27
 74
0
 42
0.0000001
 43
0.0000001
 44
0.0000000001
 40
0.0
 40
0.0
 40
0.0
 40
0.0
 40
0.0627054554
 40
0.0940963175
 40
0.1254715491
 40
0.1881477146
 40
0.2507928956
 40
0.2821172893
 40
0.3134286986
 40
0.3759774685
 40
0.4384729974
 40
0.4697184482
 40
0.500951771
 40
0.5633514808
 40
0.625714704
 40
0.6569031431
 40
0.6880868298
 40
0.719267696
 40
0.7504469741
 40
0.8127743329
 40
0.8439600125
 40
0.8751511857
 40
0.9063496202
 40
0.937556239
 40
0.968772595
 40
1.0
 40
1.0
 40
1.0
 40
1.0
 10
5.1483501553
 20
2.5361298215
 30
0.0
 10
5.1620131319
 20
2.5361298215
 30
0.0
 10
5.1825486707
 20
2.5374845962
 30
0.0
 10
5.2095348449
 20
2.5419500622
 30
0.0
 10
5.2361661043
 20
2.5481826326
 30
0.0
 10
5.2685834575
 20
2.5592273187
 30
0.0
 10
5.299258731
 20
2.5744317862
 30
0.0
 10
5.3224200027
 20
2.5889115134
 30
0.0
 10
5.3445569044
 20
2.6048776166
 30
0.0
 10
5.3701684142
 20
2.6275029574
 30
0.0
 10
5.3925574082
 20
2.6533028228
 30
0.0
 10
5.4082931274
 20
2.6755481612
 30
0.0
 10
5.4225068245
 20
2.6987709991
 30
0.0
 10
5.4373387036
 20
2.7294723029
 30
0.0
 10
5.447961684
 20
2.7618619953
 30
0.0
 10
5.4538293025
 20
2.7884169794
 30
0.0
 10
5.4568941816
 20
2.8085853061
 30
0.0
 10
5.4586135093
 20
2.8289108684
 30
0.0
 10
5.4591031421
 20
2.8560899373
 30
0.0
 10
5.4568698534
 20
2.8832637877
 30
0.0
 10
5.451961223
 20
2.9100039211
 30
0.0
 10
5.4469488725
 20
2.9297840628
 30
0.0
 10
5.4406349945
 20
2.9491912263
 30
0.0
 10
5.4330466203
 20
2.9681430702
 30
0.0
 10
5.4242121976
 20
2.9865529706
 30
0.0
 10
5.417520966
 20
2.9984133761
 30
0.0
 10
5.4139834482
 20
3.0042256781
 30
0.0
  0
SPLINE
  5
33B
100
AcDbEntity
  8
0
100
AcDbSpline
 62
7
  6
CONTINUOUS
 70
0
 71
3
 72
21
 73
17
 74
0
 42
0.0000001
 43
0.0000001
 44
0.0000000001
 40
0.0
 40
0.0
 40
0.0
 40
0.0
 40
0.0623226518
 40
0.1246532747
 40
0.1869986128
 40
0.249366087
 40
0.3117610113
 40
0.3741889461
 40
0.4990047199
 40
0.6239759304
 40
0.6865937313
 40
0.7492426616
 40
0.8119122194
 40
0.8746060512
 40
0.9373244436
 40
1.0
 40
1.0
 40
1.0
 40
1.0
 10
4.8277252555
 20
2.8432062841
 30
0.0
 10
4.8277248516
 20
2.8327842903
 30
0.0
 10
4.8287588451
 20
2.8119244815
 30
0.0
 10
4.8333805457
 20
2.7809478607
 30
0.0
 10
4.8410430529
 20
2.75056905
 30
0.0
 10
4.8516588779
 20
2.7210823825
 30
0.0
 10
4.8651401276
 20
2.6927722405
 30
0.0
 10
4.8867290382
 20
2.6569759765
 30
0.0
 10
4.9202068218
 20
2.6164433858
 30
0.0
 10
4.9609820586
 20
2.5832146485
 30
0.0
 10
4.9969880123
 20
2.5617821139
 30
0.0
 10
5.0254786227
 20
2.5483921938
 30
0.0
 10
5.0551504624
 20
2.5378471514
 30
0.0
 10
5.0857209439
 20
2.5302385913
 30
0.0
 10
5.1168858103
 20
2.5256509752
 30
0.0
 10
5.1378691465
 20
2.5246248665
 30
0.0
 10
5.1483501553
 20
2.5246248665
 30
0.0
  0
SPLINE
  5
33C
100
AcDbEntity
  8
0
100
AcDbSpline
 62
7
  6
CONTINUOUS
 70
0
 71
3
 72
21
 73
17
 74
0
 42
0.0000001
 43
0.0000001
 44
0.0000000001
 40
0.0
 40
0.0
 40
0.0
 40
0.0
 40
0.0623137595
 40
0.1246387709
 40
0.1869826617
 40
0.2493500429
 40
0.3117471267
 40
0.374176703
 40
0.4366426694
 40
0.4991449731
 40
0.5616851907
 40
0.6242626334
 40
0.6868751571
 40
0.749512363
 40
0.8747322549
 40
1.0
 40
1.0
 40
1.0
 40
1.0
 10
4.8284129146
 20
2.8171615202
 30
0.0
 10
4.8290709589
 20
2.8071950083
 30
0.0
 10
4.8313303152
 20
2.7873094154
 30
0.0
 10
4.8375266639
 20
2.7579420651
 30
0.0
 10
4.8464705875
 20
2.7292800023
 30
0.0
 10
4.858085771
 20
2.7015807518
 30
0.0
 10
4.8722683714
 20
2.6750884466
 30
0.0
 10
4.8888923268
 20
2.6500368923
 30
0.0
 10
4.9078124742
 20
2.6266495031
 30
0.0
 10
4.928857849
 20
2.6051297777
 30
0.0
 10
4.9518469225
 20
2.5856725062
 30
0.0
 10
4.9765713995
 20
2.5684442079
 30
0.0
 10
5.002819428
 20
2.5536046552
 30
0.0
 10
5.0395047795
 20
2.5371722826
 30
0.0
 10
5.0880262062
 20
2.5231873489
 30
0.0
 10
5.1282711099
 20
2.5194206464
 30
0.0
 10
5.1483501553
 20
2.5194206464
 30
0.0
  0
SPLINE
  5
33D
100
AcDbEntity
  8
0
100
AcDbSpline
 62
7
  6
CONTINUOUS
 70
0
 71
3
 72
23
 73
19
 74
0
 42
0.0000001
 43
0.0000001
 44
0.0000000001
 40
0.0
 40
0.0
 40
0.0
 40
0.0
 40
0.0626667887
 40
0.1253889642
 40
0.1880733497
 40
0.2507200181
 40
0.3133448978
 40
0.3759412021
 40
0.438499815
 40
0.5010191139
 40
0.5634995836
 40
0.6259418605
 40
0.6883477896
 40
0.7507210711
 40
0.8130665888
 40
0.8753903127
 40
0.9376989868
 40
1.0
 40
1.0
 40
1.0
 40
1.0
 10
5.1483501553
 20
2.5194206464
 30
0.0
 10
5.1588328489
 20
2.5194206464
 30
0.0
 10
5.1798215042
 20
2.5204494654
 30
0.0
 10
5.2109935753
 20
2.5250365147
 30
0.0
 10
5.2415681109
 20
2.5326479421
 30
0.0
 10
5.2712399203
 20
2.5431949043
 30
0.0
 10
5.2997255374
 20
2.5565854646
 30
0.0
 10
5.3267591017
 20
2.572679066
 30
0.0
 10
5.3520705928
 20
2.5913349839
 30
0.0
 10
5.375424555
 20
2.6123609895
 30
0.0
 10
5.3965868538
 20
2.6355653041
 30
0.0
 10
5.4153645843
 20
2.66071478
 30
0.0
 10
5.4315646628
 20
2.6875762094
 30
0.0
 10
5.4450436933
 20
2.7158832365
 30
0.0
 10
5.4556584183
 20
2.7453693129
 30
0.0
 10
5.4633204873
 20
2.77574645
 30
0.0
 10
5.4679415934
 20
2.806721713
 30
0.0
 10
5.4689751521
 20
2.8275804647
 30
0.0
 10
5.4689751553
 20
2.8380019726
 30
0.0
  0
ENDSEC
  0
SECTION
  2
OBJECTS
  0
DICTIONARY
  5
C
100
AcDbDictionary
280
0
281
1
  3
ACAD_GROUP
350
D
  3
ACAD_MLINESTYLE
350
17
  3
ACAD_LAYOUT
350
1A
  3
ACAD_PLOTSETTINGS
350
19
  3
ACAD_PLOTSTYLENAME
350
E
  0
DICTIONARY
  5
D
102
{ACAD_REACTORS
330
C
102
}
100
AcDbDictionary
280
0
281
1
  0
ACDBDICTIONARYWDFLT
  5
E
102
{ACAD_REACTORS
330
C
102
}
100
AcDbDictionary
281
1
  3
Normal
350
F
100
AcDbDictionaryWithDefault
340
F
  0
DICTIONARY
  5
17
102
{ACAD_REACTORS
330
C
102
}
100
AcDbDictionary
280
0
281
1
  3
Standard
350
18
  0
DICTIONARY
  5
19
102
{ACAD_REACTORS
330
C
102
}
100
AcDbDictionary
281
1
  0
DICTIONARY
  5
1A
102
{ACAD_REACTORS
330
C
102
}
100
AcDbDictionary
281
1
  3
Model
350
33E
  3
Layout1
350
33F
  0
ACDBPLACEHOLDER
  5
F
102
{ACAD_REACTORS
330
E
102
}
  0
MLINESTYLE
  5
18
102
{ACAD_REACTORS
330
17
102
}
100
AcDbMlineStyle
  2
STANDARD
 70
0
  3

 62
256
 51
90.0
 52
90.0
 71
2
 49
0.5
 62
256
  6
BYLAYER
 49
-0.5
 62
256
  6
BYLAYER
  0
LAYOUT
  5
33E
102
{ACAD_REACTORS
330
1A
102
}
100
AcDbPlotSettings
  1

  2
none_device
  4
ANSI_A_(11.00_x_8.50_Inches)
  6

 40
0.0
 41
0.0
 42
0.0
 43
0.0
 44
279.4
 45
215.9
 46
0.0
 47
0.0
 48
0.0
 49
0.0
140
0.0
141
0.0
142
1.0
143
1.0
 70
1024
 72
0
 73
0
 74
0
  7

 75
0
147
1.0
148
0.0
149
0.0
100
AcDbLayout
  1
Model
 70
0
 71
0
 10
0.0
 20
0.0
 11
11.0
 21
8.5
 12
0.0
 22
0.0
 32
0.0
 14
0.0
 24
0.0
 34
0.0
 15
0.0
 25
0.0
 35
0.0
146
0.0
 13
0.0
 23
0.0
 33
0.0
 16
1.0
 26
0.0
 36
0.0
 17
0.0
 27
1.0
 37
0.0
 76
0
330
219
345
0
346
0
  0
LAYOUT
  5
33F
102
{ACAD_REACTORS
330
1A
102
}
100
AcDbPlotSettings
  1

  2
none_device
  4
ANSI_A_(11.00_x_8.50_Inches)
  6

 40
0.0
 41
0.0
 42
0.0
 43
0.0
 44
279.4
 45
215.9
 46
0.0
 47
0.0
 48
0.0
 49
0.0
140
0.0
141
0.0
142
1.0
143
1.0
 70
0
 72
0
 73
0
 74
0
  7

 75
0
147
1.0
148
0.0
149
0.0
100
AcDbLayout
  1
Layout1
 70
0
 71
1
 10
0.0
 20
0.0
 11
11.0
 21
8.5
 12
0.0
 22
0.0
 32
0.0
 14
0.0
 24
0.0
 34
0.0
 15
0.0
 25
0.0
 35
0.0
146
0.0
 13
0.0
 23
0.0
 33
0.0
 16
1.0
 26
0.0
 36
0.0
 17
0.0
 27
1.0
 37
0.0
 76
0
330
21A
345
0
346
0
  0
ENDSEC
  0
EOF
