999
DXF file: 3-2555_TOP.dxf
999
Pro/ENGINEER 2018400 by Parametric Technology Corporation
  0
SECTION
  2
HEADER
  9
$ACADVER
  1
AC1027
  9
$DWGCODEPAGE
  3
ANSI_1252
  9
$EXTMAX
 10
11.0
 20
8.5
 30
0.0
  9
$EXTMIN
 10
0.0
 20
0.0
 30
0.0
  9
$LIMMIN
 10
0.0
 20
0.0
  9
$LIMMAX
 10
11.0
 20
8.5
  9
$VIEWCTR
 10
5.5
 20
4.25
  9
$VIEWSIZE
 40
8.5
  9
$CLAYER
  8
0
  9
$LTSCALE
 40
0.605
  9
$CELTYPE
  6
BYLAYER
  9
$DIMSCALE
 40
1.0
  9
$DIMASZ
 40
0.1
  9
$DIMEXO
 40
0.0625
  9
$DIMDLI
 40
0.418
  9
$DIMEXE
 40
0.125
  9
$DIMCEN
 40
0.099
  9
$DIMLFAC
 40
1.0
  9
$DIMBLK
  1
_FILLED
  9
$DIMALT
 70
1
  9
$DIMALTD
 70
2
  9
$DIMALTTD
 70
2
  9
$DIMALTF
 40
25.4
  9
$DIMTXT
 40
0.08
  9
$DIMTOL
 70
1
  9
$DIMLIM
 70
0
  9
$DIMTFAC
 40
1.0
  9
$DIMTP
 40
0.001
  9
$DIMTM
 40
0.001
  9
$DIMGAP
 40
0.09
  9
$DIMDSEP
 70
46
  9
$AUNITS
 70
0
  9
$PDMODE
 70
3
  9
$PDSIZE
 40
0.3125
  9
$HANDSEED
  5
34E
  9
$TILEMODE
 70
1
  9
$MEASUREMENT
 70
0
  9
$INSUNITS
 70
1
  0
ENDSEC
  0
SECTION
  2
CLASSES
  0
CLASS
  1
ACDBDICTIONARYWDFLT
  2
AcDbDictionaryWithDefault
  3
AutoCAD 2000
 90
0
 91
1
280
0
281
0
  0
CLASS
  1
ACDBPLACEHOLDER
  2
AcDbPlaceHolder
  3
AutoCAD 2000
 90
0
 91
1
280
0
281
0
  0
CLASS
  1
LAYOUT
  2
AcDbLayout
  3
AutoCAD 2000
 90
0
 91
0
280
0
281
0
  0
ENDSEC
  0
SECTION
  2
TABLES
  0
TABLE
  2
VPORT
  5
8
100
AcDbSymbolTable
 70
2
  0
VPORT
  5
1F4
100
AcDbSymbolTableRecord
100
AcDbViewportTableRecord
  2
*ACTIVE
 70
0
 10
0.0
 20
0.0
 11
1.0
 21
1.0
 12
5.5
 22
4.25
 13
0.0
 23
0.0
 14
1.0
 24
1.0
 15
0.0
 25
0.0
 16
0.0
 26
0.0
 36
1.0
 17
0.0
 27
0.0
 37
0.0
 40
8.5
 41
1.2941176471
 42
50.0
 43
0.0
 44
0.0
 50
0.0
 51
0.0
 71
0
 72
100
 73
1
 74
1
 75
0
 76
0
 77
0
 78
0
  0
ENDTAB
  0
TABLE
  2
LTYPE
  5
5
100
AcDbSymbolTable
 70
6
  0
LTYPE
  5
14
100
AcDbSymbolTableRecord
100
AcDbLinetypeTableRecord
  2
BYBLOCK
 70
0
  3

 72
65
 73
0
 40
0.0
  0
LTYPE
  5
15
100
AcDbSymbolTableRecord
100
AcDbLinetypeTableRecord
  2
BYLAYER
 70
0
  3

 72
65
 73
0
 40
0.0
  0
LTYPE
  5
16
100
AcDbSymbolTableRecord
100
AcDbLinetypeTableRecord
  2
CONTINUOUS
 70
64
  3
Solid line
 72
65
 73
0
 40
0.0
  0
LTYPE
  5
1F5
100
AcDbSymbolTableRecord
100
AcDbLinetypeTableRecord
  2
CENTER
 70
64
  3
____ _ ____ _ ____ _ ____ _ ____ _ ____ _ ____
 72
65
 73
4
 40
0.6
 49
0.375
 74
0
 49
-0.075
 74
0
 49
0.075
 74
0
 49
-0.075
 74
0
  0
LTYPE
  5
1F6
100
AcDbSymbolTableRecord
100
AcDbLinetypeTableRecord
  2
HIDDEN
 70
64
  3
- - - - - - - - - - - - - - - - - - - -
 72
65
 73
2
 40
0.2
 49
0.1
 74
0
 49
-0.1
 74
0
  0
LTYPE
  5
1F7
100
AcDbSymbolTableRecord
100
AcDbLinetypeTableRecord
  2
PHANTOM
 70
64
  3
_____ _ _ _____ _ _ _____ _ _ _____
 72
65
 73
6
 40
0.8
 49
0.45
 74
0
 49
-0.05
 74
0
 49
0.1
 74
0
 49
-0.05
 74
0
 49
0.1
 74
0
 49
-0.05
 74
0
  0
LTYPE
  5
1F8
100
AcDbSymbolTableRecord
100
AcDbLinetypeTableRecord
  2
DOT
 70
64
  3
. . . . . . . . . . . . . . . . . . . .
 72
65
 73
2
 40
0.2
 49
0.1
 74
0
 49
-0.1
 74
0
  0
LTYPE
  5
1F9
100
AcDbSymbolTableRecord
100
AcDbLinetypeTableRecord
  2
DASHED
 70
64
  3
- - - - - - - - - - - - - - - - - - - -
 72
65
 73
2
 40
0.2
 49
0.1
 74
0
 49
-0.1
 74
0
  0
ENDTAB
  0
TABLE
  2
LAYER
  5
2
100
AcDbSymbolTable
 70
36
  0
LAYER
  5
10
100
AcDbSymbolTableRecord
100
AcDbLayerTableRecord
  2
0
 70
0
 62
7
  6
CONTINUOUS
370
-3
390
F
  0
LAYER
  5
1FA
100
AcDbSymbolTableRecord
100
AcDbLayerTableRecord
  2
DEFAULT_1
 70
0
 62
7
  6
CENTER
370
-3
390
F
  0
LAYER
  5
1FB
100
AcDbSymbolTableRecord
100
AcDbLayerTableRecord
  2
DEFAULT_2
 70
0
 62
8
  6
HIDDEN
370
-3
390
F
  0
LAYER
  5
1FC
100
AcDbSymbolTableRecord
100
AcDbLayerTableRecord
  2
DEFAULT_3
 70
0
 62
7
  6
PHANTOM
370
-3
390
F
  0
LAYER
  5
1FD
100
AcDbSymbolTableRecord
100
AcDbLayerTableRecord
  2
01_ALL_DTM_PLN
 70
0
 62
7
  6
CONTINUOUS
370
-3
390
F
  0
LAYER
  5
1FE
100
AcDbSymbolTableRecord
100
AcDbLayerTableRecord
  2
01__ASM_ALL_DTM_PLN
 70
0
 62
7
  6
CONTINUOUS
370
-3
390
F
  0
LAYER
  5
1FF
100
AcDbSymbolTableRecord
100
AcDbLayerTableRecord
  2
01__ASM_DEF_DTM_PLN
 70
0
 62
7
  6
CONTINUOUS
370
-3
390
F
  0
LAYER
  5
200
100
AcDbSymbolTableRecord
100
AcDbLayerTableRecord
  2
01___PRT_ALL_DTM_PLN
 70
0
 62
7
  6
CONTINUOUS
370
-3
390
F
  0
LAYER
  5
201
100
AcDbSymbolTableRecord
100
AcDbLayerTableRecord
  2
01___PRT_DEF_DTM_PLN
 70
0
 62
7
  6
CONTINUOUS
370
-3
390
F
  0
LAYER
  5
202
100
AcDbSymbolTableRecord
100
AcDbLayerTableRecord
  2
02_ALL_AXES
 70
0
 62
7
  6
CONTINUOUS
370
-3
390
F
  0
LAYER
  5
203
100
AcDbSymbolTableRecord
100
AcDbLayerTableRecord
  2
02__ASM_ALL_AXES
 70
0
 62
7
  6
CONTINUOUS
370
-3
390
F
  0
LAYER
  5
204
100
AcDbSymbolTableRecord
100
AcDbLayerTableRecord
  2
02___PRT_ALL_AXES
 70
0
 62
7
  6
CONTINUOUS
370
-3
390
F
  0
LAYER
  5
205
100
AcDbSymbolTableRecord
100
AcDbLayerTableRecord
  2
03_ALL_CURVES
 70
0
 62
7
  6
CONTINUOUS
370
-3
390
F
  0
LAYER
  5
206
100
AcDbSymbolTableRecord
100
AcDbLayerTableRecord
  2
03__ASM_ALL_CURVES
 70
0
 62
7
  6
CONTINUOUS
370
-3
390
F
  0
LAYER
  5
207
100
AcDbSymbolTableRecord
100
AcDbLayerTableRecord
  2
03___PRT_ALL_CURVES
 70
0
 62
7
  6
CONTINUOUS
370
-3
390
F
  0
LAYER
  5
208
100
AcDbSymbolTableRecord
100
AcDbLayerTableRecord
  2
04_ALL_DTM_PNT
 70
0
 62
7
  6
CONTINUOUS
370
-3
390
F
  0
LAYER
  5
209
100
AcDbSymbolTableRecord
100
AcDbLayerTableRecord
  2
04__ASM_ALL_DTM_PNT
 70
0
 62
7
  6
CONTINUOUS
370
-3
390
F
  0
LAYER
  5
20A
100
AcDbSymbolTableRecord
100
AcDbLayerTableRecord
  2
04___PRT_ALL_DTM_PNT
 70
0
 62
7
  6
CONTINUOUS
370
-3
390
F
  0
LAYER
  5
20B
100
AcDbSymbolTableRecord
100
AcDbLayerTableRecord
  2
05_ALL_DTM_CSYS
 70
0
 62
7
  6
CONTINUOUS
370
-3
390
F
  0
LAYER
  5
20C
100
AcDbSymbolTableRecord
100
AcDbLayerTableRecord
  2
05__ASM_ALL_DTM_CSYS
 70
0
 62
7
  6
CONTINUOUS
370
-3
390
F
  0
LAYER
  5
20D
100
AcDbSymbolTableRecord
100
AcDbLayerTableRecord
  2
05__ASM_DEF_DTM_CSYS
 70
0
 62
7
  6
CONTINUOUS
370
-3
390
F
  0
LAYER
  5
20E
100
AcDbSymbolTableRecord
100
AcDbLayerTableRecord
  2
05___PRT_ALL_DTM_CSYS
 70
0
 62
7
  6
CONTINUOUS
370
-3
390
F
  0
LAYER
  5
20F
100
AcDbSymbolTableRecord
100
AcDbLayerTableRecord
  2
05___PRT_DEF_DTM_CSYS
 70
0
 62
7
  6
CONTINUOUS
370
-3
390
F
  0
LAYER
  5
210
100
AcDbSymbolTableRecord
100
AcDbLayerTableRecord
  2
06_ALL_SURFS
 70
0
 62
7
  6
CONTINUOUS
370
-3
390
F
  0
LAYER
  5
211
100
AcDbSymbolTableRecord
100
AcDbLayerTableRecord
  2
06__ASM_ALL_SURFS
 70
0
 62
7
  6
CONTINUOUS
370
-3
390
F
  0
LAYER
  5
212
100
AcDbSymbolTableRecord
100
AcDbLayerTableRecord
  2
06___PRT_ALL_SURFS
 70
0
 62
7
  6
CONTINUOUS
370
-3
390
F
  0
LAYER
  5
213
100
AcDbSymbolTableRecord
100
AcDbLayerTableRecord
  2
07__ASM_ALL_SKELETONS
 70
0
 62
7
  6
CONTINUOUS
370
-3
390
F
  0
LAYER
  5
214
100
AcDbSymbolTableRecord
100
AcDbLayerTableRecord
  2
3-985_ASSY_PLANES
 70
0
 62
7
  6
CONTINUOUS
370
-3
390
F
  0
LAYER
  5
215
100
AcDbSymbolTableRecord
100
AcDbLayerTableRecord
  2
ALL_ASSEMBLY_MEMBERS
 70
0
 62
7
  6
CONTINUOUS
370
-3
390
F
  0
LAYER
  5
216
100
AcDbSymbolTableRecord
100
AcDbLayerTableRecord
  2
ALL_FEATURES
 70
0
 62
7
  6
CONTINUOUS
370
-3
390
F
  0
LAYER
  5
217
100
AcDbSymbolTableRecord
100
AcDbLayerTableRecord
  2
AXES_FEATURES
 70
0
 62
7
  6
CONTINUOUS
370
-3
390
F
  0
LAYER
  5
218
100
AcDbSymbolTableRecord
100
AcDbLayerTableRecord
  2
CHAMFER_FEATURES
 70
0
 62
7
  6
CONTINUOUS
370
-3
390
F
  0
LAYER
  5
219
100
AcDbSymbolTableRecord
100
AcDbLayerTableRecord
  2
CUT_FEATURES
 70
0
 62
7
  6
CONTINUOUS
370
-3
390
F
  0
LAYER
  5
21A
100
AcDbSymbolTableRecord
100
AcDbLayerTableRecord
  2
DATUM_CURVES
 70
0
 62
7
  6
CONTINUOUS
370
-3
390
F
  0
LAYER
  5
21B
100
AcDbSymbolTableRecord
100
AcDbLayerTableRecord
  2
DATUM_PLANES
 70
0
 62
7
  6
CONTINUOUS
370
-3
390
F
  0
LAYER
  5
21C
100
AcDbSymbolTableRecord
100
AcDbLayerTableRecord
  2
DEFAULT_COORDINATE_SYSTEM
 70
0
 62
7
  6
CONTINUOUS
370
-3
390
F
  0
LAYER
  5
21D
100
AcDbSymbolTableRecord
100
AcDbLayerTableRecord
  2
DEFAULT_DATUM_AXES
 70
0
 62
7
  6
CONTINUOUS
370
-3
390
F
  0
LAYER
  5
21E
100
AcDbSymbolTableRecord
100
AcDbLayerTableRecord
  2
DEFAULT_DATUM_CURVES
 70
0
 62
7
  6
CONTINUOUS
370
-3
390
F
  0
LAYER
  5
21F
100
AcDbSymbolTableRecord
100
AcDbLayerTableRecord
  2
DEFAULT_DATUM_PLANES
 70
0
 62
7
  6
CONTINUOUS
370
-3
390
F
  0
LAYER
  5
220
100
AcDbSymbolTableRecord
100
AcDbLayerTableRecord
  2
DEFAULT_SURFACES
 70
0
 62
7
  6
CONTINUOUS
370
-3
390
F
  0
LAYER
  5
221
100
AcDbSymbolTableRecord
100
AcDbLayerTableRecord
  2
DIMENSIONS
 70
0
 62
7
  6
CONTINUOUS
370
-3
390
F
  0
LAYER
  5
222
100
AcDbSymbolTableRecord
100
AcDbLayerTableRecord
  2
HOLE_FEATURES
 70
0
 62
7
  6
CONTINUOUS
370
-3
390
F
  0
LAYER
  5
223
100
AcDbSymbolTableRecord
100
AcDbLayerTableRecord
  2
NONE
 70
0
 62
7
  6
CONTINUOUS
370
-3
390
F
  0
LAYER
  5
224
100
AcDbSymbolTableRecord
100
AcDbLayerTableRecord
  2
PART_REFERENCE_DIMENSIONS
 70
0
 62
7
  6
CONTINUOUS
370
-3
390
F
  0
LAYER
  5
225
100
AcDbSymbolTableRecord
100
AcDbLayerTableRecord
  2
PLATED_SURFACE_AREA
 70
0
 62
7
  6
CONTINUOUS
370
-3
390
F
  0
LAYER
  5
226
100
AcDbSymbolTableRecord
100
AcDbLayerTableRecord
  2
PROTRUSION_FEATURES
 70
0
 62
7
  6
CONTINUOUS
370
-3
390
F
  0
LAYER
  5
227
100
AcDbSymbolTableRecord
100
AcDbLayerTableRecord
  2
REFERENCE_DIMENSIONS
 70
0
 62
7
  6
CONTINUOUS
370
-3
390
F
  0
LAYER
  5
228
100
AcDbSymbolTableRecord
100
AcDbLayerTableRecord
  2
WETTED_SURFACES
 70
0
 62
7
  6
CONTINUOUS
370
-3
390
F
  0
LAYER
  5
229
100
AcDbSymbolTableRecord
100
AcDbLayerTableRecord
  2
WETTED_SURFACE_AREA
 70
0
 62
7
  6
CONTINUOUS
370
-3
390
F
  0
LAYER
  5
22A
100
AcDbSymbolTableRecord
100
AcDbLayerTableRecord
  2
XSEC_DATUMS
 70
0
 62
7
  6
CONTINUOUS
370
-3
390
F
  0
ENDTAB
  0
TABLE
  2
STYLE
  5
3
100
AcDbSymbolTable
 70
1
  0
STYLE
  5
11
100
AcDbSymbolTableRecord
100
AcDbTextStyleTableRecord
  2
STANDARD
 70
0
 40
0.0
 41
0.8
 50
0.0
 71
0
 42
0.2
  3
txt
  4

  0
STYLE
  5
22B
100
AcDbSymbolTableRecord
100
AcDbTextStyleTableRecord
  2
TEXTSTYLE_1
 70
0
 40
0.0
 41
0.8
 50
0.0
 71
0
 42
0.2
  3
gdt
  4

  0
ENDTAB
  0
TABLE
  2
VIEW
  5
6
100
AcDbSymbolTable
 70
0
  0
ENDTAB
  0
TABLE
  2
UCS
  5
7
100
AcDbSymbolTable
 70
0
  0
ENDTAB
  0
TABLE
  2
APPID
  5
9
100
AcDbSymbolTable
 70
1
  0
APPID
  5
22C
100
AcDbSymbolTableRecord
100
AcDbRegAppTableRecord
  2
ACAD
 70
0
  0
ENDTAB
  0
TABLE
  2
BLOCK_RECORD
  5
1
100
AcDbSymbolTable
 70
0
  0
BLOCK_RECORD
  5
22D
100
AcDbSymbolTableRecord
100
AcDbBlockTableRecord
  2
*Model_Space
  0
BLOCK_RECORD
  5
22E
100
AcDbSymbolTableRecord
100
AcDbBlockTableRecord
  2
*Paper_Space
  0
BLOCK_RECORD
  5
22F
100
AcDbSymbolTableRecord
100
AcDbBlockTableRecord
  2
_FILLED
  0
ENDTAB
  0
TABLE
  2
DIMSTYLE
  5
A
100
AcDbSymbolTable
 70
1
100
AcDbDimStyleTable
 71
0
  0
DIMSTYLE
105
230
100
AcDbSymbolTableRecord
100
AcDbDimStyleTableRecord
  2
STANDARD
 70
0
  3

  4

 40
1.0
 41
0.1
 42
0.0625
 43
0.38
 44
0.125
 45
0.0
 46
0.0
 47
0.001
 48
0.001
140
0.08
141
0.09
142
0.0
143
25.4
144
1.0
145
0.0
146
1.0
147
0.09
 71
1.0
 72
0.0
 73
1
 74
1
 75
0
 76
0
 77
0
 78
4
 79
1
170
1
171
2
172
0
173
0
174
0
175
0
176
0
177
0
178
0
270
2
179
3
271
3
272
3
273
2
274
2
275
0
280
0
281
0
282
0
283
1
284
4
285
0
286
0
287
3
288
0
340
11
278
46
341
22F
342
22F
343
22F
344
22F
  0
ENDTAB
  0
ENDSEC
  0
SECTION
  2
BLOCKS
  0
BLOCK
  5
20
100
AcDbEntity
  8
0
100
AcDbBlockBegin
  2
*Model_Space
 70
0
 10
0.0
 20
0.0
 30
0.0
  3
*Model_Space
  1

  0
ENDBLK
  5
21
100
AcDbEntity
  8
0
100
AcDbBlockEnd
  0
BLOCK
  5
1C
100
AcDbEntity
  8
0
100
AcDbBlockBegin
  2
*Paper_Space
 70
0
 10
0.0
 20
0.0
 30
0.0
  3
*Paper_Space
  1

  0
ENDBLK
  5
1D
100
AcDbEntity
  8
0
100
AcDbBlockEnd
  0
BLOCK
  5
231
100
AcDbEntity
  8
0
100
AcDbBlockBegin
  2
_FILLED
 70
64
 10
0.0
 20
0.0
  3
_FILLED
  1

  0
SOLID
  5
232
100
AcDbEntity
  8
0
  6
BYBLOCK
 62
0
100
AcDbTrace
 10
0.0
 20
0.0
 11
-1.0
 21
0.2
 12
-1.0
 22
-0.2
 13
-1.0
 23
-0.2
  0
ENDBLK
  5
233
100
AcDbEntity
  8
0
  6
BYBLOCK
 62
0
100
AcDbBlockEnd
  0
ENDSEC
  0
SECTION
  2
ENTITIES
  0
MTEXT
  5
234
100
AcDbEntity
  8
0
100
AcDbMText
 62
2
  6
CONTINUOUS
  7
STANDARD
 71
3
 72
1
 10
2.6579774845
 20
2.2024823458
 30
0.0
 11
1.0
 21
0.0
 31
0.0
 73
2
 44
0.9
  1
SCALE  .500
 40
0.08
 41
0.704
  0
LINE
  5
235
100
AcDbEntity
  8
0
100
AcDbLine
 62
7
  6
CONTINUOUS
 10
0.0
 20
0.0
 11
0.0
 21
8.5
  0
LINE
  5
236
100
AcDbEntity
  8
0
100
AcDbLine
 62
7
  6
CONTINUOUS
 10
0.0
 20
0.0
 11
11.0
 21
0.0
  0
LINE
  5
237
100
AcDbEntity
  8
0
100
AcDbLine
 62
7
  6
CONTINUOUS
 10
0.0
 20
8.5
 11
11.0
 21
8.5
  0
LINE
  5
238
100
AcDbEntity
  8
0
100
AcDbLine
 62
7
  6
CONTINUOUS
 10
11.0
 20
0.0
 11
11.0
 21
8.5
  0
LINE
  5
239
100
AcDbEntity
  8
ALL_ASSEMBLY_MEMBERS
100
AcDbLine
 62
7
  6
CONTINUOUS
 10
1.8897787267
 20
4.2641341139
 11
1.8897787267
 21
4.4891311727
  0
LINE
  5
23A
100
AcDbEntity
  8
ALL_ASSEMBLY_MEMBERS
100
AcDbLine
 62
7
  6
CONTINUOUS
 10
1.8997787267
 20
4.2541341139
 11
1.8997787267
 21
4.4991341139
  0
LINE
  5
23B
100
AcDbEntity
  8
ALL_ASSEMBLY_MEMBERS
100
AcDbLine
 62
7
  6
CONTINUOUS
 10
1.9264615286
 20
4.2541341139
 11
1.9264615286
 21
4.4991341139
  0
LINE
  5
23C
100
AcDbEntity
  8
ALL_ASSEMBLY_MEMBERS
100
AcDbLine
 62
7
  6
CONTINUOUS
 10
1.9318297428
 20
4.2525710728
 11
1.9318297428
 21
4.5006971549
  0
LINE
  5
23D
100
AcDbEntity
  8
ALL_ASSEMBLY_MEMBERS
100
AcDbLine
 62
7
  6
CONTINUOUS
 10
2.1742787267
 20
4.1842538625
 11
2.1742787267
 21
4.5690143652
  0
LINE
  5
23E
100
AcDbEntity
  8
ALL_ASSEMBLY_MEMBERS
100
AcDbLine
 62
7
  6
CONTINUOUS
 10
2.3597787267
 20
4.2004470651
 11
2.3597787267
 21
4.5528211626
  0
LINE
  5
23F
100
AcDbEntity
  8
ALL_ASSEMBLY_MEMBERS
100
AcDbLine
 62
7
  6
CONTINUOUS
 10
2.6133587164
 20
4.2495543257
 11
2.6133587164
 21
4.5037139021
  0
LINE
  5
240
100
AcDbEntity
  8
ALL_ASSEMBLY_MEMBERS
100
AcDbLine
 62
7
  6
CONTINUOUS
 10
2.8747787267
 20
4.2746341139
 11
2.8747787267
 21
4.4786341139
  0
LINE
  5
241
100
AcDbEntity
  8
ALL_ASSEMBLY_MEMBERS
100
AcDbLine
 62
7
  6
CONTINUOUS
 10
2.9172787267
 20
6.0376341139
 11
2.9172787267
 21
5.9976341139
  0
LINE
  5
242
100
AcDbEntity
  8
ALL_ASSEMBLY_MEMBERS
100
AcDbLine
 62
7
  6
CONTINUOUS
 10
3.0197787267
 20
5.9126341139
 11
3.0197787267
 21
5.8776341139
  0
LINE
  5
243
100
AcDbEntity
  8
ALL_ASSEMBLY_MEMBERS
100
AcDbLine
 62
7
  6
CONTINUOUS
 10
3.0247787267
 20
4.2691341139
 11
3.0247787267
 21
4.4841341139
  0
LINE
  5
244
100
AcDbEntity
  8
ALL_ASSEMBLY_MEMBERS
100
AcDbLine
 62
7
  6
CONTINUOUS
 10
3.0347787267
 20
4.2591341139
 11
3.0347787267
 21
4.4941341139
  0
LINE
  5
245
100
AcDbEntity
  8
ALL_ASSEMBLY_MEMBERS
100
AcDbLine
 62
7
  6
CONTINUOUS
 10
3.0547787267
 20
4.2591341139
 11
3.0547787267
 21
4.4941341139
  0
LINE
  5
246
100
AcDbEntity
  8
ALL_ASSEMBLY_MEMBERS
100
AcDbLine
 62
7
  6
CONTINUOUS
 10
3.0647787267
 20
4.2691341139
 11
3.0647787267
 21
4.4841341139
  0
LINE
  5
247
100
AcDbEntity
  8
ALL_ASSEMBLY_MEMBERS
100
AcDbLine
 62
7
  6
CONTINUOUS
 10
3.1122787267
 20
5.8126341139
 11
3.1122787267
 21
5.7766341139
  0
LINE
  5
248
100
AcDbEntity
  8
ALL_ASSEMBLY_MEMBERS
100
AcDbLine
 62
7
  6
CONTINUOUS
 10
3.1122787267
 20
5.6986341139
 11
3.1122787267
 21
5.6626341139
  0
LINE
  5
249
100
AcDbEntity
  8
ALL_ASSEMBLY_MEMBERS
100
AcDbLine
 62
7
  6
CONTINUOUS
 10
3.1647787267
 20
5.6476341139
 11
3.1647787267
 21
4.8122861064
  0
LINE
  5
24A
100
AcDbEntity
  8
ALL_ASSEMBLY_MEMBERS
100
AcDbLine
 62
7
  6
CONTINUOUS
 10
3.2662787267
 20
4.2016953447
 11
3.2662787267
 21
4.2266953447
  0
LINE
  5
24B
100
AcDbEntity
  8
ALL_ASSEMBLY_MEMBERS
100
AcDbLine
 62
7
  6
CONTINUOUS
 10
3.2662787267
 20
4.2866341139
 11
3.2662787267
 21
4.3116341139
  0
LINE
  5
24C
100
AcDbEntity
  8
ALL_ASSEMBLY_MEMBERS
100
AcDbLine
 62
7
  6
CONTINUOUS
 10
3.2947787267
 20
4.1962733224
 11
3.2947787267
 21
4.1966953447
  0
LINE
  5
24D
100
AcDbEntity
  8
ALL_ASSEMBLY_MEMBERS
100
AcDbLine
 62
7
  6
CONTINUOUS
 10
3.3022787267
 20
4.3166341139
 11
3.3022787267
 21
4.3289261727
  0
LINE
  5
24E
100
AcDbEntity
  8
ALL_ASSEMBLY_MEMBERS
100
AcDbLine
 62
7
  6
CONTINUOUS
 10
3.3397787267
 20
4.6691341139
 11
3.3397787267
 21
4.6826341139
  0
LINE
  5
24F
100
AcDbEntity
  8
ALL_ASSEMBLY_MEMBERS
100
AcDbLine
 62
7
  6
CONTINUOUS
 10
3.5497787267
 20
4.6691341139
 11
3.5497787267
 21
4.6826341139
  0
LINE
  5
250
100
AcDbEntity
  8
ALL_ASSEMBLY_MEMBERS
100
AcDbLine
 62
7
  6
CONTINUOUS
 10
3.5872787267
 20
4.3166341139
 11
3.5872787267
 21
4.6226986748
  0
LINE
  5
251
100
AcDbEntity
  8
ALL_ASSEMBLY_MEMBERS
100
AcDbLine
 62
7
  6
CONTINUOUS
 10
3.5947787267
 20
4.1962733224
 11
3.5947787267
 21
4.1966953447
  0
LINE
  5
252
100
AcDbEntity
  8
ALL_ASSEMBLY_MEMBERS
100
AcDbLine
 62
7
  6
CONTINUOUS
 10
3.0653523031
 20
4.4718149618
 11
3.1743318261
 21
4.3161760734
  0
LINE
  5
253
100
AcDbEntity
  8
ALL_ASSEMBLY_MEMBERS
100
AcDbLine
 62
7
  6
CONTINUOUS
 10
3.6232787267
 20
4.2016953447
 11
3.6232787267
 21
4.2266953447
  0
LINE
  5
254
100
AcDbEntity
  8
ALL_ASSEMBLY_MEMBERS
100
AcDbLine
 62
7
  6
CONTINUOUS
 10
3.6232787267
 20
4.2866341139
 11
3.6232787267
 21
4.3116341139
  0
LINE
  5
255
100
AcDbEntity
  8
ALL_ASSEMBLY_MEMBERS
100
AcDbLine
 62
7
  6
CONTINUOUS
 10
3.7247787267
 20
5.6476341139
 11
3.7247787267
 21
4.8122861064
  0
LINE
  5
256
100
AcDbEntity
  8
ALL_ASSEMBLY_MEMBERS
100
AcDbLine
 62
7
  6
CONTINUOUS
 10
3.7772787267
 20
5.8126341139
 11
3.7772787267
 21
5.7766341139
  0
LINE
  5
257
100
AcDbEntity
  8
ALL_ASSEMBLY_MEMBERS
100
AcDbLine
 62
7
  6
CONTINUOUS
 10
3.7772787267
 20
5.6986341139
 11
3.7772787267
 21
5.6626341139
  0
LINE
  5
258
100
AcDbEntity
  8
ALL_ASSEMBLY_MEMBERS
100
AcDbLine
 62
7
  6
CONTINUOUS
 10
3.8697787267
 20
5.9126341139
 11
3.8697787267
 21
5.8776341139
  0
LINE
  5
259
100
AcDbEntity
  8
ALL_ASSEMBLY_MEMBERS
100
AcDbLine
 62
7
  6
CONTINUOUS
 10
3.9722787267
 20
6.0376341139
 11
3.9722787267
 21
5.9976341139
  0
LINE
  5
25A
100
AcDbEntity
  8
ALL_ASSEMBLY_MEMBERS
100
AcDbLine
 62
7
  6
CONTINUOUS
 10
3.0653523031
 20
4.4718149618
 11
3.2852217842
 21
4.6257692299
  0
LINE
  5
25B
100
AcDbEntity
  8
ALL_ASSEMBLY_MEMBERS
100
AcDbLine
 62
7
  6
CONTINUOUS
 10
3.1743318261
 20
4.3161760734
 11
3.2393356693
 21
4.3616922544
  0
LINE
  5
25C
100
AcDbEntity
  8
ALL_ASSEMBLY_MEMBERS
100
AcDbLine
 62
7
  6
CONTINUOUS
 10
4.7522787267
 20
5.9576341139
 11
4.7522787267
 21
5.9176341139
  0
LINE
  5
25D
100
AcDbEntity
  8
ALL_ASSEMBLY_MEMBERS
100
AcDbLine
 62
7
  6
CONTINUOUS
 10
4.7872787267
 20
6.0476341139
 11
4.7872787267
 21
6.0526341139
  0
LINE
  5
25E
100
AcDbEntity
  8
ALL_ASSEMBLY_MEMBERS
100
AcDbLine
 62
7
  6
CONTINUOUS
 10
5.7872787267
 20
3.7151079141
 11
5.0372787267
 21
3.7151079141
  0
LINE
  5
25F
100
AcDbEntity
  8
ALL_ASSEMBLY_MEMBERS
100
AcDbLine
 62
7
  6
CONTINUOUS
 10
4.9747787267
 20
5.7743860582
 11
4.9747787267
 21
5.5376341139
  0
LINE
  5
260
100
AcDbEntity
  8
ALL_ASSEMBLY_MEMBERS
100
AcDbLine
 62
7
  6
CONTINUOUS
 10
4.9847787267
 20
3.0260154816
 11
4.9847787267
 21
3.0175978294
  0
LINE
  5
261
100
AcDbEntity
  8
ALL_ASSEMBLY_MEMBERS
100
AcDbLine
 62
7
  6
CONTINUOUS
 10
5.0372787267
 20
5.5376341139
 11
5.0372787267
 21
3.0376341139
  0
LINE
  5
262
100
AcDbEntity
  8
ALL_ASSEMBLY_MEMBERS
100
AcDbLine
 62
7
  6
CONTINUOUS
 10
8.4672787267
 20
4.5528211626
 11
8.213698737
 21
4.5037139021
  0
LINE
  5
263
100
AcDbEntity
  8
ALL_ASSEMBLY_MEMBERS
100
AcDbLine
 62
7
  6
CONTINUOUS
 10
2.3597787267
 20
4.5528211626
 11
2.6133587164
 21
4.5037139021
  0
LINE
  5
264
100
AcDbEntity
  8
ALL_ASSEMBLY_MEMBERS
100
AcDbLine
 62
7
  6
CONTINUOUS
 10
3.2975479575
 20
4.191798541
 11
3.5920094959
 21
4.191798541
  0
LINE
  5
265
100
AcDbEntity
  8
ALL_ASSEMBLY_MEMBERS
100
AcDbLine
 62
7
  6
CONTINUOUS
 10
7.2350479575
 20
4.191798541
 11
7.5295094959
 21
4.191798541
  0
LINE
  5
266
100
AcDbEntity
  8
ALL_ASSEMBLY_MEMBERS
100
AcDbLine
 62
7
  6
CONTINUOUS
 10
3.2947787267
 20
4.1962733224
 11
3.5947787267
 21
4.1962733224
  0
LINE
  5
267
100
AcDbEntity
  8
ALL_ASSEMBLY_MEMBERS
100
AcDbLine
 62
7
  6
CONTINUOUS
 10
7.2322787267
 20
4.1962733224
 11
7.5322787267
 21
4.1962733224
  0
LINE
  5
268
100
AcDbEntity
  8
ALL_ASSEMBLY_MEMBERS
100
AcDbLine
 62
7
  6
CONTINUOUS
 10
3.2712787267
 20
4.1966953447
 11
3.6182787267
 21
4.1966953447
  0
LINE
  5
269
100
AcDbEntity
  8
ALL_ASSEMBLY_MEMBERS
100
AcDbLine
 62
7
  6
CONTINUOUS
 10
7.2087787267
 20
4.1966953447
 11
7.5557787267
 21
4.1966953447
  0
LINE
  5
26A
100
AcDbEntity
  8
ALL_ASSEMBLY_MEMBERS
100
AcDbLine
 62
7
  6
CONTINUOUS
 10
3.2662787267
 20
4.2016953447
 11
3.6232787267
 21
4.2016953447
  0
LINE
  5
26B
100
AcDbEntity
  8
ALL_ASSEMBLY_MEMBERS
100
AcDbLine
 62
7
  6
CONTINUOUS
 10
7.2037787267
 20
4.2016953447
 11
7.5607787267
 21
4.2016953447
  0
LINE
  5
26C
100
AcDbEntity
  8
ALL_ASSEMBLY_MEMBERS
100
AcDbLine
 62
7
  6
CONTINUOUS
 10
3.6232787267
 20
4.2266953447
 11
3.2662787267
 21
4.2266953447
  0
LINE
  5
26D
100
AcDbEntity
  8
ALL_ASSEMBLY_MEMBERS
100
AcDbLine
 62
7
  6
CONTINUOUS
 10
7.2037787267
 20
4.2266953447
 11
7.5607787267
 21
4.2266953447
  0
LINE
  5
26E
100
AcDbEntity
  8
ALL_ASSEMBLY_MEMBERS
100
AcDbLine
 62
7
  6
CONTINUOUS
 10
8.9272787267
 20
4.2541341139
 11
8.9005959249
 21
4.2541341139
  0
LINE
  5
26F
100
AcDbEntity
  8
ALL_ASSEMBLY_MEMBERS
100
AcDbLine
 62
7
  6
CONTINUOUS
 10
1.8997787267
 20
4.2541341139
 11
1.9264615286
 21
4.2541341139
  0
LINE
  5
270
100
AcDbEntity
  8
ALL_ASSEMBLY_MEMBERS
100
AcDbLine
 62
7
  6
CONTINUOUS
 10
7.7922787267
 20
4.2591341139
 11
7.7722787267
 21
4.2591341139
  0
LINE
  5
271
100
AcDbEntity
  8
ALL_ASSEMBLY_MEMBERS
100
AcDbLine
 62
7
  6
CONTINUOUS
 10
3.0347787267
 20
4.2591341139
 11
3.0547787267
 21
4.2591341139
  0
LINE
  5
272
100
AcDbEntity
  8
ALL_ASSEMBLY_MEMBERS
100
AcDbLine
 62
7
  6
CONTINUOUS
 10
7.9522787267
 20
4.2746341139
 11
7.8022787267
 21
4.2746341139
  0
LINE
  5
273
100
AcDbEntity
  8
ALL_ASSEMBLY_MEMBERS
100
AcDbLine
 62
7
  6
CONTINUOUS
 10
2.8747787267
 20
4.2746341139
 11
3.0247787267
 21
4.2746341139
  0
LINE
  5
274
100
AcDbEntity
  8
ALL_ASSEMBLY_MEMBERS
100
AcDbLine
 62
7
  6
CONTINUOUS
 10
3.6232787267
 20
4.2866341139
 11
3.2662787267
 21
4.2866341139
  0
LINE
  5
275
100
AcDbEntity
  8
ALL_ASSEMBLY_MEMBERS
100
AcDbLine
 62
7
  6
CONTINUOUS
 10
7.2037787267
 20
4.2866341139
 11
7.5607787267
 21
4.2866341139
  0
LINE
  5
276
100
AcDbEntity
  8
ALL_ASSEMBLY_MEMBERS
100
AcDbLine
 62
7
  6
CONTINUOUS
 10
3.2662787267
 20
4.3116341139
 11
3.6232787267
 21
4.3116341139
  0
LINE
  5
277
100
AcDbEntity
  8
ALL_ASSEMBLY_MEMBERS
100
AcDbLine
 62
7
  6
CONTINUOUS
 10
7.2037787267
 20
4.3116341139
 11
7.5607787267
 21
4.3116341139
  0
LINE
  5
278
100
AcDbEntity
  8
ALL_ASSEMBLY_MEMBERS
100
AcDbLine
 62
7
  6
CONTINUOUS
 10
3.2712787267
 20
4.3166341139
 11
3.6182787267
 21
4.3166341139
  0
LINE
  5
279
100
AcDbEntity
  8
ALL_ASSEMBLY_MEMBERS
100
AcDbLine
 62
7
  6
CONTINUOUS
 10
7.2087787267
 20
4.3166341139
 11
7.5557787267
 21
4.3166341139
  0
LINE
  5
27A
100
AcDbEntity
  8
ALL_ASSEMBLY_MEMBERS
100
AcDbLine
 62
7
  6
CONTINUOUS
 10
7.9522787267
 20
4.4786341139
 11
7.8022787267
 21
4.4786341139
  0
LINE
  5
27B
100
AcDbEntity
  8
ALL_ASSEMBLY_MEMBERS
100
AcDbLine
 62
7
  6
CONTINUOUS
 10
2.8747787267
 20
4.4786341139
 11
3.0247787267
 21
4.4786341139
  0
LINE
  5
27C
100
AcDbEntity
  8
ALL_ASSEMBLY_MEMBERS
100
AcDbLine
 62
7
  6
CONTINUOUS
 10
7.7922787267
 20
4.4941341139
 11
7.7722787267
 21
4.4941341139
  0
LINE
  5
27D
100
AcDbEntity
  8
ALL_ASSEMBLY_MEMBERS
100
AcDbLine
 62
7
  6
CONTINUOUS
 10
3.0347787267
 20
4.4941341139
 11
3.0547787267
 21
4.4941341139
  0
LINE
  5
27E
100
AcDbEntity
  8
ALL_ASSEMBLY_MEMBERS
100
AcDbLine
 62
7
  6
CONTINUOUS
 10
8.9272787267
 20
4.4991341139
 11
8.9005959249
 21
4.4991341139
  0
LINE
  5
27F
100
AcDbEntity
  8
ALL_ASSEMBLY_MEMBERS
100
AcDbLine
 62
7
  6
CONTINUOUS
 10
1.8997787267
 20
4.4991341139
 11
1.9264615286
 21
4.4991341139
  0
LINE
  5
280
100
AcDbEntity
  8
ALL_ASSEMBLY_MEMBERS
100
AcDbLine
 62
7
  6
CONTINUOUS
 10
3.3270682492
 20
4.6226996474
 11
3.5872787267
 21
4.6226986748
  0
LINE
  5
281
100
AcDbEntity
  8
ALL_ASSEMBLY_MEMBERS
100
AcDbLine
 62
7
  6
CONTINUOUS
 10
7.2397787267
 20
4.6226986748
 11
7.4999892258
 21
4.6226996635
  0
LINE
  5
282
100
AcDbEntity
  8
ALL_ASSEMBLY_MEMBERS
100
AcDbLine
 62
7
  6
CONTINUOUS
 10
5.7872787267
 20
5.5376341139
 11
5.7872787267
 21
3.0376341139
  0
LINE
  5
283
100
AcDbEntity
  8
ALL_ASSEMBLY_MEMBERS
100
AcDbLine
 62
7
  6
CONTINUOUS
 10
5.8397787267
 20
3.0260154816
 11
5.8397787267
 21
3.0175978294
  0
LINE
  5
284
100
AcDbEntity
  8
ALL_ASSEMBLY_MEMBERS
100
AcDbLine
 62
7
  6
CONTINUOUS
 10
5.8497787267
 20
5.7743860582
 11
5.8497787267
 21
5.5376341139
  0
LINE
  5
285
100
AcDbEntity
  8
ALL_ASSEMBLY_MEMBERS
100
AcDbLine
 62
7
  6
CONTINUOUS
 10
2.3597787267
 20
4.2004470651
 11
2.6133587164
 21
4.2495543257
  0
LINE
  5
286
100
AcDbEntity
  8
ALL_ASSEMBLY_MEMBERS
100
AcDbLine
 62
7
  6
CONTINUOUS
 10
7.2713576741
 20
4.6618022024
 11
7.4739033074
 21
4.6618022092
  0
LINE
  5
287
100
AcDbEntity
  8
ALL_ASSEMBLY_MEMBERS
100
AcDbLine
 62
7
  6
CONTINUOUS
 10
3.3531541547
 20
4.6618022094
 11
3.5556997793
 21
4.6618022024
  0
LINE
  5
288
100
AcDbEntity
  8
ALL_ASSEMBLY_MEMBERS
100
AcDbLine
 62
7
  6
CONTINUOUS
 10
7.4872787267
 20
4.6691341139
 11
7.2772787267
 21
4.6691341139
  0
LINE
  5
289
100
AcDbEntity
  8
ALL_ASSEMBLY_MEMBERS
100
AcDbLine
 62
7
  6
CONTINUOUS
 10
3.5497787267
 20
4.6691341139
 11
3.3397787267
 21
4.6691341139
  0
LINE
  5
28A
100
AcDbEntity
  8
ALL_ASSEMBLY_MEMBERS
100
AcDbLine
 62
7
  6
CONTINUOUS
 10
7.5256761171
 20
4.6826341139
 11
7.2388813363
 21
4.6826341139
  0
LINE
  5
28B
100
AcDbEntity
  8
ALL_ASSEMBLY_MEMBERS
100
AcDbLine
 62
7
  6
CONTINUOUS
 10
3.5881761171
 20
4.6826341139
 11
3.3013813363
 21
4.6826341139
  0
LINE
  5
28C
100
AcDbEntity
  8
ALL_ASSEMBLY_MEMBERS
100
AcDbLine
 62
7
  6
CONTINUOUS
 10
3.5980947965
 20
4.6913614005
 11
3.2914626569
 21
4.6913614005
  0
LINE
  5
28D
100
AcDbEntity
  8
ALL_ASSEMBLY_MEMBERS
100
AcDbLine
 62
7
  6
CONTINUOUS
 10
7.5355947965
 20
4.6913614005
 11
7.2289626569
 21
4.6913614005
  0
LINE
  5
28E
100
AcDbEntity
  8
ALL_ASSEMBLY_MEMBERS
100
AcDbLine
 62
7
  6
CONTINUOUS
 10
7.6529899436
 20
4.8023114299
 11
7.1115675098
 21
4.8023114299
  0
LINE
  5
28F
100
AcDbEntity
  8
ALL_ASSEMBLY_MEMBERS
100
AcDbLine
 62
7
  6
CONTINUOUS
 10
3.7154899436
 20
4.8023114299
 11
3.1740675098
 21
4.8023114299
  0
LINE
  5
290
100
AcDbEntity
  8
ALL_ASSEMBLY_MEMBERS
100
AcDbLine
 62
7
  6
CONTINUOUS
 10
7.6622787267
 20
4.8122861064
 11
7.1022787267
 21
4.8122861064
  0
LINE
  5
291
100
AcDbEntity
  8
ALL_ASSEMBLY_MEMBERS
100
AcDbLine
 62
7
  6
CONTINUOUS
 10
3.7247787267
 20
4.8122861064
 11
3.1647787267
 21
4.8122861064
  0
LINE
  5
292
100
AcDbEntity
  8
ALL_ASSEMBLY_MEMBERS
100
AcDbLine
 62
7
  6
CONTINUOUS
 10
8.4672787267
 20
4.2004470651
 11
8.213698737
 21
4.2495543257
  0
LINE
  5
293
100
AcDbEntity
  8
ALL_ASSEMBLY_MEMBERS
100
AcDbLine
 62
7
  6
CONTINUOUS
 10
6.0372787267
 20
6.0476341139
 11
6.0372787267
 21
6.0526341139
  0
LINE
  5
294
100
AcDbEntity
  8
ALL_ASSEMBLY_MEMBERS
100
AcDbLine
 62
7
  6
CONTINUOUS
 10
6.0722787267
 20
5.9576341139
 11
6.0722787267
 21
5.9176341139
  0
LINE
  5
295
100
AcDbEntity
  8
ALL_ASSEMBLY_MEMBERS
100
AcDbLine
 62
7
  6
CONTINUOUS
 10
5.8497787267
 20
5.5376341139
 11
4.9747787267
 21
5.5376341139
  0
LINE
  5
296
100
AcDbEntity
  8
ALL_ASSEMBLY_MEMBERS
100
AcDbLine
 62
7
  6
CONTINUOUS
 10
3.1647787267
 20
5.6476341139
 11
3.7247787267
 21
5.6476341139
  0
LINE
  5
297
100
AcDbEntity
  8
ALL_ASSEMBLY_MEMBERS
100
AcDbLine
 62
7
  6
CONTINUOUS
 10
7.1022787267
 20
5.6476341139
 11
7.6622787267
 21
5.6476341139
  0
LINE
  5
298
100
AcDbEntity
  8
ALL_ASSEMBLY_MEMBERS
100
AcDbLine
 62
7
  6
CONTINUOUS
 10
7.7147787267
 20
5.6626341139
 11
7.0497787267
 21
5.6626341139
  0
LINE
  5
299
100
AcDbEntity
  8
ALL_ASSEMBLY_MEMBERS
100
AcDbLine
 62
7
  6
CONTINUOUS
 10
3.1122787267
 20
5.6626341139
 11
3.7772787267
 21
5.6626341139
  0
LINE
  5
29A
100
AcDbEntity
  8
ALL_ASSEMBLY_MEMBERS
100
AcDbLine
 62
7
  6
CONTINUOUS
 10
7.6527256274
 20
4.3161760734
 11
7.5877217842
 21
4.3616922544
  0
LINE
  5
29B
100
AcDbEntity
  8
ALL_ASSEMBLY_MEMBERS
100
AcDbLine
 62
7
  6
CONTINUOUS
 10
6.8547787267
 20
6.0376341139
 11
6.8547787267
 21
5.9976341139
  0
LINE
  5
29C
100
AcDbEntity
  8
ALL_ASSEMBLY_MEMBERS
100
AcDbLine
 62
7
  6
CONTINUOUS
 10
6.9572787267
 20
5.9126341139
 11
6.9572787267
 21
5.8776341139
  0
LINE
  5
29D
100
AcDbEntity
  8
ALL_ASSEMBLY_MEMBERS
100
AcDbLine
 62
7
  6
CONTINUOUS
 10
7.7147787267
 20
5.6986341139
 11
7.0497787267
 21
5.6986341139
  0
LINE
  5
29E
100
AcDbEntity
  8
ALL_ASSEMBLY_MEMBERS
100
AcDbLine
 62
7
  6
CONTINUOUS
 10
3.1122787267
 20
5.6986341139
 11
3.7772787267
 21
5.6986341139
  0
LINE
  5
29F
100
AcDbEntity
  8
ALL_ASSEMBLY_MEMBERS
100
AcDbLine
 62
7
  6
CONTINUOUS
 10
4.9747787267
 20
5.7743860582
 11
5.8497787267
 21
5.7743860582
  0
LINE
  5
2A0
100
AcDbEntity
  8
ALL_ASSEMBLY_MEMBERS
100
AcDbLine
 62
7
  6
CONTINUOUS
 10
7.7147787267
 20
5.7766341139
 11
7.0497787267
 21
5.7766341139
  0
LINE
  5
2A1
100
AcDbEntity
  8
ALL_ASSEMBLY_MEMBERS
100
AcDbLine
 62
7
  6
CONTINUOUS
 10
3.1122787267
 20
5.7766341139
 11
3.7772787267
 21
5.7766341139
  0
LINE
  5
2A2
100
AcDbEntity
  8
ALL_ASSEMBLY_MEMBERS
100
AcDbLine
 62
7
  6
CONTINUOUS
 10
7.7147787267
 20
5.8126341139
 11
7.0497787267
 21
5.8126341139
  0
LINE
  5
2A3
100
AcDbEntity
  8
ALL_ASSEMBLY_MEMBERS
100
AcDbLine
 62
7
  6
CONTINUOUS
 10
3.1122787267
 20
5.8126341139
 11
3.7772787267
 21
5.8126341139
  0
LINE
  5
2A4
100
AcDbEntity
  8
ALL_ASSEMBLY_MEMBERS
100
AcDbLine
 62
7
  6
CONTINUOUS
 10
5.9822787267
 20
5.8276341139
 11
4.8422787267
 21
5.8276341139
  0
LINE
  5
2A5
100
AcDbEntity
  8
ALL_ASSEMBLY_MEMBERS
100
AcDbLine
 62
7
  6
CONTINUOUS
 10
7.8072787267
 20
5.8776341139
 11
6.9572787267
 21
5.8776341139
  0
LINE
  5
2A6
100
AcDbEntity
  8
ALL_ASSEMBLY_MEMBERS
100
AcDbLine
 62
7
  6
CONTINUOUS
 10
3.0197787267
 20
5.8776341139
 11
3.8697787267
 21
5.8776341139
  0
LINE
  5
2A7
100
AcDbEntity
  8
ALL_ASSEMBLY_MEMBERS
100
AcDbLine
 62
7
  6
CONTINUOUS
 10
7.8247787267
 20
5.9126341139
 11
6.9397787267
 21
5.9126341139
  0
LINE
  5
2A8
100
AcDbEntity
  8
ALL_ASSEMBLY_MEMBERS
100
AcDbLine
 62
7
  6
CONTINUOUS
 10
3.0022787267
 20
5.9126341139
 11
3.8872787267
 21
5.9126341139
  0
LINE
  5
2A9
100
AcDbEntity
  8
ALL_ASSEMBLY_MEMBERS
100
AcDbLine
 62
7
  6
CONTINUOUS
 10
6.0722787267
 20
5.9176341139
 11
4.7522787267
 21
5.9176341139
  0
LINE
  5
2AA
100
AcDbEntity
  8
ALL_ASSEMBLY_MEMBERS
100
AcDbLine
 62
7
  6
CONTINUOUS
 10
7.7617051503
 20
4.4718149618
 11
7.5418356693
 21
4.6257692299
  0
LINE
  5
2AB
100
AcDbEntity
  8
ALL_ASSEMBLY_MEMBERS
100
AcDbLine
 62
7
  6
CONTINUOUS
 10
7.0497787267
 20
5.8126341139
 11
7.0497787267
 21
5.7766341139
  0
LINE
  5
2AC
100
AcDbEntity
  8
ALL_ASSEMBLY_MEMBERS
100
AcDbLine
 62
7
  6
CONTINUOUS
 10
7.0497787267
 20
5.6986341139
 11
7.0497787267
 21
5.6626341139
  0
LINE
  5
2AD
100
AcDbEntity
  8
ALL_ASSEMBLY_MEMBERS
100
AcDbLine
 62
7
  6
CONTINUOUS
 10
7.1022787267
 20
5.6476341139
 11
7.1022787267
 21
4.8122861064
  0
LINE
  5
2AE
100
AcDbEntity
  8
ALL_ASSEMBLY_MEMBERS
100
AcDbLine
 62
7
  6
CONTINUOUS
 10
7.2037787267
 20
4.2016953447
 11
7.2037787267
 21
4.2266953447
  0
LINE
  5
2AF
100
AcDbEntity
  8
ALL_ASSEMBLY_MEMBERS
100
AcDbLine
 62
7
  6
CONTINUOUS
 10
7.2037787267
 20
4.2866341139
 11
7.2037787267
 21
4.3116341139
  0
LINE
  5
2B0
100
AcDbEntity
  8
ALL_ASSEMBLY_MEMBERS
100
AcDbLine
 62
7
  6
CONTINUOUS
 10
7.2322787267
 20
4.1962733224
 11
7.2322787267
 21
4.1966953447
  0
LINE
  5
2B1
100
AcDbEntity
  8
ALL_ASSEMBLY_MEMBERS
100
AcDbLine
 62
7
  6
CONTINUOUS
 10
7.2397787267
 20
4.3166341139
 11
7.2397787267
 21
4.6226986748
  0
LINE
  5
2B2
100
AcDbEntity
  8
ALL_ASSEMBLY_MEMBERS
100
AcDbLine
 62
7
  6
CONTINUOUS
 10
7.2772787267
 20
4.6691341139
 11
7.2772787267
 21
4.6826341139
  0
LINE
  5
2B3
100
AcDbEntity
  8
ALL_ASSEMBLY_MEMBERS
100
AcDbLine
 62
7
  6
CONTINUOUS
 10
7.6527256274
 20
4.3161760734
 11
7.7617051503
 21
4.4718149618
  0
LINE
  5
2B4
100
AcDbEntity
  8
ALL_ASSEMBLY_MEMBERS
100
AcDbLine
 62
7
  6
CONTINUOUS
 10
6.0722787267
 20
5.9576341139
 11
4.7522787267
 21
5.9576341139
  0
LINE
  5
2B5
100
AcDbEntity
  8
ALL_ASSEMBLY_MEMBERS
100
AcDbLine
 62
7
  6
CONTINUOUS
 10
7.9097787267
 20
5.9976341139
 11
6.8547787267
 21
5.9976341139
  0
LINE
  5
2B6
100
AcDbEntity
  8
ALL_ASSEMBLY_MEMBERS
100
AcDbLine
 62
7
  6
CONTINUOUS
 10
2.9172787267
 20
5.9976341139
 11
3.9722787267
 21
5.9976341139
  0
LINE
  5
2B7
100
AcDbEntity
  8
ALL_ASSEMBLY_MEMBERS
100
AcDbLine
 62
7
  6
CONTINUOUS
 10
7.9097787267
 20
6.0376341139
 11
6.8547787267
 21
6.0376341139
  0
LINE
  5
2B8
100
AcDbEntity
  8
ALL_ASSEMBLY_MEMBERS
100
AcDbLine
 62
7
  6
CONTINUOUS
 10
2.9172787267
 20
6.0376341139
 11
3.9722787267
 21
6.0376341139
  0
LINE
  5
2B9
100
AcDbEntity
  8
ALL_ASSEMBLY_MEMBERS
100
AcDbLine
 62
7
  6
CONTINUOUS
 10
6.1622787267
 20
6.0476341139
 11
4.6622787267
 21
6.0476341139
  0
LINE
  5
2BA
100
AcDbEntity
  8
ALL_ASSEMBLY_MEMBERS
100
AcDbLine
 62
7
  6
CONTINUOUS
 10
4.78728605
 20
6.0526341139
 11
6.0372714035
 21
6.0526341139
  0
LINE
  5
2BB
100
AcDbEntity
  8
ALL_ASSEMBLY_MEMBERS
100
AcDbLine
 62
7
  6
CONTINUOUS
 10
7.4872787267
 20
4.6691341139
 11
7.4872787267
 21
4.6826341139
  0
LINE
  5
2BC
100
AcDbEntity
  8
ALL_ASSEMBLY_MEMBERS
100
AcDbLine
 62
7
  6
CONTINUOUS
 10
7.5247787267
 20
4.3166341139
 11
7.5247787267
 21
4.3289261727
  0
LINE
  5
2BD
100
AcDbEntity
  8
ALL_ASSEMBLY_MEMBERS
100
AcDbLine
 62
7
  6
CONTINUOUS
 10
7.5322787267
 20
4.1962733224
 11
7.5322787267
 21
4.1966953447
  0
LINE
  5
2BE
100
AcDbEntity
  8
ALL_ASSEMBLY_MEMBERS
100
AcDbLine
 62
7
  6
CONTINUOUS
 10
7.5607787267
 20
4.2016953447
 11
7.5607787267
 21
4.2266953447
  0
LINE
  5
2BF
100
AcDbEntity
  8
ALL_ASSEMBLY_MEMBERS
100
AcDbLine
 62
7
  6
CONTINUOUS
 10
7.5607787267
 20
4.2866341139
 11
7.5607787267
 21
4.3116341139
  0
LINE
  5
2C0
100
AcDbEntity
  8
ALL_ASSEMBLY_MEMBERS
100
AcDbLine
 62
7
  6
CONTINUOUS
 10
7.6622787267
 20
5.6476341139
 11
7.6622787267
 21
4.8122861064
  0
LINE
  5
2C1
100
AcDbEntity
  8
ALL_ASSEMBLY_MEMBERS
100
AcDbLine
 62
7
  6
CONTINUOUS
 10
7.7147787267
 20
5.8126341139
 11
7.7147787267
 21
5.7766341139
  0
LINE
  5
2C2
100
AcDbEntity
  8
ALL_ASSEMBLY_MEMBERS
100
AcDbLine
 62
7
  6
CONTINUOUS
 10
7.7147787267
 20
5.6986341139
 11
7.7147787267
 21
5.6626341139
  0
LINE
  5
2C3
100
AcDbEntity
  8
ALL_ASSEMBLY_MEMBERS
100
AcDbLine
 62
7
  6
CONTINUOUS
 10
7.7622787267
 20
4.4841341139
 11
7.7622787267
 21
4.2691341139
  0
LINE
  5
2C4
100
AcDbEntity
  8
ALL_ASSEMBLY_MEMBERS
100
AcDbLine
 62
7
  6
CONTINUOUS
 10
7.7722787267
 20
4.4941341139
 11
7.7722787267
 21
4.2591341139
  0
LINE
  5
2C5
100
AcDbEntity
  8
ALL_ASSEMBLY_MEMBERS
100
AcDbLine
 62
7
  6
CONTINUOUS
 10
7.7922787267
 20
4.4941341139
 11
7.7922787267
 21
4.2591341139
  0
LINE
  5
2C6
100
AcDbEntity
  8
ALL_ASSEMBLY_MEMBERS
100
AcDbLine
 62
7
  6
CONTINUOUS
 10
7.8022787267
 20
4.4841341139
 11
7.8022787267
 21
4.2691341139
  0
LINE
  5
2C7
100
AcDbEntity
  8
ALL_ASSEMBLY_MEMBERS
100
AcDbLine
 62
7
  6
CONTINUOUS
 10
7.8072787267
 20
5.9126341139
 11
7.8072787267
 21
5.8776341139
  0
LINE
  5
2C8
100
AcDbEntity
  8
ALL_ASSEMBLY_MEMBERS
100
AcDbLine
 62
7
  6
CONTINUOUS
 10
7.9097787267
 20
6.0376341139
 11
7.9097787267
 21
5.9976341139
  0
LINE
  5
2C9
100
AcDbEntity
  8
ALL_ASSEMBLY_MEMBERS
100
AcDbLine
 62
7
  6
CONTINUOUS
 10
7.9522787267
 20
4.2746341139
 11
7.9522787267
 21
4.4786341139
  0
LINE
  5
2CA
100
AcDbEntity
  8
ALL_ASSEMBLY_MEMBERS
100
AcDbLine
 62
7
  6
CONTINUOUS
 10
8.213698737
 20
4.2495543257
 11
8.213698737
 21
4.5037139021
  0
LINE
  5
2CB
100
AcDbEntity
  8
ALL_ASSEMBLY_MEMBERS
100
AcDbLine
 62
7
  6
CONTINUOUS
 10
8.4672787267
 20
4.2004470651
 11
8.4672787267
 21
4.5528211626
  0
LINE
  5
2CC
100
AcDbEntity
  8
ALL_ASSEMBLY_MEMBERS
100
AcDbLine
 62
7
  6
CONTINUOUS
 10
8.6527787267
 20
4.1842538625
 11
8.6527787267
 21
4.5690143652
  0
LINE
  5
2CD
100
AcDbEntity
  8
ALL_ASSEMBLY_MEMBERS
100
AcDbLine
 62
7
  6
CONTINUOUS
 10
8.8952277106
 20
4.5006971549
 11
8.8952277106
 21
4.2525710728
  0
LINE
  5
2CE
100
AcDbEntity
  8
ALL_ASSEMBLY_MEMBERS
100
AcDbLine
 62
7
  6
CONTINUOUS
 10
8.9005959249
 20
4.4991341139
 11
8.9005959249
 21
4.2541341139
  0
LINE
  5
2CF
100
AcDbEntity
  8
ALL_ASSEMBLY_MEMBERS
100
AcDbLine
 62
7
  6
CONTINUOUS
 10
8.9272787267
 20
4.4991341139
 11
8.9272787267
 21
4.2541341139
  0
LINE
  5
2D0
100
AcDbEntity
  8
ALL_ASSEMBLY_MEMBERS
100
AcDbLine
 62
7
  6
CONTINUOUS
 10
8.9372787267
 20
4.4891311727
 11
8.9372787267
 21
4.2641370551
  0
ARC
  5
2D1
100
AcDbEntity
  8
ALL_ASSEMBLY_MEMBERS
100
AcDbCircle
 62
7
  6
CONTINUOUS
 10
2.8747787267
 20
2.8996341139
 40
1.375
100
AcDbArc
 50
90.0
 51
100.96
  0
ARC
  5
2D2
100
AcDbEntity
  8
ALL_ASSEMBLY_MEMBERS
100
AcDbCircle
 62
7
  6
CONTINUOUS
 10
2.1896180654
 20
3.6741458247
 40
0.895
100
AcDbArc
 50
79.04
 51
90.9820362042
  0
ARC
  5
2D3
100
AcDbEntity
  8
ALL_ASSEMBLY_MEMBERS
100
AcDbCircle
 62
7
  6
CONTINUOUS
 10
2.1666891145
 20
4.6216880265
 40
0.4375
100
AcDbArc
 50
237.5324797721
 51
270.9939989935
  0
ARC
  5
2D4
100
AcDbEntity
  8
ALL_ASSEMBLY_MEMBERS
100
AcDbCircle
 62
7
  6
CONTINUOUS
 10
2.1666891145
 20
4.1315802012
 40
0.4375
100
AcDbArc
 50
89.0060010065
 51
122.4675202279
  0
ARC
  5
2D5
100
AcDbEntity
  8
ALL_ASSEMBLY_MEMBERS
100
AcDbCircle
 62
7
  6
CONTINUOUS
 10
3.4447787267
 20
4.4871341139
 40
0.33
100
AcDbArc
 50
243.5028148323
 51
296.4971851677
  0
ARC
  5
2D6
100
AcDbEntity
  8
ALL_ASSEMBLY_MEMBERS
100
AcDbCircle
 62
7
  6
CONTINUOUS
 10
2.1172787267
 20
4.3766341139
 40
0.2475
100
AcDbArc
 50
156.80823049
 51
203.19176951
  0
ARC
  5
2D7
100
AcDbEntity
  8
ALL_ASSEMBLY_MEMBERS
100
AcDbCircle
 62
7
  6
CONTINUOUS
 10
3.0647787267
 20
4.4726341139
 40
0.191
100
AcDbArc
 50
270.0
 51
305.0
  0
ARC
  5
2D8
100
AcDbEntity
  8
ALL_ASSEMBLY_MEMBERS
100
AcDbCircle
 62
7
  6
CONTINUOUS
 10
3.1649994948
 20
4.675134305
 40
0.1275
100
AcDbArc
 50
7.3119416293
 51
85.9215842941
  0
ARC
  5
2D9
100
AcDbEntity
  8
ALL_ASSEMBLY_MEMBERS
100
AcDbCircle
 62
7
  6
CONTINUOUS
 10
3.3332651136
 20
4.6216443528
 40
0.0400000035
100
AcDbArc
 50
91.1898955866
 51
152.5395343482
  0
ARC
  5
2DA
100
AcDbEntity
  8
ALL_ASSEMBLY_MEMBERS
100
AcDbCircle
 62
7
  6
CONTINUOUS
 10
3.5472787267
 20
4.6226986748
 40
0.04
100
AcDbArc
 50
0.0
 51
77.846802531
  0
ARC
  5
2DB
100
AcDbEntity
  8
ALL_ASSEMBLY_MEMBERS
100
AcDbCircle
 62
7
  6
CONTINUOUS
 10
3.2622787907
 20
4.6585352742
 40
0.03999998
100
AcDbArc
 50
304.999955716
 51
332.5394939517
  0
ARC
  5
2DC
100
AcDbEntity
  8
ALL_ASSEMBLY_MEMBERS
100
AcDbCircle
 62
7
  6
CONTINUOUS
 10
3.2622787928
 20
4.3289263224
 40
0.0399999749
100
AcDbArc
 50
359.9997854858
 51
125.0002005874
  0
ARC
  5
2DD
100
AcDbEntity
  8
ALL_ASSEMBLY_MEMBERS
100
AcDbCircle
 62
7
  6
CONTINUOUS
 10
3.6052001209
 20
4.2566647293
 40
0.035
100
AcDbArc
 50
301.0998839864
 51
58.9001160136
  0
ARC
  5
2DE
100
AcDbEntity
  8
ALL_ASSEMBLY_MEMBERS
100
AcDbCircle
 62
7
  6
CONTINUOUS
 10
3.2843573325
 20
4.2566647293
 40
0.035
100
AcDbArc
 50
121.0998839864
 51
238.9001160136
  0
ARC
  5
2DF
100
AcDbEntity
  8
ALL_ASSEMBLY_MEMBERS
100
AcDbCircle
 62
7
  6
CONTINUOUS
 10
3.0347787267
 20
4.2691341139
 40
0.01
100
AcDbArc
 50
180.0
 51
270.0
  0
ARC
  5
2E0
100
AcDbEntity
  8
ALL_ASSEMBLY_MEMBERS
100
AcDbCircle
 62
7
  6
CONTINUOUS
 10
3.0347787267
 20
4.4841341139
 40
0.01
100
AcDbArc
 50
90.0
 51
180.0
  0
ARC
  5
2E1
100
AcDbEntity
  8
ALL_ASSEMBLY_MEMBERS
100
AcDbCircle
 62
7
  6
CONTINUOUS
 10
3.0547787267
 20
4.2691341139
 40
0.01
100
AcDbArc
 50
270.0
 51
360.0
  0
ARC
  5
2E2
100
AcDbEntity
  8
ALL_ASSEMBLY_MEMBERS
100
AcDbCircle
 62
7
  6
CONTINUOUS
 10
3.0547787267
 20
4.4841341139
 40
0.01
100
AcDbArc
 50
0.0
 51
90.0
  0
ARC
  5
2E3
100
AcDbEntity
  8
ALL_ASSEMBLY_MEMBERS
100
AcDbCircle
 62
7
  6
CONTINUOUS
 10
1.9264615286
 20
4.5091341139
 40
0.01
100
AcDbArc
 50
270.0
 51
302.4675202279
  0
ARC
  5
2E4
100
AcDbEntity
  8
ALL_ASSEMBLY_MEMBERS
100
AcDbCircle
 62
7
  6
CONTINUOUS
 10
1.9264615286
 20
4.2441341139
 40
0.01
100
AcDbArc
 50
57.5324797721
 51
90.0
  0
ARC
  5
2E5
100
AcDbEntity
  8
ALL_ASSEMBLY_MEMBERS
100
AcDbCircle
 62
7
  6
CONTINUOUS
 10
1.8997787267
 20
4.4891341139
 40
0.01
100
AcDbArc
 50
90.0
 51
180.0
  0
ARC
  5
2E6
100
AcDbEntity
  8
ALL_ASSEMBLY_MEMBERS
100
AcDbCircle
 62
7
  6
CONTINUOUS
 10
1.8997787267
 20
4.2641341139
 40
0.01
100
AcDbArc
 50
180.0
 51
270.0
  0
ARC
  5
2E7
100
AcDbEntity
  8
ALL_ASSEMBLY_MEMBERS
100
AcDbCircle
 62
7
  6
CONTINUOUS
 10
3.3013813363
 20
4.6926341139
 40
0.01
100
AcDbArc
 50
187.3119416294
 51
270.0
  0
ARC
  5
2E8
100
AcDbEntity
  8
ALL_ASSEMBLY_MEMBERS
100
AcDbCircle
 62
7
  6
CONTINUOUS
 10
3.5881761171
 20
4.6926341139
 40
0.01
100
AcDbArc
 50
270.0
 51
352.6880583706
  0
ARC
  5
2E9
100
AcDbEntity
  8
ALL_ASSEMBLY_MEMBERS
100
AcDbCircle
 62
7
  6
CONTINUOUS
 10
3.3322787267
 20
4.6691341139
 40
0.0075
100
AcDbArc
 50
271.1898799053
 51
360.0
  0
ARC
  5
2EA
100
AcDbEntity
  8
ALL_ASSEMBLY_MEMBERS
100
AcDbCircle
 62
7
  6
CONTINUOUS
 10
3.5572787267
 20
4.6691341139
 40
0.0075
100
AcDbArc
 50
180.0
 51
257.846802531
  0
ARC
  5
2EB
100
AcDbEntity
  8
ALL_ASSEMBLY_MEMBERS
100
AcDbCircle
 62
7
  6
CONTINUOUS
 10
3.5897787267
 20
4.1962733224
 40
0.005
100
AcDbArc
 50
296.4971851672
 51
360.0
  0
ARC
  5
2EC
100
AcDbEntity
  8
ALL_ASSEMBLY_MEMBERS
100
AcDbCircle
 62
7
  6
CONTINUOUS
 10
3.2997787267
 20
4.1962733224
 40
0.005
100
AcDbArc
 50
180.0
 51
243.5028148328
  0
ARC
  5
2ED
100
AcDbEntity
  8
ALL_ASSEMBLY_MEMBERS
100
AcDbCircle
 62
7
  6
CONTINUOUS
 10
3.6182787267
 20
4.2016953447
 40
0.005
100
AcDbArc
 50
270.0
 51
360.0
  0
ARC
  5
2EE
100
AcDbEntity
  8
ALL_ASSEMBLY_MEMBERS
100
AcDbCircle
 62
7
  6
CONTINUOUS
 10
3.2712787267
 20
4.2016953447
 40
0.005
100
AcDbArc
 50
180.0
 51
270.0
  0
ARC
  5
2EF
100
AcDbEntity
  8
ALL_ASSEMBLY_MEMBERS
100
AcDbCircle
 62
7
  6
CONTINUOUS
 10
3.6182787267
 20
4.3116341139
 40
0.005
100
AcDbArc
 50
0.0
 51
90.0
  0
ARC
  5
2F0
100
AcDbEntity
  8
ALL_ASSEMBLY_MEMBERS
100
AcDbCircle
 62
7
  6
CONTINUOUS
 10
3.2712787267
 20
4.3116341139
 40
0.005
100
AcDbArc
 50
90.0
 51
180.0
  0
ARC
  5
2F1
100
AcDbEntity
  8
ALL_ASSEMBLY_MEMBERS
100
AcDbCircle
 62
7
  6
CONTINUOUS
 10
3.0647787267
 20
4.4726341139
 40
0.001
100
AcDbArc
 50
270.0
 51
305.0
  0
ARC
  5
2F2
100
AcDbEntity
  8
ALL_ASSEMBLY_MEMBERS
100
AcDbCircle
 62
7
  6
CONTINUOUS
 10
5.3979747745
 20
3.0176077993
 40
0.413196048
100
AcDbArc
 50
180.0013824802
 51
183.3934873245
  0
ARC
  5
2F3
100
AcDbEntity
  8
ALL_ASSEMBLY_MEMBERS
100
AcDbCircle
 62
7
  6
CONTINUOUS
 10
5.3973884468
 20
3.026016712
 40
0.4126097201
100
AcDbArc
 50
180.0001708541
 51
181.1685396815
  0
ARC
  5
2F4
100
AcDbEntity
  8
ALL_ASSEMBLY_MEMBERS
100
AcDbCircle
 62
7
  6
CONTINUOUS
 10
3.7245579586
 20
4.675134305
 40
0.1275
100
AcDbArc
 50
94.0784157059
 51
172.6880583707
  0
ARC
  5
2F5
100
AcDbEntity
  8
ALL_ASSEMBLY_MEMBERS
100
AcDbCircle
 62
7
  6
CONTINUOUS
 10
2.8747787267
 20
5.8536341139
 40
1.375
100
AcDbArc
 50
259.04
 51
270.0
  0
ARC
  5
2F6
100
AcDbEntity
  8
ALL_ASSEMBLY_MEMBERS
100
AcDbCircle
 62
7
  6
CONTINUOUS
 10
5.4118318233
 20
6.6421340111
 40
0.972
100
AcDbArc
 50
296.7797892254
 51
303.0743765271
  0
ARC
  5
2F7
100
AcDbEntity
  8
ALL_ASSEMBLY_MEMBERS
100
AcDbCircle
 62
7
  6
CONTINUOUS
 10
5.4127256301
 20
6.6421340111
 40
0.972
100
AcDbArc
 50
236.9256234729
 51
243.2202107746
  0
ARC
  5
2F8
100
AcDbEntity
  8
ALL_ASSEMBLY_MEMBERS
100
AcDbCircle
 62
7
  6
CONTINUOUS
 10
2.1896180654
 20
5.079122403
 40
0.895
100
AcDbArc
 50
269.0179637958
 51
280.96
  0
ARC
  5
2F9
100
AcDbEntity
  8
ALL_ASSEMBLY_MEMBERS
100
AcDbCircle
 62
7
  6
CONTINUOUS
 10
3.8717727563
 20
5.7111460547
 40
0.1665
100
AcDbArc
 50
90.6861994637
 51
142.4439028905
  0
ARC
  5
2FA
100
AcDbEntity
  8
ALL_ASSEMBLY_MEMBERS
100
AcDbCircle
 62
7
  6
CONTINUOUS
 10
3.0177846971
 20
5.7111460547
 40
0.1665
100
AcDbArc
 50
37.5560971095
 51
89.3138005363
  0
ARC
  5
2FB
100
AcDbEntity
  8
ALL_ASSEMBLY_MEMBERS
100
AcDbCircle
 62
7
  6
CONTINUOUS
 10
4.7522787267
 20
6.0476341139
 40
0.09
100
AcDbArc
 50
180.0
 51
270.0
  0
ARC
  5
2FC
100
AcDbEntity
  8
ALL_ASSEMBLY_MEMBERS
100
AcDbCircle
 62
7
  6
CONTINUOUS
 10
4.7522787267
 20
5.8276341139
 40
0.09
100
AcDbArc
 50
0.0
 51
90.0
  0
ARC
  5
2FD
100
AcDbEntity
  8
ALL_ASSEMBLY_MEMBERS
100
AcDbCircle
 62
7
  6
CONTINUOUS
 10
3.0022787267
 20
5.9976341139
 40
0.085
100
AcDbArc
 50
180.0
 51
270.0
  0
ARC
  5
2FE
100
AcDbEntity
  8
ALL_ASSEMBLY_MEMBERS
100
AcDbCircle
 62
7
  6
CONTINUOUS
 10
3.8872787267
 20
5.9976341139
 40
0.085
100
AcDbArc
 50
270.0
 51
360.0
  0
ARC
  5
2FF
100
AcDbEntity
  8
ALL_ASSEMBLY_MEMBERS
100
AcDbCircle
 62
7
  6
CONTINUOUS
 10
3.1524657893
 20
5.7376341139
 40
0.056
100
AcDbArc
 50
135.8588345181
 51
224.1411654819
  0
ARC
  5
300
100
AcDbEntity
  8
ALL_ASSEMBLY_MEMBERS
100
AcDbCircle
 62
7
  6
CONTINUOUS
 10
3.7370916641
 20
5.7376341139
 40
0.056
100
AcDbArc
 50
315.8588345181
 51
44.1411654819
  0
ARC
  5
301
100
AcDbEntity
  8
ALL_ASSEMBLY_MEMBERS
100
AcDbCircle
 62
7
  6
CONTINUOUS
 10
3.1497787267
 20
5.6476341139
 40
0.015
100
AcDbArc
 50
0.0
 51
90.0
  0
ARC
  5
302
100
AcDbEntity
  8
ALL_ASSEMBLY_MEMBERS
100
AcDbCircle
 62
7
  6
CONTINUOUS
 10
3.7397787267
 20
5.6476341139
 40
0.015
100
AcDbArc
 50
90.0
 51
180.0
  0
ARC
  5
303
100
AcDbEntity
  8
ALL_ASSEMBLY_MEMBERS
100
AcDbCircle
 62
7
  6
CONTINUOUS
 10
3.1747787267
 20
4.8122861064
 40
0.01
100
AcDbArc
 50
180.0
 51
265.9215842941
  0
ARC
  5
304
100
AcDbEntity
  8
ALL_ASSEMBLY_MEMBERS
100
AcDbCircle
 62
7
  6
CONTINUOUS
 10
3.7147787267
 20
4.8122861064
 40
0.01
100
AcDbArc
 50
274.0784157059
 51
360.0
  0
ARC
  5
305
100
AcDbEntity
  8
ALL_ASSEMBLY_MEMBERS
100
AcDbCircle
 62
7
  6
CONTINUOUS
 10
5.4271711441
 20
3.0260166719
 40
0.4126075826
100
AcDbArc
 50
358.8314079878
 51
359.9998347154
  0
ARC
  5
306
100
AcDbEntity
  8
ALL_ASSEMBLY_MEMBERS
100
AcDbCircle
 62
7
  6
CONTINUOUS
 10
7.1024994948
 20
4.675134305
 40
0.1275
100
AcDbArc
 50
7.3119416293
 51
85.9215842941
  0
ARC
  5
307
100
AcDbEntity
  8
ALL_ASSEMBLY_MEMBERS
100
AcDbCircle
 62
7
  6
CONTINUOUS
 10
7.9522787267
 20
2.8996341139
 40
1.375
100
AcDbArc
 50
79.04
 51
90.0
  0
ARC
  5
308
100
AcDbEntity
  8
ALL_ASSEMBLY_MEMBERS
100
AcDbCircle
 62
7
  6
CONTINUOUS
 10
8.637439388
 20
3.6741458247
 40
0.895
100
AcDbArc
 50
89.0179637958
 51
100.96
  0
ARC
  5
309
100
AcDbEntity
  8
ALL_ASSEMBLY_MEMBERS
100
AcDbCircle
 62
7
  6
CONTINUOUS
 10
8.6603683389
 20
4.6216880265
 40
0.4375
100
AcDbArc
 50
269.0060010065
 51
302.4675202279
  0
ARC
  5
30A
100
AcDbEntity
  8
ALL_ASSEMBLY_MEMBERS
100
AcDbCircle
 62
7
  6
CONTINUOUS
 10
8.6603683389
 20
4.1315802012
 40
0.4375
100
AcDbArc
 50
57.5324797721
 51
90.9939989935
  0
ARC
  5
30B
100
AcDbEntity
  8
ALL_ASSEMBLY_MEMBERS
100
AcDbCircle
 62
7
  6
CONTINUOUS
 10
7.3822787267
 20
4.4871341139
 40
0.33
100
AcDbArc
 50
243.5028148323
 51
296.4971851677
  0
ARC
  5
30C
100
AcDbEntity
  8
ALL_ASSEMBLY_MEMBERS
100
AcDbCircle
 62
7
  6
CONTINUOUS
 10
8.7097787267
 20
4.3766341139
 40
0.2475
100
AcDbArc
 50
336.80823049
 51
23.19176951
  0
ARC
  5
30D
100
AcDbEntity
  8
ALL_ASSEMBLY_MEMBERS
100
AcDbCircle
 62
7
  6
CONTINUOUS
 10
7.7622787267
 20
4.4726341139
 40
0.191
100
AcDbArc
 50
235.0
 51
270.0
  0
ARC
  5
30E
100
AcDbEntity
  8
ALL_ASSEMBLY_MEMBERS
100
AcDbCircle
 62
7
  6
CONTINUOUS
 10
7.6620579586
 20
4.675134305
 40
0.1275
100
AcDbArc
 50
94.0784157059
 51
172.6880583707
  0
ARC
  5
30F
100
AcDbEntity
  8
ALL_ASSEMBLY_MEMBERS
100
AcDbCircle
 62
7
  6
CONTINUOUS
 10
7.4937923399
 20
4.6216443528
 40
0.0400000035
100
AcDbArc
 50
27.4604656518
 51
88.8101044134
  0
ARC
  5
310
100
AcDbEntity
  8
ALL_ASSEMBLY_MEMBERS
100
AcDbCircle
 62
7
  6
CONTINUOUS
 10
7.2797787267
 20
4.6226986748
 40
0.04
100
AcDbArc
 50
102.153197469
 51
180.0
  0
ARC
  5
311
100
AcDbEntity
  8
ALL_ASSEMBLY_MEMBERS
100
AcDbCircle
 62
7
  6
CONTINUOUS
 10
7.5647786627
 20
4.6585352742
 40
0.03999998
100
AcDbArc
 50
207.4605060483
 51
235.000044284
  0
ARC
  5
312
100
AcDbEntity
  8
ALL_ASSEMBLY_MEMBERS
100
AcDbCircle
 62
7
  6
CONTINUOUS
 10
7.5647786606
 20
4.3289263224
 40
0.0399999749
100
AcDbArc
 50
54.9997994126
 51
180.0002145142
  0
ARC
  5
313
100
AcDbEntity
  8
ALL_ASSEMBLY_MEMBERS
100
AcDbCircle
 62
7
  6
CONTINUOUS
 10
7.2218573325
 20
4.2566647293
 40
0.035
100
AcDbArc
 50
121.0998839864
 51
238.9001160136
  0
ARC
  5
314
100
AcDbEntity
  8
ALL_ASSEMBLY_MEMBERS
100
AcDbCircle
 62
7
  6
CONTINUOUS
 10
7.5427001209
 20
4.2566647293
 40
0.035
100
AcDbArc
 50
301.0998839864
 51
58.9001160136
  0
ARC
  5
315
100
AcDbEntity
  8
ALL_ASSEMBLY_MEMBERS
100
AcDbCircle
 62
7
  6
CONTINUOUS
 10
7.7922787267
 20
4.2691341139
 40
0.01
100
AcDbArc
 50
270.0
 51
360.0
  0
ARC
  5
316
100
AcDbEntity
  8
ALL_ASSEMBLY_MEMBERS
100
AcDbCircle
 62
7
  6
CONTINUOUS
 10
7.7922787267
 20
4.4841341139
 40
0.01
100
AcDbArc
 50
0.0
 51
90.0
  0
ARC
  5
317
100
AcDbEntity
  8
ALL_ASSEMBLY_MEMBERS
100
AcDbCircle
 62
7
  6
CONTINUOUS
 10
7.7722787267
 20
4.2691341139
 40
0.01
100
AcDbArc
 50
180.0
 51
270.0
  0
ARC
  5
318
100
AcDbEntity
  8
ALL_ASSEMBLY_MEMBERS
100
AcDbCircle
 62
7
  6
CONTINUOUS
 10
7.7722787267
 20
4.4841341139
 40
0.01
100
AcDbArc
 50
90.0
 51
180.0
  0
ARC
  5
319
100
AcDbEntity
  8
ALL_ASSEMBLY_MEMBERS
100
AcDbCircle
 62
7
  6
CONTINUOUS
 10
8.9005959249
 20
4.5091341139
 40
0.01
100
AcDbArc
 50
237.5324797721
 51
270.0
  0
ARC
  5
31A
100
AcDbEntity
  8
ALL_ASSEMBLY_MEMBERS
100
AcDbCircle
 62
7
  6
CONTINUOUS
 10
8.9005959249
 20
4.2441341139
 40
0.01
100
AcDbArc
 50
90.0
 51
122.4675202279
  0
ARC
  5
31B
100
AcDbEntity
  8
ALL_ASSEMBLY_MEMBERS
100
AcDbCircle
 62
7
  6
CONTINUOUS
 10
8.9272787267
 20
4.2641341139
 40
0.01
100
AcDbArc
 50
270.0
 51
360.0
  0
ARC
  5
31C
100
AcDbEntity
  8
ALL_ASSEMBLY_MEMBERS
100
AcDbCircle
 62
7
  6
CONTINUOUS
 10
8.9272787267
 20
4.4891341139
 40
0.01
100
AcDbArc
 50
0.0
 51
90.0
  0
ARC
  5
31D
100
AcDbEntity
  8
ALL_ASSEMBLY_MEMBERS
100
AcDbCircle
 62
7
  6
CONTINUOUS
 10
7.5256761171
 20
4.6926341139
 40
0.01
100
AcDbArc
 50
270.0
 51
352.6880583706
  0
ARC
  5
31E
100
AcDbEntity
  8
ALL_ASSEMBLY_MEMBERS
100
AcDbCircle
 62
7
  6
CONTINUOUS
 10
7.2388813363
 20
4.6926341139
 40
0.01
100
AcDbArc
 50
187.3119416294
 51
270.0
  0
ARC
  5
31F
100
AcDbEntity
  8
ALL_ASSEMBLY_MEMBERS
100
AcDbCircle
 62
7
  6
CONTINUOUS
 10
7.4947787267
 20
4.6691341139
 40
0.0075
100
AcDbArc
 50
180.0
 51
268.8101200947
  0
ARC
  5
320
100
AcDbEntity
  8
ALL_ASSEMBLY_MEMBERS
100
AcDbCircle
 62
7
  6
CONTINUOUS
 10
7.2697787267
 20
4.6691341139
 40
0.0075
100
AcDbArc
 50
282.153197469
 51
360.0
  0
ARC
  5
321
100
AcDbEntity
  8
ALL_ASSEMBLY_MEMBERS
100
AcDbCircle
 62
7
  6
CONTINUOUS
 10
7.2372787267
 20
4.1962733224
 40
0.005
100
AcDbArc
 50
180.0
 51
243.5028148328
  0
ARC
  5
322
100
AcDbEntity
  8
ALL_ASSEMBLY_MEMBERS
100
AcDbCircle
 62
7
  6
CONTINUOUS
 10
7.5272787267
 20
4.1962733224
 40
0.005
100
AcDbArc
 50
296.4971851672
 51
360.0
  0
ARC
  5
323
100
AcDbEntity
  8
ALL_ASSEMBLY_MEMBERS
100
AcDbCircle
 62
7
  6
CONTINUOUS
 10
7.2087787267
 20
4.2016953447
 40
0.005
100
AcDbArc
 50
180.0
 51
270.0
  0
ARC
  5
324
100
AcDbEntity
  8
ALL_ASSEMBLY_MEMBERS
100
AcDbCircle
 62
7
  6
CONTINUOUS
 10
7.5557787267
 20
4.2016953447
 40
0.005
100
AcDbArc
 50
270.0
 51
360.0
  0
ARC
  5
325
100
AcDbEntity
  8
ALL_ASSEMBLY_MEMBERS
100
AcDbCircle
 62
7
  6
CONTINUOUS
 10
7.2087787267
 20
4.3116341139
 40
0.005
100
AcDbArc
 50
90.0
 51
180.0
  0
ARC
  5
326
100
AcDbEntity
  8
ALL_ASSEMBLY_MEMBERS
100
AcDbCircle
 62
7
  6
CONTINUOUS
 10
7.5557787267
 20
4.3116341139
 40
0.005
100
AcDbArc
 50
0.0
 51
90.0
  0
ARC
  5
327
100
AcDbEntity
  8
ALL_ASSEMBLY_MEMBERS
100
AcDbCircle
 62
7
  6
CONTINUOUS
 10
7.7622787267
 20
4.4726341139
 40
0.001
100
AcDbArc
 50
235.0
 51
270.0
  0
ARC
  5
328
100
AcDbEntity
  8
ALL_ASSEMBLY_MEMBERS
100
AcDbCircle
 62
7
  6
CONTINUOUS
 10
7.9522787267
 20
5.8536341139
 40
1.375
100
AcDbArc
 50
270.0
 51
280.96
  0
ARC
  5
329
100
AcDbEntity
  8
ALL_ASSEMBLY_MEMBERS
100
AcDbCircle
 62
7
  6
CONTINUOUS
 10
8.637439388
 20
5.079122403
 40
0.895
100
AcDbArc
 50
259.04
 51
270.9820362042
  0
ARC
  5
32A
100
AcDbEntity
  8
ALL_ASSEMBLY_MEMBERS
100
AcDbCircle
 62
7
  6
CONTINUOUS
 10
6.9552846971
 20
5.7111460547
 40
0.1665
100
AcDbArc
 50
37.5560971095
 51
89.3138005363
  0
ARC
  5
32B
100
AcDbEntity
  8
ALL_ASSEMBLY_MEMBERS
100
AcDbCircle
 62
7
  6
CONTINUOUS
 10
7.8092727563
 20
5.7111460547
 40
0.1665
100
AcDbArc
 50
90.6861994637
 51
142.4439028905
  0
ARC
  5
32C
100
AcDbEntity
  8
ALL_ASSEMBLY_MEMBERS
100
AcDbCircle
 62
7
  6
CONTINUOUS
 10
6.0722787267
 20
6.0476341139
 40
0.09
100
AcDbArc
 50
270.0
 51
360.0
  0
ARC
  5
32D
100
AcDbEntity
  8
ALL_ASSEMBLY_MEMBERS
100
AcDbCircle
 62
7
  6
CONTINUOUS
 10
6.0722787267
 20
5.8276341139
 40
0.09
100
AcDbArc
 50
90.0
 51
180.0
  0
ARC
  5
32E
100
AcDbEntity
  8
ALL_ASSEMBLY_MEMBERS
100
AcDbCircle
 62
7
  6
CONTINUOUS
 10
7.8247787267
 20
5.9976341139
 40
0.085
100
AcDbArc
 50
270.0
 51
360.0
  0
ARC
  5
32F
100
AcDbEntity
  8
ALL_ASSEMBLY_MEMBERS
100
AcDbCircle
 62
7
  6
CONTINUOUS
 10
6.9397787267
 20
5.9976341139
 40
0.085
100
AcDbArc
 50
180.0
 51
270.0
  0
ARC
  5
330
100
AcDbEntity
  8
ALL_ASSEMBLY_MEMBERS
100
AcDbCircle
 62
7
  6
CONTINUOUS
 10
7.6745916641
 20
5.7376341139
 40
0.056
100
AcDbArc
 50
315.8588345181
 51
44.1411654819
  0
ARC
  5
331
100
AcDbEntity
  8
ALL_ASSEMBLY_MEMBERS
100
AcDbCircle
 62
7
  6
CONTINUOUS
 10
7.0899657893
 20
5.7376341139
 40
0.056
100
AcDbArc
 50
135.8588345181
 51
224.1411654819
  0
ARC
  5
332
100
AcDbEntity
  8
ALL_ASSEMBLY_MEMBERS
100
AcDbCircle
 62
7
  6
CONTINUOUS
 10
7.6772787267
 20
5.6476341139
 40
0.015
100
AcDbArc
 50
90.0
 51
180.0
  0
ARC
  5
333
100
AcDbEntity
  8
ALL_ASSEMBLY_MEMBERS
100
AcDbCircle
 62
7
  6
CONTINUOUS
 10
7.0872787267
 20
5.6476341139
 40
0.015
100
AcDbArc
 50
0.0
 51
90.0
  0
ARC
  5
334
100
AcDbEntity
  8
ALL_ASSEMBLY_MEMBERS
100
AcDbCircle
 62
7
  6
CONTINUOUS
 10
7.6522787267
 20
4.8122861064
 40
0.01
100
AcDbArc
 50
274.0784157059
 51
360.0
  0
ARC
  5
335
100
AcDbEntity
  8
ALL_ASSEMBLY_MEMBERS
100
AcDbCircle
 62
7
  6
CONTINUOUS
 10
7.1122787267
 20
4.8122861064
 40
0.01
100
AcDbArc
 50
180.0
 51
265.9215842941
  0
SPLINE
  5
336
100
AcDbEntity
  8
ALL_ASSEMBLY_MEMBERS
100
AcDbSpline
 62
7
  6
CONTINUOUS
 70
0
 71
3
 72
72
 73
68
 74
0
 42
0.0000001
 43
0.0000001
 44
0.0000000001
 40
0.0
 40
0.0
 40
0.0
 40
0.0
 40
0.0000042631
 40
0.0000172095
 40
0.0000388165
 40
0.0000690613
 40
0.0001079213
 40
0.0001553736
 40
0.0002759643
 40
0.0004306513
 40
0.0006192528
 40
0.0008415866
 40
0.0010974708
 40
0.0017091623
 40
0.002452871
 40
0.0033270372
 40
0.0043289533
 40
0.0054551981
 40
0.0067023398
 40
0.0080669467
 40
0.009545587
 40
0.0128312249
 40
0.0165308555
 40
0.0206146497
 40
0.0250526569
 40
0.0298149784
 40
0.0348745353
 40
0.0402084692
 40
0.0457942685
 40
0.0576320796
 40
0.0702364793
 40
0.0834936699
 40
0.0972965101
 40
0.1115677873
 40
0.126243925
 40
0.1412647942
 40
0.1721794716
 40
0.2040323692
 40
0.2366299299
 40
0.2698238933
 40
0.3035117385
 40
0.3376082525
 40
0.3720534447
 40
0.4067960905
 40
0.4417964072
 40
0.4770229717
 40
0.5124473961
 40
0.5480454453
 40
0.5837966615
 40
0.6196741664
 40
0.6556552843
 40
0.6916987624
 40
0.7277601759
 40
0.745774491
 40
0.763763494
 40
0.7817136592
 40
0.7996054198
 40
0.817420251
 40
0.8351368683
 40
0.8527279488
 40
0.8701657949
 40
0.8874196917
 40
0.9044548909
 40
0.937722664
 40
0.9538873057
 40
0.9696859185
 40
1.0
 40
1.0
 40
1.0
 40
1.0
 10
3.3022787267
 20
4.3289261727
 30
0.0
 10
3.3022784426
 20
4.3289258482
 30
0.0
 10
3.302279999
 20
4.328929308
 30
0.0
 10
3.3022802441
 20
4.3289312809
 30
0.0
 10
3.3022828678
 20
4.3289385075
 30
0.0
 10
3.3022855061
 20
4.3289467744
 30
0.0
 10
3.302289315
 20
4.3289581376
 30
0.0
 10
3.3022958618
 20
4.3289779212
 30
0.0
 10
3.3023061794
 20
4.3290089597
 30
0.0
 10
3.3023209561
 20
4.329053472
 30
0.0
 10
3.3023389959
 20
4.3291077835
 30
0.0
 10
3.3023602561
 20
4.3291717993
 30
0.0
 10
3.3023950077
 20
4.3292764388
 30
0.0
 10
3.3024463759
 20
4.3294311336
 30
0.0
 10
3.3025174406
 20
4.3296451944
 30
0.0
 10
3.3026009221
 20
4.3298967271
 30
0.0
 10
3.3026965619
 20
4.3301849986
 30
0.0
 10
3.3028040392
 20
4.3305090962
 30
0.0
 10
3.302923011
 20
4.3308680376
 30
0.0
 10
3.3030531334
 20
4.3312608394
 30
0.0
 10
3.3032479989
 20
4.3318494337
 30
0.0
 10
3.3035168686
 20
4.332662353
 30
0.0
 10
3.3038680453
 20
4.333725634
 30
0.0
 10
3.3042552126
 20
4.3348997982
 30
0.0
 10
3.3046753602
 20
4.3361762852
 30
0.0
 10
3.3051255605
 20
4.3375468004
 30
0.0
 10
3.3056031203
 20
4.3390037267
 30
0.0
 10
3.3061056013
 20
4.3405401499
 30
0.0
 10
3.3068196845
 20
4.3427288132
 30
0.0
 10
3.3077585942
 20
4.3456177771
 30
0.0
 10
3.3089313517
 20
4.3492467487
 30
0.0
 10
3.3101583532
 20
4.3530670938
 30
0.0
 10
3.3114290282
 20
4.3570505131
 30
0.0
 10
3.3127345352
 20
4.3611734819
 30
0.0
 10
3.3140675429
 20
4.36541698
 30
0.0
 10
3.3158907329
 20
4.3712712817
 30
0.0
 10
3.3182007529
 20
4.3787939037
 30
0.0
 10
3.3209778913
 20
4.3880329731
 30
0.0
 10
3.3237575331
 20
4.3975118463
 30
0.0
 10
3.3265159365
 20
4.4071901165
 30
0.0
 10
3.3292307439
 20
4.4170381231
 30
0.0
 10
3.3318820657
 20
4.4270344693
 30
0.0
 10
3.3344474707
 20
4.4371633787
 30
0.0
 10
3.3369065189
 20
4.4474127598
 30
0.0
 10
3.3392332954
 20
4.4577741197
 30
0.0
 10
3.3414010841
 20
4.4682404781
 30
0.0
 10
3.3433801665
 20
4.4788058901
 30
0.0
 10
3.3451315747
 20
4.4894654601
 30
0.0
 10
3.3466179789
 20
4.5002118334
 30
0.0
 10
3.3477874731
 20
4.5110367492
 30
0.0
 10
3.348588256
 20
4.5219254635
 30
0.0
 10
3.3489580194
 20
4.5328566003
 30
0.0
 10
3.3488528068
 20
4.5419765978
 30
0.0
 10
3.348490007
 20
4.5492585367
 30
0.0
 10
3.3480709354
 20
4.5547012161
 30
0.0
 10
3.3474987974
 20
4.5601174987
 30
0.0
 10
3.3467702366
 20
4.5654972505
 30
0.0
 10
3.3458809813
 20
4.5708289028
 30
0.0
 10
3.3448295545
 20
4.5760999631
 30
0.0
 10
3.3436197769
 20
4.5812978225
 30
0.0
 10
3.3422538616
 20
4.5864084182
 30
0.0
 10
3.3407392422
 20
4.591418234
 30
0.0
 10
3.3385546565
 20
4.597894835
 30
0.0
 10
3.33610692
 20
4.6041628314
 30
0.0
 10
3.3334372875
 20
4.6101983913
 30
0.0
 10
3.330727528
 20
4.6158867044
 30
0.0
 10
3.3285579131
 20
4.6200191223
 30
0.0
 10
3.3270682492
 20
4.6226996474
 30
0.0
  0
SPLINE
  5
337
100
AcDbEntity
  8
ALL_ASSEMBLY_MEMBERS
100
AcDbSpline
 62
7
  6
CONTINUOUS
 70
0
 71
3
 72
22
 73
18
 74
0
 42
0.0000001
 43
0.0000001
 44
0.0000000001
 40
0.0
 40
0.0
 40
0.0
 40
0.0
 40
0.0563657604
 40
0.1134147402
 40
0.1712058986
 40
0.229812693
 40
0.2893266158
 40
0.3498161542
 40
0.4113058541
 40
0.4737808738
 40
0.6014174101
 40
0.6665194747
 40
0.7323195301
 40
0.7987163648
 40
0.8655955657
 40
0.9327700458
 40
1.0
 40
1.0
 40
1.0
 40
1.0
 10
3.3531541547
 20
4.6618022094
 30
0.0
 10
3.3522370322
 20
4.6615631136
 30
0.0
 10
3.3504149716
 20
4.6609875599
 30
0.0
 10
3.3477644933
 20
4.6598530086
 30
0.0
 10
3.3452023942
 20
4.658450231
 30
0.0
 10
3.3427498677
 20
4.6567891067
 30
0.0
 10
3.3404233538
 20
4.6548834986
 30
0.0
 10
3.3382398102
 20
4.6527460635
 30
0.0
 10
3.336213896
 20
4.6503925708
 30
0.0
 10
3.3337251394
 20
4.6469667887
 30
0.0
 10
3.3316314542
 20
4.6431969361
 30
0.0
 10
3.32996006
 20
4.6391807867
 30
0.0
 10
3.328914993
 20
4.636028749
 30
0.0
 10
3.3280937198
 20
4.6327807333
 30
0.0
 10
3.3275036471
 20
4.6294592998
 30
0.0
 10
3.3271479305
 20
4.6260908652
 30
0.0
 10
3.3270680833
 20
4.6238301028
 30
0.0
 10
3.3270680442
 20
4.6226996475
 30
0.0
  0
SPLINE
  5
338
100
AcDbEntity
  8
ALL_ASSEMBLY_MEMBERS
100
AcDbSpline
 62
7
  6
CONTINUOUS
 70
0
 71
3
 72
110
 73
106
 74
0
 42
0.0000001
 43
0.0000001
 44
0.0000000001
 40
0.0
 40
0.0
 40
0.0
 40
0.0
 40
0.0000066864
 40
0.0000260951
 40
0.0000581822
 40
0.0001029034
 40
0.0001602147
 40
0.0002300718
 40
0.0004072467
 40
0.0006340747
 40
0.0009102022
 40
0.0012352758
 40
0.001608942
 40
0.0025006379
 40
0.0035822756
 40
0.0048484587
 40
0.0062921431
 40
0.0079062523
 40
0.0096837097
 40
0.0137003699
 40
0.0182860195
 40
0.0233853588
 40
0.0289431624
 40
0.0349061142
 40
0.0412326876
 40
0.0478858535
 40
0.0620254535
 40
0.0770857903
 40
0.0928968235
 40
0.1093107581
 40
0.1262308073
 40
0.1435702249
 40
0.1612625832
 40
0.1792606159
 40
0.216002601
 40
0.2535475668
 40
0.2917190272
 40
0.3303985845
 40
0.3694948075
 40
0.389179339
 40
0.4089452086
 40
0.4287864315
 40
0.448698128
 40
0.468676306
 40
0.4887178061
 40
0.5088182441
 40
0.5289731191
 40
0.5491802509
 40
0.569438497
 40
0.5897398914
 40
0.6100779023
 40
0.6304509775
 40
0.6508430541
 40
0.671233253
 40
0.6916074144
 40
0.7119183043
 40
0.722035777
 40
0.7321205244
 40
0.7421616313
 40
0.7521468381
 40
0.7620649844
 40
0.7719058776
 40
0.7816576158
 40
0.7913067705
 40
0.8008395807
 40
0.8102428871
 40
0.8286189266
 40
0.8375730964
 40
0.8463547283
 40
0.8633745345
 40
0.8796261669
 40
0.8950523127
 40
0.9096136829
 40
0.9232604186
 40
0.9359490391
 40
0.9476324379
 40
0.9582617688
 40
0.9677891179
 40
0.9721239394
 40
0.9761652564
 40
0.9799075764
 40
0.9833452985
 40
0.9864727465
 40
0.9892849768
 40
0.9917779821
 40
0.9939477778
 40
0.994910218
 40
0.9957903466
 40
0.9965876618
 40
0.997301809
 40
0.9979326074
 40
0.9984798854
 40
0.9989434714
 40
0.9993231936
 40
0.999481552
 40
0.9996188799
 40
0.9997351558
 40
0.999830358
 40
0.9999044651
 40
0.9999336012
 40
0.9999574555
 40
0.9999760251
 40
0.9999893075
 40
0.9999973
 40
1.0
 40
1.0
 40
1.0
 40
1.0
 10
3.2393356693
 20
4.3616922544
 30
0.0
 10
3.2393361324
 20
4.3616927262
 30
0.0
 10
3.2393372263
 20
4.3616951289
 30
0.0
 10
3.2393404711
 20
4.3616998426
 30
0.0
 10
3.2393452867
 20
4.3617080739
 30
0.0
 10
3.2393522455
 20
4.3617193507
 30
0.0
 10
3.2393610585
 20
4.3617338864
 30
0.0
 10
3.2393767095
 20
4.3617595845
 30
0.0
 10
3.2394010443
 20
4.3617996213
 30
0.0
 10
3.2394359767
 20
4.3618570806
 30
0.0
 10
3.2394784933
 20
4.361927043
 30
0.0
 10
3.2395285457
 20
4.3620094142
 30
0.0
 10
3.2396101958
 20
4.3621438024
 30
0.0
 10
3.2397306757
 20
4.362342125
 30
0.0
 10
3.2398969634
 20
4.3626158708
 30
0.0
 10
3.2400915597
 20
4.3629362762
 30
0.0
 10
3.2403134347
 20
4.3633017092
 30
0.0
 10
3.2405614746
 20
4.363710394
 30
0.0
 10
3.2409413786
 20
4.3643366276
 30
0.0
 10
3.2414733619
 20
4.3652142372
 30
0.0
 10
3.2421749889
 20
4.3663730811
 30
0.0
 10
3.2429547579
 20
4.3676627398
 30
0.0
 10
3.2438040372
 20
4.3690695016
 30
0.0
 10
3.2447148935
 20
4.3705808235
 30
0.0
 10
3.2456803624
 20
4.3721856782
 30
0.0
 10
3.2470606081
 20
4.3744844552
 30
0.0
 10
3.2488810688
 20
4.377526127
 30
0.0
 10
3.2511585903
 20
4.3813494636
 30
0.0
 10
3.2535420516
 20
4.3853714191
 30
0.0
 10
3.2560087074
 20
4.3895577893
 30
0.0
 10
3.2585402864
 20
4.3938812789
 30
0.0
 10
3.2611225801
 20
4.3983215215
 30
0.0
 10
3.2637438534
 20
4.4028623612
 30
0.0
 10
3.2673026015
 20
4.4090770193
 30
0.0
 10
3.2717919348
 20
4.41702062
 30
0.0
 10
3.2771775196
 20
4.4267483329
 30
0.0
 10
3.282554118
 20
4.436699397
 30
0.0
 10
3.2878810664
 20
4.4468507414
 30
0.0
 10
3.2922359741
 20
4.4554470141
 30
0.0
 10
3.2956552194
 20
4.4624198673
 30
0.0
 10
3.2981869669
 20
4.4677073063
 30
0.0
 10
3.3006729493
 20
4.4730412309
 30
0.0
 10
3.3031051165
 20
4.4784229859
 30
0.0
 10
3.3054754806
 20
4.4838538898
 30
0.0
 10
3.3077765868
 20
4.4893347854
 30
0.0
 10
3.3099973567
 20
4.4948676212
 30
0.0
 10
3.3121239139
 20
4.5004549617
 30
0.0
 10
3.3141426178
 20
4.5060988235
 30
0.0
 10
3.3160400967
 20
4.5117999836
 30
0.0
 10
3.317794742
 20
4.517560446
 30
0.0
 10
3.3193826252
 20
4.5233810696
 30
0.0
 10
3.3207808233
 20
4.5292596343
 30
0.0
 10
3.3219586467
 20
4.5351919524
 30
0.0
 10
3.3228795361
 20
4.5411701878
 30
0.0
 10
3.3235072814
 20
4.5471786263
 30
0.0
 10
3.3237550994
 20
4.5521985576
 30
0.0
 10
3.3237674517
 20
4.556204699
 30
0.0
 10
3.3236789855
 20
4.5591941455
 30
0.0
 10
3.3234907263
 20
4.5621658752
 30
0.0
 10
3.3232007019
 20
4.5651128953
 30
0.0
 10
3.322807075
 20
4.5680279561
 30
0.0
 10
3.322307424
 20
4.5709033322
 30
0.0
 10
3.3217044603
 20
4.5737316338
 30
0.0
 10
3.3210022262
 20
4.5765055023
 30
0.0
 10
3.3202045019
 20
4.5792176118
 30
0.0
 10
3.3190272013
 20
4.5827145422
 30
0.0
 10
3.3176764688
 20
4.5860900434
 30
0.0
 10
3.3161745906
 20
4.5893298158
 30
0.0
 10
3.3146223496
 20
4.5923962505
 30
0.0
 10
3.312564107
 20
4.5960123045
 30
0.0
 10
3.3099387207
 20
4.6000511723
 30
0.0
 10
3.3072487235
 20
4.6037500455
 30
0.0
 10
3.304551637
 20
4.6071188627
 30
0.0
 10
3.3019019044
 20
4.6101743796
 30
0.0
 10
3.2993416189
 20
4.6129274699
 30
0.0
 10
3.2969114107
 20
4.615391778
 30
0.0
 10
3.2946458291
 20
4.6175779124
 30
0.0
 10
3.2928672615
 20
4.6192214251
 30
0.0
 10
3.2915513858
 20
4.6204054443
 30
0.0
 10
3.2906542497
 20
4.6211996575
 30
0.0
 10
3.2898180759
 20
4.6219288693
 30
0.0
 10
3.2890455089
 20
4.6225935063
 30
0.0
 10
3.2883392002
 20
4.6231941292
 30
0.0
 10
3.2877013948
 20
4.6237311066
 30
0.0
 10
3.2871338048
 20
4.6242044566
 30
0.0
 10
3.286705185
 20
4.6245588789
 30
0.0
 10
3.286398772
 20
4.6248108454
 30
0.0
 10
3.2861969222
 20
4.6249763199
 30
0.0
 10
3.286013884
 20
4.6251260192
 30
0.0
 10
3.2858498053
 20
4.6252599615
 30
0.0
 10
3.2857047634
 20
4.625378131
 30
0.0
 10
3.2855788291
 20
4.6254805322
 30
0.0
 10
3.2854720708
 20
4.6255671681
 30
0.0
 10
3.2853951087
 20
4.6256294972
 30
0.0
 10
3.2853431797
 20
4.6256714822
 30
0.0
 10
3.2853114917
 20
4.6256970726
 30
0.0
 10
3.28528465
 20
4.625718727
 30
0.0
 10
3.2852626601
 20
4.6257364359
 30
0.0
 10
3.2852473762
 20
4.6257487466
 30
0.0
 10
3.2852375736
 20
4.6257565974
 30
0.0
 10
3.2852320669
 20
4.6257610643
 30
0.0
 10
3.2852277378
 20
4.6257644064
 30
0.0
 10
3.2852247299
 20
4.6257670962
 30
0.0
 10
3.2852227534
 20
4.6257681675
 30
0.0
 10
3.2852220507
 20
4.6257692449
 30
0.0
 10
3.2852217842
 20
4.6257692299
 30
0.0
  0
LINE
  5
339
100
AcDbEntity
  8
ALL_ASSEMBLY_MEMBERS
100
AcDbLine
 62
7
  6
CONTINUOUS
 10
3.3324344694
 20
4.6616357311
 11
3.3531541547
 21
4.6618022094
  0
SPLINE
  5
33A
100
AcDbEntity
  8
ALL_ASSEMBLY_MEMBERS
100
AcDbSpline
 62
7
  6
CONTINUOUS
 70
0
 71
3
 72
28
 73
24
 74
0
 42
0.0000001
 43
0.0000001
 44
0.0000000001
 40
0.0
 40
0.0
 40
0.0
 40
0.0
 40
0.0002967731
 40
0.0011784134
 40
0.002643105
 40
0.0046890324
 40
0.0105173317
 40
0.0186487859
 40
0.0290688696
 40
0.0417630575
 40
0.0567142511
 40
0.0738862546
 40
0.1147135017
 40
0.163886214
 40
0.2210364516
 40
0.2856825533
 40
0.3572668488
 40
0.4352302521
 40
0.5189784466
 40
0.6078301131
 40
0.7010922381
 40
0.7980646712
 40
1.0
 40
1.0
 40
1.0
 40
1.0
 10
3.2977719222
 20
4.6400898045
 30
0.0
 10
3.2977748851
 20
4.640088198
 30
0.0
 10
3.2977863602
 20
4.6400813009
 30
0.0
 10
3.2978124448
 20
4.6400664508
 30
0.0
 10
3.2978555591
 20
4.6400413577
 30
0.0
 10
3.2979473903
 20
4.6399882911
 30
0.0
 10
3.2981046903
 20
4.6398971872
 30
0.0
 10
3.2983443457
 20
4.6397585179
 30
0.0
 10
3.2986514769
 20
4.6395807668
 30
0.0
 10
3.299025657
 20
4.6393642443
 30
0.0
 10
3.2994662132
 20
4.6391093246
 30
0.0
 10
3.3001833277
 20
4.6386944017
 30
0.0
 10
3.3012368568
 20
4.6380848559
 30
0.0
 10
3.3026833756
 20
4.6372479199
 30
0.0
 10
3.3043640733
 20
4.6362755703
 30
0.0
 10
3.3062646748
 20
4.6351750483
 30
0.0
 10
3.3083687935
 20
4.6339542834
 30
0.0
 10
3.3106590895
 20
4.6326221171
 30
0.0
 10
3.3131165442
 20
4.6311873
 30
0.0
 10
3.3157186008
 20
4.6296555828
 30
0.0
 10
3.3184418691
 20
4.6280337662
 30
0.0
 10
3.3222536513
 20
4.625729973
 30
0.0
 10
3.3251363719
 20
4.6239365702
 30
0.0
 10
3.3270681202
 20
4.622700457
 30
0.0
  0
SPLINE
  5
33B
100
AcDbEntity
  8
ALL_ASSEMBLY_MEMBERS
100
AcDbSpline
 62
7
  6
CONTINUOUS
 70
0
 71
3
 72
109
 73
105
 74
0
 42
0.0000001
 43
0.0000001
 44
0.0000000001
 40
0.0
 40
0.0
 40
0.0
 40
0.0
 40
0.0000027022
 40
0.0000106965
 40
0.0000239805
 40
0.0000425515
 40
0.0000664069
 40
0.000095544
 40
0.0001696524
 40
0.0002648554
 40
0.0003811315
 40
0.0005184593
 40
0.0006768173
 40
0.0010565384
 40
0.0015201237
 40
0.0020674022
 40
0.0026982033
 40
0.0034123565
 40
0.0042096805
 40
0.0050898173
 40
0.0060522649
 40
0.0082220756
 40
0.0107151007
 40
0.0135273605
 40
0.0166548485
 40
0.020092607
 40
0.0238349624
 40
0.027876319
 40
0.0322111892
 40
0.0417386439
 40
0.0523680863
 40
0.064051624
 40
0.0767403723
 40
0.090387283
 40
0.1049487805
 40
0.1203750912
 40
0.1366269661
 40
0.1536468929
 40
0.1624286714
 40
0.171382969
 40
0.1897591168
 40
0.1991625426
 40
0.2086954991
 40
0.2183447633
 40
0.2280965799
 40
0.2379375454
 40
0.2478558292
 40
0.2578411951
 40
0.2678824125
 40
0.2779671657
 40
0.2880847066
 40
0.3083959853
 40
0.3491484924
 40
0.3695409805
 40
0.3899141602
 40
0.4102524159
 40
0.4305541369
 40
0.4508125051
 40
0.4710197372
 40
0.4911748095
 40
0.5112754268
 40
0.5313169983
 40
0.5512953463
 40
0.5712073367
 40
0.591048939
 40
0.6108152204
 40
0.6305001279
 40
0.66959709
 40
0.7082774953
 40
0.7464496132
 40
0.7839951112
 40
0.8207374916
 40
0.8387357722
 40
0.856428378
 40
0.8737678915
 40
0.8906881881
 40
0.907102303
 40
0.9229134778
 40
0.9379740573
 40
0.9521137134
 40
0.9587669866
 40
0.9650936628
 40
0.9710566459
 40
0.9766144666
 40
0.9817138502
 40
0.9862995478
 40
0.99031624
 40
0.992093707
 40
0.993707823
 40
0.9951515122
 40
0.9964176987
 40
0.9974993388
 40
0.9983910286
 40
0.9987646899
 40
0.9990897589
 40
0.9993658832
 40
0.9995927104
 40
0.9997698881
 40
0.9998397482
 40
0.9998970638
 40
0.9999417908
 40
0.9999738851
 40
0.9999933028
 40
1.0
 40
1.0
 40
1.0
 40
1.0
 10
7.5418356693
 20
4.6257692299
 30
0.0
 10
7.5418354026
 20
4.6257692467
 30
0.0
 10
7.5418346984
 20
4.6257681659
 30
0.0
 10
7.541832722
 20
4.625767098
 30
0.0
 10
7.5418297129
 20
4.6257644065
 30
0.0
 10
7.5418253836
 20
4.6257610654
 30
0.0
 10
7.5418198763
 20
4.6257565983
 30
0.0
 10
7.5418100733
 20
4.6257487479
 30
0.0
 10
7.541794789
 20
4.6257364373
 30
0.0
 10
7.5417727992
 20
4.6257187287
 30
0.0
 10
7.5417459577
 20
4.6256970745
 30
0.0
 10
7.5417142702
 20
4.6256714843
 30
0.0
 10
7.5416623422
 20
4.6256294996
 30
0.0
 10
7.5415853818
 20
4.6255671707
 30
0.0
 10
7.5414786256
 20
4.625480535
 30
0.0
 10
7.5413526932
 20
4.6253781342
 30
0.0
 10
7.5412076528
 20
4.6252599652
 30
0.0
 10
7.5410435746
 20
4.6251260234
 30
0.0
 10
7.5408605363
 20
4.6249763253
 30
0.0
 10
7.540658687
 20
4.6248108513
 30
0.0
 10
7.5403522757
 20
4.6245588856
 30
0.0
 10
7.5399236587
 20
4.6242044639
 30
0.0
 10
7.5393560714
 20
4.6237311148
 30
0.0
 10
7.538718266
 20
4.6231941394
 30
0.0
 10
7.5380119544
 20
4.6225935212
 30
0.0
 10
7.5372393895
 20
4.6219288838
 30
0.0
 10
7.5364032195
 20
4.6211996713
 30
0.0
 10
7.535506087
 20
4.6204054575
 30
0.0
 10
7.5341902096
 20
4.6192214437
 30
0.0
 10
7.5324116423
 20
4.617577935
 30
0.0
 10
7.5301460729
 20
4.6153917927
 30
0.0
 10
7.5277158486
 20
4.6129275068
 30
0.0
 10
7.5251555844
 20
4.6101743991
 30
0.0
 10
7.5225058418
 20
4.6071189002
 30
0.0
 10
7.5198087551
 20
4.6037500903
 30
0.0
 10
7.5171187794
 20
4.6000512052
 30
0.0
 10
7.5144933715
 20
4.5960123596
 30
0.0
 10
7.5124351232
 20
4.5923963077
 30
0.0
 10
7.5108829032
 20
4.5893298654
 30
0.0
 10
7.5093810188
 20
4.5860901029
 30
0.0
 10
7.5080302397
 20
4.5827146283
 30
0.0
 10
7.5068529912
 20
4.5792176881
 30
0.0
 10
7.5060552709
 20
4.5765055753
 30
0.0
 10
7.5053530024
 20
4.5737317176
 30
0.0
 10
7.5047500109
 20
4.5709034307
 30
0.0
 10
7.5042504107
 20
4.5680280525
 30
0.0
 10
7.5038567901
 20
4.5651129907
 30
0.0
 10
7.5035667322
 20
4.5621659705
 30
0.0
 10
7.5033784379
 20
4.5591942489
 30
0.0
 10
7.5032899931
 20
4.5562048297
 30
0.0
 10
7.5033023785
 20
4.5521986398
 30
0.0
 10
7.5036495903
 20
4.5451656673
 30
0.0
 10
7.5047068335
 20
4.5371664029
 30
0.0
 10
7.5062765972
 20
4.5292599453
 30
0.0
 10
7.5076747473
 20
4.5233811481
 30
0.0
 10
7.5092626415
 20
4.5175605915
 30
0.0
 10
7.5110173434
 20
4.5118001363
 30
0.0
 10
7.5129147339
 20
4.5060989711
 30
0.0
 10
7.5149334438
 20
4.5004551424
 30
0.0
 10
7.517060079
 20
4.4948678589
 30
0.0
 10
7.5192808735
 20
4.4893350645
 30
0.0
 10
7.5215817913
 20
4.4838541231
 30
0.0
 10
7.5239521491
 20
4.4784232363
 30
0.0
 10
7.526384377
 20
4.4730414959
 30
0.0
 10
7.5288704255
 20
4.4677075628
 30
0.0
 10
7.5314021104
 20
4.462420045
 30
0.0
 10
7.5348213428
 20
4.455447122
 30
0.0
 10
7.5391763324
 20
4.4468508043
 30
0.0
 10
7.5445033173
 20
4.4366993859
 30
0.0
 10
7.5498799453
 20
4.4267482647
 30
0.0
 10
7.5552655561
 20
4.4170205414
 30
0.0
 10
7.5597548909
 20
4.4090769354
 30
0.0
 10
7.5633136418
 20
4.4028622776
 30
0.0
 10
7.565934912
 20
4.398321442
 30
0.0
 10
7.5685172038
 20
4.3938812029
 30
0.0
 10
7.5710487798
 20
4.389557722
 30
0.0
 10
7.573515435
 20
4.3853713546
 30
0.0
 10
7.5758988965
 20
4.3813494005
 30
0.0
 10
7.578176415
 20
4.3775260742
 30
0.0
 10
7.5799968766
 20
4.3744844063
 30
0.0
 10
7.5813771223
 20
4.3721856366
 30
0.0
 10
7.5823425937
 20
4.3705807821
 30
0.0
 10
7.5832534474
 20
4.3690694662
 30
0.0
 10
7.5841027207
 20
4.3676627134
 30
0.0
 10
7.5848824847
 20
4.3663730604
 30
0.0
 10
7.5855841083
 20
4.3652142192
 30
0.0
 10
7.5861160888
 20
4.3643366121
 30
0.0
 10
7.58649599
 20
4.3637103816
 30
0.0
 10
7.5867440274
 20
4.3633016997
 30
0.0
 10
7.5869658999
 20
4.3629362695
 30
0.0
 10
7.5871604937
 20
4.3626158667
 30
0.0
 10
7.5873267784
 20
4.3623421236
 30
0.0
 10
7.5874472554
 20
4.3621438036
 30
0.0
 10
7.5875289029
 20
4.3620094179
 30
0.0
 10
7.5875789537
 20
4.3619270485
 30
0.0
 10
7.587621469
 20
4.3618570874
 30
0.0
 10
7.5876564008
 20
4.3617996289
 30
0.0
 10
7.5876807357
 20
4.3617595922
 30
0.0
 10
7.5876963872
 20
4.3617338937
 30
0.0
 10
7.5877052011
 20
4.3617193574
 30
0.0
 10
7.5877121609
 20
4.3617080793
 30
0.0
 10
7.5877169784
 20
4.3616998467
 30
0.0
 10
7.5877202242
 20
4.3616951307
 30
0.0
 10
7.5877213202
 20
4.3616927269
 30
0.0
 10
7.5877217842
 20
4.3616922544
 30
0.0
  0
SPLINE
  5
33C
100
AcDbEntity
  8
ALL_ASSEMBLY_MEMBERS
100
AcDbSpline
 62
7
  6
CONTINUOUS
 70
0
 71
3
 72
72
 73
68
 74
0
 42
0.0000001
 43
0.0000001
 44
0.0000000001
 40
0.0
 40
0.0
 40
0.0
 40
0.0
 40
0.0303140567
 40
0.0461126486
 40
0.0622772568
 40
0.0955449753
 40
0.1125801654
 40
0.1298340506
 40
0.147271881
 40
0.1648629566
 40
0.1825795567
 40
0.2003943614
 40
0.2182861269
 40
0.2362362754
 40
0.2542252269
 40
0.2722395557
 40
0.3083009472
 40
0.34434445
 40
0.3803255103
 40
0.4162029238
 40
0.4519539679
 40
0.4875518681
 40
0.5229763013
 40
0.5582028754
 40
0.5932033117
 40
0.6279462691
 40
0.6623917307
 40
0.6964884539
 40
0.730176562
 40
0.7633705849
 40
0.7959681689
 40
0.8278209722
 40
0.8587356987
 40
0.8737564742
 40
0.8884325737
 40
0.9027039092
 40
0.9165066595
 40
0.9297638726
 40
0.9423683214
 40
0.9542060054
 40
0.9597917994
 40
0.9651257343
 40
0.9701852575
 40
0.9749474947
 40
0.9793854307
 40
0.9834691722
 40
0.9871687669
 40
0.9904543807
 40
0.9919330104
 40
0.9932976095
 40
0.9945447478
 40
0.9956709953
 40
0.9966729217
 40
0.9975471069
 40
0.9982908352
 40
0.9989025423
 40
0.9991584323
 40
0.9993807703
 40
0.999569374
 40
0.9997240611
 40
0.9998446496
 40
0.9998920998
 40
0.999930957
 40
0.9999611984
 40
0.9999828011
 40
0.9999957426
 40
1.0
 40
1.0
 40
1.0
 40
1.0
 10
7.4999892258
 20
4.6226996635
 30
0.0
 10
7.4984995598
 20
4.6200191421
 30
0.0
 10
7.4963299429
 20
4.61588673
 30
0.0
 10
7.4936201825
 20
4.6101984257
 30
0.0
 10
7.4909505426
 20
4.6041628805
 30
0.0
 10
7.4885028047
 20
4.5978948945
 30
0.0
 10
7.4863182155
 20
4.5914183022
 30
0.0
 10
7.4848035893
 20
4.5864084917
 30
0.0
 10
7.4834376883
 20
4.581297895
 30
0.0
 10
7.4822279012
 20
4.5761000417
 30
0.0
 10
7.4811764698
 20
4.5708289865
 30
0.0
 10
7.4802872336
 20
4.5654973346
 30
0.0
 10
7.4795586632
 20
4.5601175878
 30
0.0
 10
7.4789865196
 20
4.5547013115
 30
0.0
 10
7.4785674671
 20
4.5492586357
 30
0.0
 10
7.4782046597
 20
4.541976703
 30
0.0
 10
7.4780994254
 20
4.5328567029
 30
0.0
 10
7.4784691957
 20
4.5219255714
 30
0.0
 10
7.4792699468
 20
4.5110368656
 30
0.0
 10
7.4804395253
 20
4.5002119906
 30
0.0
 10
7.481925899
 20
4.4894656552
 30
0.0
 10
7.4836772878
 20
4.4788061126
 30
0.0
 10
7.4856563747
 20
4.4682407148
 30
0.0
 10
7.4878240192
 20
4.457774311
 30
0.0
 10
7.4901508886
 20
4.4474129248
 30
0.0
 10
7.4926099348
 20
4.43716347
 30
0.0
 10
7.4951753571
 20
4.4270344813
 30
0.0
 10
7.4978267233
 20
4.4170380685
 30
0.0
 10
7.50054155
 20
4.4071900106
 30
0.0
 10
7.5032999632
 20
4.3975117059
 30
0.0
 10
7.5060796102
 20
4.3880328346
 30
0.0
 10
7.5088567435
 20
4.3787937652
 30
0.0
 10
7.5111667607
 20
4.3712711563
 30
0.0
 10
7.5129899459
 20
4.3654168614
 30
0.0
 10
7.5143229506
 20
4.3611733698
 30
0.0
 10
7.5156284545
 20
4.3570504071
 30
0.0
 10
7.5168991253
 20
4.353066987
 30
0.0
 10
7.5181261222
 20
4.349246642
 30
0.0
 10
7.5192988749
 20
4.3456176745
 30
0.0
 10
7.5202377807
 20
4.3427287179
 30
0.0
 10
7.5209518614
 20
4.3405400676
 30
0.0
 10
7.5214543434
 20
4.3390036486
 30
0.0
 10
7.5219319028
 20
4.3375467344
 30
0.0
 10
7.5223821015
 20
4.3361762388
 30
0.0
 10
7.5228022479
 20
4.3348997734
 30
0.0
 10
7.5231894152
 20
4.3337256262
 30
0.0
 10
7.5235405921
 20
4.3326623571
 30
0.0
 10
7.5238094606
 20
4.3318494449
 30
0.0
 10
7.5240043242
 20
4.3312608544
 30
0.0
 10
7.5241344452
 20
4.3308680544
 30
0.0
 10
7.5242534157
 20
4.3305091135
 30
0.0
 10
7.5243608923
 20
4.3301850146
 30
0.0
 10
7.5244565321
 20
4.3298967396
 30
0.0
 10
7.5245400144
 20
4.329645202
 30
0.0
 10
7.5246110803
 20
4.3294311358
 30
0.0
 10
7.5246624496
 20
4.329276437
 30
0.0
 10
7.5246972017
 20
4.3291717949
 30
0.0
 10
7.5247184622
 20
4.3291077779
 30
0.0
 10
7.5247365019
 20
4.3290534656
 30
0.0
 10
7.5247512785
 20
4.3290089533
 30
0.0
 10
7.5247615953
 20
4.3289779149
 30
0.0
 10
7.5247681421
 20
4.3289581323
 30
0.0
 10
7.5247719496
 20
4.3289467689
 30
0.0
 10
7.5247745898
 20
4.3289385052
 30
0.0
 10
7.524777207
 20
4.3289312748
 30
0.0
 10
7.5247774619
 20
4.3289293114
 30
0.0
 10
7.5247790064
 20
4.3289258451
 30
0.0
 10
7.5247787267
 20
4.3289261727
 30
0.0
  0
SPLINE
  5
33D
100
AcDbEntity
  8
ALL_ASSEMBLY_MEMBERS
100
AcDbSpline
 62
7
  6
CONTINUOUS
 70
0
 71
3
 72
23
 73
19
 74
0
 42
0.0000001
 43
0.0000001
 44
0.0000000001
 40
0.0
 40
0.0
 40
0.0
 40
0.0
 40
0.2019335218
 40
0.2989043051
 40
0.3921663063
 40
0.564766608
 40
0.7143147988
 40
0.7789612637
 40
0.8361100509
 40
0.8852830334
 40
0.9261114398
 40
0.9582343579
 40
0.9709286306
 40
0.9813495306
 40
0.9894820877
 40
0.9953113318
 40
0.9988222926
 40
1.0
 40
1.0
 40
1.0
 40
1.0
 10
7.4999893732
 20
4.6227004883
 30
0.0
 10
7.501921121
 20
4.6239365554
 30
0.0
 10
7.5048038852
 20
4.6257298014
 30
0.0
 10
7.5086156736
 20
4.6280334855
 30
0.0
 10
7.5121560205
 20
4.6301421333
 30
0.0
 10
7.5162276395
 20
4.6325254423
 30
0.0
 10
7.5200263769
 20
4.6347314777
 30
0.0
 10
7.5226932381
 20
4.6362756393
 30
0.0
 10
7.5243739357
 20
4.6372479622
 30
0.0
 10
7.5258204442
 20
4.6380849087
 30
0.0
 10
7.527020946
 20
4.6387795131
 30
0.0
 10
7.5278628635
 20
4.6392666255
 30
0.0
 10
7.5284058493
 20
4.6395808254
 30
0.0
 10
7.5287130457
 20
4.6397585083
 30
0.0
 10
7.5289526607
 20
4.6398973095
 30
0.0
 10
7.5291245787
 20
4.6399964219
 30
0.0
 10
7.5292276901
 20
4.6400567208
 30
0.0
 10
7.5292740707
 20
4.6400828972
 30
0.0
 10
7.5292855264
 20
4.640089801
 30
0.0
  0
LINE
  5
33E
100
AcDbEntity
  8
ALL_ASSEMBLY_MEMBERS
100
AcDbLine
 62
7
  6
CONTINUOUS
 10
7.4739033074
 20
4.6618022092
 11
7.494622983
 21
4.6616357311
  0
SPLINE
  5
33F
100
AcDbEntity
  8
ALL_ASSEMBLY_MEMBERS
100
AcDbSpline
 62
7
  6
CONTINUOUS
 70
0
 71
3
 72
22
 73
18
 74
0
 42
0.0000001
 43
0.0000001
 44
0.0000000001
 40
0.0
 40
0.0
 40
0.0
 40
0.0
 40
0.0563669384
 40
0.1134169383
 40
0.1712089309
 40
0.229816357
 40
0.2893307052
 40
0.3498204661
 40
0.4113101954
 40
0.4737850682
 40
0.6014208704
 40
0.6665224077
 40
0.7323218704
 40
0.7987180807
 40
0.8655966593
 40
0.932770555
 40
1.0
 40
1.0
 40
1.0
 40
1.0
 10
7.4739033074
 20
4.6618022092
 30
0.0
 10
7.4748204409
 20
4.6615631179
 30
0.0
 10
7.4766425225
 20
4.6609875772
 30
0.0
 10
7.4792930341
 20
4.6598530539
 30
0.0
 10
7.481855165
 20
4.6584503135
 30
0.0
 10
7.484307722
 20
4.6567892348
 30
0.0
 10
7.4866342651
 20
4.6548836798
 30
0.0
 10
7.488817837
 20
4.6527463045
 30
0.0
 10
7.4908437787
 20
4.6503928774
 30
0.0
 10
7.4933325685
 20
4.6469671937
 30
0.0
 10
7.49542629
 20
4.643197441
 30
0.0
 10
7.4970977193
 20
4.6391813907
 30
0.0
 10
7.4981428114
 20
4.6360294299
 30
0.0
 10
7.4989641096
 20
4.6327814897
 30
0.0
 10
7.499554207
 20
4.6294601288
 30
0.0
 10
7.4999099479
 20
4.6260917624
 30
0.0
 10
7.4999898107
 20
4.6238310434
 30
0.0
 10
7.4999898576
 20
4.6227006088
 30
0.0
  0
SPLINE
  5
340
100
AcDbEntity
  8
ALL_ASSEMBLY_MEMBERS
100
AcDbSpline
 62
7
  6
CONTINUOUS
 70
0
 71
3
 72
28
 73
24
 74
0
 42
0.0000001
 43
0.0000001
 44
0.0000000001
 40
0.0
 40
0.0
 40
0.0
 40
0.0
 40
0.0619994791
 40
0.1240179099
 40
0.1860740496
 40
0.2171309928
 40
0.2482034457
 40
0.2792933653
 40
0.3104021435
 40
0.3415310834
 40
0.3726816826
 40
0.4350324831
 40
0.4974787925
 40
0.5600221401
 40
0.6226607447
 40
0.654023769
 40
0.6854086477
 40
0.716813953
 40
0.7482372038
 40
0.8111092841
 40
0.8740410361
 40
0.9370332681
 40
1.0
 40
1.0
 40
1.0
 40
1.0
 10
5.8397787267
 20
3.0175976363
 30
0.0
 10
5.8397787172
 20
3.0038364655
 30
0.0
 10
5.8384009169
 20
2.9762899548
 30
0.0
 10
5.832233569
 20
2.9353884433
 30
0.0
 10
5.823716088
 20
2.9019611661
 30
0.0
 10
5.8149378687
 20
2.8758228992
 30
0.0
 10
5.8073786959
 20
2.8565529224
 30
0.0
 10
5.7988679798
 20
2.8376719162
 30
0.0
 10
5.7894273609
 20
2.8192241716
 30
0.0
 10
5.7790773029
 20
2.8012547436
 30
0.0
 10
5.7640953962
 20
2.7779896274
 30
0.0
 10
5.7432188732
 20
2.7503036492
 30
0.0
 10
5.7149908233
 20
2.7196822874
 30
0.0
 10
5.6838549509
 20
2.6919271106
 30
0.0
 10
5.6557313366
 20
2.6714199533
 30
0.0
 10
5.6321009262
 20
2.6567015443
 30
0.0
 10
5.6138372683
 20
2.6465270641
 30
0.0
 10
5.5950883919
 20
2.6372472287
 30
0.0
 10
5.5695053075
 20
2.6260927749
 30
0.0
 10
5.5365303394
 20
2.6144893653
 30
0.0
 10
5.4957794458
 20
2.6044500608
 30
0.0
 10
5.4542303433
 20
2.5983953534
 30
0.0
 10
5.4262545854
 20
2.5970403155
 30
0.0
 10
5.4122787267
 20
2.5970403155
 30
0.0
  0
SPLINE
  5
341
100
AcDbEntity
  8
ALL_ASSEMBLY_MEMBERS
100
AcDbSpline
 62
7
  6
CONTINUOUS
 70
0
 71
3
 72
28
 73
24
 74
0
 42
0.0000001
 43
0.0000001
 44
0.0000000001
 40
0.0
 40
0.0
 40
0.0
 40
0.0
 40
0.0629667485
 40
0.12595899
 40
0.1888907444
 40
0.2517628261
 40
0.2831860762
 40
0.3145913794
 40
0.3459762548
 40
0.3773392754
 40
0.4399778711
 40
0.50252121
 40
0.5649675092
 40
0.6273183013
 40
0.6584688963
 40
0.6895978333
 40
0.7207066095
 40
0.7517965272
 40
0.7828689791
 40
0.8139259233
 40
0.8759820667
 40
0.9380005076
 40
1.0
 40
1.0
 40
1.0
 40
1.0
 10
5.4122787267
 20
2.5970403155
 30
0.0
 10
5.3983028563
 20
2.5970403155
 30
0.0
 10
5.3703270763
 20
2.5983953554
 30
0.0
 10
5.3287779441
 20
2.6044500724
 30
0.0
 10
5.2880270255
 20
2.6144893902
 30
0.0
 10
5.2550520409
 20
2.6260928161
 30
0.0
 10
5.2294689445
 20
2.6372472819
 30
0.0
 10
5.2107200608
 20
2.6465271272
 30
0.0
 10
5.1924563988
 20
2.6567016209
 30
0.0
 10
5.1688259824
 20
2.6714200438
 30
0.0
 10
5.1407023636
 20
2.6919272214
 30
0.0
 10
5.109566489
 20
2.7196824231
 30
0.0
 10
5.0813384446
 20
2.7503038145
 30
0.0
 10
5.0604619239
 20
2.7779898132
 30
0.0
 10
5.0454800222
 20
2.8012549478
 30
0.0
 10
5.035129976
 20
2.8192243941
 30
0.0
 10
5.02568936
 20
2.8376721518
 30
0.0
 10
5.0171786471
 20
2.8565531716
 30
0.0
 10
5.0096194889
 20
2.8758231667
 30
0.0
 10
5.0008412842
 20
2.901961456
 30
0.0
 10
4.9923238123
 20
2.9353887601
 30
0.0
 10
4.9861565061
 20
2.9762903079
 30
0.0
 10
4.9847787172
 20
3.0038368407
 30
0.0
 10
4.9847787267
 20
3.0175980225
 30
0.0
  0
SPLINE
  5
342
100
AcDbEntity
  8
ALL_ASSEMBLY_MEMBERS
100
AcDbSpline
 62
7
  6
CONTINUOUS
 70
0
 71
3
 72
12
 73
8
 74
0
 42
0.0000001
 43
0.0000001
 44
0.0000000001
 40
0.0
 40
0.0
 40
0.0
 40
0.0
 40
0.2503783683
 40
0.5003906759
 40
0.6253854856
 40
0.7503714567
 40
1.0
 40
1.0
 40
1.0
 40
1.0
 10
5.7874309943
 20
3.227667088
 30
0.0
 10
5.7959591515
 20
3.2123104497
 30
0.0
 10
5.8110872811
 20
3.1805118588
 30
0.0
 10
5.8248181508
 20
3.1387129314
 30
0.0
 10
5.8325573432
 20
3.1044767816
 30
0.0
 10
5.8380998283
 20
3.0698499214
 30
0.0
 10
5.8397787267
 20
3.0435286329
 30
0.0
 10
5.8397787267
 20
3.0260154816
 30
0.0
  0
SPLINE
  5
343
100
AcDbEntity
  8
ALL_ASSEMBLY_MEMBERS
100
AcDbSpline
 62
7
  6
CONTINUOUS
 70
0
 71
3
 72
12
 73
8
 74
0
 42
0.0000001
 43
0.0000001
 44
0.0000000001
 40
0.0
 40
0.0
 40
0.0
 40
0.0
 40
0.2496285341
 40
0.3746144921
 40
0.4996092951
 40
0.749621612
 40
1.0
 40
1.0
 40
1.0
 40
1.0
 10
4.9847787267
 20
3.0260154816
 30
0.0
 10
4.9847787267
 20
3.0435286342
 30
0.0
 10
4.9864576243
 20
3.0698499241
 30
0.0
 10
4.9920001111
 20
3.1044767859
 30
0.0
 10
4.9997393047
 20
3.1387129386
 30
0.0
 10
5.0134701777
 20
3.1805118717
 30
0.0
 10
5.0285983104
 20
3.2123104676
 30
0.0
 10
5.0371264702
 20
3.2276671083
 30
0.0
  0
SPLINE
  5
344
100
AcDbEntity
  8
ALL_ASSEMBLY_MEMBERS
100
AcDbSpline
 62
7
  6
CONTINUOUS
 70
0
 71
3
 72
35
 73
31
 74
0
 42
0.0000001
 43
0.0000001
 44
0.0000000001
 40
0.0
 40
0.0
 40
0.0
 40
0.0
 40
0.031130375
 40
0.062236891
 40
0.0933230469
 40
0.1243922687
 40
0.1554481608
 40
0.1864950845
 40
0.2175369387
 40
0.248577959
 40
0.2796226571
 40
0.3106749026
 40
0.3727868017
 40
0.403885715
 40
0.4350073549
 40
0.4661545258
 40
0.4973295893
 40
0.5597404497
 40
0.6222820634
 40
0.6536183614
 40
0.6849873803
 40
0.7163884368
 40
0.7478200946
 40
0.7792804808
 40
0.8107655708
 40
0.8422707347
 40
0.8737951184
 40
0.905340885
 40
0.9369085353
 40
1.0
 40
1.0
 40
1.0
 40
1.0
 10
5.0371764455
 20
3.2082809756
 30
0.0
 10
5.033316896
 20
3.2005058286
 30
0.0
 10
5.0260945187
 20
3.1847106482
 30
0.0
 10
5.0168043688
 20
3.1603851074
 30
0.0
 10
5.0090993129
 20
3.1355287679
 30
0.0
 10
5.0030049958
 20
3.1102440686
 30
0.0
 10
4.9985510848
 20
3.0846303731
 30
0.0
 10
4.9957542341
 20
3.058791035
 30
0.0
 10
4.9946216749
 20
3.03282943
 30
0.0
 10
4.9951644865
 20
3.0068497708
 30
0.0
 10
4.9973763356
 20
2.9809544704
 30
0.0
 10
5.0025352533
 20
2.9466883194
 30
0.0
 10
5.0110025313
 20
2.9129714477
 30
0.0
 10
5.0226414299
 20
2.8802957986
 30
0.0
 10
5.0329389004
 20
2.8563637689
 30
0.0
 10
5.0447518277
 20
2.8331192056
 30
0.0
 10
5.0624678406
 20
2.8031657343
 30
0.0
 10
5.0881786453
 20
2.7678789893
 30
0.0
 10
5.1181871898
 20
2.7361064142
 30
0.0
 10
5.1444727244
 20
2.7130826916
 30
0.0
 10
5.1652787569
 20
2.6970629516
 30
0.0
 10
5.1870712364
 20
2.6823677741
 30
0.0
 10
5.2097654897
 20
2.6690565324
 30
0.0
 10
5.2332715576
 20
2.6571861083
 30
0.0
 10
5.2574913735
 20
2.6467978252
 30
0.0
 10
5.2823298766
 20
2.6379368736
 30
0.0
 10
5.3076887442
 20
2.6306392417
 30
0.0
 10
5.3334716076
 20
2.6249300108
 30
0.0
 10
5.3682531079
 20
2.6194785192
 30
0.0
 10
5.3946863265
 20
2.6178286875
 30
0.0
 10
5.4122787267
 20
2.6178286875
 30
0.0
  0
SPLINE
  5
345
100
AcDbEntity
  8
ALL_ASSEMBLY_MEMBERS
100
AcDbSpline
 62
7
  6
CONTINUOUS
 70
0
 71
3
 72
26
 73
22
 74
0
 42
0.0000001
 43
0.0000001
 44
0.0000000001
 40
0.0
 40
0.0
 40
0.0
 40
0.0
 40
0.0629944783
 40
0.1260222136
 40
0.1889865881
 40
0.2518832745
 40
0.3147143477
 40
0.3461087858
 40
0.3774799712
 40
0.4401305054
 40
0.4714270918
 40
0.5026980075
 40
0.5651441814
 40
0.5963382032
 40
0.6275074079
 40
0.6897562126
 40
0.7519182862
 40
0.8140072264
 40
0.8760380638
 40
0.9380292471
 40
1.0
 40
1.0
 40
1.0
 40
1.0
 10
5.4122787267
 20
2.6689074447
 30
0.0
 10
5.4000172845
 20
2.6689074447
 30
0.0
 10
5.3754717876
 20
2.6700969771
 30
0.0
 10
5.3390171324
 20
2.6754063296
 30
0.0
 10
5.3032613858
 20
2.6842137895
 30
0.0
 10
5.2685617817
 20
2.6964191863
 30
0.0
 10
5.2407840758
 20
2.70933818
 30
0.0
 10
5.2194185267
 20
2.7212361276
 30
0.0
 10
5.1986891795
 20
2.7341430071
 30
0.0
 10
5.1789428825
 20
2.7485415557
 30
0.0
 10
5.1603483535
 20
2.76431073
 30
0.0
 10
5.1425792808
 20
2.7809463169
 30
0.0
 10
5.1260677003
 20
2.7988559721
 30
0.0
 10
5.1109591098
 20
2.8178896186
 30
0.0
 10
5.0968314315
 20
2.8376158889
 30
0.0
 10
5.0810375169
 20
2.8635164242
 30
0.0
 10
5.0652770639
 20
2.8962823169
 30
0.0
 10
5.0528532813
 20
2.9304097537
 30
0.0
 10
5.0438972483
 20
2.965573017
 30
0.0
 10
5.0384838813
 20
3.0014260829
 30
0.0
 10
5.0372798762
 20
3.0255719328
 30
0.0
 10
5.0372798762
 20
3.0376341139
 30
0.0
  0
SPLINE
  5
346
100
AcDbEntity
  8
ALL_ASSEMBLY_MEMBERS
100
AcDbSpline
 62
7
  6
CONTINUOUS
 70
0
 71
3
 72
29
 73
25
 74
0
 42
0.0000001
 43
0.0000001
 44
0.0000000001
 40
0.0
 40
0.0
 40
0.0
 40
0.0
 40
0.0629885878
 40
0.1260021875
 40
0.1574956052
 40
0.1889723826
 40
0.2204338018
 40
0.2518810033
 40
0.2833125399
 40
0.31472558
 40
0.3461174881
 40
0.3774866144
 40
0.4401350184
 40
0.5026838224
 40
0.5651310953
 40
0.6274776237
 40
0.6586239142
 40
0.6897471273
 40
0.7208487329
 40
0.7519301514
 40
0.8140195914
 40
0.8760495543
 40
0.9380365334
 40
1.0
 40
1.0
 40
1.0
 40
1.0
 10
5.4122787267
 20
2.6056670787
 30
0.0
 10
5.4260797339
 20
2.6056670787
 30
0.0
 10
5.4537037641
 20
2.60698765
 30
0.0
 10
5.4879140849
 20
2.6119069829
 30
0.0
 10
5.5148932716
 20
2.6177867238
 30
0.0
 10
5.534883838
 20
2.6231534664
 30
0.0
 10
5.554585465
 20
2.6294651892
 30
0.0
 10
5.573953034
 20
2.6367097427
 30
0.0
 10
5.5929421585
 20
2.6448681887
 30
0.0
 10
5.6115084191
 20
2.6539200402
 30
0.0
 10
5.6296074839
 20
2.6638460045
 30
0.0
 10
5.6530430077
 20
2.6782081288
 30
0.0
 10
5.6809728625
 20
2.6982250539
 30
0.0
 10
5.7119687363
 20
2.7253315823
 30
0.0
 10
5.7401572717
 20
2.7552564045
 30
0.0
 10
5.761091661
 20
2.7823333742
 30
0.0
 10
5.7761767795
 20
2.8051022336
 30
0.0
 10
5.7866339611
 20
2.8226954182
 30
0.0
 10
5.7962104958
 20
2.8407669515
 30
0.0
 10
5.807773579
 20
2.8654281138
 30
0.0
 10
5.8199301392
 20
2.8972495312
 30
0.0
 10
5.8306905376
 20
2.9366481567
 30
0.0
 10
5.8375224441
 20
2.9768843415
 30
0.0
 10
5.8394160604
 20
3.0040282259
 30
0.0
 10
5.8396929098
 20
3.0176018026
 30
0.0
  0
SPLINE
  5
347
100
AcDbEntity
  8
ALL_ASSEMBLY_MEMBERS
100
AcDbSpline
 62
7
  6
CONTINUOUS
 70
0
 71
3
 72
26
 73
22
 74
0
 42
0.0000001
 43
0.0000001
 44
0.0000000001
 40
0.0
 40
0.0
 40
0.0
 40
0.0
 40
0.0619707529
 40
0.1239619362
 40
0.1859927736
 40
0.2480817138
 40
0.3102437874
 40
0.3724925921
 40
0.4036617968
 40
0.4348558186
 40
0.4973019925
 40
0.5285729082
 40
0.5598694946
 40
0.6225200288
 40
0.6538912142
 40
0.6852856523
 40
0.7481167255
 40
0.8110134119
 40
0.8739777864
 40
0.9370055217
 40
1.0
 40
1.0
 40
1.0
 40
1.0
 10
5.7872775772
 20
3.0376341139
 30
0.0
 10
5.7872775772
 20
3.0255719328
 30
0.0
 10
5.7860735721
 20
3.0014260829
 30
0.0
 10
5.7806602051
 20
2.965573017
 30
0.0
 10
5.7717041721
 20
2.9304097537
 30
0.0
 10
5.7592803896
 20
2.8962823169
 30
0.0
 10
5.7435199366
 20
2.8635164242
 30
0.0
 10
5.7277260219
 20
2.8376158889
 30
0.0
 10
5.7135983436
 20
2.8178896186
 30
0.0
 10
5.6984897531
 20
2.7988559721
 30
0.0
 10
5.6819781726
 20
2.7809463169
 30
0.0
 10
5.6642091
 20
2.76431073
 30
0.0
 10
5.6456145709
 20
2.7485415557
 30
0.0
 10
5.6258682739
 20
2.7341430071
 30
0.0
 10
5.6051389267
 20
2.7212361276
 30
0.0
 10
5.5837733776
 20
2.70933818
 30
0.0
 10
5.5559956718
 20
2.6964191863
 30
0.0
 10
5.5212960676
 20
2.6842137895
 30
0.0
 10
5.4855403211
 20
2.6754063296
 30
0.0
 10
5.4490856658
 20
2.6700969771
 30
0.0
 10
5.4245401689
 20
2.6689074447
 30
0.0
 10
5.4122787267
 20
2.6689074447
 30
0.0
  0
SPLINE
  5
348
100
AcDbEntity
  8
ALL_ASSEMBLY_MEMBERS
100
AcDbSpline
 62
7
  6
CONTINUOUS
 70
0
 71
3
 72
28
 73
24
 74
0
 42
0.0000001
 43
0.0000001
 44
0.0000000001
 40
0.0
 40
0.0
 40
0.0
 40
0.0
 40
0.0629971738
 40
0.1260187239
 40
0.1889774922
 40
0.2518733955
 40
0.2833070755
 40
0.3147216752
 40
0.3461146039
 40
0.3774843471
 40
0.4401321639
 40
0.5026787415
 40
0.5651222063
 40
0.6274641915
 40
0.6586082569
 40
0.689729317
 40
0.7208289444
 40
0.7519085318
 40
0.7829695614
 40
0.8140140882
 40
0.8760429079
 40
0.9380315628
 40
1.0
 40
1.0
 40
1.0
 40
1.0
 10
5.4122787267
 20
2.5972494265
 30
0.0
 10
5.4262579017
 20
2.5972494265
 30
0.0
 10
5.4542400363
 20
2.5986044364
 30
0.0
 10
5.4957981902
 20
2.6046589077
 30
0.0
 10
5.5365569222
 20
2.6146975777
 30
0.0
 10
5.5695375265
 20
2.6263000174
 30
0.0
 10
5.5951242024
 20
2.6374532297
 30
0.0
 10
5.6138749207
 20
2.646731633
 30
0.0
 10
5.6321398355
 20
2.6569042595
 30
0.0
 10
5.6557706076
 20
2.6716191943
 30
0.0
 10
5.6838932371
 20
2.6921203769
 30
0.0
 10
5.715026585
 20
2.719866163
 30
0.0
 10
5.7432503353
 20
2.7504750044
 30
0.0
 10
5.7641227436
 20
2.7781483449
 30
0.0
 10
5.7791008663
 20
2.8014016703
 30
0.0
 10
5.7894477253
 20
2.8193610179
 30
0.0
 10
5.7988851708
 20
2.8377978373
 30
0.0
 10
5.8073927868
 20
2.856667129
 30
0.0
 10
5.8149489868
 20
2.8759246558
 30
0.0
 10
5.8237234398
 20
2.9020450545
 30
0.0
 10
5.8322371006
 20
2.9354486281
 30
0.0
 10
5.8384015781
 20
2.9763205025
 30
0.0
 10
5.8397787203
 20
3.0038467398
 30
0.0
 10
5.8397787267
 20
3.0175976365
 30
0.0
  0
SPLINE
  5
349
100
AcDbEntity
  8
ALL_ASSEMBLY_MEMBERS
100
AcDbSpline
 62
7
  6
CONTINUOUS
 70
0
 71
3
 72
29
 73
25
 74
0
 42
0.0000001
 43
0.0000001
 44
0.0000000001
 40
0.0
 40
0.0
 40
0.0
 40
0.0
 40
0.0619634484
 40
0.1239504207
 40
0.185980394
 40
0.2480698302
 40
0.2791512414
 40
0.3102528417
 40
0.3413760564
 40
0.3725223544
 40
0.4348688965
 40
0.4973161639
 40
0.5598649678
 40
0.6225133961
 40
0.6538825348
 40
0.6852744505
 40
0.7166874928
 40
0.7481190283
 40
0.7795662264
 40
0.8110276411
 40
0.8425044135
 40
0.8739978264
 40
0.9370114186
 40
1.0
 40
1.0
 40
1.0
 40
1.0
 10
4.9848645363
 20
3.0176021759
 30
0.0
 10
4.9851413735
 20
3.0040285952
 30
0.0
 10
4.9870349593
 20
2.9768846984
 30
0.0
 10
4.9938668478
 20
2.9366484902
 30
0.0
 10
5.0046272133
 20
2.897249832
 30
0.0
 10
5.0167837593
 20
2.8654283884
 30
0.0
 10
5.0283468272
 20
2.8407672059
 30
0.0
 10
5.0379233544
 20
2.8226956581
 30
0.0
 10
5.0483805359
 20
2.8051024589
 30
0.0
 10
5.0634656512
 20
2.7823335729
 30
0.0
 10
5.0844000376
 20
2.7552565721
 30
0.0
 10
5.1125885733
 20
2.7253317153
 30
0.0
 10
5.1435844595
 20
2.6982251591
 30
0.0
 10
5.1715143297
 20
2.6782082084
 30
0.0
 10
5.1949498698
 20
2.663846062
 30
0.0
 10
5.2130489465
 20
2.653920085
 30
0.0
 10
5.2316152174
 20
2.6448682235
 30
0.0
 10
5.2506043508
 20
2.6367097699
 30
0.0
 10
5.2699719279
 20
2.6294652101
 30
0.0
 10
5.2896735625
 20
2.6231534818
 30
0.0
 10
5.3096641366
 20
2.6177867346
 30
0.0
 10
5.3366433343
 20
2.6119069886
 30
0.0
 10
5.3708536703
 20
2.6069876514
 30
0.0
 10
5.3984777131
 20
2.6056670787
 30
0.0
 10
5.4122787267
 20
2.6056670787
 30
0.0
  0
SPLINE
  5
34A
100
AcDbEntity
  8
ALL_ASSEMBLY_MEMBERS
100
AcDbSpline
 62
7
  6
CONTINUOUS
 70
0
 71
3
 72
26
 73
22
 74
0
 42
0.0000001
 43
0.0000001
 44
0.0000000001
 40
0.0
 40
0.0
 40
0.0
 40
0.0
 40
0.0619603051
 40
0.1239505791
 40
0.18598862
 40
0.2480898397
 40
0.310267583
 40
0.3725325962
 40
0.4348920783
 40
0.4973506226
 40
0.5599078371
 40
0.6225618126
 40
0.6539320022
 40
0.6853240889
 40
0.7167361838
 40
0.7481657309
 40
0.8110515835
 40
0.8425254841
 40
0.8740158964
 40
0.9370219437
 40
1.0
 40
1.0
 40
1.0
 40
1.0
 10
4.98550324
 20
2.9931495247
 30
0.0
 10
4.9862870337
 20
2.9799289008
 30
0.0
 10
4.9891261886
 20
2.9535387982
 30
0.0
 10
4.997169122
 20
2.9145469747
 30
0.0
 10
5.0089150903
 20
2.8764711103
 30
0.0
 10
5.024269336
 20
2.8396596052
 30
0.0
 10
5.043083734
 20
2.8044355898
 30
0.0
 10
5.0652000903
 20
2.7711193556
 30
0.0
 10
5.0904115907
 20
2.7400025863
 30
0.0
 10
5.1185004456
 20
2.7113684335
 30
0.0
 10
5.1492081045
 20
2.6854681991
 30
0.0
 10
5.176752687
 20
2.6663617084
 30
0.0
 10
5.1998050365
 20
2.65266294
 30
0.0
 10
5.2175802455
 20
2.6432000834
 30
0.0
 10
5.2357899001
 20
2.6345730173
 30
0.0
 10
5.2605928236
 20
2.6242087916
 30
0.0
 10
5.2861107159
 20
2.6155909483
 30
0.0
 10
5.312142826
 20
2.6087826307
 30
0.0
 10
5.3384898045
 20
2.6031863754
 30
0.0
 10
5.3718732026
 20
2.5985060541
 30
0.0
 10
5.398817348
 20
2.5972494265
 30
0.0
 10
5.4122787267
 20
2.5972494265
 30
0.0
  0
SPLINE
  5
34B
100
AcDbEntity
  8
ALL_ASSEMBLY_MEMBERS
100
AcDbSpline
 62
7
  6
CONTINUOUS
 70
0
 71
3
 72
35
 73
31
 74
0
 42
0.0000001
 43
0.0000001
 44
0.0000000001
 40
0.0
 40
0.0
 40
0.0
 40
0.0
 40
0.0630914702
 40
0.094659123
 40
0.1262048931
 40
0.1577292811
 40
0.1892344486
 40
0.2207195391
 40
0.2521799199
 40
0.2836115653
 40
0.3150126069
 40
0.3463816157
 40
0.3777179132
 40
0.440259528
 40
0.50267037
 40
0.5338454309
 40
0.5649926067
 40
0.596114251
 40
0.6272131622
 40
0.68932505
 40
0.7203773007
 40
0.7514220076
 40
0.782463033
 40
0.8135048855
 40
0.8445518062
 40
0.875607702
 40
0.9066769355
 40
0.9377631031
 40
0.9688696245
 40
1.0
 40
1.0
 40
1.0
 40
1.0
 10
5.4122787267
 20
2.6178286875
 30
0.0
 10
5.4298711502
 20
2.6178286875
 30
0.0
 10
5.456304404
 20
2.6194785176
 30
0.0
 10
5.4910859495
 20
2.6249300243
 30
0.0
 10
5.5168688445
 20
2.6306392774
 30
0.0
 10
5.5422277416
 20
2.6379369361
 30
0.0
 10
5.5670662726
 20
2.6467979128
 30
0.0
 10
5.5912861138
 20
2.6571862182
 30
0.0
 10
5.6147922015
 20
2.6690566647
 30
0.0
 10
5.6374864672
 20
2.6823679317
 30
0.0
 10
5.6592789545
 20
2.6970631372
 30
0.0
 10
5.6800849911
 20
2.7130829134
 30
0.0
 10
5.7063705347
 20
2.7361066871
 30
0.0
 10
5.7363790852
 20
2.7678793237
 30
0.0
 10
5.7620898842
 20
2.8031661338
 30
0.0
 10
5.7798058715
 20
2.833119665
 30
0.0
 10
5.7916187856
 20
2.8563642731
 30
0.0
 10
5.801916239
 20
2.8802963474
 30
0.0
 10
5.8135551013
 20
2.9129720522
 30
0.0
 10
5.8220223395
 20
2.9466889764
 30
0.0
 10
5.8271811969
 20
2.9809551805
 30
0.0
 10
5.8293930081
 20
3.0068505216
 30
0.0
 10
5.8299357693
 20
3.0328302176
 30
0.0
 10
5.8288031596
 20
3.0587918524
 30
0.0
 10
5.8260062559
 20
3.084631217
 30
0.0
 10
5.8215522756
 20
3.1102449366
 30
0.0
 10
5.8154578944
 20
3.1355296612
 30
0.0
 10
5.8077527722
 20
3.1603860223
 30
0.0
 10
5.7984625482
 20
3.1847115745
 30
0.0
 10
5.7912401247
 20
3.2005067592
 30
0.0
 10
5.7873805512
 20
3.2082819063
 30
0.0
  0
ENDSEC
  0
SECTION
  2
OBJECTS
  0
DICTIONARY
  5
C
100
AcDbDictionary
280
0
281
1
  3
ACAD_GROUP
350
D
  3
ACAD_MLINESTYLE
350
17
  3
ACAD_LAYOUT
350
1A
  3
ACAD_PLOTSETTINGS
350
19
  3
ACAD_PLOTSTYLENAME
350
E
  0
DICTIONARY
  5
D
102
{ACAD_REACTORS
330
C
102
}
100
AcDbDictionary
280
0
281
1
  0
ACDBDICTIONARYWDFLT
  5
E
102
{ACAD_REACTORS
330
C
102
}
100
AcDbDictionary
281
1
  3
Normal
350
F
100
AcDbDictionaryWithDefault
340
F
  0
DICTIONARY
  5
17
102
{ACAD_REACTORS
330
C
102
}
100
AcDbDictionary
280
0
281
1
  3
Standard
350
18
  0
DICTIONARY
  5
19
102
{ACAD_REACTORS
330
C
102
}
100
AcDbDictionary
281
1
  0
DICTIONARY
  5
1A
102
{ACAD_REACTORS
330
C
102
}
100
AcDbDictionary
281
1
  3
Model
350
34C
  3
Layout1
350
34D
  0
ACDBPLACEHOLDER
  5
F
102
{ACAD_REACTORS
330
E
102
}
  0
MLINESTYLE
  5
18
102
{ACAD_REACTORS
330
17
102
}
100
AcDbMlineStyle
  2
STANDARD
 70
0
  3

 62
256
 51
90.0
 52
90.0
 71
2
 49
0.5
 62
256
  6
BYLAYER
 49
-0.5
 62
256
  6
BYLAYER
  0
LAYOUT
  5
34C
102
{ACAD_REACTORS
330
1A
102
}
100
AcDbPlotSettings
  1

  2
none_device
  4
ANSI_A_(11.00_x_8.50_Inches)
  6

 40
0.0
 41
0.0
 42
0.0
 43
0.0
 44
279.4
 45
215.9
 46
0.0
 47
0.0
 48
0.0
 49
0.0
140
0.0
141
0.0
142
1.0
143
1.0
 70
1024
 72
0
 73
0
 74
0
  7

 75
0
147
1.0
148
0.0
149
0.0
100
AcDbLayout
  1
Model
 70
0
 71
0
 10
0.0
 20
0.0
 11
11.0
 21
8.5
 12
0.0
 22
0.0
 32
0.0
 14
0.0
 24
0.0
 34
0.0
 15
0.0
 25
0.0
 35
0.0
146
0.0
 13
0.0
 23
0.0
 33
0.0
 16
1.0
 26
0.0
 36
0.0
 17
0.0
 27
1.0
 37
0.0
 76
0
330
22D
345
0
346
0
  0
LAYOUT
  5
34D
102
{ACAD_REACTORS
330
1A
102
}
100
AcDbPlotSettings
  1

  2
none_device
  4
ANSI_A_(11.00_x_8.50_Inches)
  6

 40
0.0
 41
0.0
 42
0.0
 43
0.0
 44
279.4
 45
215.9
 46
0.0
 47
0.0
 48
0.0
 49
0.0
140
0.0
141
0.0
142
1.0
143
1.0
 70
0
 72
0
 73
0
 74
0
  7

 75
0
147
1.0
148
0.0
149
0.0
100
AcDbLayout
  1
Layout1
 70
0
 71
1
 10
0.0
 20
0.0
 11
11.0
 21
8.5
 12
0.0
 22
0.0
 32
0.0
 14
0.0
 24
0.0
 34
0.0
 15
0.0
 25
0.0
 35
0.0
146
0.0
 13
0.0
 23
0.0
 33
0.0
 16
1.0
 26
0.0
 36
0.0
 17
0.0
 27
1.0
 37
0.0
 76
0
330
22E
345
0
346
0
  0
ENDSEC
  0
EOF
