999
DXF file: 3-2564bp_RIGHT.dxf
999
Pro/ENGINEER 2018400 by Parametric Technology Corporation
  0
SECTION
  2
HEADER
  9
$ACADVER
  1
AC1027
  9
$DWGCODEPAGE
  3
ANSI_1252
  9
$EXTMAX
 10
11.0
 20
8.5
 30
0.0
  9
$EXTMIN
 10
0.0
 20
0.0
 30
0.0
  9
$LIMMIN
 10
0.0
 20
0.0
  9
$LIMMAX
 10
11.0
 20
8.5
  9
$VIEWCTR
 10
5.5
 20
4.25
  9
$VIEWSIZE
 40
8.5
  9
$CLAYER
  8
0
  9
$LTSCALE
 40
0.605
  9
$CELTYPE
  6
BYLAYER
  9
$DIMSCALE
 40
1.0
  9
$DIMASZ
 40
0.1
  9
$DIMEXO
 40
0.0625
  9
$DIMDLI
 40
0.418
  9
$DIMEXE
 40
0.125
  9
$DIMCEN
 40
0.099
  9
$DIMLFAC
 40
1.0
  9
$DIMBLK
  1
_FILLED
  9
$DIMALT
 70
1
  9
$DIMALTD
 70
1
  9
$DIMALTTD
 70
2
  9
$DIMALTF
 40
25.4
  9
$DIMTXT
 40
0.08
  9
$DIMTOL
 70
1
  9
$DIMLIM
 70
0
  9
$DIMTFAC
 40
1.0
  9
$DIMTP
 40
0.01
  9
$DIMTM
 40
0.01
  9
$DIMGAP
 40
0.09
  9
$DIMDSEP
 70
46
  9
$AUNITS
 70
0
  9
$PDMODE
 70
3
  9
$PDSIZE
 40
0.3125
  9
$HANDSEED
  5
4F1
  9
$TILEMODE
 70
1
  9
$MEASUREMENT
 70
0
  9
$INSUNITS
 70
1
  0
ENDSEC
  0
SECTION
  2
CLASSES
  0
CLASS
  1
ACDBDICTIONARYWDFLT
  2
AcDbDictionaryWithDefault
  3
AutoCAD 2000
 90
0
 91
1
280
0
281
0
  0
CLASS
  1
ACDBPLACEHOLDER
  2
AcDbPlaceHolder
  3
AutoCAD 2000
 90
0
 91
1
280
0
281
0
  0
CLASS
  1
LAYOUT
  2
AcDbLayout
  3
AutoCAD 2000
 90
0
 91
0
280
0
281
0
  0
ENDSEC
  0
SECTION
  2
TABLES
  0
TABLE
  2
VPORT
  5
8
100
AcDbSymbolTable
 70
2
  0
VPORT
  5
1F4
100
AcDbSymbolTableRecord
100
AcDbViewportTableRecord
  2
*ACTIVE
 70
0
 10
0.0
 20
0.0
 11
1.0
 21
1.0
 12
5.5
 22
4.25
 13
0.0
 23
0.0
 14
1.0
 24
1.0
 15
0.0
 25
0.0
 16
0.0
 26
0.0
 36
1.0
 17
0.0
 27
0.0
 37
0.0
 40
8.5
 41
1.2941176471
 42
50.0
 43
0.0
 44
0.0
 50
0.0
 51
0.0
 71
0
 72
100
 73
1
 74
1
 75
0
 76
0
 77
0
 78
0
  0
ENDTAB
  0
TABLE
  2
LTYPE
  5
5
100
AcDbSymbolTable
 70
6
  0
LTYPE
  5
14
100
AcDbSymbolTableRecord
100
AcDbLinetypeTableRecord
  2
BYBLOCK
 70
0
  3

 72
65
 73
0
 40
0.0
  0
LTYPE
  5
15
100
AcDbSymbolTableRecord
100
AcDbLinetypeTableRecord
  2
BYLAYER
 70
0
  3

 72
65
 73
0
 40
0.0
  0
LTYPE
  5
16
100
AcDbSymbolTableRecord
100
AcDbLinetypeTableRecord
  2
CONTINUOUS
 70
64
  3
Solid line
 72
65
 73
0
 40
0.0
  0
LTYPE
  5
1F5
100
AcDbSymbolTableRecord
100
AcDbLinetypeTableRecord
  2
CENTER
 70
64
  3
____ _ ____ _ ____ _ ____ _ ____ _ ____ _ ____
 72
65
 73
4
 40
0.6
 49
0.375
 74
0
 49
-0.075
 74
0
 49
0.075
 74
0
 49
-0.075
 74
0
  0
LTYPE
  5
1F6
100
AcDbSymbolTableRecord
100
AcDbLinetypeTableRecord
  2
HIDDEN
 70
64
  3
- - - - - - - - - - - - - - - - - - - -
 72
65
 73
2
 40
0.2
 49
0.1
 74
0
 49
-0.1
 74
0
  0
LTYPE
  5
1F7
100
AcDbSymbolTableRecord
100
AcDbLinetypeTableRecord
  2
PHANTOM
 70
64
  3
_____ _ _ _____ _ _ _____ _ _ _____
 72
65
 73
6
 40
0.8
 49
0.45
 74
0
 49
-0.05
 74
0
 49
0.1
 74
0
 49
-0.05
 74
0
 49
0.1
 74
0
 49
-0.05
 74
0
  0
LTYPE
  5
1F8
100
AcDbSymbolTableRecord
100
AcDbLinetypeTableRecord
  2
DOT
 70
64
  3
. . . . . . . . . . . . . . . . . . . .
 72
65
 73
2
 40
0.2
 49
0.1
 74
0
 49
-0.1
 74
0
  0
LTYPE
  5
1F9
100
AcDbSymbolTableRecord
100
AcDbLinetypeTableRecord
  2
DASHED
 70
64
  3
- - - - - - - - - - - - - - - - - - - -
 72
65
 73
2
 40
0.2
 49
0.1
 74
0
 49
-0.1
 74
0
  0
ENDTAB
  0
TABLE
  2
LAYER
  5
2
100
AcDbSymbolTable
 70
36
  0
LAYER
  5
10
100
AcDbSymbolTableRecord
100
AcDbLayerTableRecord
  2
0
 70
0
 62
7
  6
CONTINUOUS
370
-3
390
F
  0
LAYER
  5
1FA
100
AcDbSymbolTableRecord
100
AcDbLayerTableRecord
  2
DEFAULT_1
 70
0
 62
7
  6
CENTER
370
-3
390
F
  0
LAYER
  5
1FB
100
AcDbSymbolTableRecord
100
AcDbLayerTableRecord
  2
DEFAULT_2
 70
0
 62
8
  6
HIDDEN
370
-3
390
F
  0
LAYER
  5
1FC
100
AcDbSymbolTableRecord
100
AcDbLayerTableRecord
  2
DEFAULT_3
 70
0
 62
7
  6
PHANTOM
370
-3
390
F
  0
LAYER
  5
1FD
100
AcDbSymbolTableRecord
100
AcDbLayerTableRecord
  2
DEFAULT_COORDINATE_SYSTEM
 70
0
 62
7
  6
CONTINUOUS
370
-3
390
F
  0
LAYER
  5
1FE
100
AcDbSymbolTableRecord
100
AcDbLayerTableRecord
  2
DEFAULT_DATUM_AXES
 70
0
 62
7
  6
CONTINUOUS
370
-3
390
F
  0
LAYER
  5
1FF
100
AcDbSymbolTableRecord
100
AcDbLayerTableRecord
  2
DEFAULT_DATUM_PLANES
 70
0
 62
7
  6
CONTINUOUS
370
-3
390
F
  0
ENDTAB
  0
TABLE
  2
STYLE
  5
3
100
AcDbSymbolTable
 70
1
  0
STYLE
  5
11
100
AcDbSymbolTableRecord
100
AcDbTextStyleTableRecord
  2
STANDARD
 70
0
 40
0.0
 41
0.8
 50
0.0
 71
0
 42
0.2
  3
txt
  4

  0
STYLE
  5
200
100
AcDbSymbolTableRecord
100
AcDbTextStyleTableRecord
  2
TEXTSTYLE_1
 70
0
 40
0.0
 41
0.8
 50
0.0
 71
0
 42
0.2
  3
gdt
  4

  0
ENDTAB
  0
TABLE
  2
VIEW
  5
6
100
AcDbSymbolTable
 70
0
  0
ENDTAB
  0
TABLE
  2
UCS
  5
7
100
AcDbSymbolTable
 70
0
  0
ENDTAB
  0
TABLE
  2
APPID
  5
9
100
AcDbSymbolTable
 70
1
  0
APPID
  5
201
100
AcDbSymbolTableRecord
100
AcDbRegAppTableRecord
  2
ACAD
 70
0
  0
ENDTAB
  0
TABLE
  2
BLOCK_RECORD
  5
1
100
AcDbSymbolTable
 70
0
  0
BLOCK_RECORD
  5
202
100
AcDbSymbolTableRecord
100
AcDbBlockTableRecord
  2
*Model_Space
  0
BLOCK_RECORD
  5
203
100
AcDbSymbolTableRecord
100
AcDbBlockTableRecord
  2
*Paper_Space
  0
BLOCK_RECORD
  5
204
100
AcDbSymbolTableRecord
100
AcDbBlockTableRecord
  2
_FILLED
  0
ENDTAB
  0
TABLE
  2
DIMSTYLE
  5
A
100
AcDbSymbolTable
 70
1
100
AcDbDimStyleTable
 71
0
  0
DIMSTYLE
105
205
100
AcDbSymbolTableRecord
100
AcDbDimStyleTableRecord
  2
STANDARD
 70
0
  3

  4

 40
1.0
 41
0.1
 42
0.0625
 43
0.38
 44
0.125
 45
0.0
 46
0.0
 47
0.01
 48
0.01
140
0.08
141
0.09
142
0.0
143
25.4
144
1.0
145
0.0
146
1.0
147
0.09
 71
1.0
 72
0.0
 73
1
 74
1
 75
0
 76
0
 77
0
 78
4
 79
1
170
1
171
1
172
0
173
0
174
0
175
0
176
0
177
0
178
0
270
2
179
2
271
2
272
2
273
2
274
2
275
0
280
0
281
0
282
0
283
1
284
4
285
0
286
0
287
3
288
0
340
11
278
46
341
204
342
204
343
204
344
204
  0
ENDTAB
  0
ENDSEC
  0
SECTION
  2
BLOCKS
  0
BLOCK
  5
20
100
AcDbEntity
  8
0
100
AcDbBlockBegin
  2
*Model_Space
 70
0
 10
0.0
 20
0.0
 30
0.0
  3
*Model_Space
  1

  0
ENDBLK
  5
21
100
AcDbEntity
  8
0
100
AcDbBlockEnd
  0
BLOCK
  5
1C
100
AcDbEntity
  8
0
100
AcDbBlockBegin
  2
*Paper_Space
 70
0
 10
0.0
 20
0.0
 30
0.0
  3
*Paper_Space
  1

  0
ENDBLK
  5
1D
100
AcDbEntity
  8
0
100
AcDbBlockEnd
  0
BLOCK
  5
206
100
AcDbEntity
  8
0
100
AcDbBlockBegin
  2
_FILLED
 70
64
 10
0.0
 20
0.0
  3
_FILLED
  1

  0
SOLID
  5
207
100
AcDbEntity
  8
0
  6
BYBLOCK
 62
0
100
AcDbTrace
 10
0.0
 20
0.0
 11
-1.0
 21
0.2
 12
-1.0
 22
-0.2
 13
-1.0
 23
-0.2
  0
ENDBLK
  5
208
100
AcDbEntity
  8
0
  6
BYBLOCK
 62
0
100
AcDbBlockEnd
  0
ENDSEC
  0
SECTION
  2
ENTITIES
  0
MTEXT
  5
209
100
AcDbEntity
  8
0
100
AcDbMText
 62
2
  6
CONTINUOUS
  7
STANDARD
 71
3
 72
1
 10
5.9951132495
 20
1.4712096273
 30
0.0
 11
1.0
 21
0.0
 31
0.0
 73
2
 44
0.9
  1
SCALE  .250
 40
0.08
 41
0.704
  0
LINE
  5
20A
100
AcDbEntity
  8
0
100
AcDbLine
 62
7
  6
CONTINUOUS
 10
0.0
 20
0.0
 11
0.0
 21
8.5
  0
LINE
  5
20B
100
AcDbEntity
  8
0
100
AcDbLine
 62
7
  6
CONTINUOUS
 10
0.0
 20
0.0
 11
11.0
 21
0.0
  0
LINE
  5
20C
100
AcDbEntity
  8
0
100
AcDbLine
 62
7
  6
CONTINUOUS
 10
0.0
 20
8.5
 11
11.0
 21
8.5
  0
LINE
  5
20D
100
AcDbEntity
  8
0
100
AcDbLine
 62
7
  6
CONTINUOUS
 10
11.0
 20
0.0
 11
11.0
 21
8.5
  0
LINE
  5
20E
100
AcDbEntity
  8
0
100
AcDbLine
 62
7
  6
CONTINUOUS
 10
3.6752221607
 20
6.820472923
 11
3.5198921039
 21
6.6651428662
  0
LINE
  5
20F
100
AcDbEntity
  8
0
100
AcDbLine
 62
7
  6
CONTINUOUS
 10
3.5928507601
 20
6.5122009032
 11
3.5875069823
 21
6.5059905669
  0
LINE
  5
210
100
AcDbEntity
  8
0
100
AcDbLine
 62
7
  6
CONTINUOUS
 10
3.6103226704
 20
6.4947938326
 11
3.6049489043
 21
6.4885486449
  0
LINE
  5
211
100
AcDbEntity
  8
0
100
AcDbLine
 62
7
  6
CONTINUOUS
 10
3.6290550621
 20
6.4724289453
 11
3.6247623408
 21
6.4687352084
  0
LINE
  5
212
100
AcDbEntity
  8
0
100
AcDbLine
 62
7
  6
CONTINUOUS
 10
3.6297004375
 20
6.4713896547
 11
3.6297034752
 21
6.4713942067
  0
LINE
  5
213
100
AcDbEntity
  8
0
100
AcDbLine
 62
7
  6
CONTINUOUS
 10
3.6444323882
 20
6.4606585353
 11
3.6390704526
 21
6.4544270966
  0
LINE
  5
214
100
AcDbEntity
  8
0
100
AcDbLine
 62
7
  6
CONTINUOUS
 10
3.6600558624
 20
6.4317059263
 11
3.6551355061
 21
6.4259876744
  0
LINE
  5
215
100
AcDbEntity
  8
0
100
AcDbLine
 62
7
  6
CONTINUOUS
 10
3.6711872234
 20
6.4206785318
 11
3.6662187826
 21
6.4149043979
  0
LINE
  5
216
100
AcDbEntity
  8
0
100
AcDbLine
 62
7
  6
CONTINUOUS
 10
3.6936896249
 20
6.4112874339
 11
3.6883803517
 21
6.4051171975
  0
LINE
  5
217
100
AcDbEntity
  8
0
100
AcDbLine
 62
7
  6
CONTINUOUS
 10
3.702167117
 20
6.386423765
 11
3.6987133051
 21
6.3824098755
  0
LINE
  5
218
100
AcDbEntity
  8
0
100
AcDbLine
 62
7
  6
CONTINUOUS
 10
3.7346249392
 20
6.3466851732
 11
3.7296329299
 21
6.3408836489
  0
LINE
  5
219
100
AcDbEntity
  8
0
100
AcDbLine
 62
7
  6
CONTINUOUS
 10
3.9909453385
 20
6.6076337818
 11
3.9501099219
 21
6.5667983652
  0
LINE
  5
21A
100
AcDbEntity
  8
0
100
AcDbLine
 62
7
  6
CONTINUOUS
 10
3.6633425031
 20
6.438450142
 11
3.6588838891
 21
6.4346136601
  0
LINE
  5
21B
100
AcDbEntity
  8
0
100
AcDbLine
 62
7
  6
CONTINUOUS
 10
3.6900461086
 20
6.3985447733
 11
3.6860322191
 21
6.3950909614
  0
LINE
  5
21C
100
AcDbEntity
  8
0
100
AcDbLine
 62
7
  6
CONTINUOUS
 10
3.7128466762
 20
6.3893074087
 11
3.7081937883
 21
6.3853037609
  0
LINE
  5
21D
100
AcDbEntity
  8
0
100
AcDbLine
 62
7
  6
CONTINUOUS
 10
3.7228599816
 20
6.3663250408
 11
3.7185267416
 21
6.3625964389
  0
LINE
  5
21E
100
AcDbEntity
  8
0
100
AcDbLine
 62
7
  6
CONTINUOUS
 10
3.7525100812
 20
6.3237064321
 11
3.7494463664
 21
6.3210702124
  0
LINE
  5
21F
100
AcDbEntity
  8
0
100
AcDbLine
 62
7
  6
CONTINUOUS
 10
3.7754042524
 20
6.3271487261
 11
3.7705369591
 21
6.32296059
  0
LINE
  5
220
100
AcDbEntity
  8
0
100
AcDbLine
 62
7
  6
CONTINUOUS
 10
5.8024155071
 20
2.3848043478
 11
5.8999155071
 21
2.3848043478
  0
LINE
  5
221
100
AcDbEntity
  8
0
100
AcDbLine
 62
7
  6
CONTINUOUS
 10
5.7949155071
 20
2.3923043478
 11
5.9074155071
 21
2.3923043478
  0
LINE
  5
222
100
AcDbEntity
  8
0
100
AcDbLine
 62
7
  6
CONTINUOUS
 10
3.755942137
 20
6.3488389028
 11
3.7507235226
 21
6.3427740266
  0
LINE
  5
223
100
AcDbEntity
  8
0
100
AcDbLine
 62
7
  6
CONTINUOUS
 10
3.7538584374
 20
6.3347324446
 11
3.7504046255
 21
6.3307185551
  0
LINE
  5
224
100
AcDbEntity
  8
0
100
AcDbLine
 62
7
  6
CONTINUOUS
 10
3.7618762607
 20
6.3143402525
 11
3.759240041
 21
6.3112765378
  0
LINE
  5
225
100
AcDbEntity
  8
0
100
AcDbLine
 62
7
  6
CONTINUOUS
 10
3.8028767833
 20
6.2705545553
 11
3.7974407458
 21
6.2642369982
  0
LINE
  5
226
100
AcDbEntity
  8
0
100
AcDbLine
 62
7
  6
CONTINUOUS
 10
3.8284693231
 20
6.2760423961
 11
3.8233752695
 21
6.2701222797
  0
LINE
  5
227
100
AcDbEntity
  8
0
100
AcDbLine
 62
7
  6
CONTINUOUS
 10
3.8225723243
 20
6.2689341179
 11
3.8177700658
 21
6.2633531147
  0
LINE
  5
228
100
AcDbEntity
  8
0
100
AcDbLine
 62
7
  6
CONTINUOUS
 10
3.8175542562
 20
6.2587375603
 11
3.8148832087
 21
6.2556333701
  0
LINE
  5
229
100
AcDbEntity
  8
0
100
AcDbLine
 62
7
  6
CONTINUOUS
 10
3.822469288
 20
6.2431406236
 11
3.8206506605
 21
6.2410270836
  0
LINE
  5
22A
100
AcDbEntity
  8
0
100
AcDbLine
 62
7
  6
CONTINUOUS
 10
4.2720202841
 20
6.6200081505
 11
4.1686059173
 21
6.5165937838
  0
LINE
  5
22B
100
AcDbEntity
  8
0
100
AcDbLine
 62
7
  6
CONTINUOUS
 10
4.1615348495
 20
6.509522716
 11
4.1359022287
 21
6.4838900951
  0
LINE
  5
22C
100
AcDbEntity
  8
0
100
AcDbLine
 62
7
  6
CONTINUOUS
 10
3.774751554
 20
6.3148060302
 11
3.770218062
 21
6.3109051185
  0
LINE
  5
22D
100
AcDbEntity
  8
0
100
AcDbLine
 62
7
  6
CONTINUOUS
 10
3.7837580647
 20
6.2955112344
 11
3.7790534776
 21
6.2914631012
  0
LINE
  5
22E
100
AcDbEntity
  8
0
100
AcDbLine
 62
7
  6
CONTINUOUS
 10
3.8193677224
 20
6.2462421891
 11
3.8172541824
 21
6.2444235617
  0
LINE
  5
22F
100
AcDbEntity
  8
0
100
AcDbLine
 62
7
  6
CONTINUOUS
 10
3.8482814031
 20
6.2546909314
 11
3.843188706
 21
6.2503088432
  0
LINE
  5
230
100
AcDbEntity
  8
0
100
AcDbLine
 62
7
  6
CONTINUOUS
 10
3.8423399067
 20
6.2476323982
 11
3.8375835023
 21
6.2435396782
  0
LINE
  5
231
100
AcDbEntity
  8
0
100
AcDbLine
 62
7
  6
CONTINUOUS
 10
3.8396099705
 20
6.2400476785
 11
3.8346966453
 21
6.2358199335
  0
LINE
  5
232
100
AcDbEntity
  8
0
100
AcDbLine
 62
7
  6
CONTINUOUS
 10
3.8460358148
 20
6.2260079159
 11
3.840464097
 21
6.221213647
  0
LINE
  5
233
100
AcDbEntity
  8
0
100
AcDbLine
 62
7
  6
CONTINUOUS
 10
6.5649155071
 20
2.4473043478
 11
6.6349155071
 21
2.4473043478
  0
LINE
  5
234
100
AcDbEntity
  8
0
100
AcDbLine
 62
7
  6
CONTINUOUS
 10
6.5574155071
 20
2.4548043478
 11
6.6349155071
 21
2.4548043478
  0
LINE
  5
235
100
AcDbEntity
  8
0
100
AcDbLine
 62
7
  6
CONTINUOUS
 10
3.8894300299
 20
6.1838557215
 11
3.8840613265
 21
6.1776164175
  0
LINE
  5
236
100
AcDbEntity
  8
0
100
AcDbLine
 62
7
  6
CONTINUOUS
 10
3.8946525647
 20
6.1862456766
 11
3.8898510458
 21
6.180665533
  0
LINE
  5
237
100
AcDbEntity
  8
0
100
AcDbLine
 62
7
  6
CONTINUOUS
 10
3.900877112
 20
6.1903181321
 11
3.8962187826
 21
6.1849043979
  0
LINE
  5
238
100
AcDbEntity
  8
0
100
AcDbLine
 62
7
  6
CONTINUOUS
 10
3.9081015995
 20
6.1960797057
 11
3.9031603623
 21
6.1903371869
  0
LINE
  5
239
100
AcDbEntity
  8
0
100
AcDbLine
 62
7
  6
CONTINUOUS
 10
3.9734794241
 20
6.0945336699
 11
3.9689141403
 21
6.0892280699
  0
LINE
  5
23A
100
AcDbEntity
  8
0
100
AcDbLine
 62
7
  6
CONTINUOUS
 10
3.9758790853
 20
6.0970358006
 11
3.9706819072
 21
6.0909958368
  0
LINE
  5
23B
100
AcDbEntity
  8
0
100
AcDbLine
 62
7
  6
CONTINUOUS
 10
3.9797291364
 20
6.1007935219
 11
3.9751013246
 21
6.0954152542
  0
LINE
  5
23C
100
AcDbEntity
  8
0
100
AcDbLine
 62
7
  6
CONTINUOUS
 10
3.9848889116
 20
6.1059300227
 11
3.9804046255
 21
6.1007185551
  0
LINE
  5
23D
100
AcDbEntity
  8
0
100
AcDbLine
 62
7
  6
CONTINUOUS
 10
3.9913584408
 20
6.1124453376
 11
3.9865918098
 21
6.1069057394
  0
LINE
  5
23E
100
AcDbEntity
  8
0
100
AcDbLine
 62
7
  6
CONTINUOUS
 10
4.416822055
 20
6.6773054573
 11
4.4175709455
 21
6.6780543478
  0
LINE
  5
23F
100
AcDbEntity
  8
0
100
AcDbLine
 62
7
  6
CONTINUOUS
 10
4.416822055
 20
6.671118273
 11
4.3679724921
 21
6.6222687101
  0
LINE
  5
240
100
AcDbEntity
  8
0
100
AcDbLine
 62
7
  6
CONTINUOUS
 10
4.2879641947
 20
6.4803205531
 11
4.3498360381
 21
6.5421923965
  0
LINE
  5
241
100
AcDbEntity
  8
0
100
AcDbLine
 62
7
  6
CONTINUOUS
 10
3.9064552381
 20
6.1600233897
 11
3.9038747631
 21
6.157802981
  0
LINE
  5
242
100
AcDbEntity
  8
0
100
AcDbLine
 62
7
  6
CONTINUOUS
 10
3.9135365406
 20
6.1641838676
 11
3.9096644823
 21
6.1608520965
  0
LINE
  5
243
100
AcDbEntity
  8
0
100
AcDbLine
 62
7
  6
CONTINUOUS
 10
3.9210196408
 20
6.1693824637
 11
3.9160322191
 21
6.1650909614
  0
LINE
  5
244
100
AcDbEntity
  8
0
100
AcDbLine
 62
7
  6
CONTINUOUS
 10
3.9282938018
 20
6.1751014272
 11
3.9229737989
 21
6.1705237503
  0
LINE
  5
245
100
AcDbEntity
  8
0
100
AcDbLine
 62
7
  6
CONTINUOUS
 10
3.9095680374
 20
6.1579540248
 11
3.9045263669
 21
6.1536158432
  0
LINE
  5
246
100
AcDbEntity
  8
0
100
AcDbLine
 62
7
  6
CONTINUOUS
 10
4.0119448769
 20
6.0918589617
 11
4.0064052463
 21
6.0870923029
  0
LINE
  5
247
100
AcDbEntity
  8
0
100
AcDbLine
 62
7
  6
CONTINUOUS
 10
4.0054294744
 20
6.0853893571
 11
4.000218062
 21
6.0809051185
  0
LINE
  5
248
100
AcDbEntity
  8
0
100
AcDbLine
 62
7
  6
CONTINUOUS
 10
4.0002930508
 20
6.0802296483
 11
3.9949147611
 21
6.0756018177
  0
LINE
  5
249
100
AcDbEntity
  8
0
100
AcDbLine
 62
7
  6
CONTINUOUS
 10
3.9965352719
 20
6.0763795478
 11
3.9904953438
 21
6.0711824003
  0
LINE
  5
24A
100
AcDbEntity
  8
0
100
AcDbLine
 62
7
  6
CONTINUOUS
 10
3.9940331672
 20
6.0739799088
 11
3.9887275768
 21
6.0694146333
  0
LINE
  5
24B
100
AcDbEntity
  8
0
100
AcDbLine
 62
7
  6
CONTINUOUS
 10
4.0574535324
 20
6.0100685311
 11
4.0531153502
 21
6.0050268599
  0
LINE
  5
24C
100
AcDbEntity
  8
0
100
AcDbLine
 62
7
  6
CONTINUOUS
 10
4.0746009446
 20
6.028794307
 11
4.0700232573
 21
6.0234742919
  0
LINE
  5
24D
100
AcDbEntity
  8
0
100
AcDbLine
 62
7
  6
CONTINUOUS
 10
4.0688819492
 20
6.0215201089
 11
4.0645904683
 21
6.0165327122
  0
LINE
  5
24E
100
AcDbEntity
  8
0
100
AcDbLine
 62
7
  6
CONTINUOUS
 10
4.0636833745
 20
6.0140370337
 11
4.0603516034
 21
6.0101649754
  0
LINE
  5
24F
100
AcDbEntity
  8
0
100
AcDbLine
 62
7
  6
CONTINUOUS
 10
4.0595228967
 20
6.0069557311
 11
4.0573024879
 21
6.0043752561
  0
LINE
  5
250
100
AcDbEntity
  8
0
100
AcDbLine
 62
7
  6
CONTINUOUS
 10
4.1255074153
 20
5.9465362992
 11
4.120713154
 21
5.9409645901
  0
LINE
  5
251
100
AcDbEntity
  8
0
100
AcDbLine
 62
7
  6
CONTINUOUS
 10
4.3798200601
 20
6.3884646878
 11
4.4416919034
 21
6.4503365311
  0
LINE
  5
252
100
AcDbEntity
  8
0
100
AcDbLine
 62
7
  6
CONTINUOUS
 10
4.521768217
 20
6.4684729851
 11
4.5706177799
 21
6.5173225481
  0
LINE
  5
253
100
AcDbEntity
  8
0
100
AcDbLine
 62
7
  6
CONTINUOUS
 10
4.5768049642
 20
6.5173225481
 11
4.7337099338
 21
6.6742275176
  0
LINE
  5
254
100
AcDbEntity
  8
0
100
AcDbLine
 62
7
  6
CONTINUOUS
 10
4.5195076575
 20
6.3725207771
 11
4.4160932907
 21
6.2691064104
  0
LINE
  5
255
100
AcDbEntity
  8
0
100
AcDbLine
 62
7
  6
CONTINUOUS
 10
4.4090222229
 20
6.2620353425
 11
4.3833896021
 21
6.2364027217
  0
LWPOLYLINE
  5
256
100
AcDbEntity
  8
0
100
AcDbPolyline
 62
7
  6
CONTINUOUS
 90
46
 70
0
 10
4.7337099197
 20
6.674227513
 10
4.7337928967
 20
6.6743097513
 10
4.7339590044
 20
6.6744700561
 10
4.7341279168
 20
6.6746273998
 10
4.7342995807
 20
6.674781733
 10
4.7344739429
 20
6.674933008
 10
4.7346509502
 20
6.6750811787
 10
4.7348305473
 20
6.6752261989
 10
4.7350126783
 20
6.6753680234
 10
4.7351972876
 20
6.675506609
 10
4.7353843179
 20
6.6756419124
 10
4.7355737106
 20
6.6757738913
 10
4.7357654078
 20
6.6759025051
 10
4.735959351
 20
6.6760277143
 10
4.7361554786
 20
6.6761494789
 10
4.7363537271
 20
6.6762677594
 10
4.7365540353
 20
6.6763825194
 10
4.7367563401
 20
6.6764937225
 10
4.7369605736
 20
6.6766013315
 10
4.7371666717
 20
6.6767053132
 10
4.7373745702
 20
6.6768056353
 10
4.7375841997
 20
6.6769022648
 10
4.7377954911
 20
6.6769951704
 10
4.7380083815
 20
6.6770843254
 10
4.7382228111
 20
6.6771697048
 10
4.7384387092
 20
6.677251281
 10
4.738656012
 20
6.67732903
 10
4.7388746693
 20
6.6774029335
 10
4.7390946132
 20
6.6774729676
 10
4.7393157752
 20
6.6775391098
 10
4.7395381041
 20
6.6776013432
 10
4.7397615486
 20
6.6776596511
 10
4.7399860218
 20
6.6777140085
 10
4.7402114183
 20
6.6777643891
 10
4.7404376952
 20
6.6778107826
 10
4.7406647542
 20
6.6778531682
 10
4.740892405
 20
6.6778915138
 10
4.7411205782
 20
6.6779258143
 10
4.7413491988
 20
6.6779560649
 10
4.7415780659
 20
6.6779822492
 10
4.7418071047
 20
6.6780043722
 10
4.7420362449
 20
6.6780224404
 10
4.7422652909
 20
6.6780364553
 10
4.7424941297
 20
6.6780464308
 10
4.7427227312
 20
6.6780523865
 10
4.7429487314
 20
6.6780543408
  0
LINE
  5
257
100
AcDbEntity
  8
0
100
AcDbLine
 62
7
  6
CONTINUOUS
 10
4.095579245
 20
6.0086021204
 11
4.0898366938
 21
6.0036608554
  0
LINE
  5
258
100
AcDbEntity
  8
0
100
AcDbLine
 62
7
  6
CONTINUOUS
 10
4.0898176405
 20
6.0013776063
 11
4.0844039049
 21
5.9967192757
  0
LINE
  5
259
100
AcDbEntity
  8
0
100
AcDbLine
 62
7
  6
CONTINUOUS
 10
4.0857451725
 20
5.9951530482
 11
4.08016504
 21
5.9903515388
  0
LINE
  5
25A
100
AcDbEntity
  8
0
100
AcDbLine
 62
7
  6
CONTINUOUS
 10
4.0833552269
 20
5.9899305217
 11
4.0771159245
 21
5.9845618196
  0
LINE
  5
25B
100
AcDbEntity
  8
0
100
AcDbLine
 62
7
  6
CONTINUOUS
 10
4.1426401305
 20
5.922969781
 11
4.1405265905
 21
5.9211511535
  0
LINE
  5
25C
100
AcDbEntity
  8
0
100
AcDbLine
 62
7
  6
CONTINUOUS
 10
6.4774155071
 20
2.8723043478
 11
6.5574155071
 21
2.8723043478
  0
LINE
  5
25D
100
AcDbEntity
  8
0
100
AcDbLine
 62
7
  6
CONTINUOUS
 10
6.4699155071
 20
2.8798043478
 11
6.5574155071
 21
2.8798043478
  0
LINE
  5
25E
100
AcDbEntity
  8
0
100
AcDbLine
 62
7
  6
CONTINUOUS
 10
6.0599155071
 20
2.9673043478
 11
6.4699155071
 21
2.9673043478
  0
LINE
  5
25F
100
AcDbEntity
  8
0
100
AcDbLine
 62
7
  6
CONTINUOUS
 10
6.0524155071
 20
2.9748043478
 11
6.4699155071
 21
2.9748043478
  0
LINE
  5
260
100
AcDbEntity
  8
0
100
AcDbLine
 62
7
  6
CONTINUOUS
 10
4.1395472202
 20
5.9401105039
 11
4.1353194405
 21
5.9351971383
  0
LINE
  5
261
100
AcDbEntity
  8
0
100
AcDbLine
 62
7
  6
CONTINUOUS
 10
4.1471319266
 20
5.9428404246
 11
4.1430391851
 21
5.9380839954
  0
LINE
  5
262
100
AcDbEntity
  8
0
100
AcDbLine
 62
7
  6
CONTINUOUS
 10
4.154190434
 20
5.9487818911
 11
4.1498083501
 21
5.9436891991
  0
LINE
  5
263
100
AcDbEntity
  8
0
100
AcDbLine
 62
7
  6
CONTINUOUS
 10
4.1457416961
 20
5.9198682155
 11
4.1439230686
 21
5.9177546754
  0
LINE
  5
264
100
AcDbEntity
  8
0
100
AcDbLine
 62
7
  6
CONTINUOUS
 10
4.1950107421
 20
5.8842585587
 11
4.1909626082
 21
5.8795539706
  0
LINE
  5
265
100
AcDbEntity
  8
0
100
AcDbLine
 62
7
  6
CONTINUOUS
 10
4.2143055641
 20
5.8752520783
 11
4.2104046255
 21
5.8707185551
  0
LINE
  5
266
100
AcDbEntity
  8
0
100
AcDbLine
 62
7
  6
CONTINUOUS
 10
4.2266482194
 20
5.8759047296
 11
4.222460097
 21
5.8710374522
  0
LINE
  5
267
100
AcDbEntity
  8
0
100
AcDbLine
 62
7
  6
CONTINUOUS
 10
4.223205939
 20
5.8530105742
 11
4.2205697193
 21
5.8499468595
  0
LINE
  5
268
100
AcDbEntity
  8
0
100
AcDbLine
 62
7
  6
CONTINUOUS
 10
4.2658245611
 20
5.8233604902
 11
4.2620959459
 21
5.8190272346
  0
LINE
  5
269
100
AcDbEntity
  8
0
100
AcDbLine
 62
7
  6
CONTINUOUS
 10
4.5071332888
 20
6.0914458316
 11
4.4662978722
 21
6.050610415
  0
LINE
  5
26A
100
AcDbEntity
  8
0
100
AcDbLine
 62
7
  6
CONTINUOUS
 10
4.1582370673
 20
5.9180547492
 11
4.155132877
 21
5.9153837018
  0
LINE
  5
26B
100
AcDbEntity
  8
0
100
AcDbLine
 62
7
  6
CONTINUOUS
 10
4.1684336792
 20
5.9230728642
 11
4.1628526217
 21
5.9182705589
  0
LINE
  5
26C
100
AcDbEntity
  8
0
100
AcDbLine
 62
7
  6
CONTINUOUS
 10
4.1755418945
 20
5.9289698088
 11
4.1696217867
 21
5.9238757625
  0
LINE
  5
26D
100
AcDbEntity
  8
0
100
AcDbLine
 62
7
  6
CONTINUOUS
 10
4.1700540622
 20
5.9033772764
 11
4.1637365052
 21
5.8979412389
  0
LINE
  5
26E
100
AcDbEntity
  8
0
100
AcDbLine
 62
7
  6
CONTINUOUS
 10
4.2138397595
 20
5.8623767538
 11
4.2107760447
 21
5.8597405341
  0
LINE
  5
26F
100
AcDbEntity
  8
0
100
AcDbLine
 62
7
  6
CONTINUOUS
 10
4.2342319515
 20
5.8543589304
 11
4.230218062
 21
5.8509051185
  0
LINE
  5
270
100
AcDbEntity
  8
0
100
AcDbLine
 62
7
  6
CONTINUOUS
 10
4.2483383945
 20
5.856442617
 11
4.2422735335
 21
5.8512240157
  0
LINE
  5
271
100
AcDbEntity
  8
0
100
AcDbLine
 62
7
  6
CONTINUOUS
 10
4.2461846841
 20
5.8351254356
 11
4.2403831559
 21
5.830133423
  0
LINE
  5
272
100
AcDbEntity
  8
0
100
AcDbLine
 62
7
  6
CONTINUOUS
 10
4.2859232719
 20
5.80266761
 11
4.2819093824
 21
5.7992137981
  0
LINE
  5
273
100
AcDbEntity
  8
0
100
AcDbLine
 62
7
  6
CONTINUOUS
 10
5.9224155071
 20
3.0535543478
 11
6.0449155071
 21
3.0535543478
  0
LINE
  5
274
100
AcDbEntity
  8
0
100
AcDbLine
 62
7
  6
CONTINUOUS
 10
6.0449155071
 20
3.0694293478
 11
6.0524155071
 21
3.0694293478
  0
LINE
  5
275
100
AcDbEntity
  8
0
100
AcDbLine
 62
7
  6
CONTINUOUS
 10
5.9074155071
 20
3.108199602
 11
5.8999155071
 21
3.108199602
  0
LINE
  5
276
100
AcDbEntity
  8
0
100
AcDbLine
 62
7
  6
CONTINUOUS
 10
5.9074155071
 20
3.1614090936
 11
5.8999155071
 21
3.1614090936
  0
LINE
  5
277
100
AcDbEntity
  8
0
100
AcDbLine
 62
7
  6
CONTINUOUS
 10
4.288806904
 20
5.8133471557
 11
4.2848032679
 21
5.8086942813
  0
LINE
  5
278
100
AcDbEntity
  8
0
100
AcDbLine
 62
7
  6
CONTINUOUS
 10
4.2980442802
 20
5.7905466017
 11
4.2945904683
 21
5.7865327122
  0
LINE
  5
279
100
AcDbEntity
  8
0
100
AcDbLine
 62
7
  6
CONTINUOUS
 10
4.3379496428
 20
5.7638429891
 11
4.3341131671
 21
5.7593843821
  0
LINE
  5
27A
100
AcDbEntity
  8
0
100
AcDbLine
 62
7
  6
CONTINUOUS
 10
4.3719284558
 20
5.7295555593
 11
4.3682347153
 21
5.7252628338
  0
LINE
  5
27B
100
AcDbEntity
  8
0
100
AcDbLine
 62
7
  6
CONTINUOUS
 10
4.3107869727
 20
5.7941901454
 11
4.3046167044
 21
5.7888808448
  0
LINE
  5
27C
100
AcDbEntity
  8
0
100
AcDbLine
 62
7
  6
CONTINUOUS
 10
4.3201780387
 20
5.7716877164
 11
4.3144039049
 21
5.7667192757
  0
LINE
  5
27D
100
AcDbEntity
  8
0
100
AcDbLine
 62
7
  6
CONTINUOUS
 10
4.3312054329
 20
5.7605563552
 11
4.3254871813
 21
5.7556359992
  0
LINE
  5
27E
100
AcDbEntity
  8
0
100
AcDbLine
 62
7
  6
CONTINUOUS
 10
4.3601580091
 20
5.7449328526
 11
4.3539266036
 21
5.7395709456
  0
LINE
  5
27F
100
AcDbEntity
  8
0
100
AcDbLine
 62
7
  6
CONTINUOUS
 10
4.3942933334
 20
5.7108231581
 11
4.3880481519
 21
5.7054493973
  0
LINE
  5
280
100
AcDbEntity
  8
0
100
AcDbLine
 62
7
  6
CONTINUOUS
 10
4.4117004215
 20
5.6933512628
 11
4.4054900739
 21
5.6880074753
  0
LINE
  5
281
100
AcDbEntity
  8
0
100
AcDbLine
 62
7
  6
CONTINUOUS
 10
4.3708937136
 20
5.7302039682
 11
4.3708891616
 21
5.7302009305
  0
LINE
  5
282
100
AcDbEntity
  8
0
100
AcDbLine
 62
7
  6
CONTINUOUS
 10
6.0449155071
 20
3.2001793478
 11
6.0524155071
 21
3.2001793478
  0
LINE
  5
283
100
AcDbEntity
  8
0
100
AcDbLine
 62
7
  6
CONTINUOUS
 10
5.9224155071
 20
3.2160543478
 11
6.0449155071
 21
3.2160543478
  0
LINE
  5
284
100
AcDbEntity
  8
0
100
AcDbLine
 62
7
  6
CONTINUOUS
 10
5.7949155071
 20
3.2898043478
 11
5.9074155071
 21
3.2898043478
  0
LINE
  5
285
100
AcDbEntity
  8
0
100
AcDbLine
 62
7
  6
CONTINUOUS
 10
6.0524155071
 20
3.2948043478
 11
6.4699155071
 21
3.2948043478
  0
LINE
  5
286
100
AcDbEntity
  8
0
100
AcDbLine
 62
7
  6
CONTINUOUS
 10
5.8024155071
 20
3.2973043478
 11
5.8999155071
 21
3.2973043478
  0
LINE
  5
287
100
AcDbEntity
  8
0
100
AcDbLine
 62
7
  6
CONTINUOUS
 10
6.0599155071
 20
3.3023043478
 11
6.4699155071
 21
3.3023043478
  0
LINE
  5
288
100
AcDbEntity
  8
0
100
AcDbLine
 62
7
  6
CONTINUOUS
 10
4.7199724299
 20
5.7757226538
 11
4.5646423731
 21
5.620392597
  0
LINE
  5
289
100
AcDbEntity
  8
0
100
AcDbLine
 62
7
  6
CONTINUOUS
 10
6.4699155071
 20
3.3898043478
 11
6.5574155071
 21
3.3898043478
  0
LINE
  5
28A
100
AcDbEntity
  8
0
100
AcDbLine
 62
7
  6
CONTINUOUS
 10
6.4774155071
 20
3.3973043478
 11
6.5574155071
 21
3.3973043478
  0
LINE
  5
28B
100
AcDbEntity
  8
0
100
AcDbLine
 62
7
  6
CONTINUOUS
 10
3.5179509611
 20
6.6578984225
 11
3.5393095731
 21
6.5781869971
  0
LINE
  5
28C
100
AcDbEntity
  8
0
100
AcDbLine
 62
7
  6
CONTINUOUS
 10
4.3651148716
 20
6.5878011953
 11
4.3651148716
 21
6.6061302365
  0
LINE
  5
28D
100
AcDbEntity
  8
0
100
AcDbLine
 62
7
  6
CONTINUOUS
 10
4.3849155071
 20
6.8265543478
 11
4.3849155071
 21
6.6930543478
  0
LINE
  5
28E
100
AcDbEntity
  8
0
100
AcDbLine
 62
7
  6
CONTINUOUS
 10
4.3999155071
 20
6.6780543478
 11
4.3999155071
 21
6.8415543478
  0
LINE
  5
28F
100
AcDbEntity
  8
0
100
AcDbLine
 62
7
  6
CONTINUOUS
 10
4.416822055
 20
6.671118273
 11
4.416822055
 21
6.6773054573
  0
LINE
  5
290
100
AcDbEntity
  8
0
100
AcDbLine
 62
7
  6
CONTINUOUS
 10
6.5574155071
 20
3.8148043478
 11
6.6349155071
 21
3.8148043478
  0
LINE
  5
291
100
AcDbEntity
  8
0
100
AcDbLine
 62
7
  6
CONTINUOUS
 10
6.5649155071
 20
3.8223043478
 11
6.6349155071
 21
3.8223043478
  0
LINE
  5
292
100
AcDbEntity
  8
0
100
AcDbLine
 62
7
  6
CONTINUOUS
 10
3.8020496019
 20
6.2714518994
 11
3.8157332681
 21
6.2566211258
  0
LINE
  5
293
100
AcDbEntity
  8
0
100
AcDbLine
 62
7
  6
CONTINUOUS
 10
3.6593698286
 20
6.4325056473
 11
3.6703593186
 21
6.4197163338
  0
LINE
  5
294
100
AcDbEntity
  8
0
100
AcDbLine
 62
7
  6
CONTINUOUS
 10
3.949975007
 20
6.1158828773
 11
3.943531608
 21
6.1234599373
  0
LINE
  5
295
100
AcDbEntity
  8
0
100
AcDbLine
 62
7
  6
CONTINUOUS
 10
3.7345506906
 20
6.3465988843
 11
3.734542396
 21
6.346608671
  0
LINE
  5
296
100
AcDbEntity
  8
0
100
AcDbLine
 62
7
  6
CONTINUOUS
 10
3.7344868074
 20
6.3466744473
 11
3.7344803437
 21
6.3466820956
  0
LINE
  5
297
100
AcDbEntity
  8
0
100
AcDbLine
 62
7
  6
CONTINUOUS
 10
4.0153823843
 20
6.0504755
 11
4.0229594443
 21
6.0440321011
  0
LINE
  5
298
100
AcDbEntity
  8
0
100
AcDbLine
 62
7
  6
CONTINUOUS
 10
4.3192158611
 20
5.7708597961
 11
4.3304123119
 21
5.7612379277
  0
LINE
  5
299
100
AcDbEntity
  8
0
100
AcDbLine
 62
7
  6
CONTINUOUS
 10
4.3304123119
 20
5.7612379277
 11
4.3320051542
 21
5.7598703217
  0
LINE
  5
29A
100
AcDbEntity
  8
0
100
AcDbLine
 62
7
  6
CONTINUOUS
 10
4.1561207062
 20
5.9162336943
 11
4.1709514063
 21
5.902550095
  0
LINE
  5
29B
100
AcDbEntity
  8
0
100
AcDbLine
 62
7
  6
CONTINUOUS
 10
4.1707833121
 20
5.9027043955
 11
4.1707776677
 21
5.9027096032
  0
LINE
  5
29C
100
AcDbEntity
  8
0
100
AcDbLine
 62
7
  6
CONTINUOUS
 10
4.0678312271
 20
5.9854043158
 11
4.0533062426
 21
5.9999293003
  0
LINE
  5
29D
100
AcDbEntity
  8
0
100
AcDbLine
 62
7
  6
CONTINUOUS
 10
3.9836300172
 20
6.0696055257
 11
3.9691050327
 21
6.0841305102
  0
LINE
  5
29E
100
AcDbEntity
  8
0
100
AcDbLine
 62
7
  6
CONTINUOUS
 10
3.8994288073
 20
6.1538067356
 11
3.8849038228
 21
6.1683317201
  0
LINE
  5
29F
100
AcDbEntity
  8
0
100
AcDbLine
 62
7
  6
CONTINUOUS
 10
4.1586389455
 20
5.8981321313
 11
4.144113961
 21
5.9126571158
  0
LINE
  5
2A0
100
AcDbEntity
  8
0
100
AcDbLine
 62
7
  6
CONTINUOUS
 10
4.1354290309
 20
5.9213420459
 11
4.1209040464
 21
5.9358670304
  0
LINE
  5
2A1
100
AcDbEntity
  8
0
100
AcDbLine
 62
7
  6
CONTINUOUS
 10
4.0720183648
 20
5.984752712
 11
4.0574937339
 21
5.9992773429
  0
LINE
  5
2A2
100
AcDbEntity
  8
0
100
AcDbLine
 62
7
  6
CONTINUOUS
 10
3.9853977841
 20
6.0713732927
 11
3.9708727996
 21
6.0858982772
  0
LINE
  5
2A3
100
AcDbEntity
  8
0
100
AcDbLine
 62
7
  6
CONTINUOUS
 10
3.8987772034
 20
6.1579938734
 11
3.8842522189
 21
6.1725188579
  0
LINE
  5
2A4
100
AcDbEntity
  8
0
100
AcDbLine
 62
7
  6
CONTINUOUS
 10
3.8353665374
 20
6.2214045394
 11
3.8208415529
 21
6.2359295239
  0
LINE
  5
2A5
100
AcDbEntity
  8
0
100
AcDbLine
 62
7
  6
CONTINUOUS
 10
3.8121566227
 20
6.2446144541
 11
3.7976316382
 21
6.2591394386
  0
LINE
  5
2A6
100
AcDbEntity
  8
0
100
AcDbLine
 62
7
  6
CONTINUOUS
 10
4.0563999924
 20
6.0017422177
 11
4.0531153502
 21
6.0050268599
  0
LINE
  5
2A7
100
AcDbEntity
  8
0
100
AcDbLine
 62
7
  6
CONTINUOUS
 10
3.9887275768
 20
6.0694146333
 11
3.9878623053
 21
6.0702799048
  0
LINE
  5
2A8
100
AcDbEntity
  8
0
100
AcDbLine
 62
7
  6
CONTINUOUS
 10
3.9697794117
 20
6.0883627984
 11
3.9689141403
 21
6.0892280699
  0
LINE
  5
2A9
100
AcDbEntity
  8
0
100
AcDbLine
 62
7
  6
CONTINUOUS
 10
3.9045263669
 20
6.1536158432
 11
3.9012417247
 21
6.1569004855
  0
LINE
  5
2AA
100
AcDbEntity
  8
0
100
AcDbLine
 62
7
  6
CONTINUOUS
 10
4.1637365052
 20
5.8979412389
 11
4.1439230686
 21
5.9177546754
  0
LINE
  5
2AB
100
AcDbEntity
  8
0
100
AcDbLine
 62
7
  6
CONTINUOUS
 10
4.1405265905
 20
5.9211511535
 11
4.120713154
 21
5.9409645901
  0
LINE
  5
2AC
100
AcDbEntity
  8
0
100
AcDbLine
 62
7
  6
CONTINUOUS
 10
4.0771159245
 20
5.9845618196
 11
4.0573024879
 21
6.0043752561
  0
LINE
  5
2AD
100
AcDbEntity
  8
0
100
AcDbLine
 62
7
  6
CONTINUOUS
 10
3.9904953438
 20
6.0711824003
 11
3.9706819072
 21
6.0909958368
  0
LINE
  5
2AE
100
AcDbEntity
  8
0
100
AcDbLine
 62
7
  6
CONTINUOUS
 10
3.9038747631
 20
6.157802981
 11
3.8840613265
 21
6.1776164175
  0
LINE
  5
2AF
100
AcDbEntity
  8
0
100
AcDbLine
 62
7
  6
CONTINUOUS
 10
3.840464097
 20
6.221213647
 11
3.8206506605
 21
6.2410270836
  0
LINE
  5
2B0
100
AcDbEntity
  8
0
100
AcDbLine
 62
7
  6
CONTINUOUS
 10
3.8172541824
 20
6.2444235617
 11
3.7974407458
 21
6.2642369982
  0
LINE
  5
2B1
100
AcDbEntity
  8
0
100
AcDbLine
 62
7
  6
CONTINUOUS
 10
4.2352855962
 20
5.8303243153
 11
4.2207609653
 21
5.8448489463
  0
LINE
  5
2B2
100
AcDbEntity
  8
0
100
AcDbLine
 62
7
  6
CONTINUOUS
 10
4.2056784851
 20
5.8599314265
 11
4.1911535006
 21
5.874456411
  0
LINE
  5
2B3
100
AcDbEntity
  8
0
100
AcDbLine
 62
7
  6
CONTINUOUS
 10
4.1500353174
 20
5.9155745942
 11
4.1355103329
 21
5.9300995787
  0
LINE
  5
2B4
100
AcDbEntity
  8
0
100
AcDbLine
 62
7
  6
CONTINUOUS
 10
4.0750674803
 20
5.9905424312
 11
4.0605424958
 21
6.0050674157
  0
LINE
  5
2B5
100
AcDbEntity
  8
0
100
AcDbLine
 62
7
  6
CONTINUOUS
 10
3.9898172015
 20
6.07579271
 11
3.975292217
 21
6.0903176945
  0
LINE
  5
2B6
100
AcDbEntity
  8
0
100
AcDbLine
 62
7
  6
CONTINUOUS
 10
3.9045669227
 20
6.1610429889
 11
3.8900419382
 21
6.1755679734
  0
LINE
  5
2B7
100
AcDbEntity
  8
0
100
AcDbLine
 62
7
  6
CONTINUOUS
 10
3.8295990856
 20
6.2360108259
 11
3.8150741011
 21
6.2505358104
  0
LINE
  5
2B8
100
AcDbEntity
  8
0
100
AcDbLine
 62
7
  6
CONTINUOUS
 10
3.7739559179
 20
6.2916539936
 11
3.759431287
 21
6.3061786246
  0
LINE
  5
2B9
100
AcDbEntity
  8
0
100
AcDbLine
 62
7
  6
CONTINUOUS
 10
3.7443488068
 20
6.3212611048
 11
3.7298238223
 21
6.3357860893
  0
LINE
  5
2BA
100
AcDbEntity
  8
0
100
AcDbLine
 62
7
  6
CONTINUOUS
 10
3.9928747517
 20
6.0729831326
 11
4.0153823843
 21
6.0504755
  0
LINE
  5
2BB
100
AcDbEntity
  8
0
100
AcDbLine
 62
7
  6
CONTINUOUS
 10
3.9724826396
 20
6.0933752447
 11
3.949975007
 21
6.1158828773
  0
LINE
  5
2BC
100
AcDbEntity
  8
0
100
AcDbLine
 62
7
  6
CONTINUOUS
 10
3.9092828846
 20
6.1577086608
 11
3.9730069578
 21
6.0939845875
  0
LINE
  5
2BD
100
AcDbEntity
  8
0
100
AcDbLine
 62
7
  6
CONTINUOUS
 10
3.9934840945
 20
6.0735074509
 11
4.0572081677
 21
6.0097833776
  0
LINE
  5
2BE
100
AcDbEntity
  8
0
100
AcDbLine
 62
7
  6
CONTINUOUS
 10
3.9093146223
 20
6.15773597
 11
3.973034267
 21
6.0940163252
  0
LINE
  5
2BF
100
AcDbEntity
  8
0
100
AcDbLine
 62
7
  6
CONTINUOUS
 10
3.9935158322
 20
6.07353476
 11
4.0572354769
 21
6.0098151153
  0
LINE
  5
2C0
100
AcDbEntity
  8
0
100
AcDbLine
 62
7
  6
CONTINUOUS
 10
4.0927005164
 20
5.9756530122
 11
4.0807041586
 21
5.9876493699
  0
LINE
  5
2C1
100
AcDbEntity
  8
0
100
AcDbLine
 62
7
  6
CONTINUOUS
 10
4.0595921151
 20
6.0087614134
 11
3.9940835779
 21
6.0742699506
  0
LINE
  5
2C2
100
AcDbEntity
  8
0
100
AcDbLine
 62
7
  6
CONTINUOUS
 10
3.9737694576
 20
6.094584071
 11
3.9082609204
 21
6.1600926082
  0
LINE
  5
2C3
100
AcDbEntity
  8
0
100
AcDbLine
 62
7
  6
CONTINUOUS
 10
3.8871488769
 20
6.1812046517
 11
3.8751525192
 21
6.1932010094
  0
LINE
  5
2C4
100
AcDbEntity
  8
0
100
AcDbLine
 62
7
  6
CONTINUOUS
 10
4.2403831559
 20
5.830133423
 11
4.2205697193
 21
5.8499468595
  0
LINE
  5
2C5
100
AcDbEntity
  8
0
100
AcDbLine
 62
7
  6
CONTINUOUS
 10
4.2107760447
 20
5.8597405341
 11
4.1909626082
 21
5.8795539706
  0
LINE
  5
2C6
100
AcDbEntity
  8
0
100
AcDbLine
 62
7
  6
CONTINUOUS
 10
4.155132877
 20
5.9153837018
 11
4.1353194405
 21
5.9351971383
  0
LINE
  5
2C7
100
AcDbEntity
  8
0
100
AcDbLine
 62
7
  6
CONTINUOUS
 10
4.08016504
 20
5.9903515388
 11
4.0603516034
 21
6.0101649754
  0
LINE
  5
2C8
100
AcDbEntity
  8
0
100
AcDbLine
 62
7
  6
CONTINUOUS
 10
3.9949147611
 20
6.0756018177
 11
3.9751013246
 21
6.0954152542
  0
LINE
  5
2C9
100
AcDbEntity
  8
0
100
AcDbLine
 62
7
  6
CONTINUOUS
 10
3.9096644823
 20
6.1608520965
 11
3.8898510458
 21
6.180665533
  0
LINE
  5
2CA
100
AcDbEntity
  8
0
100
AcDbLine
 62
7
  6
CONTINUOUS
 10
3.8346966453
 20
6.2358199335
 11
3.8148832087
 21
6.2556333701
  0
LINE
  5
2CB
100
AcDbEntity
  8
0
100
AcDbLine
 62
7
  6
CONTINUOUS
 10
3.7790534776
 20
6.2914631012
 11
3.759240041
 21
6.3112765378
  0
LINE
  5
2CC
100
AcDbEntity
  8
0
100
AcDbLine
 62
7
  6
CONTINUOUS
 10
3.7494463664
 20
6.3210702124
 11
3.7296329299
 21
6.3408836489
  0
LINE
  5
2CD
100
AcDbEntity
  8
0
100
AcDbLine
 62
7
  6
CONTINUOUS
 10
3.8457909833
 20
6.2257972468
 11
3.8886449263
 21
6.1829433038
  0
LINE
  5
2CE
100
AcDbEntity
  8
0
100
AcDbLine
 62
7
  6
CONTINUOUS
 10
3.9102404949
 20
6.1613477352
 11
3.975265507
 21
6.0963227231
  0
LINE
  5
2CF
100
AcDbEntity
  8
0
100
AcDbLine
 62
7
  6
CONTINUOUS
 10
3.99582223
 20
6.0757660001
 11
4.0608472422
 21
6.0107409879
  0
LINE
  5
2D0
100
AcDbEntity
  8
0
100
AcDbLine
 62
7
  6
CONTINUOUS
 10
4.0824428107
 20
5.9891454194
 11
4.1252967538
 21
5.9462914763
  0
LINE
  5
2D1
100
AcDbEntity
  8
0
100
AcDbLine
 62
7
  6
CONTINUOUS
 10
3.8466840215
 20
6.2251597041
 11
3.888763093
 21
6.1830806325
  0
LINE
  5
2D2
100
AcDbEntity
  8
0
100
AcDbLine
 62
7
  6
CONTINUOUS
 10
3.9103778237
 20
6.1614659019
 11
3.9753836737
 21
6.0964600519
  0
LINE
  5
2D3
100
AcDbEntity
  8
0
100
AcDbLine
 62
7
  6
CONTINUOUS
 10
3.9959595588
 20
6.0758841667
 11
4.0609654088
 21
6.0108783167
  0
LINE
  5
2D4
100
AcDbEntity
  8
0
100
AcDbLine
 62
7
  6
CONTINUOUS
 10
4.0825801395
 20
5.989263586
 11
4.124659211
 21
5.9471845145
  0
LINE
  5
2D5
100
AcDbEntity
  8
0
100
AcDbLine
 62
7
  6
CONTINUOUS
 10
4.1709514063
 20
5.902550095
 11
4.1567372728
 21
5.9167642284
  0
LINE
  5
2D6
100
AcDbEntity
  8
0
100
AcDbLine
 62
7
  6
CONTINUOUS
 10
4.1366999671
 20
5.9368015341
 11
4.0817694358
 21
5.9917320655
  0
LINE
  5
2D7
100
AcDbEntity
  8
0
100
AcDbLine
 62
7
  6
CONTINUOUS
 10
4.0617321301
 20
6.0117693712
 11
3.996519157
 21
6.0769823443
  0
LINE
  5
2D8
100
AcDbEntity
  8
0
100
AcDbLine
 62
7
  6
CONTINUOUS
 10
3.9764818513
 20
6.09701965
 11
3.9112688781
 21
6.1622326231
  0
LINE
  5
2D9
100
AcDbEntity
  8
0
100
AcDbLine
 62
7
  6
CONTINUOUS
 10
3.8912315724
 20
6.1822699288
 11
3.8363010411
 21
6.2372004602
  0
LINE
  5
2DA
100
AcDbEntity
  8
0
100
AcDbLine
 62
7
  6
CONTINUOUS
 10
3.8162637354
 20
6.2572377659
 11
3.8020496019
 21
6.2714518994
  0
LINE
  5
2DB
100
AcDbEntity
  8
0
100
AcDbLine
 62
7
  6
CONTINUOUS
 10
4.3203896217
 20
5.7558268916
 11
4.2947813607
 21
5.7814351525
  0
LINE
  5
2DC
100
AcDbEntity
  8
0
100
AcDbLine
 62
7
  6
CONTINUOUS
 10
4.2768118228
 20
5.7994046905
 11
4.2622868383
 21
5.813929675
  0
LINE
  5
2DD
100
AcDbEntity
  8
0
100
AcDbLine
 62
7
  6
CONTINUOUS
 10
4.2251205024
 20
5.8510960109
 11
4.2105955179
 21
5.8656209954
  0
LINE
  5
2DE
100
AcDbEntity
  8
0
100
AcDbLine
 62
7
  6
CONTINUOUS
 10
4.157755062
 20
5.9184614512
 11
4.1432300775
 21
5.9329864357
  0
LINE
  5
2DF
100
AcDbEntity
  8
0
100
AcDbLine
 62
7
  6
CONTINUOUS
 10
4.0793063452
 20
5.996910168
 11
4.0647813607
 21
6.0114351525
  0
LINE
  5
2E0
100
AcDbEntity
  8
0
100
AcDbLine
 62
7
  6
CONTINUOUS
 10
3.9951205024
 20
6.0810960109
 11
3.9805955179
 21
6.0956209954
  0
LINE
  5
2E1
100
AcDbEntity
  8
0
100
AcDbLine
 62
7
  6
CONTINUOUS
 10
3.9109346595
 20
6.1652818538
 11
3.896409675
 21
6.1798068383
  0
LINE
  5
2E2
100
AcDbEntity
  8
0
100
AcDbLine
 62
7
  6
CONTINUOUS
 10
3.8324859427
 20
6.2437305706
 11
3.8179609582
 21
6.2582555551
  0
LINE
  5
2E3
100
AcDbEntity
  8
0
100
AcDbLine
 62
7
  6
CONTINUOUS
 10
3.7651205024
 20
6.3110960109
 11
3.7505955179
 21
6.3256209954
  0
LINE
  5
2E4
100
AcDbEntity
  8
0
100
AcDbLine
 62
7
  6
CONTINUOUS
 10
3.7134291819
 20
6.3627873313
 11
3.6989041974
 21
6.3773123158
  0
LINE
  5
2E5
100
AcDbEntity
  8
0
100
AcDbLine
 62
7
  6
CONTINUOUS
 10
3.6809346595
 20
6.3952818538
 11
3.6553263985
 21
6.4208901147
  0
LINE
  5
2E6
100
AcDbEntity
  8
0
100
AcDbLine
 62
7
  6
CONTINUOUS
 10
3.7832813238
 20
6.2951010155
 11
3.8169062835
 21
6.2614760559
  0
LINE
  5
2E7
100
AcDbEntity
  8
0
100
AcDbLine
 62
7
  6
CONTINUOUS
 10
3.8389244915
 20
6.2394578478
 11
3.89348896
 21
6.1848933793
  0
LINE
  5
2E8
100
AcDbEntity
  8
0
100
AcDbLine
 62
7
  6
CONTINUOUS
 10
3.9141551603
 20
6.164227179
 11
3.9787392389
 21
6.0996431005
  0
LINE
  5
2E9
100
AcDbEntity
  8
0
100
AcDbLine
 62
7
  6
CONTINUOUS
 10
3.9991426074
 20
6.0792397319
 11
4.063726686
 21
6.0146556533
  0
LINE
  5
2EA
100
AcDbEntity
  8
0
100
AcDbLine
 62
7
  6
CONTINUOUS
 10
4.0843928863
 20
5.9939894531
 11
4.1389573547
 21
5.9394249846
  0
LINE
  5
2EB
100
AcDbEntity
  8
0
100
AcDbLine
 62
7
  6
CONTINUOUS
 10
4.1609755628
 20
5.9174067765
 11
4.1946005224
 21
5.8837818169
  0
LINE
  5
2EC
100
AcDbEntity
  8
0
100
AcDbLine
 62
7
  6
CONTINUOUS
 10
3.7844011106
 20
6.2945270839
 11
3.817003566
 21
6.2619246285
  0
LINE
  5
2ED
100
AcDbEntity
  8
0
100
AcDbLine
 62
7
  6
CONTINUOUS
 10
3.8392595371
 20
6.2396686575
 11
3.8937414181
 21
6.1851867765
  0
LINE
  5
2EE
100
AcDbEntity
  8
0
100
AcDbLine
 62
7
  6
CONTINUOUS
 10
3.9146037329
 20
6.1643244616
 11
3.9789916969
 21
6.0999364977
  0
LINE
  5
2EF
100
AcDbEntity
  8
0
100
AcDbLine
 62
7
  6
CONTINUOUS
 10
3.9994360046
 20
6.07949219
 11
4.0638239686
 21
6.015104226
  0
LINE
  5
2F0
100
AcDbEntity
  8
0
100
AcDbLine
 62
7
  6
CONTINUOUS
 10
4.0846862835
 20
5.9942419111
 11
4.1391681644
 21
5.9397600301
  0
LINE
  5
2F1
100
AcDbEntity
  8
0
100
AcDbLine
 62
7
  6
CONTINUOUS
 10
4.1614241355
 20
5.9175040591
 11
4.1940265909
 21
5.8849016037
  0
LINE
  5
2F2
100
AcDbEntity
  8
0
100
AcDbLine
 62
7
  6
CONTINUOUS
 10
4.3254871813
 20
5.7556359992
 11
4.2945904683
 21
5.7865327122
  0
LINE
  5
2F3
100
AcDbEntity
  8
0
100
AcDbLine
 62
7
  6
CONTINUOUS
 10
4.2819093824
 20
5.7992137981
 11
4.2620959459
 21
5.8190272346
  0
LINE
  5
2F4
100
AcDbEntity
  8
0
100
AcDbLine
 62
7
  6
CONTINUOUS
 10
4.230218062
 20
5.8509051185
 11
4.2104046255
 21
5.8707185551
  0
LINE
  5
2F5
100
AcDbEntity
  8
0
100
AcDbLine
 62
7
  6
CONTINUOUS
 10
4.1628526217
 20
5.9182705589
 11
4.1430391851
 21
5.9380839954
  0
LINE
  5
2F6
100
AcDbEntity
  8
0
100
AcDbLine
 62
7
  6
CONTINUOUS
 10
4.0844039049
 20
5.9967192757
 11
4.0645904683
 21
6.0165327122
  0
LINE
  5
2F7
100
AcDbEntity
  8
0
100
AcDbLine
 62
7
  6
CONTINUOUS
 10
4.000218062
 20
6.0809051185
 11
3.9804046255
 21
6.1007185551
  0
LINE
  5
2F8
100
AcDbEntity
  8
0
100
AcDbLine
 62
7
  6
CONTINUOUS
 10
3.9160322191
 20
6.1650909614
 11
3.8962187826
 21
6.1849043979
  0
LINE
  5
2F9
100
AcDbEntity
  8
0
100
AcDbLine
 62
7
  6
CONTINUOUS
 10
3.8375835023
 20
6.2435396782
 11
3.8177700658
 21
6.2633531147
  0
LINE
  5
2FA
100
AcDbEntity
  8
0
100
AcDbLine
 62
7
  6
CONTINUOUS
 10
3.770218062
 20
6.3109051185
 11
3.7504046255
 21
6.3307185551
  0
LINE
  5
2FB
100
AcDbEntity
  8
0
100
AcDbLine
 62
7
  6
CONTINUOUS
 10
3.7185267416
 20
6.3625964389
 11
3.6987133051
 21
6.3824098755
  0
LINE
  5
2FC
100
AcDbEntity
  8
0
100
AcDbLine
 62
7
  6
CONTINUOUS
 10
3.6860322191
 20
6.3950909614
 11
3.6551355061
 21
6.4259876744
  0
LINE
  5
2FD
100
AcDbEntity
  8
0
100
AcDbLine
 62
7
  6
CONTINUOUS
 10
4.2505428842
 20
5.8307707181
 11
4.2469234235
 21
5.8343901788
  0
LINE
  5
2FE
100
AcDbEntity
  8
0
100
AcDbLine
 62
7
  6
CONTINUOUS
 10
4.2462437338
 20
5.8350698684
 11
4.2303204137
 21
5.8509931886
  0
LINE
  5
2FF
100
AcDbEntity
  8
0
100
AcDbLine
 62
7
  6
CONTINUOUS
 10
4.2104926955
 20
5.8708209067
 11
4.1629549734
 21
5.9183586289
  0
LINE
  5
300
100
AcDbEntity
  8
0
100
AcDbLine
 62
7
  6
CONTINUOUS
 10
4.1431272552
 20
5.9381863471
 11
4.0845062566
 21
5.9968073457
  0
LINE
  5
301
100
AcDbEntity
  8
0
100
AcDbLine
 62
7
  6
CONTINUOUS
 10
4.0646785384
 20
6.0166350639
 11
4.0003204137
 21
6.0809931886
  0
LINE
  5
302
100
AcDbEntity
  8
0
100
AcDbLine
 62
7
  6
CONTINUOUS
 10
3.9804926955
 20
6.1008209067
 11
3.9161345708
 21
6.1651790314
  0
LINE
  5
303
100
AcDbEntity
  8
0
100
AcDbLine
 62
7
  6
CONTINUOUS
 10
3.8963068527
 20
6.1850067496
 11
3.837685854
 21
6.2436277482
  0
LINE
  5
304
100
AcDbEntity
  8
0
100
AcDbLine
 62
7
  6
CONTINUOUS
 10
3.8178581359
 20
6.2634554664
 11
3.7703204137
 21
6.3109931886
  0
LINE
  5
305
100
AcDbEntity
  8
0
100
AcDbLine
 62
7
  6
CONTINUOUS
 10
3.7504926955
 20
6.3308209067
 11
3.7345693754
 21
6.3467442269
  0
LINE
  5
306
100
AcDbEntity
  8
0
100
AcDbLine
 62
7
  6
CONTINUOUS
 10
3.7338896857
 20
6.3474239165
 11
3.730270225
 21
6.3510433772
  0
LINE
  5
307
100
AcDbEntity
  8
0
100
AcDbLine
 62
7
  6
CONTINUOUS
 10
3.6913436618
 20
6.3963877247
 11
3.7017696003
 21
6.3859617862
  0
LINE
  5
308
100
AcDbEntity
  8
0
100
AcDbLine
 62
7
  6
CONTINUOUS
 10
3.7220786523
 20
6.3656527342
 11
3.7534609207
 21
6.3342704657
  0
LINE
  5
309
100
AcDbEntity
  8
0
100
AcDbLine
 62
7
  6
CONTINUOUS
 10
3.7737699727
 20
6.3139614138
 11
3.820826361
 21
6.2669050254
  0
LINE
  5
30A
100
AcDbEntity
  8
0
100
AcDbLine
 62
7
  6
CONTINUOUS
 10
3.841135413
 20
6.2465959734
 11
3.8992750779
 21
6.1884563086
  0
LINE
  5
30B
100
AcDbEntity
  8
0
100
AcDbLine
 62
7
  6
CONTINUOUS
 10
3.9195841298
 20
6.1681472566
 11
3.9834609207
 21
6.1042704657
  0
LINE
  5
30C
100
AcDbEntity
  8
0
100
AcDbLine
 62
7
  6
CONTINUOUS
 10
4.0037699727
 20
6.0839614138
 11
4.0676467636
 21
6.0200846229
  0
LINE
  5
30D
100
AcDbEntity
  8
0
100
AcDbLine
 62
7
  6
CONTINUOUS
 10
4.0879558156
 20
5.9997755709
 11
4.1460954804
 21
5.9416359061
  0
LINE
  5
30E
100
AcDbEntity
  8
0
100
AcDbLine
 62
7
  6
CONTINUOUS
 10
4.1664045324
 20
5.9213268541
 11
4.2134609207
 21
5.8742704657
  0
LINE
  5
30F
100
AcDbEntity
  8
0
100
AcDbLine
 62
7
  6
CONTINUOUS
 10
4.2337699727
 20
5.8539614138
 11
4.2651522411
 21
5.8225791453
  0
LINE
  5
310
100
AcDbEntity
  8
0
100
AcDbLine
 62
7
  6
CONTINUOUS
 10
4.2854612931
 20
5.8022700934
 11
4.2959076944
 21
5.791823692
  0
LINE
  5
311
100
AcDbEntity
  8
0
100
AcDbLine
 62
7
  6
CONTINUOUS
 10
4.4003925142
 20
5.6881983677
 11
4.3858675297
 21
5.7027233522
  0
LINE
  5
312
100
AcDbEntity
  8
0
100
AcDbLine
 62
7
  6
CONTINUOUS
 10
4.3829505922
 20
5.7056402897
 11
4.3684259613
 21
5.7201649206
  0
LINE
  5
313
100
AcDbEntity
  8
0
100
AcDbLine
 62
7
  6
CONTINUOUS
 10
4.3488290439
 20
5.739761838
 11
4.334304413
 21
5.7542864689
  0
LINE
  5
314
100
AcDbEntity
  8
0
100
AcDbLine
 62
7
  6
CONTINUOUS
 10
4.2995191448
 20
5.7890717372
 11
4.2849945138
 21
5.8035963681
  0
LINE
  5
315
100
AcDbEntity
  8
0
100
AcDbLine
 62
7
  6
CONTINUOUS
 10
4.2371759739
 20
5.8514149081
 11
4.2226513429
 21
5.865939539
  0
LINE
  5
316
100
AcDbEntity
  8
0
100
AcDbLine
 62
7
  6
CONTINUOUS
 10
4.164524227
 20
5.9240666549
 11
4.1499995961
 21
5.9385912858
  0
LINE
  5
317
100
AcDbEntity
  8
0
100
AcDbLine
 62
7
  6
CONTINUOUS
 10
4.0847391342
 20
6.0038517478
 11
4.0702141497
 21
6.0183767323
  0
LINE
  5
318
100
AcDbEntity
  8
0
100
AcDbLine
 62
7
  6
CONTINUOUS
 10
4.0013076867
 20
6.0872831952
 11
3.9867827022
 21
6.1018081797
  0
LINE
  5
319
100
AcDbEntity
  8
0
100
AcDbLine
 62
7
  6
CONTINUOUS
 10
3.9178762392
 20
6.1707146427
 11
3.9033512547
 21
6.1852396272
  0
LINE
  5
31A
100
AcDbEntity
  8
0
100
AcDbLine
 62
7
  6
CONTINUOUS
 10
3.8380911464
 20
6.2504997356
 11
3.8235661619
 21
6.2650247201
  0
LINE
  5
31B
100
AcDbEntity
  8
0
100
AcDbLine
 62
7
  6
CONTINUOUS
 10
3.7654393995
 20
6.3231514824
 11
3.750914415
 21
6.3376764669
  0
LINE
  5
31C
100
AcDbEntity
  8
0
100
AcDbLine
 62
7
  6
CONTINUOUS
 10
3.7030962286
 20
6.3854946533
 11
3.6885715977
 21
6.4000192842
  0
LINE
  5
31D
100
AcDbEntity
  8
0
100
AcDbLine
 62
7
  6
CONTINUOUS
 10
3.6537863294
 20
6.4348045525
 11
3.6392616985
 21
6.4493291834
  0
LINE
  5
31E
100
AcDbEntity
  8
0
100
AcDbLine
 62
7
  6
CONTINUOUS
 10
3.6196647812
 20
6.4689261008
 11
3.6051401502
 21
6.4834507317
  0
LINE
  5
31F
100
AcDbEntity
  8
0
100
AcDbLine
 62
7
  6
CONTINUOUS
 10
3.6022228592
 20
6.4863680228
 11
3.5876982282
 21
6.5008926537
  0
LINE
  5
320
100
AcDbEntity
  8
0
100
AcDbLine
 62
7
  6
CONTINUOUS
 10
3.723385716
 20
6.3652910759
 11
3.7504828006
 21
6.3381939913
  0
LINE
  5
321
100
AcDbEntity
  8
0
100
AcDbLine
 62
7
  6
CONTINUOUS
 10
3.774405839
 20
6.3142709529
 11
3.8212636111
 21
6.2674131809
  0
LINE
  5
322
100
AcDbEntity
  8
0
100
AcDbLine
 62
7
  6
CONTINUOUS
 10
3.8416435685
 20
6.2470332235
 11
3.8997123279
 21
6.1889644641
  0
LINE
  5
323
100
AcDbEntity
  8
0
100
AcDbLine
 62
7
  6
CONTINUOUS
 10
3.9200922853
 20
6.1685845067
 11
3.9838981707
 21
6.1047786212
  0
LINE
  5
324
100
AcDbEntity
  8
0
100
AcDbLine
 62
7
  6
CONTINUOUS
 10
4.0042781281
 20
6.0843986638
 11
4.0680840136
 21
6.0205927783
  0
LINE
  5
325
100
AcDbEntity
  8
0
100
AcDbLine
 62
7
  6
CONTINUOUS
 10
4.088463971
 20
6.0002128209
 11
4.1465327304
 21
5.9421440615
  0
LINE
  5
326
100
AcDbEntity
  8
0
100
AcDbLine
 62
7
  6
CONTINUOUS
 10
4.1669126878
 20
5.9217641041
 11
4.2137704599
 21
5.8749063321
  0
LINE
  5
327
100
AcDbEntity
  8
0
100
AcDbLine
 62
7
  6
CONTINUOUS
 10
4.2376934983
 20
5.8509832936
 11
4.2647905829
 21
5.823886209
  0
LINE
  5
328
100
AcDbEntity
  8
0
100
AcDbLine
 62
7
  6
CONTINUOUS
 10
4.3314628691
 20
5.7603351267
 11
4.3208831377
 21
5.7709148581
  0
LINE
  5
329
100
AcDbEntity
  8
0
100
AcDbLine
 62
7
  6
CONTINUOUS
 10
4.3191668319
 20
5.7726311639
 11
4.3035582402
 21
5.7882397556
  0
LINE
  5
32A
100
AcDbEntity
  8
0
100
AcDbLine
 62
7
  6
CONTINUOUS
 10
4.2841621787
 20
5.8076358171
 11
4.2412150693
 21
5.8505829265
  0
LINE
  5
32B
100
AcDbEntity
  8
0
100
AcDbLine
 62
7
  6
CONTINUOUS
 10
4.2218190078
 20
5.869978988
 11
4.1685633225
 21
5.9232346734
  0
LINE
  5
32C
100
AcDbEntity
  8
0
100
AcDbLine
 62
7
  6
CONTINUOUS
 10
4.149167261
 20
5.9426307348
 11
4.0887782296
 21
6.0030197662
  0
LINE
  5
32D
100
AcDbEntity
  8
0
100
AcDbLine
 62
7
  6
CONTINUOUS
 10
4.0693821681
 20
6.0224158277
 11
4.0053467821
 21
6.0864512137
  0
LINE
  5
32E
100
AcDbEntity
  8
0
100
AcDbLine
 62
7
  6
CONTINUOUS
 10
3.9859507206
 20
6.1058472752
 11
3.9219153347
 21
6.1698826612
  0
LINE
  5
32F
100
AcDbEntity
  8
0
100
AcDbLine
 62
7
  6
CONTINUOUS
 10
3.9025192732
 20
6.1892787226
 11
3.8421302418
 21
6.249667754
  0
LINE
  5
330
100
AcDbEntity
  8
0
100
AcDbLine
 62
7
  6
CONTINUOUS
 10
3.8227341803
 20
6.2690638155
 11
3.7694784949
 21
6.3223195009
  0
LINE
  5
331
100
AcDbEntity
  8
0
100
AcDbLine
 62
7
  6
CONTINUOUS
 10
3.7500824335
 20
6.3417155624
 11
3.707135324
 21
6.3846626718
  0
LINE
  5
332
100
AcDbEntity
  8
0
100
AcDbLine
 62
7
  6
CONTINUOUS
 10
3.6877392626
 20
6.4040587332
 11
3.6721306709
 21
6.4196673249
  0
LINE
  5
333
100
AcDbEntity
  8
0
100
AcDbLine
 62
7
  6
CONTINUOUS
 10
3.6704143651
 20
6.4213836308
 11
3.6598346337
 21
6.4319633621
  0
LINE
  5
334
100
AcDbEntity
  8
0
100
AcDbLine
 62
7
  6
CONTINUOUS
 10
4.4054900739
 20
5.6880074753
 11
4.3682347153
 21
5.7252628338
  0
LINE
  5
335
100
AcDbEntity
  8
0
100
AcDbLine
 62
7
  6
CONTINUOUS
 10
4.3539266036
 20
5.7395709456
 11
4.3341131671
 21
5.7593843821
  0
LINE
  5
336
100
AcDbEntity
  8
0
100
AcDbLine
 62
7
  6
CONTINUOUS
 10
4.3046167044
 20
5.7888808448
 11
4.2848032679
 21
5.8086942813
  0
LINE
  5
337
100
AcDbEntity
  8
0
100
AcDbLine
 62
7
  6
CONTINUOUS
 10
4.2422735335
 20
5.8512240157
 11
4.222460097
 21
5.8710374522
  0
LINE
  5
338
100
AcDbEntity
  8
0
100
AcDbLine
 62
7
  6
CONTINUOUS
 10
4.1696217867
 20
5.9238757625
 11
4.1498083501
 21
5.9436891991
  0
LINE
  5
339
100
AcDbEntity
  8
0
100
AcDbLine
 62
7
  6
CONTINUOUS
 10
4.0898366938
 20
6.0036608554
 11
4.0700232573
 21
6.0234742919
  0
LINE
  5
33A
100
AcDbEntity
  8
0
100
AcDbLine
 62
7
  6
CONTINUOUS
 10
4.0064052463
 20
6.0870923029
 11
3.9865918098
 21
6.1069057394
  0
LINE
  5
33B
100
AcDbEntity
  8
0
100
AcDbLine
 62
7
  6
CONTINUOUS
 10
3.9229737989
 20
6.1705237503
 11
3.9031603623
 21
6.1903371869
  0
LINE
  5
33C
100
AcDbEntity
  8
0
100
AcDbLine
 62
7
  6
CONTINUOUS
 10
3.843188706
 20
6.2503088432
 11
3.8233752695
 21
6.2701222797
  0
LINE
  5
33D
100
AcDbEntity
  8
0
100
AcDbLine
 62
7
  6
CONTINUOUS
 10
3.7705369591
 20
6.32296059
 11
3.7507235226
 21
6.3427740266
  0
LINE
  5
33E
100
AcDbEntity
  8
0
100
AcDbLine
 62
7
  6
CONTINUOUS
 10
3.7081937883
 20
6.3853037609
 11
3.6883803517
 21
6.4051171975
  0
LINE
  5
33F
100
AcDbEntity
  8
0
100
AcDbLine
 62
7
  6
CONTINUOUS
 10
3.6588838891
 20
6.4346136601
 11
3.6390704526
 21
6.4544270966
  0
LINE
  5
340
100
AcDbEntity
  8
0
100
AcDbLine
 62
7
  6
CONTINUOUS
 10
3.6247623408
 20
6.4687352084
 11
3.5875069823
 21
6.5059905669
  0
LINE
  5
341
100
AcDbEntity
  8
0
100
AcDbLine
 62
7
  6
CONTINUOUS
 10
4.3595578899
 20
5.7395212337
 11
4.3569266999
 21
5.7421524238
  0
LINE
  5
342
100
AcDbEntity
  8
0
100
AcDbLine
 62
7
  6
CONTINUOUS
 10
4.3366946453
 20
5.7623844784
 11
4.3076168007
 21
5.791462323
  0
LINE
  5
343
100
AcDbEntity
  8
0
100
AcDbLine
 62
7
  6
CONTINUOUS
 10
4.2873847461
 20
5.8116943776
 11
4.2452736298
 21
5.8538054939
  0
LINE
  5
344
100
AcDbEntity
  8
0
100
AcDbLine
 62
7
  6
CONTINUOUS
 10
4.2250415752
 20
5.8740375485
 11
4.1726218829
 21
5.9264572407
  0
LINE
  5
345
100
AcDbEntity
  8
0
100
AcDbLine
 62
7
  6
CONTINUOUS
 10
4.1523898283
 20
5.9466892953
 11
4.0928367901
 21
6.0062423336
  0
LINE
  5
346
100
AcDbEntity
  8
0
100
AcDbLine
 62
7
  6
CONTINUOUS
 10
4.0726047355
 20
6.0264743882
 11
4.0094053426
 21
6.089673781
  0
LINE
  5
347
100
AcDbEntity
  8
0
100
AcDbLine
 62
7
  6
CONTINUOUS
 10
3.989173288
 20
6.1099058357
 11
3.9259738951
 21
6.1731052285
  0
LINE
  5
348
100
AcDbEntity
  8
0
100
AcDbLine
 62
7
  6
CONTINUOUS
 10
3.9057418405
 20
6.1933372831
 11
3.8461888023
 21
6.2528903214
  0
LINE
  5
349
100
AcDbEntity
  8
0
100
AcDbLine
 62
7
  6
CONTINUOUS
 10
3.8259567477
 20
6.273122376
 11
3.7735370554
 21
6.3255420682
  0
LINE
  5
34A
100
AcDbEntity
  8
0
100
AcDbLine
 62
7
  6
CONTINUOUS
 10
3.7533050008
 20
6.3457741228
 11
3.7111938845
 21
6.3878852391
  0
LINE
  5
34B
100
AcDbEntity
  8
0
100
AcDbLine
 62
7
  6
CONTINUOUS
 10
3.6909618299
 20
6.4081172937
 11
3.6618839854
 21
6.4371951383
  0
LINE
  5
34C
100
AcDbEntity
  8
0
100
AcDbLine
 62
7
  6
CONTINUOUS
 10
3.6416519307
 20
6.4574271929
 11
3.6390207407
 21
6.460058383
  0
LINE
  5
34D
100
AcDbEntity
  8
0
100
AcDbLine
 62
7
  6
CONTINUOUS
 10
3.6280656287
 20
6.4715775724
 11
3.6419128166
 21
6.4577303846
  0
LINE
  5
34E
100
AcDbEntity
  8
0
100
AcDbLine
 62
7
  6
CONTINUOUS
 10
3.662187177
 20
6.4374560242
 11
3.6912227158
 21
6.4084204854
  0
LINE
  5
34F
100
AcDbEntity
  8
0
100
AcDbLine
 62
7
  6
CONTINUOUS
 10
3.7114970762
 20
6.388146125
 11
3.7535658867
 21
6.3460773145
  0
LINE
  5
350
100
AcDbEntity
  8
0
100
AcDbLine
 62
7
  6
CONTINUOUS
 10
3.7738402471
 20
6.3258029541
 11
3.8262176335
 21
6.2734255677
  0
LINE
  5
351
100
AcDbEntity
  8
0
100
AcDbLine
 62
7
  6
CONTINUOUS
 10
3.8464919939
 20
6.2531512072
 11
3.9060027264
 21
6.1936404748
  0
LINE
  5
352
100
AcDbEntity
  8
0
100
AcDbLine
 62
7
  6
CONTINUOUS
 10
3.9262770868
 20
6.1733661144
 11
3.9894341738
 21
6.1102090273
  0
LINE
  5
353
100
AcDbEntity
  8
0
100
AcDbLine
 62
7
  6
CONTINUOUS
 10
4.0097085343
 20
6.0899346669
 11
4.0728656213
 21
6.0267775799
  0
LINE
  5
354
100
AcDbEntity
  8
0
100
AcDbLine
 62
7
  6
CONTINUOUS
 10
4.0931399817
 20
6.0065032194
 11
4.1526507142
 21
5.946992487
  0
LINE
  5
355
100
AcDbEntity
  8
0
100
AcDbLine
 62
7
  6
CONTINUOUS
 10
4.1729250746
 20
5.9267181266
 11
4.225302461
 21
5.8743407401
  0
LINE
  5
356
100
AcDbEntity
  8
0
100
AcDbLine
 62
7
  6
CONTINUOUS
 10
4.2455768215
 20
5.8540663797
 11
4.2876456319
 21
5.8119975693
  0
LINE
  5
357
100
AcDbEntity
  8
0
100
AcDbLine
 62
7
  6
CONTINUOUS
 10
4.3079199923
 20
5.7917232088
 11
4.3369555311
 21
5.7626876701
  0
LINE
  5
358
100
AcDbEntity
  8
0
100
AcDbLine
 62
7
  6
CONTINUOUS
 10
4.3572298915
 20
5.7424133096
 11
4.3710770794
 21
5.7285661218
  0
LINE
  5
359
100
AcDbEntity
  8
0
100
AcDbLine
 62
7
  6
CONTINUOUS
 10
3.6297034752
 20
6.4713942067
 11
3.6425855139
 21
6.4585121679
  0
LINE
  5
35A
100
AcDbEntity
  8
0
100
AcDbLine
 62
7
  6
CONTINUOUS
 10
3.6636104954
 20
6.4374871864
 11
3.6918954131
 21
6.4092022688
  0
LINE
  5
35B
100
AcDbEntity
  8
0
100
AcDbLine
 62
7
  6
CONTINUOUS
 10
3.7122788596
 20
6.3888188223
 11
3.754238584
 21
6.3468590979
  0
LINE
  5
35C
100
AcDbEntity
  8
0
100
AcDbLine
 62
7
  6
CONTINUOUS
 10
3.7746220305
 20
6.3264756514
 11
3.8268903308
 21
6.274207351
  0
LINE
  5
35D
100
AcDbEntity
  8
0
100
AcDbLine
 62
7
  6
CONTINUOUS
 10
3.8472737773
 20
6.2538239045
 11
3.9066754237
 21
6.1944222582
  0
LINE
  5
35E
100
AcDbEntity
  8
0
100
AcDbLine
 62
7
  6
CONTINUOUS
 10
3.9270588702
 20
6.1740388117
 11
3.9901068712
 21
6.1109908107
  0
LINE
  5
35F
100
AcDbEntity
  8
0
100
AcDbLine
 62
7
  6
CONTINUOUS
 10
4.0104903176
 20
6.0906073642
 11
4.0735383186
 21
6.0275593632
  0
LINE
  5
360
100
AcDbEntity
  8
0
100
AcDbLine
 62
7
  6
CONTINUOUS
 10
4.0939217651
 20
6.0071759167
 11
4.1533234115
 21
5.9477742704
  0
LINE
  5
361
100
AcDbEntity
  8
0
100
AcDbLine
 62
7
  6
CONTINUOUS
 10
4.173706858
 20
5.9273908239
 11
4.2259751584
 21
5.8751225235
  0
LINE
  5
362
100
AcDbEntity
  8
0
100
AcDbLine
 62
7
  6
CONTINUOUS
 10
4.2463586048
 20
5.854739077
 11
4.2883183292
 21
5.8127793526
  0
LINE
  5
363
100
AcDbEntity
  8
0
100
AcDbLine
 62
7
  6
CONTINUOUS
 10
4.3087017757
 20
5.7923959061
 11
4.3369866934
 21
5.7641109885
  0
LINE
  5
364
100
AcDbEntity
  8
0
100
AcDbLine
 62
7
  6
CONTINUOUS
 10
4.3580116749
 20
5.743086007
 11
4.3708937136
 21
5.7302039682
  0
LINE
  5
365
100
AcDbEntity
  8
0
100
AcDbLine
 62
7
  6
CONTINUOUS
 10
4.4429895475
 20
5.6672399037
 11
3.5667394107
 21
6.5434900405
  0
LINE
  5
366
100
AcDbEntity
  8
0
100
AcDbLine
 62
7
  6
CONTINUOUS
 10
4.4578504421
 20
5.656026726
 11
3.555526233
 21
6.5583509351
  0
LINE
  5
367
100
AcDbEntity
  8
0
100
AcDbLine
 62
7
  6
CONTINUOUS
 10
3.550914041
 20
6.5641879975
 11
4.4636875044
 21
5.6514145341
  0
LINE
  5
368
100
AcDbEntity
  8
0
100
AcDbLine
 62
7
  6
CONTINUOUS
 10
3.5401770952
 20
6.5761803722
 11
4.4756798791
 21
5.6406775882
  0
LINE
  5
369
100
AcDbEntity
  8
0
100
AcDbLine
 62
7
  6
CONTINUOUS
 10
4.4776865041
 20
5.6398100662
 11
3.5393095731
 21
6.5781869971
  0
LINE
  5
36A
100
AcDbEntity
  8
0
100
AcDbLine
 62
7
  6
CONTINUOUS
 10
4.5573979294
 20
5.6184514541
 11
3.5179509611
 21
6.6578984225
  0
LINE
  5
36B
100
AcDbEntity
  8
0
100
AcDbLine
 62
7
  6
CONTINUOUS
 10
4.5646423731
 20
5.620392597
 11
3.5198921039
 21
6.6651428662
  0
LINE
  5
36C
100
AcDbEntity
  8
0
100
AcDbLine
 62
7
  6
CONTINUOUS
 10
4.7199724299
 20
5.7757226538
 11
3.6752221607
 21
6.820472923
  0
LINE
  5
36D
100
AcDbEntity
  8
0
100
AcDbLine
 62
7
  6
CONTINUOUS
 10
4.7199724299
 20
5.7863292555
 11
3.6858287625
 21
6.820472923
  0
LINE
  5
36E
100
AcDbEntity
  8
0
100
AcDbLine
 62
7
  6
CONTINUOUS
 10
3.9501099219
 20
6.5667983652
 11
4.4662978722
 21
6.050610415
  0
LINE
  5
36F
100
AcDbEntity
  8
0
100
AcDbLine
 62
7
  6
CONTINUOUS
 10
5.7949155071
 20
2.3923043478
 11
5.7949155071
 21
3.2898043478
  0
LINE
  5
370
100
AcDbEntity
  8
0
100
AcDbLine
 62
7
  6
CONTINUOUS
 10
5.8024155071
 20
2.3848043478
 11
5.8024155071
 21
3.2973043478
  0
LINE
  5
371
100
AcDbEntity
  8
0
100
AcDbLine
 62
7
  6
CONTINUOUS
 10
4.5071332888
 20
6.0914458316
 11
3.9909453385
 21
6.6076337818
  0
LINE
  5
372
100
AcDbEntity
  8
0
100
AcDbLine
 62
7
  6
CONTINUOUS
 10
4.5071332888
 20
6.1020524333
 11
4.0015519403
 21
6.6076337818
  0
LINE
  5
373
100
AcDbEntity
  8
0
100
AcDbLine
 62
7
  6
CONTINUOUS
 10
4.1359022287
 20
6.4838900951
 11
4.3833896021
 21
6.2364027217
  0
LINE
  5
374
100
AcDbEntity
  8
0
100
AcDbLine
 62
7
  6
CONTINUOUS
 10
4.4090222229
 20
6.2620353425
 11
4.1615348495
 21
6.509522716
  0
LINE
  5
375
100
AcDbEntity
  8
0
100
AcDbLine
 62
7
  6
CONTINUOUS
 10
4.4090222229
 20
6.2691064104
 11
4.1686059173
 21
6.509522716
  0
LINE
  5
376
100
AcDbEntity
  8
0
100
AcDbLine
 62
7
  6
CONTINUOUS
 10
4.1686059173
 20
6.5165937838
 11
4.4160932907
 21
6.2691064104
  0
LINE
  5
377
100
AcDbEntity
  8
0
100
AcDbLine
 62
7
  6
CONTINUOUS
 10
4.3798200601
 20
6.3884646878
 11
4.2879641947
 21
6.4803205531
  0
LINE
  5
378
100
AcDbEntity
  8
0
100
AcDbLine
 62
7
  6
CONTINUOUS
 10
5.8999155071
 20
3.2973043478
 11
5.8999155071
 21
3.1614090936
  0
LINE
  5
379
100
AcDbEntity
  8
0
100
AcDbLine
 62
7
  6
CONTINUOUS
 10
5.8999155071
 20
3.108199602
 11
5.8999155071
 21
2.3848043478
  0
LINE
  5
37A
100
AcDbEntity
  8
0
100
AcDbLine
 62
7
  6
CONTINUOUS
 10
5.9074155071
 20
3.2898043478
 11
5.9074155071
 21
3.1614090936
  0
LINE
  5
37B
100
AcDbEntity
  8
0
100
AcDbLine
 62
7
  6
CONTINUOUS
 10
5.9074155071
 20
3.1081996017
 11
5.9074155071
 21
2.3923043478
  0
LINE
  5
37C
100
AcDbEntity
  8
0
100
AcDbLine
 62
7
  6
CONTINUOUS
 10
5.9224155071
 20
3.2160543478
 11
5.9224155071
 21
3.0535543478
  0
LINE
  5
37D
100
AcDbEntity
  8
0
100
AcDbLine
 62
7
  6
CONTINUOUS
 10
6.0449155071
 20
3.2160543478
 11
6.0449155071
 21
3.0535543478
  0
LINE
  5
37E
100
AcDbEntity
  8
0
100
AcDbLine
 62
7
  6
CONTINUOUS
 10
6.0524155071
 20
2.9748043478
 11
6.0524155071
 21
3.2948043478
  0
LINE
  5
37F
100
AcDbEntity
  8
0
100
AcDbLine
 62
7
  6
CONTINUOUS
 10
6.0599155071
 20
2.9673043478
 11
6.0599155071
 21
3.3023043478
  0
LINE
  5
380
100
AcDbEntity
  8
0
100
AcDbLine
 62
7
  6
CONTINUOUS
 10
4.5573979294
 20
5.6184514541
 11
4.4776865041
 21
5.6398100662
  0
LINE
  5
381
100
AcDbEntity
  8
0
100
AcDbLine
 62
7
  6
CONTINUOUS
 10
4.5195076575
 20
6.3725207771
 11
4.2720202841
 21
6.6200081505
  0
LINE
  5
382
100
AcDbEntity
  8
0
100
AcDbLine
 62
7
  6
CONTINUOUS
 10
4.4673007043
 20
6.4456063447
 11
4.3451058516
 21
6.5678011973
  0
LINE
  5
383
100
AcDbEntity
  8
0
100
AcDbLine
 62
7
  6
CONTINUOUS
 10
4.4873007022
 20
6.4656153647
 11
4.3651148716
 21
6.5878011953
  0
LINE
  5
384
100
AcDbEntity
  8
0
100
AcDbLine
 62
7
  6
CONTINUOUS
 10
4.3651148716
 20
6.6061302365
 11
4.5056297434
 21
6.4656153647
  0
LINE
  5
385
100
AcDbEntity
  8
0
100
AcDbLine
 62
7
  6
CONTINUOUS
 10
4.3819744451
 20
6.636270663
 11
4.53577017
 21
6.4824749381
  0
LINE
  5
386
100
AcDbEntity
  8
0
100
AcDbLine
 62
7
  6
CONTINUOUS
 10
4.4626532407
 20
6.6694812611
 11
4.4540801937
 21
6.6780543081
  0
LINE
  5
387
100
AcDbEntity
  8
0
100
AcDbLine
 62
7
  6
CONTINUOUS
 10
6.4514155071
 20
6.6930543478
 11
6.4514155071
 21
6.6780543478
  0
LINE
  5
388
100
AcDbEntity
  8
0
100
AcDbLine
 62
7
  6
CONTINUOUS
 10
6.4699155071
 20
2.8798043478
 11
6.4699155071
 21
3.3898043478
  0
LINE
  5
389
100
AcDbEntity
  8
0
100
AcDbLine
 62
7
  6
CONTINUOUS
 10
6.4714155071
 20
6.6580543478
 11
6.4714155071
 21
6.2915543478
  0
LINE
  5
38A
100
AcDbEntity
  8
0
100
AcDbLine
 62
7
  6
CONTINUOUS
 10
6.4774155071
 20
2.8723043478
 11
6.4774155071
 21
3.3973043478
  0
LINE
  5
38B
100
AcDbEntity
  8
0
100
AcDbLine
 62
7
  6
CONTINUOUS
 10
6.4864155071
 20
6.6580543478
 11
6.4864155071
 21
6.2915543478
  0
LINE
  5
38C
100
AcDbEntity
  8
0
100
AcDbLine
 62
7
  6
CONTINUOUS
 10
6.5574155071
 20
2.4548043478
 11
6.5574155071
 21
3.8148043478
  0
LINE
  5
38D
100
AcDbEntity
  8
0
100
AcDbLine
 62
7
  6
CONTINUOUS
 10
6.5649155071
 20
2.4473043478
 11
6.5649155071
 21
3.8223043478
  0
LINE
  5
38E
100
AcDbEntity
  8
0
100
AcDbLine
 62
7
  6
CONTINUOUS
 10
6.6349155071
 20
2.4473043478
 11
6.6349155071
 21
3.8223043478
  0
LINE
  5
38F
100
AcDbEntity
  8
0
100
AcDbLine
 62
7
  6
CONTINUOUS
 10
6.6349155071
 20
6.2915543478
 11
6.6349155071
 21
6.8415543478
  0
LINE
  5
390
100
AcDbEntity
  8
0
100
AcDbLine
 62
7
  6
CONTINUOUS
 10
6.6374155071
 20
6.7853043551
 11
6.6374155071
 21
6.3478043406
  0
LINE
  5
391
100
AcDbEntity
  8
0
100
AcDbLine
 62
7
  6
CONTINUOUS
 10
6.7444155071
 20
6.7040543478
 11
6.7444155071
 21
6.4290543478
  0
LINE
  5
392
100
AcDbEntity
  8
0
100
AcDbLine
 62
7
  6
CONTINUOUS
 10
6.4714155071
 20
6.2915543478
 11
6.6349155071
 21
6.2915543478
  0
LINE
  5
393
100
AcDbEntity
  8
0
100
AcDbLine
 62
7
  6
CONTINUOUS
 10
6.6349155071
 20
6.3478043478
 11
6.6374155071
 21
6.3478043478
  0
LINE
  5
394
100
AcDbEntity
  8
0
100
AcDbLine
 62
7
  6
CONTINUOUS
 10
6.7444155071
 20
6.4290543478
 11
6.6374155071
 21
6.4290543478
  0
LINE
  5
395
100
AcDbEntity
  8
0
100
AcDbLine
 62
7
  6
CONTINUOUS
 10
4.4873007022
 20
6.4656153647
 11
4.5056297434
 21
6.4656153647
  0
LINE
  5
396
100
AcDbEntity
  8
0
100
AcDbLine
 62
7
  6
CONTINUOUS
 10
4.5768049642
 20
6.5173225481
 11
4.5706177799
 21
6.5173225481
  0
LINE
  5
397
100
AcDbEntity
  8
0
100
AcDbLine
 62
7
  6
CONTINUOUS
 10
6.4864155071
 20
6.6580543478
 11
6.4714155071
 21
6.6580543478
  0
LINE
  5
398
100
AcDbEntity
  8
0
100
AcDbLine
 62
7
  6
CONTINUOUS
 10
4.3999155071
 20
6.6780543478
 11
6.4514155071
 21
6.6780543478
  0
LINE
  5
399
100
AcDbEntity
  8
0
100
AcDbLine
 62
7
  6
CONTINUOUS
 10
4.3849155071
 20
6.6930543478
 11
6.4514155071
 21
6.6930543478
  0
LINE
  5
39A
100
AcDbEntity
  8
0
100
AcDbLine
 62
7
  6
CONTINUOUS
 10
6.7444155071
 20
6.7040543478
 11
6.6374155071
 21
6.7040543478
  0
LINE
  5
39B
100
AcDbEntity
  8
0
100
AcDbLine
 62
7
  6
CONTINUOUS
 10
6.6349155071
 20
6.7853043478
 11
6.6374155071
 21
6.7853043478
  0
LINE
  5
39C
100
AcDbEntity
  8
0
100
AcDbLine
 62
7
  6
CONTINUOUS
 10
6.6349155071
 20
6.8265543478
 11
4.3849155071
 21
6.8265543478
  0
LINE
  5
39D
100
AcDbEntity
  8
0
100
AcDbLine
 62
7
  6
CONTINUOUS
 10
6.6349155071
 20
6.8415543478
 11
4.3999155071
 21
6.8415543478
  0
ARC
  5
39E
100
AcDbEntity
  8
0
100
AcDbCircle
 62
7
  6
CONTINUOUS
 10
4.1203949755
 20
5.6316013268
 40
0.24040144
100
AcDbArc
 50
47.0645769621
 51
47.5056144147
  0
ARC
  5
39F
100
AcDbEntity
  8
0
100
AcDbCircle
 62
7
  6
CONTINUOUS
 10
4.1879895194
 20
5.6296496636
 40
0.1940391629
100
AcDbArc
 50
47.4654056214
 51
48.1007828287
  0
ARC
  5
3A0
100
AcDbEntity
  8
0
100
AcDbCircle
 62
7
  6
CONTINUOUS
 10
4.1519106527
 20
5.9507457543
 40
0.0168243021
100
AcDbArc
 50
220.7657217148
 51
220.9663281412
  0
ARC
  5
3A1
100
AcDbEntity
  8
0
100
AcDbCircle
 62
7
  6
CONTINUOUS
 10
4.0704828795
 20
5.9880559642
 40
0.00375
100
AcDbArc
 50
225.0
 51
295.5588648645
  0
ARC
  5
3A2
100
AcDbEntity
  8
0
100
AcDbCircle
 62
7
  6
CONTINUOUS
 10
4.1467656094
 20
5.9153087682
 40
0.00375
100
AcDbArc
 50
139.2891533288
 51
225.0
  0
ARC
  5
3A3
100
AcDbEntity
  8
0
100
AcDbCircle
 62
7
  6
CONTINUOUS
 10
4.161290598
 20
5.9007837797
 40
0.00375
100
AcDbArc
 50
225.0
 51
310.7108466712
  0
ARC
  5
3A4
100
AcDbEntity
  8
0
100
AcDbCircle
 62
7
  6
CONTINUOUS
 10
4.1235556948
 20
5.9385186829
 40
0.00375
100
AcDbArc
 50
139.2891533288
 51
225.0
  0
ARC
  5
3A5
100
AcDbEntity
  8
0
100
AcDbCircle
 62
7
  6
CONTINUOUS
 10
4.1380806833
 20
5.9239936943
 40
0.00375
100
AcDbArc
 50
225.0
 51
310.7108466712
  0
ARC
  5
3A6
100
AcDbEntity
  8
0
100
AcDbCircle
 62
7
  6
CONTINUOUS
 10
4.0746700173
 20
5.9874043604
 40
0.00375
100
AcDbArc
 50
225.0
 51
310.7108466712
  0
ARC
  5
3A7
100
AcDbEntity
  8
0
100
AcDbCircle
 62
7
  6
CONTINUOUS
 10
4.193805149
 20
5.8771080634
 40
0.00375
100
AcDbArc
 50
139.2891533288
 51
225.0
  0
ARC
  5
3A8
100
AcDbEntity
  8
0
100
AcDbCircle
 62
7
  6
CONTINUOUS
 10
4.1381619813
 20
5.9327512311
 40
0.00375
100
AcDbArc
 50
139.2891533288
 51
225.0
  0
ARC
  5
3A9
100
AcDbEntity
  8
0
100
AcDbCircle
 62
7
  6
CONTINUOUS
 10
4.1526869698
 20
5.9182262426
 40
0.00375
100
AcDbArc
 50
225.0
 51
310.7108466712
  0
ARC
  5
3AA
100
AcDbEntity
  8
0
100
AcDbCircle
 62
7
  6
CONTINUOUS
 10
4.0777191328
 20
5.9931940796
 40
0.00375
100
AcDbArc
 50
225.0
 51
310.7108466712
  0
ARC
  5
3AB
100
AcDbEntity
  8
0
100
AcDbCircle
 62
7
  6
CONTINUOUS
 10
4.1458817259
 20
5.9356380882
 40
0.00375
100
AcDbArc
 50
139.2891533288
 51
225.0
  0
ARC
  5
3AC
100
AcDbEntity
  8
0
100
AcDbCircle
 62
7
  6
CONTINUOUS
 10
4.1604067145
 20
5.9211130996
 40
0.00375
100
AcDbArc
 50
225.0
 51
310.7108466712
  0
ARC
  5
3AD
100
AcDbEntity
  8
0
100
AcDbCircle
 62
7
  6
CONTINUOUS
 10
4.1526508909
 20
5.9412432919
 40
0.00375
100
AcDbArc
 50
139.2891533288
 51
225.0
  0
ARC
  5
3AE
100
AcDbEntity
  8
0
100
AcDbCircle
 62
7
  6
CONTINUOUS
 10
4.1671758795
 20
5.9267183033
 40
0.00375
100
AcDbArc
 50
225.0
 51
310.7108466712
  0
ARC
  5
3AF
100
AcDbEntity
  8
0
100
AcDbCircle
 62
7
  6
CONTINUOUS
 10
3.8360742943
 20
6.1245305669
 40
0.0797973547
100
AcDbArc
 50
46.3084866482
 51
47.2456966524
  0
ARC
  5
3B0
100
AcDbEntity
  8
0
100
AcDbCircle
 62
7
  6
CONTINUOUS
 10
3.8875554711
 20
6.1709833726
 40
0.00375
100
AcDbArc
 50
154.4411351355
 51
225.0
  0
ARC
  5
3B1
100
AcDbEntity
  8
0
100
AcDbCircle
 62
7
  6
CONTINUOUS
 10
3.8869038673
 20
6.1751705103
 40
0.00375
100
AcDbArc
 50
139.2891533288
 51
225.0
  0
ARC
  5
3B2
100
AcDbEntity
  8
0
100
AcDbCircle
 62
7
  6
CONTINUOUS
 10
3.8926935866
 20
6.1782196258
 40
0.00375
100
AcDbArc
 50
139.2891533288
 51
225.0
  0
ARC
  5
3B3
100
AcDbEntity
  8
0
100
AcDbCircle
 62
7
  6
CONTINUOUS
 10
3.8500994487
 20
6.2522426133
 40
0.0166014471
100
AcDbArc
 50
229.0323254051
 51
229.2356247384
  0
ARC
  5
3B4
100
AcDbEntity
  8
0
100
AcDbCircle
 62
7
  6
CONTINUOUS
 10
3.8495446941
 20
6.251592114
 40
0.0157465319
100
AcDbArc
 50
229.2189905153
 51
229.8303286517
  0
ARC
  5
3B5
100
AcDbEntity
  8
0
100
AcDbCircle
 62
7
  6
CONTINUOUS
 10
3.7834200197
 20
6.3249814229
 40
0.0139989149
100
AcDbArc
 50
229.1699856152
 51
229.9152544901
  0
ARC
  5
3B6
100
AcDbEntity
  8
0
100
AcDbCircle
 62
7
  6
CONTINUOUS
 10
3.8002832866
 20
6.261791091
 40
0.00375
100
AcDbArc
 50
139.2891533288
 51
225.0
  0
ARC
  5
3B7
100
AcDbEntity
  8
0
100
AcDbCircle
 62
7
  6
CONTINUOUS
 10
3.8148082752
 20
6.2472661024
 40
0.00375
100
AcDbArc
 50
225.0
 51
310.7108466712
  0
ARC
  5
3B8
100
AcDbEntity
  8
0
100
AcDbCircle
 62
7
  6
CONTINUOUS
 10
3.8234932013
 20
6.2385811764
 40
0.00375
100
AcDbArc
 50
139.2891533288
 51
225.0
  0
ARC
  5
3B9
100
AcDbEntity
  8
0
100
AcDbCircle
 62
7
  6
CONTINUOUS
 10
3.8380181898
 20
6.2240561878
 40
0.00375
100
AcDbArc
 50
225.0
 51
310.7108466712
  0
ARC
  5
3BA
100
AcDbEntity
  8
0
100
AcDbCircle
 62
7
  6
CONTINUOUS
 10
3.7324754707
 20
6.3384377417
 40
0.00375
100
AcDbArc
 50
139.2891533289
 51
225.0
  0
ARC
  5
3BB
100
AcDbEntity
  8
0
100
AcDbCircle
 62
7
  6
CONTINUOUS
 10
3.7470004592
 20
6.3239127532
 40
0.00375
100
AcDbArc
 50
225.0
 51
310.7108466712
  0
ARC
  5
3BC
100
AcDbEntity
  8
0
100
AcDbCircle
 62
7
  6
CONTINUOUS
 10
3.8177257495
 20
6.2531874629
 40
0.00375
100
AcDbArc
 50
139.2891533288
 51
225.0
  0
ARC
  5
3BD
100
AcDbEntity
  8
0
100
AcDbCircle
 62
7
  6
CONTINUOUS
 10
3.8322507381
 20
6.2386624743
 40
0.00375
100
AcDbArc
 50
225.0
 51
310.7108466712
  0
ARC
  5
3BE
100
AcDbEntity
  8
0
100
AcDbCircle
 62
7
  6
CONTINUOUS
 10
3.7620825818
 20
6.3088306306
 40
0.00375
100
AcDbArc
 50
139.2891533288
 51
225.0
  0
ARC
  5
3BF
100
AcDbEntity
  8
0
100
AcDbCircle
 62
7
  6
CONTINUOUS
 10
3.7766075704
 20
6.294305642
 40
0.00375
100
AcDbArc
 50
225.0
 51
310.7108466712
  0
ARC
  5
3C0
100
AcDbEntity
  8
0
100
AcDbCircle
 62
7
  6
CONTINUOUS
 10
3.8206126066
 20
6.2609072075
 40
0.00375
100
AcDbArc
 50
139.2891533288
 51
225.0
  0
ARC
  5
3C1
100
AcDbEntity
  8
0
100
AcDbCircle
 62
7
  6
CONTINUOUS
 10
3.8351375951
 20
6.246382219
 40
0.00375
100
AcDbArc
 50
225.0
 51
310.7108466712
  0
ARC
  5
3C2
100
AcDbEntity
  8
0
100
AcDbCircle
 62
7
  6
CONTINUOUS
 10
3.7532471663
 20
6.3282726479
 40
0.00375
100
AcDbArc
 50
139.2891533288
 51
225.0
  0
ARC
  5
3C3
100
AcDbEntity
  8
0
100
AcDbCircle
 62
7
  6
CONTINUOUS
 10
3.7677721548
 20
6.3137476593
 40
0.00375
100
AcDbArc
 50
225.0
 51
310.7108466712
  0
ARC
  5
3C4
100
AcDbEntity
  8
0
100
AcDbCircle
 62
7
  6
CONTINUOUS
 10
3.7015558458
 20
6.3799639683
 40
0.00375
100
AcDbArc
 50
139.2891533288
 51
225.0
  0
ARC
  5
3C5
100
AcDbEntity
  8
0
100
AcDbCircle
 62
7
  6
CONTINUOUS
 10
3.7160808344
 20
6.3654389797
 40
0.00375
100
AcDbArc
 50
225.0
 51
310.7108466712
  0
ARC
  5
3C6
100
AcDbEntity
  8
0
100
AcDbCircle
 62
7
  6
CONTINUOUS
 10
3.8262178103
 20
6.2676763725
 40
0.00375
100
AcDbArc
 50
139.2891533288
 51
225.0
  0
ARC
  5
3C7
100
AcDbEntity
  8
0
100
AcDbCircle
 62
7
  6
CONTINUOUS
 10
3.8407427988
 20
6.253151384
 40
0.00375
100
AcDbArc
 50
225.0
 51
310.7108466712
  0
ARC
  5
3C8
100
AcDbEntity
  8
0
100
AcDbCircle
 62
7
  6
CONTINUOUS
 10
3.7535660634
 20
6.3403281194
 40
0.00375
100
AcDbArc
 50
139.2891533288
 51
225.0
  0
ARC
  5
3C9
100
AcDbEntity
  8
0
100
AcDbCircle
 62
7
  6
CONTINUOUS
 10
3.768091052
 20
6.3258031308
 40
0.00375
100
AcDbArc
 50
225.0
 51
310.7108466712
  0
ARC
  5
3CA
100
AcDbEntity
  8
0
100
AcDbCircle
 62
7
  6
CONTINUOUS
 10
3.7057478811
 20
6.3881463017
 40
0.00375
100
AcDbArc
 50
225.0
 51
310.7108466712
  0
ARC
  5
3CB
100
AcDbEntity
  8
0
100
AcDbCircle
 62
7
  6
CONTINUOUS
 10
4.055957891
 20
6.0025809528
 40
0.00375
100
AcDbArc
 50
139.2891533288
 51
225.0
  0
ARC
  5
3CC
100
AcDbEntity
  8
0
100
AcDbCircle
 62
7
  6
CONTINUOUS
 10
3.9717566811
 20
6.0867821627
 40
0.00375
100
AcDbArc
 50
139.2891533288
 51
225.0
  0
ARC
  5
3CD
100
AcDbEntity
  8
0
100
AcDbCircle
 62
7
  6
CONTINUOUS
 10
3.9862816696
 20
6.0722571741
 40
0.00375
100
AcDbArc
 50
225.0
 51
310.7108466712
  0
ARC
  5
3CE
100
AcDbEntity
  8
0
100
AcDbCircle
 62
7
  6
CONTINUOUS
 10
3.9020804597
 20
6.156458384
 40
0.00375
100
AcDbArc
 50
225.0
 51
310.7108466712
  0
ARC
  5
3CF
100
AcDbEntity
  8
0
100
AcDbCircle
 62
7
  6
CONTINUOUS
 10
4.0601450287
 20
6.0019293489
 40
0.00375
100
AcDbArc
 50
139.2891533288
 51
225.0
  0
ARC
  5
3D0
100
AcDbEntity
  8
0
100
AcDbCircle
 62
7
  6
CONTINUOUS
 10
3.973524448
 20
6.0885499296
 40
0.00375
100
AcDbArc
 50
139.2891533288
 51
225.0
  0
ARC
  5
3D1
100
AcDbEntity
  8
0
100
AcDbCircle
 62
7
  6
CONTINUOUS
 10
3.9880494366
 20
6.0740249411
 40
0.00375
100
AcDbArc
 50
225.0
 51
310.7108466712
  0
ARC
  5
3D2
100
AcDbEntity
  8
0
100
AcDbCircle
 62
7
  6
CONTINUOUS
 10
3.9014288559
 20
6.1606455218
 40
0.00375
100
AcDbArc
 50
225.0
 51
310.7108466712
  0
ARC
  5
3D3
100
AcDbEntity
  8
0
100
AcDbCircle
 62
7
  6
CONTINUOUS
 10
4.0631941442
 20
6.0077190682
 40
0.00375
100
AcDbArc
 50
139.2891533288
 51
225.0
  0
ARC
  5
3D4
100
AcDbEntity
  8
0
100
AcDbCircle
 62
7
  6
CONTINUOUS
 10
3.9779438654
 20
6.092969347
 40
0.00375
100
AcDbArc
 50
139.2891533288
 51
225.0
  0
ARC
  5
3D5
100
AcDbEntity
  8
0
100
AcDbCircle
 62
7
  6
CONTINUOUS
 10
3.992468854
 20
6.0784443584
 40
0.00375
100
AcDbArc
 50
225.0
 51
310.7108466712
  0
ARC
  5
3D6
100
AcDbEntity
  8
0
100
AcDbCircle
 62
7
  6
CONTINUOUS
 10
3.9072185751
 20
6.1636946373
 40
0.00375
100
AcDbArc
 50
225.0
 51
310.7108466712
  0
ARC
  5
3D7
100
AcDbEntity
  8
0
100
AcDbCircle
 62
7
  6
CONTINUOUS
 10
4.0674330091
 20
6.014086805
 40
0.00375
100
AcDbArc
 50
139.2891533288
 51
225.0
  0
ARC
  5
3D8
100
AcDbEntity
  8
0
100
AcDbCircle
 62
7
  6
CONTINUOUS
 10
4.0819579977
 20
5.9995618164
 40
0.00375
100
AcDbArc
 50
225.0
 51
310.7108466712
  0
ARC
  5
3D9
100
AcDbEntity
  8
0
100
AcDbCircle
 62
7
  6
CONTINUOUS
 10
3.9832471663
 20
6.0982726479
 40
0.00375
100
AcDbArc
 50
139.2891533288
 51
225.0
  0
ARC
  5
3DA
100
AcDbEntity
  8
0
100
AcDbCircle
 62
7
  6
CONTINUOUS
 10
3.9977721548
 20
6.0837476593
 40
0.00375
100
AcDbArc
 50
225.0
 51
310.7108466712
  0
ARC
  5
3DB
100
AcDbEntity
  8
0
100
AcDbCircle
 62
7
  6
CONTINUOUS
 10
3.8990613234
 20
6.1824584907
 40
0.00375
100
AcDbArc
 50
139.2891533288
 51
225.0
  0
ARC
  5
3DC
100
AcDbEntity
  8
0
100
AcDbCircle
 62
7
  6
CONTINUOUS
 10
3.913586312
 20
6.1679335022
 40
0.00375
100
AcDbArc
 50
225.0
 51
310.7108466712
  0
ARC
  5
3DD
100
AcDbEntity
  8
0
100
AcDbCircle
 62
7
  6
CONTINUOUS
 10
4.0728657981
 20
6.0210283847
 40
0.00375
100
AcDbArc
 50
139.2891533288
 51
225.0
  0
ARC
  5
3DE
100
AcDbEntity
  8
0
100
AcDbCircle
 62
7
  6
CONTINUOUS
 10
4.0873907866
 20
6.0065033962
 40
0.00375
100
AcDbArc
 50
225.0
 51
310.7108466712
  0
ARC
  5
3DF
100
AcDbEntity
  8
0
100
AcDbCircle
 62
7
  6
CONTINUOUS
 10
3.9894343506
 20
6.1044598322
 40
0.00375
100
AcDbArc
 50
139.2891533288
 51
225.0
  0
ARC
  5
3E0
100
AcDbEntity
  8
0
100
AcDbCircle
 62
7
  6
CONTINUOUS
 10
4.0039593392
 20
6.0899348436
 40
0.00375
100
AcDbArc
 50
225.0
 51
310.7108466712
  0
ARC
  5
3E1
100
AcDbEntity
  8
0
100
AcDbCircle
 62
7
  6
CONTINUOUS
 10
3.9060029031
 20
6.1878912797
 40
0.00375
100
AcDbArc
 50
139.2891533288
 51
225.0
  0
ARC
  5
3E2
100
AcDbEntity
  8
0
100
AcDbCircle
 62
7
  6
CONTINUOUS
 10
3.9205278917
 20
6.1733662911
 40
0.00375
100
AcDbArc
 50
225.0
 51
310.7108466712
  0
ARC
  5
3E3
100
AcDbEntity
  8
0
100
AcDbCircle
 62
7
  6
CONTINUOUS
 10
4.0563311369
 20
6.3654633341
 40
0.25
100
AcDbArc
 50
217.1128557994
 51
223.5548996513
  0
ARC
  5
3E4
100
AcDbEntity
  8
0
100
AcDbCircle
 62
7
  6
CONTINUOUS
 10
4.6008951339
 20
5.861058958
 40
0.25
100
AcDbArc
 50
230.8300820698
 51
235.0977020061
  0
ARC
  5
3E5
100
AcDbEntity
  8
0
100
AcDbCircle
 62
7
  6
CONTINUOUS
 10
4.4939549473
 20
5.9503231099
 40
0.25
100
AcDbArc
 50
229.6241263233
 51
230.0932114034
  0
ARC
  5
3E6
100
AcDbEntity
  8
0
100
AcDbCircle
 62
7
  6
CONTINUOUS
 10
4.4939549473
 20
5.9503231099
 40
0.25
100
AcDbArc
 50
236.5942361161
 51
237.4803903978
  0
ARC
  5
3E7
100
AcDbEntity
  8
0
100
AcDbCircle
 62
7
  6
CONTINUOUS
 10
4.4726843897
 20
5.9686003873
 40
0.25
100
AcDbArc
 50
225.0
 51
225.563443215
  0
ARC
  5
3E8
100
AcDbEntity
  8
0
100
AcDbCircle
 62
7
  6
CONTINUOUS
 10
4.4220892691
 20
5.604768668
 40
0.0625
100
AcDbArc
 50
48.2737953805
 51
55.0977020061
  0
ARC
  5
3E9
100
AcDbEntity
  8
0
100
AcDbCircle
 62
7
  6
CONTINUOUS
 10
4.3427582578
 20
5.7131709992
 40
0.03125
100
AcDbArc
 50
53.446213852
 51
57.4803903978
  0
ARC
  5
3EA
100
AcDbEntity
  8
0
100
AcDbCircle
 62
7
  6
CONTINUOUS
 10
4.2249251014
 20
5.8842993001
 40
0.0145826567
100
AcDbArc
 50
220.0996622131
 51
220.8150976915
  0
ARC
  5
3EB
100
AcDbEntity
  8
0
100
AcDbCircle
 62
7
  6
CONTINUOUS
 10
4.5593390723
 20
5.6256958978
 40
0.0075
100
AcDbArc
 50
254.9999999979
 51
315.0
  0
ARC
  5
3EC
100
AcDbEntity
  8
0
100
AcDbCircle
 62
7
  6
CONTINUOUS
 10
4.4796276469
 20
5.6470545099
 40
0.0075
100
AcDbArc
 50
238.2395482929
 51
254.999999998
  0
ARC
  5
3ED
100
AcDbEntity
  8
0
100
AcDbCircle
 62
7
  6
CONTINUOUS
 10
4.7146691291
 20
5.7810259546
 40
0.0075
100
AcDbArc
 50
315.0
 51
45.0
  0
ARC
  5
3EE
100
AcDbEntity
  8
0
100
AcDbCircle
 62
7
  6
CONTINUOUS
 10
4.4686792927
 20
5.657012038
 40
0.0075
100
AcDbArc
 50
228.2737953805
 51
253.3535718815
  0
ARC
  5
3EF
100
AcDbEntity
  8
0
100
AcDbCircle
 62
7
  6
CONTINUOUS
 10
4.2234122601
 20
5.8475009523
 40
0.00375
100
AcDbArc
 50
139.2891533288
 51
225.0
  0
ARC
  5
3F0
100
AcDbEntity
  8
0
100
AcDbCircle
 62
7
  6
CONTINUOUS
 10
4.2379372487
 20
5.8329759637
 40
0.00375
100
AcDbArc
 50
225.0
 51
310.7108466712
  0
ARC
  5
3F1
100
AcDbEntity
  8
0
100
AcDbCircle
 62
7
  6
CONTINUOUS
 10
4.2083301375
 20
5.8625830749
 40
0.00375
100
AcDbArc
 50
225.0
 51
310.7108466712
  0
ARC
  5
3F2
100
AcDbEntity
  8
0
100
AcDbCircle
 62
7
  6
CONTINUOUS
 10
4.3230412742
 20
5.75847854
 40
0.00375
100
AcDbArc
 50
225.0
 51
310.7108466712
  0
ARC
  5
3F3
100
AcDbEntity
  8
0
100
AcDbCircle
 62
7
  6
CONTINUOUS
 10
4.2974330091
 20
5.784086805
 40
0.00375
100
AcDbArc
 50
139.2891533288
 51
225.0
  0
ARC
  5
3F4
100
AcDbEntity
  8
0
100
AcDbCircle
 62
7
  6
CONTINUOUS
 10
4.3119579977
 20
5.7695618164
 40
0.00375
100
AcDbArc
 50
225.0
 51
310.7108466712
  0
ARC
  5
3F5
100
AcDbEntity
  8
0
100
AcDbCircle
 62
7
  6
CONTINUOUS
 10
4.2649384867
 20
5.8165813275
 40
0.00375
100
AcDbArc
 50
139.2891533288
 51
225.0
  0
ARC
  5
3F6
100
AcDbEntity
  8
0
100
AcDbCircle
 62
7
  6
CONTINUOUS
 10
4.2794634752
 20
5.8020563389
 40
0.00375
100
AcDbArc
 50
225.0
 51
310.7108466712
  0
ARC
  5
3F7
100
AcDbEntity
  8
0
100
AcDbCircle
 62
7
  6
CONTINUOUS
 10
4.2132471663
 20
5.8682726479
 40
0.00375
100
AcDbArc
 50
139.2891533288
 51
225.0
  0
ARC
  5
3F8
100
AcDbEntity
  8
0
100
AcDbCircle
 62
7
  6
CONTINUOUS
 10
4.2277721548
 20
5.8537476593
 40
0.00375
100
AcDbArc
 50
225.0
 51
310.7108466712
  0
ARC
  5
3F9
100
AcDbEntity
  8
0
100
AcDbCircle
 62
7
  6
CONTINUOUS
 10
4.3885191781
 20
5.7053750047
 40
0.00375
100
AcDbArc
 50
191.6287467707
 51
225.0
  0
ARC
  5
3FA
100
AcDbEntity
  8
0
100
AcDbCircle
 62
7
  6
CONTINUOUS
 10
4.4030441667
 20
5.6908500161
 40
0.00375
100
AcDbArc
 50
225.0
 51
310.7108466712
  0
ARC
  5
3FB
100
AcDbEntity
  8
0
100
AcDbCircle
 62
7
  6
CONTINUOUS
 10
4.3710772561
 20
5.7228169267
 40
0.00375
100
AcDbArc
 50
139.2891533288
 51
225.0
  0
ARC
  5
3FC
100
AcDbEntity
  8
0
100
AcDbCircle
 62
7
  6
CONTINUOUS
 10
4.3856022447
 20
5.7082919381
 40
0.00375
100
AcDbArc
 50
225.0
 51
310.7108466712
  0
ARC
  5
3FD
100
AcDbEntity
  8
0
100
AcDbCircle
 62
7
  6
CONTINUOUS
 10
4.3369557078
 20
5.7569384749
 40
0.00375
100
AcDbArc
 50
139.2891533288
 51
225.0
  0
ARC
  5
3FE
100
AcDbEntity
  8
0
100
AcDbCircle
 62
7
  6
CONTINUOUS
 10
4.3514806964
 20
5.7424134864
 40
0.00375
100
AcDbArc
 50
225.0
 51
310.7108466712
  0
ARC
  5
3FF
100
AcDbEntity
  8
0
100
AcDbCircle
 62
7
  6
CONTINUOUS
 10
4.2876458087
 20
5.8062483741
 40
0.00375
100
AcDbArc
 50
139.2891533288
 51
225.0
  0
ARC
  5
400
100
AcDbEntity
  8
0
100
AcDbCircle
 62
7
  6
CONTINUOUS
 10
4.3021707972
 20
5.7917233856
 40
0.00375
100
AcDbArc
 50
225.0
 51
310.7108466712
  0
ARC
  5
401
100
AcDbEntity
  8
0
100
AcDbCircle
 62
7
  6
CONTINUOUS
 10
4.2253026378
 20
5.868591545
 40
0.00375
100
AcDbArc
 50
139.2891533288
 51
225.0
  0
ARC
  5
402
100
AcDbEntity
  8
0
100
AcDbCircle
 62
7
  6
CONTINUOUS
 10
4.2398276263
 20
5.8540665564
 40
0.00375
100
AcDbArc
 50
225.0
 51
310.7108466712
  0
ARC
  5
403
100
AcDbEntity
  8
0
100
AcDbCircle
 62
7
  6
CONTINUOUS
 10
4.264962841
 20
6.1568316299
 40
0.25
100
AcDbArc
 50
226.4451003487
 51
232.8871442006
  0
ARC
  5
404
100
AcDbEntity
  8
0
100
AcDbCircle
 62
7
  6
CONTINUOUS
 10
4.3400065864
 20
6.0867248654
 40
0.25
100
AcDbArc
 50
227.450981949
 51
234.3719370491
  0
ARC
  5
405
100
AcDbEntity
  8
0
100
AcDbCircle
 62
7
  6
CONTINUOUS
 10
4.4163359752
 20
6.0178873955
 40
0.25
100
AcDbArc
 50
228.457733532
 51
232.2215499279
  0
ARC
  5
406
100
AcDbEntity
  8
0
100
AcDbCircle
 62
7
  6
CONTINUOUS
 10
4.471601173
 20
6.0453071141
 40
0.0075
100
AcDbArc
 50
135.0
 51
224.9999999999
  0
ARC
  5
407
100
AcDbEntity
  8
0
100
AcDbCircle
 62
7
  6
CONTINUOUS
 10
4.5018299879
 20
6.0967491324
 40
0.0075
100
AcDbArc
 50
315.0
 51
45.0
  0
ARC
  5
408
100
AcDbEntity
  8
0
100
AcDbCircle
 62
7
  6
CONTINUOUS
 10
4.388692903
 20
6.2310994209
 40
0.0075
100
AcDbArc
 50
135.0
 51
224.9999999964
  0
ARC
  5
409
100
AcDbEntity
  8
0
100
AcDbCircle
 62
7
  6
CONTINUOUS
 10
4.4125577568
 20
6.2726419443
 40
0.005
100
AcDbArc
 50
225.0
 51
315.0
  0
ARC
  5
40A
100
AcDbEntity
  8
0
100
AcDbCircle
 62
7
  6
CONTINUOUS
 10
4.405486689
 20
6.2655708764
 40
0.005
100
AcDbArc
 50
315.0
 51
45.0
  0
ARC
  5
40B
100
AcDbEntity
  8
0
100
AcDbCircle
 62
7
  6
CONTINUOUS
 10
5.8999155071
 20
2.3923043478
 40
0.0075
100
AcDbArc
 50
270.0
 51
360.0
  0
ARC
  5
40C
100
AcDbEntity
  8
0
100
AcDbCircle
 62
7
  6
CONTINUOUS
 10
5.8024155071
 20
2.3923043478
 40
0.0075
100
AcDbArc
 50
180.0
 51
270.0
  0
ARC
  5
40D
100
AcDbEntity
  8
0
100
AcDbCircle
 62
7
  6
CONTINUOUS
 10
5.8999155071
 20
3.2898043478
 40
0.0075
100
AcDbArc
 50
0.0
 51
90.0
  0
ARC
  5
40E
100
AcDbEntity
  8
0
100
AcDbCircle
 62
7
  6
CONTINUOUS
 10
5.8024155071
 20
3.2898043478
 40
0.0075
100
AcDbArc
 50
90.0
 51
180.0
  0
ARC
  5
40F
100
AcDbEntity
  8
0
100
AcDbCircle
 62
7
  6
CONTINUOUS
 10
3.7605584649
 20
6.7013956269
 40
0.25
100
AcDbArc
 50
214.9022979939
 51
219.1699179302
  0
ARC
  5
410
100
AcDbEntity
  8
0
100
AcDbCircle
 62
7
  6
CONTINUOUS
 10
3.9862243724
 20
6.4405070795
 40
0.25
100
AcDbArc
 50
215.6280629509
 51
222.549018051
  0
ARC
  5
411
100
AcDbEntity
  8
0
100
AcDbCircle
 62
7
  6
CONTINUOUS
 10
3.9173869024
 20
6.5168364683
 40
0.25
100
AcDbArc
 50
217.7784500721
 51
221.542266468
  0
ARC
  5
412
100
AcDbEntity
  8
0
100
AcDbCircle
 62
7
  6
CONTINUOUS
 10
3.8498226168
 20
6.5944554403
 40
0.25
100
AcDbArc
 50
219.9067885966
 51
220.3758736767
  0
ARC
  5
413
100
AcDbEntity
  8
0
100
AcDbCircle
 62
7
  6
CONTINUOUS
 10
3.8498226168
 20
6.5944554403
 40
0.25
100
AcDbArc
 50
212.5196096022
 51
213.4057638839
  0
ARC
  5
414
100
AcDbEntity
  8
0
100
AcDbCircle
 62
7
  6
CONTINUOUS
 10
3.8680998943
 20
6.5731848828
 40
0.25
100
AcDbArc
 50
224.436556785
 51
225.0
  0
ARC
  5
415
100
AcDbEntity
  8
0
100
AcDbCircle
 62
7
  6
CONTINUOUS
 10
4.3450507167
 20
6.4455512098
 40
0.12225
100
AcDbArc
 50
350.9210018977
 51
0.0258404644
  0
ARC
  5
416
100
AcDbEntity
  8
0
100
AcDbCircle
 62
7
  6
CONTINUOUS
 10
4.3450507167
 20
6.4455512098
 40
0.12225
100
AcDbArc
 50
89.9741595356
 51
99.0789981023
  0
ARC
  5
417
100
AcDbEntity
  8
0
100
AcDbCircle
 62
7
  6
CONTINUOUS
 10
3.504268175
 20
6.5225897622
 40
0.0625
100
AcDbArc
 50
34.9022979939
 51
41.7262046195
  0
ARC
  5
418
100
AcDbEntity
  8
0
100
AcDbCircle
 62
7
  6
CONTINUOUS
 10
4.4121148716
 20
6.6061302365
 40
0.047
100
AcDbArc
 50
159.9175653171
 51
180.0
  0
ARC
  5
419
100
AcDbEntity
  8
0
100
AcDbCircle
 62
7
  6
CONTINUOUS
 10
4.5056297434
 20
6.5126153647
 40
0.047
100
AcDbArc
 50
270.0
 51
290.0824346829
  0
ARC
  5
41A
100
AcDbEntity
  8
0
100
AcDbCircle
 62
7
  6
CONTINUOUS
 10
3.6126705062
 20
6.4432587508
 40
0.03125
100
AcDbArc
 50
32.5196096022
 51
36.5537861481
  0
ARC
  5
41B
100
AcDbEntity
  8
0
100
AcDbCircle
 62
7
  6
CONTINUOUS
 10
4.4873007022
 20
6.4456153647
 40
0.02
100
AcDbArc
 50
90.0
 51
180.0258404644
  0
ARC
  5
41C
100
AcDbEntity
  8
0
100
AcDbCircle
 62
7
  6
CONTINUOUS
 10
4.3451148716
 20
6.5878011953
 40
0.02
100
AcDbArc
 50
269.9741595356
 51
360.0
  0
ARC
  5
41D
100
AcDbEntity
  8
0
100
AcDbCircle
 62
7
  6
CONTINUOUS
 10
4.3999155071
 20
6.8265543478
 40
0.015
100
AcDbArc
 50
90.0
 51
180.0
  0
ARC
  5
41E
100
AcDbEntity
  8
0
100
AcDbCircle
 62
7
  6
CONTINUOUS
 10
4.3999155071
 20
6.6930543478
 40
0.015
100
AcDbArc
 50
180.0
 51
270.0
  0
ARC
  5
41F
100
AcDbEntity
  8
0
100
AcDbCircle
 62
7
  6
CONTINUOUS
 10
3.7009095403
 20
6.4084382956
 40
0.0147153492
100
AcDbArc
 50
224.8703741172
 51
225.1296136542
  0
ARC
  5
420
100
AcDbEntity
  8
0
100
AcDbCircle
 62
7
  6
CONTINUOUS
 10
3.5251954048
 20
6.6598395653
 40
0.0075
100
AcDbArc
 50
135.0
 51
195.0000000021
  0
ARC
  5
421
100
AcDbEntity
  8
0
100
AcDbCircle
 62
7
  6
CONTINUOUS
 10
3.5465540168
 20
6.5801281399
 40
0.0075
100
AcDbArc
 50
195.000000002
 51
211.7604517071
  0
ARC
  5
422
100
AcDbEntity
  8
0
100
AcDbCircle
 62
7
  6
CONTINUOUS
 10
3.6805254616
 20
6.8151696221
 40
0.0075
100
AcDbArc
 50
45.0
 51
135.0
  0
ARC
  5
423
100
AcDbEntity
  8
0
100
AcDbCircle
 62
7
  6
CONTINUOUS
 10
3.9448066211
 20
6.5721016661
 40
0.0075
100
AcDbArc
 50
225.0000000001
 51
315.0
  0
ARC
  5
424
100
AcDbEntity
  8
0
100
AcDbCircle
 62
7
  6
CONTINUOUS
 10
3.9962486394
 20
6.602330481
 40
0.0075
100
AcDbArc
 50
45.0
 51
135.0
  0
ARC
  5
425
100
AcDbEntity
  8
0
100
AcDbCircle
 62
7
  6
CONTINUOUS
 10
4.1305989278
 20
6.489193396
 40
0.0075
100
AcDbArc
 50
225.0000000036
 51
315.0
  0
ARC
  5
426
100
AcDbEntity
  8
0
100
AcDbCircle
 62
7
  6
CONTINUOUS
 10
3.5565115449
 20
6.5691797857
 40
0.0075
100
AcDbArc
 50
196.6464281185
 51
221.7262046195
  0
ARC
  5
427
100
AcDbEntity
  8
0
100
AcDbCircle
 62
7
  6
CONTINUOUS
 10
4.1721414512
 20
6.5130582499
 40
0.005
100
AcDbArc
 50
135.0
 51
225.0
  0
ARC
  5
428
100
AcDbEntity
  8
0
100
AcDbCircle
 62
7
  6
CONTINUOUS
 10
4.1650703834
 20
6.5059871821
 40
0.005
100
AcDbArc
 50
45.0
 51
135.0
  0
ARC
  5
429
100
AcDbEntity
  8
0
100
AcDbCircle
 62
7
  6
CONTINUOUS
 10
3.6690613234
 20
6.4124584907
 40
0.00375
100
AcDbArc
 50
139.2891533288
 51
225.0
  0
ARC
  5
42A
100
AcDbEntity
  8
0
100
AcDbCircle
 62
7
  6
CONTINUOUS
 10
3.683586312
 20
6.3979335022
 40
0.00375
100
AcDbArc
 50
225.0
 51
310.7108466712
  0
ARC
  5
42B
100
AcDbEntity
  8
0
100
AcDbCircle
 62
7
  6
CONTINUOUS
 10
3.6579780469
 20
6.4235417672
 40
0.00375
100
AcDbArc
 50
139.2891533288
 51
225.0
  0
ARC
  5
42C
100
AcDbEntity
  8
0
100
AcDbCircle
 62
7
  6
CONTINUOUS
 10
3.607791445
 20
6.4861027377
 40
0.00375
100
AcDbArc
 50
139.2891533288
 51
225.0
  0
ARC
  5
42D
100
AcDbEntity
  8
0
100
AcDbCircle
 62
7
  6
CONTINUOUS
 10
3.6223164336
 20
6.4715777492
 40
0.00375
100
AcDbArc
 50
225.0
 51
310.7108466712
  0
ARC
  5
42E
100
AcDbEntity
  8
0
100
AcDbCircle
 62
7
  6
CONTINUOUS
 10
3.5903495231
 20
6.5035446597
 40
0.00375
100
AcDbArc
 50
139.2891533288
 51
225.0
  0
ARC
  5
42F
100
AcDbEntity
  8
0
100
AcDbCircle
 62
7
  6
CONTINUOUS
 10
3.6048745116
 20
6.4890196712
 40
0.00375
100
AcDbArc
 50
225.0
 51
258.3712532293
  0
ARC
  5
430
100
AcDbEntity
  8
0
100
AcDbCircle
 62
7
  6
CONTINUOUS
 10
3.6912228925
 20
6.4026712903
 40
0.00375
100
AcDbArc
 50
139.2891533288
 51
225.0
  0
ARC
  5
431
100
AcDbEntity
  8
0
100
AcDbCircle
 62
7
  6
CONTINUOUS
 10
3.6419129933
 20
6.4519811895
 40
0.00375
100
AcDbArc
 50
139.2891533288
 51
225.0
  0
ARC
  5
432
100
AcDbEntity
  8
0
100
AcDbCircle
 62
7
  6
CONTINUOUS
 10
3.6564379819
 20
6.4374562009
 40
0.00375
100
AcDbArc
 50
225.0
 51
310.7108466712
  0
ARC
  5
433
100
AcDbEntity
  8
0
100
AcDbCircle
 62
7
  6
CONTINUOUS
 10
5.9224155071
 20
3.0385543478
 40
0.015
100
AcDbArc
 50
90.0
 51
179.999999999
  0
ARC
  5
434
100
AcDbEntity
  8
0
100
AcDbCircle
 62
7
  6
CONTINUOUS
 10
5.9224155071
 20
3.2310543478
 40
0.015
100
AcDbArc
 50
180.000000001
 51
270.0
  0
ARC
  5
435
100
AcDbEntity
  8
0
100
AcDbCircle
 62
7
  6
CONTINUOUS
 10
6.5649155071
 20
3.8148043478
 40
0.0075
100
AcDbArc
 50
90.0
 51
180.0
  0
ARC
  5
436
100
AcDbEntity
  8
0
100
AcDbCircle
 62
7
  6
CONTINUOUS
 10
6.5649155071
 20
2.4548043478
 40
0.0075
100
AcDbArc
 50
180.0
 51
270.0
  0
ARC
  5
437
100
AcDbEntity
  8
0
100
AcDbCircle
 62
7
  6
CONTINUOUS
 10
6.4774155071
 20
3.3898043478
 40
0.0075
100
AcDbArc
 50
90.0
 51
180.0
  0
ARC
  5
438
100
AcDbEntity
  8
0
100
AcDbCircle
 62
7
  6
CONTINUOUS
 10
6.4774155071
 20
2.8798043478
 40
0.0075
100
AcDbArc
 50
180.0
 51
270.0
  0
ARC
  5
439
100
AcDbEntity
  8
0
100
AcDbCircle
 62
7
  6
CONTINUOUS
 10
6.0599155071
 20
3.2948043478
 40
0.0075
100
AcDbArc
 50
90.0
 51
180.0
  0
ARC
  5
43A
100
AcDbEntity
  8
0
100
AcDbCircle
 62
7
  6
CONTINUOUS
 10
6.0599155071
 20
2.9748043478
 40
0.0075
100
AcDbArc
 50
180.0
 51
270.0
  0
ARC
  5
43B
100
AcDbEntity
  8
0
100
AcDbCircle
 62
7
  6
CONTINUOUS
 10
8.2957166709
 20
10.3962171639
 40
6.0997321429
100
AcDbArc
 50
221.542266468
 51
221.6004864405
  0
ARC
  5
43C
100
AcDbEntity
  8
0
100
AcDbCircle
 62
7
  6
CONTINUOUS
 10
8.2957166709
 20
10.3962171639
 40
6.0997321429
100
AcDbArc
 50
228.3995135595
 51
228.457733532
  0
ARC
  5
43D
100
AcDbEntity
  8
0
100
AcDbCircle
 62
7
  6
CONTINUOUS
 10
8.2957166709
 20
10.3962171639
 40
6.0997321429
100
AcDbArc
 50
226.2854429774
 51
226.4451003487
  0
ARC
  5
43E
100
AcDbEntity
  8
0
100
AcDbCircle
 62
7
  6
CONTINUOUS
 10
8.2957166709
 20
10.3962171639
 40
6.0997321429
100
AcDbArc
 50
230.4467326059
 51
230.8300820698
  0
ARC
  5
43F
100
AcDbEntity
  8
0
100
AcDbCircle
 62
7
  6
CONTINUOUS
 10
8.2957166709
 20
10.3962171639
 40
6.0997321429
100
AcDbArc
 50
223.5548996513
 51
223.7145570226
  0
ARC
  5
440
100
AcDbEntity
  8
0
100
AcDbCircle
 62
7
  6
CONTINUOUS
 10
8.2957166709
 20
10.3962171639
 40
6.0997321429
100
AcDbArc
 50
219.1699179302
 51
219.5532673941
  0
ARC
  5
441
100
AcDbEntity
  8
0
100
AcDbCircle
 62
7
  6
CONTINUOUS
 10
6.4514155071
 20
6.6580543478
 40
0.035
100
AcDbArc
 50
0.0
 51
90.0
  0
ARC
  5
442
100
AcDbEntity
  8
0
100
AcDbCircle
 62
7
  6
CONTINUOUS
 10
6.4514155071
 20
6.6580543478
 40
0.02
100
AcDbArc
 50
0.0
 51
90.0
  0
LINE
  5
443
100
AcDbEntity
  8
0
100
AcDbLine
 62
7
  6
CONTINUOUS
 10
4.4124367958
 20
5.6926705472
 11
4.4101940221
 21
5.6946479412
  0
LINE
  5
444
100
AcDbEntity
  8
0
100
AcDbLine
 62
7
  6
CONTINUOUS
 10
4.3949499895
 20
5.710067585
 11
4.3912065593
 21
5.7136354041
  0
SPLINE
  5
445
100
AcDbEntity
  8
0
100
AcDbSpline
 62
7
  6
CONTINUOUS
 70
0
 71
3
 72
37
 73
33
 74
0
 42
0.0000001
 43
0.0000001
 44
0.0000000001
 40
0.0
 40
0.0
 40
0.0
 40
0.0
 40
0.000521177
 40
0.0011124251
 40
0.0018129932
 40
0.0026467274
 40
0.0036277035
 40
0.0047643621
 40
0.0075231397
 40
0.0109475882
 40
0.0150471208
 40
0.0198247111
 40
0.025279802
 40
0.0314094555
 40
0.0382090655
 40
0.0456727487
 40
0.0537934483
 40
0.0719729508
 40
0.0926736934
 40
0.1158092639
 40
0.1412821366
 40
0.1987986879
 40
0.2642506955
 40
0.3365322869
 40
0.4144242313
 40
0.4966136976
 40
0.5817144773
 40
0.6682882361
 40
0.7548667652
 40
0.8399754151
 40
0.9221576158
 40
1.0
 40
1.0
 40
1.0
 40
1.0
 10
4.3368553742
 20
5.7644102394
 30
0.0
 10
4.3368582769
 20
5.7644131423
 30
0.0
 10
4.3368656697
 20
5.7644181967
 30
0.0
 10
4.3368794679
 20
5.7644224044
 30
0.0
 10
4.3368962398
 20
5.7644237982
 30
0.0
 10
4.3369160579
 20
5.7644224749
 30
0.0
 10
4.3369389889
 20
5.7644184676
 30
0.0
 10
4.3369762149
 20
5.7644088882
 30
0.0
 10
4.337030586
 20
5.7643894032
 30
0.0
 10
4.3371047485
 20
5.7643567698
 30
0.0
 10
4.3371914431
 20
5.7643134231
 30
0.0
 10
4.3372905812
 20
5.7642593924
 30
0.0
 10
4.3374020603
 20
5.7641946942
 30
0.0
 10
4.3375257555
 20
5.7641193876
 30
0.0
 10
4.3376615287
 20
5.7640335438
 30
0.0
 10
4.3378092293
 20
5.7639372533
 30
0.0
 10
4.3380303001
 20
5.7637894085
 30
0.0
 10
4.3383348639
 20
5.7635789029
 30
0.0
 10
4.3387325716
 20
5.7632952636
 30
0.0
 10
4.3391733094
 20
5.7629730893
 30
0.0
 10
4.3398434041
 20
5.7624733521
 30
0.0
 10
4.340772063
 20
5.761762876
 30
0.0
 10
4.3419825839
 20
5.7608142388
 30
0.0
 10
4.3433095137
 20
5.7597540829
 30
0.0
 10
4.3447303318
 20
5.7586003339
 30
0.0
 10
4.3462209614
 20
5.7573724557
 30
0.0
 10
4.3477561591
 20
5.7560911947
 30
0.0
 10
4.3493098865
 20
5.7547782423
 30
0.0
 10
4.350855715
 20
5.7534559039
 30
0.0
 10
4.3523672475
 20
5.7521467429
 30
0.0
 10
4.3538185523
 20
5.7508732115
 30
0.0
 10
4.3547600788
 20
5.7500351631
 30
0.0
 10
4.3552163641
 20
5.7496255992
 30
0.0
  0
SPLINE
  5
446
100
AcDbEntity
  8
0
100
AcDbSpline
 62
7
  6
CONTINUOUS
 70
0
 71
3
 72
30
 73
26
 74
0
 42
0.0000001
 43
0.0000001
 44
0.0000000001
 40
0.0
 40
0.0
 40
0.0
 40
0.0
 40
0.001521672
 40
0.0031808934
 40
0.0051196006
 40
0.0074285098
 40
0.0101614948
 40
0.0133507738
 40
0.021167237
 40
0.0309697617
 40
0.0427946482
 40
0.0566559557
 40
0.0725552755
 40
0.0904865153
 40
0.1104382221
 40
0.132394416
 40
0.1563357876
 40
0.2100804095
 40
0.2714597586
 40
0.3402207065
 40
0.4160740012
 40
0.4986969141
 40
0.5877355676
 40
0.7835011811
 40
1.0
 40
1.0
 40
1.0
 40
1.0
 10
4.3607406356
 20
5.7441013277
 30
0.0
 10
4.3607434531
 20
5.7441041452
 30
0.0
 10
4.3607482965
 20
5.7441111725
 30
0.0
 10
4.3607518306
 20
5.7441242999
 30
0.0
 10
4.3607520049
 20
5.7441398787
 30
0.0
 10
4.3607489949
 20
5.7441579723
 30
0.0
 10
4.3607428461
 20
5.7441786709
 30
0.0
 10
4.3607295092
 20
5.7442121204
 30
0.0
 10
4.3607040998
 20
5.7442604554
 30
0.0
 10
4.3606630201
 20
5.7443257386
 30
0.0
 10
4.3606093763
 20
5.7444016641
 30
0.0
 10
4.3605431969
 20
5.7444881597
 30
0.0
 10
4.3604644965
 20
5.7445851397
 30
0.0
 10
4.3603733406
 20
5.7446924993
 30
0.0
 10
4.3602698096
 20
5.7448101219
 30
0.0
 10
4.3601540066
 20
5.7449378818
 30
0.0
 10
4.3599764265
 20
5.7451290476
 30
0.0
 10
4.3597243593
 20
5.7453918777
 30
0.0
 10
4.3593858133
 20
5.7457342899
 30
0.0
 10
4.3590019742
 20
5.7461132735
 30
0.0
 10
4.3585744884
 20
5.7465271795
 30
0.0
 10
4.3581051938
 20
5.7469742047
 30
0.0
 10
4.3574039258
 20
5.7476329134
 30
0.0
 10
4.3564388242
 20
5.7485227186
 30
0.0
 10
4.3556382435
 20
5.7492469183
 30
0.0
 10
4.3552163641
 20
5.7496255992
 30
0.0
  0
SPLINE
  5
447
100
AcDbEntity
  8
0
100
AcDbSpline
 62
7
  6
CONTINUOUS
 70
0
 71
3
 72
35
 73
31
 74
0
 42
0.0000001
 43
0.0000001
 44
0.0000000001
 40
0.0
 40
0.0
 40
0.0
 40
0.0
 40
0.0007071027
 40
0.0014619873
 40
0.0022948256
 40
0.0032281839
 40
0.0054533714
 40
0.0082195521
 40
0.0115652161
 40
0.0155101854
 40
0.0200647803
 40
0.025233787
 40
0.0374175842
 40
0.0520502819
 40
0.0690972464
 40
0.0885092016
 40
0.1102253938
 40
0.134175257
 40
0.1602794704
 40
0.1884506705
 40
0.250607257
 40
0.3198057122
 40
0.3951080724
 40
0.4754915031
 40
0.559861533
 40
0.6470658544
 40
0.7359089613
 40
0.8251676675
 40
0.9136075534
 40
1.0
 40
1.0
 40
1.0
 40
1.0
 10
4.2876723128
 20
5.8138469764
 30
0.0
 10
4.2876757585
 20
5.8138504221
 30
0.0
 10
4.2876837763
 20
5.8138566971
 30
0.0
 10
4.2876981502
 20
5.813863531
 30
0.0
 10
4.2877150125
 20
5.8138680335
 30
0.0
 10
4.2877424162
 20
5.8138711667
 30
0.0
 10
4.2877834313
 20
5.8138684959
 30
0.0
 10
4.287839772
 20
5.8138568041
 30
0.0
 10
4.2879060821
 20
5.8138363701
 30
0.0
 10
4.2879823543
 20
5.813807172
 30
0.0
 10
4.2880685847
 20
5.8137691863
 30
0.0
 10
4.2882043543
 20
5.8137030969
 30
0.0
 10
4.2883979565
 20
5.8135974957
 30
0.0
 10
4.2886575843
 20
5.8134425981
 30
0.0
 10
4.288954761
 20
5.813253696
 30
0.0
 10
4.2892884392
 20
5.8130314215
 30
0.0
 10
4.2896574416
 20
5.8127764928
 30
0.0
 10
4.2900604752
 20
5.8124897763
 30
0.0
 10
4.2904961379
 20
5.8121722519
 30
0.0
 10
4.2911399161
 20
5.8116933079
 30
0.0
 10
4.292013388
 20
5.8110256581
 30
0.0
 10
4.2931334475
 20
5.8101459948
 30
0.0
 10
4.2943417346
 20
5.8091754608
 30
0.0
 10
4.2956216747
 20
5.8081273022
 30
0.0
 10
4.2969556979
 20
5.8070158302
 30
0.0
 10
4.2983254663
 20
5.8058562727
 30
0.0
 10
4.2997120968
 20
5.8046645715
 30
0.0
 10
4.3010964058
 20
5.8034571801
 30
0.0
 10
4.3024591613
 20
5.8022508467
 30
0.0
 10
4.3033552382
 20
5.8014454036
 30
0.0
 10
4.3037963809
 20
5.8010455824
 30
0.0
  0
SPLINE
  5
448
100
AcDbEntity
  8
0
100
AcDbSpline
 62
7
  6
CONTINUOUS
 70
0
 71
3
 72
31
 73
27
 74
0
 42
0.0000001
 43
0.0000001
 44
0.0000000001
 40
0.0
 40
0.0
 40
0.0
 40
0.0
 40
0.0017646545
 40
0.0036595198
 40
0.0058223512
 40
0.0083471678
 40
0.0112932454
 40
0.0146973615
 40
0.0185828571
 40
0.0229648459
 40
0.0332524636
 40
0.045606848
 40
0.0600430777
 40
0.0765603262
 40
0.0951475811
 40
0.1157864588
 40
0.1384526375
 40
0.1631167836
 40
0.2182996398
 40
0.2810203059
 40
0.3509067656
 40
0.4275365247
 40
0.5104411499
 40
0.5991103861
 40
0.7915169286
 40
1.0
 40
1.0
 40
1.0
 40
1.0
 10
4.3113038496
 20
5.79328434
 30
0.0
 10
4.311308372
 20
5.7932888624
 30
0.0
 10
4.3113162715
 20
5.7932998415
 30
0.0
 10
4.311322923
 20
5.7933201347
 30
0.0
 10
4.3113247718
 20
5.7933440883
 30
0.0
 10
4.3113220403
 20
5.7933717201
 30
0.0
 10
4.3113148092
 20
5.7934031275
 30
0.0
 10
4.3113030892
 20
5.7934383679
 30
0.0
 10
4.3112868764
 20
5.7934774694
 30
0.0
 10
4.3112576446
 20
5.7935380634
 30
0.0
 10
4.311209034
 20
5.7936232107
 30
0.0
 10
4.3111357185
 20
5.7937358822
 30
0.0
 10
4.3110445906
 20
5.7938637271
 30
0.0
 10
4.3109357552
 20
5.7940065596
 30
0.0
 10
4.3108093292
 20
5.7941641659
 30
0.0
 10
4.3106654834
 20
5.7943363041
 30
0.0
 10
4.3105044224
 20
5.7945227117
 30
0.0
 10
4.3102576314
 20
5.7948004565
 30
0.0
 10
4.3099074423
 20
5.7951804536
 30
0.0
 10
4.3094374923
 20
5.7956728012
 30
0.0
 10
4.3089062424
 20
5.7962139859
 30
0.0
 10
4.3083169655
 20
5.7968006317
 30
0.0
 10
4.3076733035
 20
5.7974290724
 30
0.0
 10
4.3067216542
 20
5.7983426469
 30
0.0
 10
4.3054277499
 20
5.7995568095
 30
0.0
 10
4.304356252
 20
5.800538154
 30
0.0
 10
4.3037963809
 20
5.8010455824
 30
0.0
  0
SPLINE
  5
449
100
AcDbEntity
  8
0
100
AcDbSpline
 62
7
  6
CONTINUOUS
 70
0
 71
3
 72
31
 73
27
 74
0
 42
0.0000001
 43
0.0000001
 44
0.0000000001
 40
0.0
 40
0.0
 40
0.0
 40
0.0
 40
0.0018104989
 40
0.0038461162
 40
0.0062448729
 40
0.0090915898
 40
0.0124361134
 40
0.0163079736
 40
0.0207248725
 40
0.0256974338
 40
0.0373293207
 40
0.0512229939
 40
0.0673682701
 40
0.0857385121
 40
0.1062953522
 40
0.1289911328
 40
0.1537703341
 40
0.1805704526
 40
0.2399513421
 40
0.3065152073
 40
0.3795591008
 40
0.4583061701
 40
0.5419144466
 40
0.6294857201
 40
0.8126977592
 40
1.0
 40
1.0
 40
1.0
 40
1.0
 10
4.22548951
 20
5.8763505153
 30
0.0
 10
4.2254969771
 20
5.8763579826
 30
0.0
 10
4.2255158637
 20
5.8763709784
 30
0.0
 10
4.2255510715
 20
5.8763817249
 30
0.0
 10
4.2255936459
 20
5.8763850435
 30
0.0
 10
4.2256437383
 20
5.8763812111
 30
0.0
 10
4.2257015005
 20
5.8763703173
 30
0.0
 10
4.2257669916
 20
5.8763523575
 30
0.0
 10
4.2258402206
 20
5.8763273302
 30
0.0
 10
4.225954221
 20
5.87628209
 30
0.0
 10
4.2261154831
 20
5.8762066679
 30
0.0
 10
4.2263302055
 20
5.8760926546
 30
0.0
 10
4.2265745217
 20
5.8759509998
 30
0.0
 10
4.2268477656
 20
5.8757820555
 30
0.0
 10
4.2271491907
 20
5.8755862217
 30
0.0
 10
4.2274779689
 20
5.8753640079
 30
0.0
 10
4.2278332035
 20
5.8751160022
 30
0.0
 10
4.2283590714
 20
5.8747387053
 30
0.0
 10
4.229074062
 20
5.8742070613
 30
0.0
 10
4.2299936167
 20
5.8734988086
 30
0.0
 10
4.230991739
 20
5.8727076572
 30
0.0
 10
4.2320576133
 20
5.8718421048
 30
0.0
 10
4.2331796804
 20
5.8709114625
 30
0.0
 10
4.2347583169
 20
5.8695769915
 30
0.0
 10
4.2367762194
 20
5.8678254841
 30
0.0
 10
4.2383859978
 20
5.8663834481
 30
0.0
 10
4.2391939096
 20
5.8656480537
 30
0.0
  0
SPLINE
  5
44A
100
AcDbEntity
  8
0
100
AcDbSpline
 62
7
  6
CONTINUOUS
 70
0
 71
3
 72
32
 73
28
 74
0
 42
0.0000001
 43
0.0000001
 44
0.0000000001
 40
0.0
 40
0.0
 40
0.0
 40
0.0
 40
0.0019204096
 40
0.0039784281
 40
0.006313084
 40
0.0090208335
 40
0.0121633667
 40
0.0157795916
 40
0.0198942528
 40
0.024523257
 40
0.0353599921
 40
0.0483365105
 40
0.0634640264
 40
0.0807353264
 40
0.1001309068
 40
0.1216220778
 40
0.1451726861
 40
0.1707401661
 40
0.2277263849
 40
0.2921343257
 40
0.3634425017
 40
0.4410636645
 40
0.5243519572
 40
0.6126100406
 40
0.7050962913
 40
0.8010322419
 40
1.0
 40
1.0
 40
1.0
 40
1.0
 10
4.2488002593
 20
5.8554670915
 30
0.0
 10
4.2488066449
 20
5.855473477
 30
0.0
 10
4.2488178618
 20
5.8554888742
 30
0.0
 10
4.2488277349
 20
5.8555172216
 30
0.0
 10
4.2488311694
 20
5.8555506602
 30
0.0
 10
4.2488284386
 20
5.8555891889
 30
0.0
 10
4.2488196587
 20
5.8556329195
 30
0.0
 10
4.2488048472
 20
5.8556819185
 30
0.0
 10
4.2487840052
 20
5.8557362168
 30
0.0
 10
4.2487461117
 20
5.855820175
 30
0.0
 10
4.2486825289
 20
5.8559380095
 30
0.0
 10
4.248586046
 20
5.8560937165
 30
0.0
 10
4.2484657753
 20
5.85627003
 30
0.0
 10
4.2483219151
 20
5.856466601
 30
0.0
 10
4.2481546928
 20
5.8566830325
 30
0.0
 10
4.2479644216
 20
5.8569188764
 30
0.0
 10
4.2477514728
 20
5.8571736457
 30
0.0
 10
4.247425892
 20
5.857551741
 30
0.0
 10
4.246964896
 20
5.8580666666
 30
0.0
 10
4.2463478194
 20
5.8587303025
 30
0.0
 10
4.2456535418
 20
5.8594544876
 30
0.0
 10
4.2448878776
 20
5.8602330921
 30
0.0
 10
4.2440572585
 20
5.861059505
 30
0.0
 10
4.243168703
 20
5.8619267072
 30
0.0
 10
4.2422297362
 20
5.8628273363
 30
0.0
 10
4.2409050173
 20
5.864077777
 30
0.0
 10
4.2398858184
 20
5.86501825
 30
0.0
 10
4.2391939096
 20
5.8656480537
 30
0.0
  0
SPLINE
  5
44B
100
AcDbEntity
  8
0
100
AcDbSpline
 62
7
  6
CONTINUOUS
 70
0
 71
3
 72
32
 73
28
 74
0
 42
0.0000001
 43
0.0000001
 44
0.0000000001
 40
0.0
 40
0.0
 40
0.0
 40
0.0
 40
0.0021749121
 40
0.0045161652
 40
0.0071407786
 40
0.010132216
 40
0.013546387
 40
0.0174202563
 40
0.0217782177
 40
0.0266365203
 40
0.0378914813
 40
0.051235633
 40
0.0666827477
 40
0.0842272879
 40
0.1038508718
 40
0.1255256698
 40
0.149216341
 40
0.1748812029
 40
0.2319382504
 40
0.2962614452
 40
0.3673436981
 40
0.4446155639
 40
0.5274514209
 40
0.6151753084
 40
0.7070667687
 40
0.8023667425
 40
1.0
 40
1.0
 40
1.0
 40
1.0
 10
4.153024656
 20
5.949189155
 30
0.0
 10
4.153031955
 20
5.9491964541
 30
0.0
 10
4.1530492944
 20
5.9492095487
 30
0.0
 10
4.1530808142
 20
5.9492227295
 30
0.0
 10
4.1531180659
 20
5.9492300621
 30
0.0
 10
4.1531610206
 20
5.9492317257
 30
0.0
 10
4.1532097392
 20
5.949227823
 30
0.0
 10
4.1532642602
 20
5.9492183795
 30
0.0
 10
4.1533246004
 20
5.9492034078
 30
0.0
 10
4.1534174383
 20
5.9491746123
 30
0.0
 10
4.1535477978
 20
5.9491236353
 30
0.0
 10
4.1537201988
 20
5.9490434445
 30
0.0
 10
4.1539151358
 20
5.9489415083
 30
0.0
 10
4.1541322188
 20
5.9488180007
 30
0.0
 10
4.1543710114
 20
5.9486731199
 30
0.0
 10
4.1546310185
 20
5.9485071396
 30
0.0
 10
4.1549117043
 20
5.9483203857
 30
0.0
 10
4.1553276493
 20
5.9480338854
 30
0.0
 10
4.1558939487
 20
5.9476258733
 30
0.0
 10
4.1566238176
 20
5.9470765306
 30
0.0
 10
4.1574199445
 20
5.9464559275
 30
0.0
 10
4.1582757301
 20
5.9457691383
 30
0.0
 10
4.1591840665
 20
5.9450217851
 30
0.0
 10
4.1601373969
 20
5.9442200301
 30
0.0
 10
4.1611277745
 20
5.9433705152
 30
0.0
 10
4.1625033338
 20
5.9421689507
 30
0.0
 10
4.1635387247
 20
5.9412409761
 30
0.0
 10
4.1642323882
 20
5.9406095751
 30
0.0
  0
SPLINE
  5
44C
100
AcDbEntity
  8
0
100
AcDbSpline
 62
7
  6
CONTINUOUS
 70
0
 71
3
 72
32
 73
28
 74
0
 42
0.0000001
 43
0.0000001
 44
0.0000000001
 40
0.0
 40
0.0
 40
0.0
 40
0.0
 40
0.0020120086
 40
0.0041800261
 40
0.0066489579
 40
0.0095179416
 40
0.0128498075
 40
0.0166838056
 40
0.0210445632
 40
0.0259477078
 40
0.0374141707
 40
0.0511235457
 40
0.0670783857
 40
0.0852608623
 40
0.1056390583
 40
0.1281701723
 40
0.1528023254
 40
0.1794757046
 40
0.2386705384
 40
0.3051429061
 40
0.3781868626
 40
0.4570152302
 40
0.5407706234
 40
0.6285368307
 40
0.7193506921
 40
0.8122143477
 40
1.0
 40
1.0
 40
1.0
 40
1.0
 10
4.175961575
 20
5.9279319008
 30
0.0
 10
4.1759698337
 20
5.9279401592
 30
0.0
 10
4.1759843393
 20
5.9279601667
 30
0.0
 10
4.1759970945
 20
5.927997043
 30
0.0
 10
4.1760015936
 20
5.9280406682
 30
0.0
 10
4.1759981832
 20
5.9280910518
 30
0.0
 10
4.1759870045
 20
5.9281483328
 30
0.0
 10
4.1759680788
 20
5.9282125862
 30
0.0
 10
4.1759414097
 20
5.9282838402
 30
0.0
 10
4.175892906
 20
5.9283940216
 30
0.0
 10
4.1758114989
 20
5.9285486977
 30
0.0
 10
4.1756879474
 20
5.9287530926
 30
0.0
 10
4.1755340222
 20
5.9289843643
 30
0.0
 10
4.1753500708
 20
5.9292419111
 30
0.0
 10
4.175136497
 20
5.9295250525
 30
0.0
 10
4.1748938325
 20
5.9298330257
 30
0.0
 10
4.1746227011
 20
5.9301650018
 30
0.0
 10
4.174209598
 20
5.9306557227
 30
0.0
 10
4.1736268674
 20
5.9313209862
 30
0.0
 10
4.1728500449
 20
5.9321737377
 30
0.0
 10
4.1719816222
 20
5.9330969858
 30
0.0
 10
4.1710310899
 20
5.9340805456
 30
0.0
 10
4.1700088766
 20
5.9351135295
 30
0.0
 10
4.168926259
 20
5.936184491
 30
0.0
 10
4.1677952098
 20
5.9372815654
 30
0.0
 10
4.1662334942
 20
5.9387683876
 30
0.0
 10
4.1650385054
 20
5.9398758143
 30
0.0
 10
4.1642323882
 20
5.9406095751
 30
0.0
  0
SPLINE
  5
44D
100
AcDbEntity
  8
0
100
AcDbSpline
 62
7
  6
CONTINUOUS
 70
0
 71
3
 72
30
 73
26
 74
0
 42
0.0000001
 43
0.0000001
 44
0.0000000001
 40
0.0
 40
0.0
 40
0.0
 40
0.0
 40
0.0025581797
 40
0.0052389346
 40
0.0081399863
 40
0.0113386415
 40
0.0188338517
 40
0.028030658
 40
0.0390775107
 40
0.0520507803
 40
0.0669879786
 40
0.0839037082
 40
0.1027979205
 40
0.1236603971
 40
0.1464732372
 40
0.1712123368
 40
0.2263465794
 40
0.2887803751
 40
0.3581691843
 40
0.4341168818
 40
0.5161808595
 40
0.6038762407
 40
0.696679639
 40
0.7940326703
 40
1.0
 40
1.0
 40
1.0
 40
1.0
 10
4.0734448155
 20
6.0291795002
 30
0.0
 10
4.0734514698
 20
6.0291861545
 30
0.0
 10
4.0734666392
 20
6.0291983199
 30
0.0
 10
4.0734935085
 20
6.0292119348
 30
0.0
 10
4.0735246061
 20
6.0292211972
 30
0.0
 10
4.0735742748
 20
6.029228189
 30
0.0
 10
4.0736479131
 20
6.0292247012
 30
0.0
 10
4.0737481168
 20
6.0292043904
 30
0.0
 10
4.0738648635
 20
6.0291677386
 30
0.0
 10
4.0739981018
 20
6.0291147219
 30
0.0
 10
4.0741477618
 20
6.0290453289
 30
0.0
 10
4.0743136471
 20
6.0289596086
 30
0.0
 10
4.0744955287
 20
6.0288576508
 30
0.0
 10
4.0746931378
 20
6.0287395822
 30
0.0
 10
4.0749061817
 20
6.0286055654
 30
0.0
 10
4.0752219685
 20
6.0283982374
 30
0.0
 10
4.0756521562
 20
6.0280997818
 30
0.0
 10
4.0762073004
 20
6.0276937276
 30
0.0
 10
4.0768150566
 20
6.0272301848
 30
0.0
 10
4.0774717294
 20
6.026711912
 30
0.0
 10
4.0781733142
 20
6.0261419975
 30
0.0
 10
4.0789155253
 20
6.0255238752
 30
0.0
 10
4.0796938214
 20
6.024861292
 30
0.0
 10
4.0807940976
 20
6.0239058537
 30
0.0
 10
4.0816265868
 20
6.0231627899
 30
0.0
 10
4.0821879949
 20
6.0226539684
 30
0.0
  0
SPLINE
  5
44E
100
AcDbEntity
  8
0
100
AcDbSpline
 62
7
  6
CONTINUOUS
 70
0
 71
3
 72
34
 73
30
 74
0
 42
0.0000001
 43
0.0000001
 44
0.0000000001
 40
0.0
 40
0.0
 40
0.0
 40
0.0
 40
0.0020512794
 40
0.0042878094
 40
0.0068645535
 40
0.0098836572
 40
0.0134079674
 40
0.0174756016
 40
0.0221099103
 40
0.0273250293
 40
0.033129263
 40
0.0395269264
 40
0.0541052604
 40
0.0710509096
 40
0.0903308745
 40
0.111896386
 40
0.135686065
 40
0.1616277485
 40
0.1896396887
 40
0.2515031284
 40
0.3204594269
 40
0.3955778155
 40
0.4758315306
 40
0.5601145355
 40
0.6472591648
 40
0.7360546978
 40
0.825266652
 40
0.9136563381
 40
1.0
 40
1.0
 40
1.0
 40
1.0
 10
4.0959711996
 20
6.0075117109
 30
0.0
 10
4.0959811826
 20
6.0075216937
 30
0.0
 10
4.0959986326
 20
6.0075462233
 30
0.0
 10
4.0960134313
 20
6.0075916536
 30
0.0
 10
4.0960180044
 20
6.0076457128
 30
0.0
 10
4.0960127915
 20
6.0077084707
 30
0.0
 10
4.0959979459
 20
6.0077801098
 30
0.0
 10
4.0959734879
 20
6.0078607132
 30
0.0
 10
4.0959394127
 20
6.0079502939
 30
0.0
 10
4.0958957208
 20
6.0080488184
 30
0.0
 10
4.0958424293
 20
6.0081562282
 30
0.0
 10
4.0957546989
 20
6.0083183608
 30
0.0
 10
4.0956201616
 20
6.0085421566
 30
0.0
 10
4.0954277154
 20
6.0088341693
 30
0.0
 10
4.0951983563
 20
6.0091591971
 30
0.0
 10
4.0949328075
 20
6.0095161437
 30
0.0
 10
4.0946319019
 20
6.0099037948
 30
0.0
 10
4.0942966319
 20
6.0103208304
 30
0.0
 10
4.0937881716
 20
6.0109347496
 30
0.0
 10
4.0930746781
 20
6.0117630983
 30
0.0
 10
4.0921288709
 20
6.0128188413
 30
0.0
 10
4.0910800779
 20
6.0139519757
 30
0.0
 10
4.0899427981
 20
6.0151467078
 30
0.0
 10
4.0887328249
 20
6.016386323
 30
0.0
 10
4.0874670519
 20
6.0176534524
 30
0.0
 10
4.0861631946
 20
6.018930329
 30
0.0
 10
4.0848395171
 20
6.0201990633
 30
0.0
 10
4.0835145516
 20
6.0214419114
 30
0.0
 10
4.0826283185
 20
6.0222548895
 30
0.0
 10
4.0821879949
 20
6.0226539684
 30
0.0
  0
SPLINE
  5
44F
100
AcDbEntity
  8
0
100
AcDbSpline
 62
7
  6
CONTINUOUS
 70
0
 71
3
 72
32
 73
28
 74
0
 42
0.0000001
 43
0.0000001
 44
0.0000000001
 40
0.0
 40
0.0
 40
0.0
 40
0.0
 40
0.0022754463
 40
0.0046984053
 40
0.0073919696
 40
0.0104461347
 40
0.0139223706
 40
0.0178615561
 40
0.0222909685
 40
0.0272286989
 40
0.0386709605
 40
0.0522447172
 40
0.0679651023
 40
0.085825392
 40
0.1058042343
 40
0.1278694185
 40
0.1519800037
 40
0.178087638
 40
0.2360672148
 40
0.3013011952
 40
0.3731978295
 40
0.4510919375
 40
0.5342531929
 40
0.6218942862
 40
0.7131793781
 40
0.8072329503
 40
1.0
 40
1.0
 40
1.0
 40
1.0
 10
4.012325098
 20
6.0907285043
 30
0.0
 10
4.0123335971
 20
6.0907370037
 30
0.0
 10
4.0123488327
 20
6.0907570147
 30
0.0
 10
4.0123641632
 20
6.0907932791
 30
0.0
 10
4.012372517
 20
6.0908358707
 30
0.0
 10
4.0123741099
 20
6.090884727
 30
0.0
 10
4.0123690661
 20
6.0909399089
 30
0.0
 10
4.0123574256
 20
6.0910014602
 30
0.0
 10
4.0123392024
 20
6.0910694002
 30
0.0
 10
4.0123043606
 20
6.0911737102
 30
0.0
 10
4.0122429775
 20
6.0913197657
 30
0.0
 10
4.0121467423
 20
6.0915123342
 30
0.0
 10
4.0120246562
 20
6.0917295423
 30
0.0
 10
4.0118769506
 20
6.091970903
 30
0.0
 10
4.0117038939
 20
6.0922358701
 30
0.0
 10
4.0115058539
 20
6.0925238233
 30
0.0
 10
4.011283269
 20
6.0928340899
 30
0.0
 10
4.0109423089
 20
6.0932928181
 30
0.0
 10
4.0104577421
 20
6.0939153204
 30
0.0
 10
4.0098068698
 20
6.0947145209
 30
0.0
 10
4.0090738607
 20
6.0955822514
 30
0.0
 10
4.0082656333
 20
6.0965102051
 30
0.0
 10
4.0073898545
 20
6.0974894563
 30
0.0
 10
4.0064549065
 20
6.0985105542
 30
0.0
 10
4.0054697905
 20
6.0995636171
 30
0.0
 10
4.0040908025
 20
6.1010084988
 30
0.0
 10
4.003029107
 20
6.10208955
 30
0.0
 10
4.002309082
 20
6.102809575
 30
0.0
  0
SPLINE
  5
450
100
AcDbEntity
  8
0
100
AcDbSpline
 62
7
  6
CONTINUOUS
 70
0
 71
3
 72
25
 73
21
 74
0
 42
0.0000001
 43
0.0000001
 44
0.0000000001
 40
0.0
 40
0.0
 40
0.0
 40
0.0
 40
0.0070208029
 40
0.0145467489
 40
0.0230233689
 40
0.0327648857
 40
0.0439769399
 40
0.0567917156
 40
0.0712940377
 40
0.0875388215
 40
0.12537517
 40
0.1704520209
 40
0.2227897065
 40
0.2823381568
 40
0.3489990597
 40
0.4226372611
 40
0.5030872443
 40
0.590157132
 40
0.7832689218
 40
1.0
 40
1.0
 40
1.0
 40
1.0
 10
3.907011218
 20
6.1964716924
 30
0.0
 10
3.9070200834
 20
6.1964805577
 30
0.0
 10
3.9070412851
 20
6.1964962773
 30
0.0
 10
3.9070800823
 20
6.1965110476
 30
0.0
 10
3.9071258572
 20
6.1965176979
 30
0.0
 10
3.9071785758
 20
6.196516526
 30
0.0
 10
3.9072383433
 20
6.1965076791
 30
0.0
 10
3.9073052217
 20
6.1964911883
 30
0.0
 10
3.9073792355
 20
6.1964670653
 30
0.0
 10
3.9074933218
 20
6.1964223747
 30
0.0
 10
3.9076532811
 20
6.1963459488
 30
0.0
 10
3.9078644103
 20
6.1962284644
 30
0.0
 10
3.908102911
 20
6.1960810559
 30
0.0
 10
3.9083681666
 20
6.1959040523
 30
0.0
 10
3.9086594823
 20
6.1956978369
 30
0.0
 10
3.9089760769
 20
6.1954629185
 30
0.0
 10
3.909317102
 20
6.1951998971
 30
0.0
 10
3.9098207804
 20
6.1947985557
 30
0.0
 10
3.9105031379
 20
6.1942311247
 30
0.0
 10
3.9110560617
 20
6.193751551
 30
0.0
 10
3.9113463691
 20
6.1934955942
 30
0.0
  0
SPLINE
  5
451
100
AcDbEntity
  8
0
100
AcDbSpline
 62
7
  6
CONTINUOUS
 70
0
 71
3
 72
35
 73
31
 74
0
 42
0.0000001
 43
0.0000001
 44
0.0000000001
 40
0.0
 40
0.0
 40
0.0
 40
0.0
 40
0.0009806687
 40
0.0020012434
 40
0.0042791681
 40
0.0070292008
 40
0.0103576859
 40
0.0143223982
 40
0.0189548181
 40
0.0242718674
 40
0.0302817815
 40
0.036987283
 40
0.0443873416
 40
0.0612525872
 40
0.080824235
 40
0.1030226155
 40
0.1277486427
 40
0.1548866228
 40
0.1843060357
 40
0.2158629387
 40
0.2847516689
 40
0.3601727727
 40
0.4405947885
 40
0.5243694233
 40
0.6097677457
 40
0.6950192576
 40
0.7783529318
 40
0.8580389716
 40
0.9324299727
 40
1.0
 40
1.0
 40
1.0
 40
1.0
 10
3.9286790073
 20
6.1739453084
 30
0.0
 10
3.9286850925
 20
6.1739513935
 30
0.0
 10
3.9286962933
 20
6.1739650907
 30
0.0
 10
3.9287142231
 20
6.1739983051
 30
0.0
 10
3.9287266601
 20
6.1740507734
 30
0.0
 10
3.9287264573
 20
6.1741244793
 30
0.0
 10
3.9287125098
 20
6.1742117589
 30
0.0
 10
3.9286848109
 20
6.1743128227
 30
0.0
 10
3.9286433716
 20
6.1744277764
 30
0.0
 10
3.9285881712
 20
6.1745565547
 30
0.0
 10
3.928519236
 20
6.1746990395
 30
0.0
 10
3.9284366243
 20
6.1748550715
 30
0.0
 10
3.9283023583
 20
6.1750914067
 30
0.0
 10
3.9280997244
 20
6.1754185491
 30
0.0
 10
3.9278137158
 20
6.1758463641
 30
0.0
 10
3.9274764835
 20
6.1763226481
 30
0.0
 10
3.9270896761
 20
6.1768449819
 30
0.0
 10
3.926655176
 20
6.177410702
 30
0.0
 10
3.926175154
 20
6.1780169279
 30
0.0
 10
3.9254563261
 20
6.1789012716
 30
0.0
 10
3.9244624169
 20
6.1800820644
 30
0.0
 10
3.9231655113
 20
6.1815678517
 30
0.0
 10
3.9217582439
 20
6.1831303556
 30
0.0
 10
3.9202696592
 20
6.184737145
 30
0.0
 10
3.9187306513
 20
6.1863547211
 30
0.0
 10
3.9171733346
 20
6.1879492744
 30
0.0
 10
3.915630302
 20
6.1894874416
 30
0.0
 10
3.9141338838
 20
6.1909370933
 30
0.0
 10
3.9127154122
 20
6.1922680428
 30
0.0
 10
3.9117911365
 20
6.1931034539
 30
0.0
 10
3.9113463691
 20
6.1934955942
 30
0.0
  0
SPLINE
  5
452
100
AcDbEntity
  8
0
100
AcDbSpline
 62
7
  6
CONTINUOUS
 70
0
 71
3
 72
24
 73
20
 74
0
 42
0.0000001
 43
0.0000001
 44
0.0000000001
 40
0.0
 40
0.0
 40
0.0
 40
0.0
 40
0.0083684085
 40
0.0170940763
 40
0.0265574883
 40
0.0370582747
 40
0.0488160634
 40
0.0619863263
 40
0.0929500567
 40
0.1305144995
 40
0.1749458267
 40
0.2263715278
 40
0.2848395826
 40
0.3503475613
 40
0.4228576628
 40
0.5023051631
 40
0.5886044071
 40
0.781320562
 40
1.0
 40
1.0
 40
1.0
 40
1.0
 10
3.8274314078
 20
6.276462068
 30
0.0
 10
3.8274375873
 20
6.2764682474
 30
0.0
 10
3.8274517424
 20
6.276479429
 30
0.0
 10
3.8274769879
 20
6.2764913837
 30
0.0
 10
3.8275062075
 20
6.2764987032
 30
0.0
 10
3.8275393297
 20
6.2765014945
 30
0.0
 10
3.8275763718
 20
6.2764998448
 30
0.0
 10
3.8276341863
 20
6.2764912727
 30
0.0
 10
3.8277166113
 20
6.2764681271
 30
0.0
 10
3.8278263416
 20
6.2764245217
 30
0.0
 10
3.827951747
 20
6.2763635711
 30
0.0
 10
3.8280926905
 20
6.2762853054
 30
0.0
 10
3.8282490147
 20
6.2761897558
 30
0.0
 10
3.8284204964
 20
6.2760770241
 30
0.0
 10
3.8286068855
 20
6.2759472459
 30
0.0
 10
3.8288079057
 20
6.2758005984
 30
0.0
 10
3.8291061768
 20
6.2755743731
 30
0.0
 10
3.8295125422
 20
6.2752502234
 30
0.0
 10
3.8298419671
 20
6.2749744008
 30
0.0
 10
3.8300157354
 20
6.2748262279
 30
0.0
  0
SPLINE
  5
453
100
AcDbEntity
  8
0
100
AcDbSpline
 62
7
  6
CONTINUOUS
 70
0
 71
3
 72
40
 73
36
 74
0
 42
0.0000001
 43
0.0000001
 44
0.0000000001
 40
0.0
 40
0.0
 40
0.0
 40
0.0
 40
0.0009267155
 40
0.0019072611
 40
0.002980592
 40
0.004176497
 40
0.0055164181
 40
0.0070154653
 40
0.0105282863
 40
0.0147696669
 40
0.0197650579
 40
0.0255261974
 40
0.0320568447
 40
0.039355623
 40
0.0474175195
 40
0.056234796
 40
0.0657975319
 40
0.0871100778
 40
0.1112426875
 40
0.1380603091
 40
0.1674086948
 40
0.1991163532
 40
0.2329960332
 40
0.3064510151
 40
0.386012503
 40
0.4697529761
 40
0.5556270092
 40
0.6415232525
 40
0.7253203652
 40
0.8049453246
 40
0.878431984
 40
0.9123027581
 40
0.9439788515
 40
0.9732691999
 40
1.0
 40
1.0
 40
1.0
 40
1.0
 10
3.8486886621
 20
6.2535251489
 30
0.0
 10
3.8486948917
 20
6.2535313785
 30
0.0
 10
3.8487062322
 20
6.2535457612
 30
0.0
 10
3.8487186222
 20
6.2535714471
 30
0.0
 10
3.8487267372
 20
6.2536014077
 30
0.0
 10
3.8487306709
 20
6.2536355933
 30
0.0
 10
3.8487305007
 20
6.2536740231
 30
0.0
 10
3.8487244875
 20
6.2537341784
 30
0.0
 10
3.8487054627
 20
6.253820337
 30
0.0
 10
3.8486678167
 20
6.2539356606
 30
0.0
 10
3.8486141288
 20
6.2540678482
 30
0.0
 10
3.8485444358
 20
6.2542167409
 30
0.0
 10
3.8484587753
 20
6.2543821587
 30
0.0
 10
3.8483572466
 20
6.254563859
 30
0.0
 10
3.8482399789
 20
6.2547615712
 30
0.0
 10
3.848107138
 20
6.2549749981
 30
0.0
 10
3.8479019562
 20
6.2552917039
 30
0.0
 10
3.8476071987
 20
6.255723751
 30
0.0
 10
3.8472069148
 20
6.2562821195
 30
0.0
 10
3.846750605
 20
6.2568941496
 30
0.0
 10
3.8462409882
 20
6.2575561244
 30
0.0
 10
3.8456811037
 20
6.258264025
 30
0.0
 10
3.8448493383
 20
6.2592913873
 30
0.0
 10
3.8437101245
 20
6.2606550178
 30
0.0
 10
3.8422387734
 20
6.2623583968
 30
0.0
 10
3.8406642409
 20
6.2641283226
 30
0.0
 10
3.8390251927
 20
6.2659211491
 30
0.0
 10
3.8373621192
 20
6.2676924509
 30
0.0
 10
3.8357163454
 20
6.2693982156
 30
0.0
 10
3.83412889
 20
6.2709959831
 30
0.0
 10
3.832855214
 20
6.2722361312
 30
0.0
 10
3.8318939801
 20
6.2731433885
 30
0.0
 10
3.8312312096
 20
6.273754651
 30
0.0
 10
3.8306108934
 20
6.2743117197
 30
0.0
 10
3.8302091026
 20
6.274661343
 30
0.0
 10
3.8300157354
 20
6.2748262279
 30
0.0
  0
SPLINE
  5
454
100
AcDbEntity
  8
0
100
AcDbSpline
 62
7
  6
CONTINUOUS
 70
0
 71
3
 72
19
 73
15
 74
0
 42
0.0000001
 43
0.0000001
 44
0.0000000001
 40
0.0
 40
0.0
 40
0.0
 40
0.0
 40
0.0213236224
 40
0.0446707046
 40
0.0719235802
 40
0.1042831284
 40
0.1424625169
 40
0.1868834825
 40
0.2378009317
 40
0.2953687226
 40
0.4307640598
 40
0.5934075731
 40
0.7832439204
 40
1.0
 40
1.0
 40
1.0
 40
1.0
 10
3.7549665984
 20
6.3493007525
 30
0.0
 10
3.7549739213
 20
6.3493080752
 30
0.0
 10
3.7549921866
 20
6.3493207091
 30
0.0
 10
3.7550262583
 20
6.3493302885
 30
0.0
 10
3.7550668103
 20
6.3493314854
 30
0.0
 10
3.7551139791
 20
6.3493247074
 30
0.0
 10
3.7551679583
 20
6.3493100628
 30
0.0
 10
3.7552288366
 20
6.34928755
 30
0.0
 10
3.7552966405
 20
6.3492571582
 30
0.0
 10
3.7554020777
 20
6.3492031053
 30
0.0
 10
3.755550539
 20
6.349114562
 30
0.0
 10
3.7557473
 20
6.3489824361
 30
0.0
 10
3.7559706459
 20
6.3488194133
 30
0.0
 10
3.7561266538
 20
6.3486983167
 30
0.0
 10
3.7562091013
 20
6.3486328621
 30
0.0
  0
SPLINE
  5
455
100
AcDbEntity
  8
0
100
AcDbSpline
 62
7
  6
CONTINUOUS
 70
0
 71
3
 72
43
 73
39
 74
0
 42
0.0000001
 43
0.0000001
 44
0.0000000001
 40
0.0
 40
0.0
 40
0.0
 40
0.0
 40
0.0008472025
 40
0.0017682497
 40
0.0028112655
 40
0.0040095521
 40
0.0053849123
 40
0.0069515203
 40
0.0087186037
 40
0.0106923008
 40
0.0152735003
 40
0.0207140747
 40
0.0270193467
 40
0.034187538
 40
0.0422121982
 40
0.0510834632
 40
0.0607887637
 40
0.0713132462
 40
0.0947501681
 40
0.121239088
 40
0.1505993043
 40
0.1826277456
 40
0.2171011995
 40
0.2537780397
 40
0.3326939459
 40
0.4171451431
 40
0.5047259428
 40
0.5929231949
 40
0.6791896657
 40
0.7610224333
 40
0.7995263636
 40
0.8360444247
 40
0.8703120824
 40
0.9020824115
 40
0.9311284476
 40
0.9572454447
 40
0.9802533282
 40
1.0
 40
1.0
 40
1.0
 40
1.0
 10
3.7758500224
 20
6.3259900029
 30
0.0
 10
3.7758560427
 20
6.3259960232
 30
0.0
 10
3.7758668044
 20
6.3260104944
 30
0.0
 10
3.7758773946
 20
6.3260369404
 30
0.0
 10
3.7758830442
 20
6.3260683838
 30
0.0
 10
3.7758839155
 20
6.3261048234
 30
0.0
 10
3.7758800902
 20
6.3261463247
 30
0.0
 10
3.7758715848
 20
6.3261929254
 30
0.0
 10
3.7758584074
 20
6.3262446428
 30
0.0
 10
3.7758333136
 20
6.3263244553
 30
0.0
 10
3.7757892951
 20
6.3264368165
 30
0.0
 10
3.7757204448
 20
6.3265858129
 30
0.0
 10
3.7756331734
 20
6.3267547257
 30
0.0
 10
3.7755276105
 20
6.3269432587
 30
0.0
 10
3.7754039012
 20
6.32715108
 30
0.0
 10
3.7752622491
 20
6.3273778132
 30
0.0
 10
3.775102897
 20
6.3276230511
 30
0.0
 10
3.7748582663
 20
6.327987382
 30
0.0
 10
3.7745096519
 20
6.3284849644
 30
0.0
 10
3.7740398547
 20
6.3291285559
 30
0.0
 10
3.773508044
 20
6.3298336361
 30
0.0
 10
3.7729179725
 20
6.3305951661
 30
0.0
 10
3.772273801
 20
6.3314077094
 30
0.0
 10
3.7713254268
 20
6.3325802994
 30
0.0
 10
3.7700405494
 20
6.3341265607
 30
0.0
 10
3.768400738
 20
6.3360426351
 30
0.0
 10
3.7666741675
 20
6.3380069242
 30
0.0
 10
3.7649105877
 20
6.3399626863
 30
0.0
 10
3.7631611309
 20
6.3418531127
 30
0.0
 10
3.7617298649
 20
6.3433573273
 30
0.0
 10
3.7606293672
 20
6.3444859114
 30
0.0
 10
3.7598556283
 20
6.3452654202
 30
0.0
 10
3.7591223197
 20
6.3459896467
 30
0.0
 10
3.7584348181
 20
6.3466533128
 30
0.0
 10
3.7577981638
 20
6.3472516107
 30
0.0
 10
3.7572170161
 20
6.3477802596
 30
0.0
 10
3.7566956222
 20
6.3482355071
 30
0.0
 10
3.7563645214
 20
6.3485094748
 30
0.0
 10
3.7562091013
 20
6.3486328621
 30
0.0
  0
LINE
  5
456
100
AcDbEntity
  8
0
100
AcDbLine
 62
7
  6
CONTINUOUS
 10
3.6927838468
 20
6.4118043428
 11
3.6931521708
 21
6.4116897925
  0
SPLINE
  5
457
100
AcDbEntity
  8
0
100
AcDbSpline
 62
7
  6
CONTINUOUS
 70
0
 71
3
 72
61
 73
57
 74
0
 42
0.0000001
 43
0.0000001
 44
0.0000000001
 40
0.0
 40
0.0
 40
0.0
 40
0.0
 40
0.0010061636
 40
0.0019664661
 40
0.0029339687
 40
0.00392156
 40
0.0049147977
 40
0.0058980072
 40
0.0078458734
 40
0.0097927128
 40
0.0117466868
 40
0.0137034443
 40
0.0156582473
 40
0.0195633932
 40
0.0234689105
 40
0.0312819644
 40
0.039094059
 40
0.0469064305
 40
0.0547187513
 40
0.0625310395
 40
0.0703433434
 40
0.078155635
 40
0.0937801399
 40
0.1094046597
 40
0.1250291833
 40
0.1406537092
 40
0.1562782358
 40
0.171902762
 40
0.1875272874
 40
0.2187762821
 40
0.25002529
 40
0.2812743063
 40
0.3125233271
 40
0.3437723509
 40
0.3750213767
 40
0.406270404
 40
0.4375194321
 40
0.5000173706
 40
0.5625153104
 40
0.6250132379
 40
0.6875111343
 40
0.7187601563
 40
0.7500091742
 40
0.7812581861
 40
0.8125071868
 40
0.8437561682
 40
0.8750051097
 40
0.8906296361
 40
0.9062541604
 40
0.9218786804
 40
0.937503184
 40
0.9531276549
 40
0.9687520359
 40
0.9843757704
 40
0.9921883389
 40
1.0
 40
1.0
 40
1.0
 40
1.0
 10
3.7133464834
 20
6.3881728057
 30
0.0
 10
3.7133528524
 20
6.388181084
 30
0.0
 10
3.7133630891
 20
6.3881991453
 30
0.0
 10
3.713370151
 20
6.3882290906
 30
0.0
 10
3.7133706024
 20
6.3882595137
 30
0.0
 10
3.7133666478
 20
6.3882899206
 30
0.0
 10
3.7133602831
 20
6.3883200374
 30
0.0
 10
3.7133503222
 20
6.3883595473
 30
0.0
 10
3.7133350683
 20
6.3884078766
 30
0.0
 10
3.7133137327
 20
6.3884647362
 30
0.0
 10
3.7132901669
 20
6.3885208039
 30
0.0
 10
3.7132648962
 20
6.3885762077
 30
0.0
 10
3.7132297236
 20
6.388649337
 30
0.0
 10
3.7131833284
 20
6.3887394908
 30
0.0
 10
3.7131054992
 20
6.3888817955
 30
0.0
 10
3.71300311
 20
6.3890568297
 30
0.0
 10
3.7128752006
 20
6.3892638095
 30
0.0
 10
3.7127436347
 20
6.3894684721
 30
0.0
 10
3.7126093186
 20
6.3896713369
 30
0.0
 10
3.712472805
 20
6.3898727267
 30
0.0
 10
3.7123344958
 20
6.3900728859
 30
0.0
 10
3.7121480711
 20
6.3903383604
 30
0.0
 10
3.7119118091
 20
6.3906679187
 30
0.0
 10
3.7116243336
 20
6.3910605109
 30
0.0
 10
3.7113336503
 20
6.3914507324
 30
0.0
 10
3.7110402939
 20
6.3918389466
 30
0.0
 10
3.7107446504
 20
6.3922254211
 30
0.0
 10
3.7104470125
 20
6.3926103611
 30
0.0
 10
3.7100478031
 20
6.39312178
 30
0.0
 10
3.7095448269
 20
6.393757947
 30
0.0
 10
3.7089359763
 20
6.3945171382
 30
0.0
 10
3.7083225548
 20
6.39527264
 30
0.0
 10
3.7077050774
 20
6.3960248293
 30
0.0
 10
3.7070839191
 20
6.396773981
 30
0.0
 10
3.7064593583
 20
6.397520298
 30
0.0
 10
3.7058316023
 20
6.3982639293
 30
0.0
 10
3.7049905345
 20
6.3992519932
 30
0.0
 10
3.7039318651
 20
6.4004808095
 30
0.0
 10
3.7026501457
 20
6.4019455593
 30
0.0
 10
3.7013569688
 20
6.4034002046
 30
0.0
 10
3.7002692042
 20
6.4046033485
 30
0.0
 10
3.6993921882
 20
6.4055596494
 30
0.0
 10
3.6987307205
 20
6.4062734621
 30
0.0
 10
3.6980651622
 20
6.4069834635
 30
0.0
 10
3.6973949741
 20
6.407689099
 30
0.0
 10
3.6967193917
 20
6.4083895737
 30
0.0
 10
3.6961509774
 20
6.4089680295
 30
0.0
 10
3.6956920809
 20
6.4094266514
 30
0.0
 10
3.6953454729
 20
6.4097681666
 30
0.0
 10
3.6949959732
 20
6.4101067253
 30
0.0
 10
3.6946429251
 20
6.4104415856
 30
0.0
 10
3.6942853233
 20
6.4107715956
 30
0.0
 10
3.6939215644
 20
6.4110948005
 30
0.0
 10
3.6936106303
 20
6.4113552617
 30
0.0
 10
3.6933537994
 20
6.4115534868
 30
0.0
 10
3.6932204913
 20
6.4116461106
 30
0.0
 10
3.6931521708
 20
6.4116897925
 30
0.0
  0
LINE
  5
458
100
AcDbEntity
  8
0
100
AcDbLine
 62
7
  6
CONTINUOUS
 10
3.670424019
 20
6.4213932843
 11
3.6721306709
 21
6.4196673249
  0
SPLINE
  5
459
100
AcDbEntity
  8
0
100
AcDbSpline
 62
7
  6
CONTINUOUS
 70
0
 71
3
 72
40
 73
36
 74
0
 42
0.0000001
 43
0.0000001
 44
0.0000000001
 40
0.0
 40
0.0
 40
0.0
 40
0.0
 40
0.0004259012
 40
0.0009303248
 40
0.0015555265
 40
0.0023240083
 40
0.0032477027
 40
0.004333295
 40
0.0055847607
 40
0.0070044971
 40
0.0103538253
 40
0.0143875484
 40
0.0191064945
 40
0.0245086972
 40
0.0305904007
 40
0.0373464105
 40
0.0447704071
 40
0.0528551289
 40
0.0709730054
 40
0.0916251524
 40
0.1147246219
 40
0.140173514
 40
0.1678637131
 40
0.1976775205
 40
0.2294881943
 40
0.2631606038
 40
0.3355115003
 40
0.4135039716
 40
0.4958166213
 40
0.5810543043
 40
0.6677702592
 40
0.7544893626
 40
0.8397322461
 40
0.9220401535
 40
1.0
 40
1.0
 40
1.0
 40
1.0
 10
4.26477037
 20
5.8239853091
 30
0.0
 10
4.2647727358
 20
5.8239876748
 30
0.0
 10
4.2647791618
 20
5.8239916273
 30
0.0
 10
4.2647912952
 20
5.823994031
 30
0.0
 10
4.2648062753
 20
5.8239936541
 30
0.0
 10
4.2648242566
 20
5.8239905576
 30
0.0
 10
4.2648453162
 20
5.8239847547
 30
0.0
 10
4.2648694855
 20
5.8239762258
 30
0.0
 10
4.2648967738
 20
5.8239649624
 30
0.0
 10
4.2649397353
 20
5.8239451646
 30
0.0
 10
4.2650010726
 20
5.8239131572
 30
0.0
 10
4.2650835051
 20
5.8238657724
 30
0.0
 10
4.2651782304
 20
5.8238075146
 30
0.0
 10
4.2652851444
 20
5.823738437
 30
0.0
 10
4.2654041272
 20
5.8236585948
 30
0.0
 10
4.2655350461
 20
5.8235680682
 30
0.0
 10
4.2656777569
 20
5.8234669511
 30
0.0
 10
4.2658918125
 20
5.8233121661
 30
0.0
 10
4.2661873484
 20
5.823092755
 30
0.0
 10
4.2665740588
 20
5.8227983541
 30
0.0
 10
4.2670034197
 20
5.8224649478
 30
0.0
 10
4.2674735742
 20
5.8220939646
 30
0.0
 10
4.267982494
 20
5.8216869859
 30
0.0
 10
4.268527993
 20
5.8212457502
 30
0.0
 10
4.2691077357
 20
5.820772141
 30
0.0
 10
4.269943292
 20
5.8200835208
 30
0.0
 10
4.2710533636
 20
5.8191575977
 30
0.0
 10
4.2724492827
 20
5.8179779185
 30
0.0
 10
4.2739154029
 20
5.8167245239
 30
0.0
 10
4.275426807
 20
5.8154186857
 30
0.0
 10
4.276957781
 20
5.8140825907
 30
0.0
 10
4.2784822305
 20
5.8127389948
 30
0.0
 10
4.2799741077
 20
5.8114108484
 30
0.0
 10
4.2814078442
 20
5.8101209151
 30
0.0
 10
4.2823389447
 20
5.8092735079
 30
0.0
 10
4.2827904654
 20
5.8088597742
 30
0.0
  0
SPLINE
  5
45A
100
AcDbEntity
  8
0
100
AcDbSpline
 62
7
  6
CONTINUOUS
 70
0
 71
3
 72
31
 73
27
 74
0
 42
0.0000001
 43
0.0000001
 44
0.0000000001
 40
0.0
 40
0.0
 40
0.0
 40
0.0
 40
0.0015554391
 40
0.0033195959
 40
0.0054190946
 40
0.0079298628
 40
0.0108958575
 40
0.0143431729
 40
0.0182876319
 40
0.0227391744
 40
0.0331847419
 40
0.0457063893
 40
0.0603079129
 40
0.0769813809
 40
0.0957110167
 40
0.1164750965
 40
0.1392470517
 40
0.1639961964
 40
0.2192845147
 40
0.2820253174
 40
0.3518542858
 40
0.4283623439
 40
0.5110995866
 40
0.5995780834
 40
0.7916367032
 40
1.0
 40
1.0
 40
1.0
 40
1.0
 10
4.2132118198
 20
5.8758093997
 30
0.0
 10
4.2132157355
 20
5.8758133153
 30
0.0
 10
4.2132257669
 20
5.8758200819
 30
0.0
 10
4.2132445353
 20
5.875825399
 30
0.0
 10
4.2132673194
 20
5.8758266617
 30
0.0
 10
4.2132942341
 20
5.8758240198
 30
0.0
 10
4.2133253773
 20
5.8758175152
 30
0.0
 10
4.213360792
 20
5.8758071378
 30
0.0
 10
4.2134004939
 20
5.8757928826
 30
0.0
 10
4.2134625179
 20
5.8757672863
 30
0.0
 10
4.2135505362
 20
5.8757249144
 30
0.0
 10
4.2136681436
 20
5.8756611509
 30
0.0
 10
4.2138025347
 20
5.8755820334
 30
0.0
 10
4.2139535074
 20
5.8754876627
 30
0.0
 10
4.2141208324
 20
5.8753781487
 30
0.0
 10
4.2143042535
 20
5.8752536445
 30
0.0
 10
4.2145034923
 20
5.8751143299
 30
0.0
 10
4.2148009885
 20
5.8749010882
 30
0.0
 10
4.2152095734
 20
5.8745986407
 30
0.0
 10
4.2157411777
 20
5.8741927757
 30
0.0
 10
4.2163274151
 20
5.873734067
 30
0.0
 10
4.2169647729
 20
5.8732252357
 30
0.0
 10
4.2176494395
 20
5.8726692946
 30
0.0
 10
4.2186475766
 20
5.8718468387
 30
0.0
 10
4.2199801183
 20
5.8707269791
 30
0.0
 10
4.2210619764
 20
5.8697985828
 30
0.0
 10
4.2216227764
 20
5.869313002
 30
0.0
  0
SPLINE
  5
45B
100
AcDbEntity
  8
0
100
AcDbSpline
 62
7
  6
CONTINUOUS
 70
0
 71
3
 72
25
 73
21
 74
0
 42
0.0000001
 43
0.0000001
 44
0.0000000001
 40
0.0
 40
0.0
 40
0.0
 40
0.0
 40
0.0062508588
 40
0.013146423
 40
0.021120335
 40
0.0304552859
 40
0.0413265262
 40
0.0538426221
 40
0.068071992
 40
0.0840588549
 40
0.1214017386
 40
0.1659980223
 40
0.2178754084
 40
0.2770101072
 40
0.3433441807
 40
0.4167943951
 40
0.5846076415
 40
0.6787169296
 40
0.7794303754
 40
1.0
 40
1.0
 40
1.0
 40
1.0
 10
4.1460194151
 20
5.9433478755
 30
0.0
 10
4.1460245245
 20
5.9433529848
 30
0.0
 10
4.1460371319
 20
5.9433619738
 30
0.0
 10
4.1460604581
 20
5.9433699679
 30
0.0
 10
4.1460884145
 20
5.9433731568
 30
0.0
 10
4.1461210522
 20
5.943371726
 30
0.0
 10
4.1461584629
 20
5.9433657436
 30
0.0
 10
4.1462006931
 20
5.9433552155
 30
0.0
 10
4.1462477623
 20
5.9433401412
 30
0.0
 10
4.1463208281
 20
5.9433124929
 30
0.0
 10
4.1464240138
 20
5.9432656983
 30
0.0
 10
4.1465612412
 20
5.9431942155
 30
0.0
 10
4.1467173492
 20
5.9431047745
 30
0.0
 10
4.1468920732
 20
5.942997502
 30
0.0
 10
4.1470851185
 20
5.9428725437
 30
0.0
 10
4.1473798276
 20
5.9426735785
 30
0.0
 10
4.1476957549
 20
5.9424487961
 30
0.0
 10
4.1480333292
 20
5.9422002697
 30
0.0
 10
4.1484171264
 20
5.9419116974
 30
0.0
 10
4.148710952
 20
5.9416845179
 30
0.0
 10
4.1489116379
 20
5.941527248
 30
0.0
  0
SPLINE
  5
45C
100
AcDbEntity
  8
0
100
AcDbSpline
 62
7
  6
CONTINUOUS
 70
0
 71
3
 72
19
 73
15
 74
0
 42
0.0000001
 43
0.0000001
 44
0.0000000001
 40
0.0
 40
0.0
 40
0.0
 40
0.0
 40
0.0202136562
 40
0.0430061509
 40
0.0701233523
 40
0.1026116583
 40
0.1410692543
 40
0.1858423464
 40
0.2371343185
 40
0.2950648863
 40
0.4310558635
 40
0.5940072949
 40
0.7837694595
 40
1.0
 40
1.0
 40
1.0
 40
1.0
 10
4.0677722113
 20
6.0219981053
 30
0.0
 10
4.0677795735
 20
6.0220054673
 30
0.0
 10
4.0677984236
 20
6.022018126
 30
0.0
 10
4.0678337265
 20
6.0220276133
 30
0.0
 10
4.0678763947
 20
6.0220290288
 30
0.0
 10
4.0679266495
 20
6.0220226956
 30
0.0
 10
4.0679846758
 20
6.0220086965
 30
0.0
 10
4.0680505449
 20
6.0219870165
 30
0.0
 10
4.0681242681
 20
6.0219576485
 30
0.0
 10
4.068239275
 20
6.0219053483
 30
0.0
 10
4.0684019912
 20
6.0218195406
 30
0.0
 10
4.0686186564
 20
6.0216912897
 30
0.0
 10
4.0688653284
 20
6.0215329827
 30
0.0
 10
4.069038186
 20
6.0214152557
 30
0.0
 10
4.0691295981
 20
6.0213516294
 30
0.0
  0
SPLINE
  5
45D
100
AcDbEntity
  8
0
100
AcDbSpline
 62
7
  6
CONTINUOUS
 70
0
 71
3
 72
22
 73
18
 74
0
 42
0.0000001
 43
0.0000001
 44
0.0000000001
 40
0.0
 40
0.0
 40
0.0
 40
0.0
 40
0.0085632295
 40
0.0175285055
 40
0.0272477927
 40
0.0379985031
 40
0.0633244308
 40
0.0945889228
 40
0.1323149733
 40
0.1767762382
 40
0.2281156565
 40
0.2864002594
 40
0.3516504403
 40
0.4238546793
 40
0.5889581332
 40
0.7812383089
 40
1.0
 40
1.0
 40
1.0
 40
1.0
 10
3.9838026289
 20
6.1064002087
 30
0.0
 10
3.9838073167
 20
6.1064048963
 30
0.0
 10
3.9838180327
 20
6.1064134321
 30
0.0
 10
3.9838370736
 20
6.1064228194
 30
0.0
 10
3.9838591299
 20
6.106428974
 30
0.0
 10
3.983894446
 20
6.1064331636
 30
0.0
 10
3.9839468434
 20
6.1064293207
 30
0.0
 10
3.9840181279
 20
6.106412875
 30
0.0
 10
3.9841013186
 20
6.1063843248
 30
0.0
 10
3.9841964134
 20
6.1063436368
 30
0.0
 10
3.9843034038
 20
6.1062907821
 30
0.0
 10
3.9844221918
 20
6.1062257761
 30
0.0
 10
3.9845526646
 20
6.106148663
 30
0.0
 10
3.9847510486
 20
6.1060240916
 30
0.0
 10
3.985026564
 20
6.1058376609
 30
0.0
 10
3.9853880793
 20
6.105576335
 30
0.0
 10
3.98564148
 20
6.1053838052
 30
0.0
 10
3.9857754175
 20
6.1052801572
 30
0.0
  0
SPLINE
  5
45E
100
AcDbEntity
  8
0
100
AcDbSpline
 62
7
  6
CONTINUOUS
 70
0
 71
3
 72
24
 73
20
 74
0
 42
0.0000001
 43
0.0000001
 44
0.0000000001
 40
0.0
 40
0.0
 40
0.0
 40
0.0
 40
0.0071664282
 40
0.0148027968
 40
0.0233326184
 40
0.0330622282
 40
0.0441979616
 40
0.0568761932
 40
0.0871772181
 40
0.1244085596
 40
0.1687588281
 40
0.2203037683
 40
0.2790551105
 40
0.344983489
 40
0.4180300583
 40
0.4981129215
 40
0.5851313739
 40
0.7794889671
 40
1.0
 40
1.0
 40
1.0
 40
1.0
 10
3.8998330575
 20
6.190802323
 30
0.0
 10
3.8998384506
 20
6.190807716
 30
0.0
 10
3.8998512204
 20
6.190817329
 30
0.0
 10
3.8998744646
 20
6.1908266865
 30
0.0
 10
3.8999017962
 20
6.1908313361
 30
0.0
 10
3.8999331846
 20
6.19083144
 30
0.0
 10
3.8999686886
 20
6.1908270898
 30
0.0
 10
3.9000249767
 20
6.1908145919
 30
0.0
 10
3.9001058404
 20
6.1907864963
 30
0.0
 10
3.9002143356
 20
6.1907372374
 30
0.0
 10
3.9003393743
 20
6.1906704472
 30
0.0
 10
3.9004807932
 20
6.1905861766
 30
0.0
 10
3.9006384064
 20
6.1904844716
 30
0.0
 10
3.9008119725
 20
6.1903654562
 30
0.0
 10
3.9010012237
 20
6.1902292864
 30
0.0
 10
3.9012058662
 20
6.1900761603
 30
0.0
 10
3.9015102057
 20
6.189840856
 30
0.0
 10
3.9019259653
 20
6.1895054444
 30
0.0
 10
3.9022639867
 20
6.1892213562
 30
0.0
 10
3.9024424872
 20
6.1890690022
 30
0.0
  0
LINE
  5
45F
100
AcDbEntity
  8
0
100
AcDbLine
 62
7
  6
CONTINUOUS
 10
3.8215858833
 20
6.2694525825
 11
3.8226610795
 21
6.2688653256
  0
LINE
  5
460
100
AcDbEntity
  8
0
100
AcDbLine
 62
7
  6
CONTINUOUS
 10
3.733890014
 20
6.3474243833
 11
3.7345693754
 21
6.3467442269
  0
SPLINE
  5
461
100
AcDbEntity
  8
0
100
AcDbSpline
 62
7
  6
CONTINUOUS
 70
0
 71
3
 72
38
 73
34
 74
0
 42
0.0000001
 43
0.0000001
 44
0.0000000001
 40
0.0
 40
0.0
 40
0.0
 40
0.0
 40
0.0003357419
 40
0.0007547501
 40
0.0012985827
 40
0.001986429
 40
0.0028275954
 40
0.0038270012
 40
0.0049874018
 40
0.0063104413
 40
0.0094477521
 40
0.013242629
 40
0.0176950036
 40
0.0228027988
 40
0.0285625599
 40
0.0349698493
 40
0.0497046179
 40
0.0669554902
 40
0.0866598577
 40
0.1087452437
 40
0.1331299486
 40
0.1597235519
 40
0.188427335
 40
0.2191347372
 40
0.2517317549
 40
0.322104162
 40
0.3985014507
 40
0.4797916036
 40
0.5647702002
 40
0.6521777183
 40
0.7407174453
 40
0.8290741645
 40
1.0
 40
1.0
 40
1.0
 40
1.0
 10
4.1940359635
 20
5.8849109754
 30
0.0
 10
4.1940376686
 20
5.8849126806
 30
0.0
 10
4.1940426584
 20
5.8849153668
 30
0.0
 10
4.1940520726
 20
5.884916212
 30
0.0
 10
4.1940638824
 20
5.8849147032
 30
0.0
 10
4.1940782837
 20
5.884910809
 30
0.0
 10
4.194095341
 20
5.8849045339
 30
0.0
 10
4.1941150782
 20
5.884895847
 30
0.0
 10
4.1941375003
 20
5.8848847419
 30
0.0
 10
4.1941730396
 20
5.8848655788
 30
0.0
 10
4.1942240248
 20
5.8848352678
 30
0.0
 10
4.1942928455
 20
5.8847910954
 30
0.0
 10
4.194372265
 20
5.8847372902
 30
0.0
 10
4.1944622066
 20
5.8846738948
 30
0.0
 10
4.1945625825
 20
5.8846009556
 30
0.0
 10
4.1947175674
 20
5.8844855655
 30
0.0
 10
4.1949363327
 20
5.884317669
 30
0.0
 10
4.1952278836
 20
5.8840878083
 30
0.0
 10
4.1955582687
 20
5.883821966
 30
0.0
 10
4.1959262409
 20
5.8835211301
 30
0.0
 10
4.1963304116
 20
5.8831864124
 30
0.0
 10
4.1967692639
 20
5.8828190584
 30
0.0
 10
4.1972411546
 20
5.8824204346
 30
0.0
 10
4.197744322
 20
5.8819920254
 30
0.0
 10
4.1984732195
 20
5.88136709
 30
0.0
 10
4.1994473147
 20
5.8805239798
 30
0.0
 10
4.2006804354
 20
5.8794457702
 30
0.0
 10
4.2019874854
 20
5.8782927615
 30
0.0
 10
4.2033490638
 20
5.8770820484
 30
0.0
 10
4.2047449546
 20
5.8758315838
 30
0.0
 10
4.2061544278
 20
5.874559935
 30
0.0
 10
4.2080033889
 20
5.8728799459
 30
0.0
 10
4.209375131
 20
5.8716203942
 30
0.0
 10
4.2102759361
 20
5.8707863101
 30
0.0
  0
LINE
  5
462
100
AcDbEntity
  8
0
100
AcDbLine
 62
7
  6
CONTINUOUS
 10
4.2102759361
 20
5.8707863101
 11
4.2103805052
 21
5.870689454
  0
SPLINE
  5
463
100
AcDbEntity
  8
0
100
AcDbSpline
 62
7
  6
CONTINUOUS
 70
0
 71
3
 72
28
 73
24
 74
0
 42
0.0000001
 43
0.0000001
 44
0.0000000001
 40
0.0
 40
0.0
 40
0.0
 40
0.0
 40
0.0017614239
 40
0.0036819088
 40
0.005871336
 40
0.0084046066
 40
0.0146727435
 40
0.0227137255
 40
0.0326227509
 40
0.0444462841
 40
0.0582069335
 40
0.0739148509
 40
0.091572087
 40
0.1111757706
 40
0.1561908789
 40
0.2088745001
 40
0.2691046712
 40
0.3367317213
 40
0.4115817278
 40
0.4934586893
 40
0.5821459329
 40
0.778987094
 40
1.0
 40
1.0
 40
1.0
 40
1.0
 10
4.1385355535
 20
5.9406969013
 30
0.0
 10
4.1385377186
 20
5.9406990665
 30
0.0
 10
4.1385429656
 20
5.9407029122
 30
0.0
 10
4.1385526015
 20
5.9407065492
 30
0.0
 10
4.1385640823
 20
5.9407082935
 30
0.0
 10
4.1385832447
 20
5.9407081556
 30
0.0
 10
4.1386121898
 20
5.9407026396
 30
0.0
 10
4.1386522403
 20
5.9406895281
 30
0.0
 10
4.1386999513
 20
5.9406693356
 30
0.0
 10
4.13875531
 20
5.9406420433
 30
0.0
 10
4.138818316
 20
5.9406076163
 30
0.0
 10
4.138888927
 20
5.9405660585
 30
0.0
 10
4.1389670998
 20
5.9405173848
 30
0.0
 10
4.1390869727
 20
5.9404393506
 30
0.0
 10
4.139255006
 20
5.9403237698
 30
0.0
 10
4.1394776066
 20
5.9401630545
 30
0.0
 10
4.1397288497
 20
5.9399749434
 30
0.0
 10
4.1400080447
 20
5.9397599344
 30
0.0
 10
4.1403144225
 20
5.93951859
 30
0.0
 10
4.1406471466
 20
5.9392515585
 30
0.0
 10
4.1411421637
 20
5.9388479637
 30
0.0
 10
4.1418189664
 20
5.9382846133
 30
0.0
 10
4.1423725581
 20
5.9378143037
 30
0.0
 10
4.1426643816
 20
5.9375644003
 30
0.0
  0
LINE
  5
464
100
AcDbEntity
  8
0
100
AcDbLine
 62
7
  6
CONTINUOUS
 10
4.0637600611
 20
6.0158570831
 11
4.0640828028
 21
6.0157722074
  0
SPLINE
  5
465
100
AcDbEntity
  8
0
100
AcDbSpline
 62
7
  6
CONTINUOUS
 70
0
 71
3
 72
22
 73
18
 74
0
 42
0.0000001
 43
0.0000001
 44
0.0000000001
 40
0.0
 40
0.0
 40
0.0
 40
0.0
 40
0.0076044085
 40
0.0156647434
 40
0.0245667661
 40
0.0345992318
 40
0.0587705509
 40
0.0891901695
 40
0.1263166979
 40
0.1703831067
 40
0.2215086841
 40
0.2797509892
 40
0.3451279412
 40
0.4176329675
 40
0.5839025246
 40
0.7782022921
 40
1.0
 40
1.0
 40
1.0
 40
1.0
 10
3.978728519
 20
6.1013260989
 30
0.0
 10
3.9787316392
 20
6.1013292191
 30
0.0
 10
3.9787389267
 20
6.1013348371
 30
0.0
 10
3.9787520691
 20
6.1013406391
 30
0.0
 10
3.9787674566
 20
6.101343998
 30
0.0
 10
3.9787925126
 20
6.1013453742
 30
0.0
 10
3.9788299393
 20
6.1013402165
 30
0.0
 10
3.9788811379
 20
6.1013253919
 30
0.0
 10
3.9789414061
 20
6.1013014605
 30
0.0
 10
3.9790107409
 20
6.1012683908
 30
0.0
 10
3.9790891473
 20
6.1012261467
 30
0.0
 10
3.9791765669
 20
6.1011747324
 30
0.0
 10
3.9792729377
 20
6.1011141717
 30
0.0
 10
3.9794201049
 20
6.1010167251
 30
0.0
 10
3.979625404
 20
6.1008717005
 30
0.0
 10
3.9798960499
 20
6.1006692968
 30
0.0
 10
3.9800863888
 20
6.1005207096
 30
0.0
 10
3.9801872336
 20
6.1004407404
 30
0.0
  0
SPLINE
  5
466
100
AcDbEntity
  8
0
100
AcDbSpline
 62
7
  6
CONTINUOUS
 70
0
 71
3
 72
25
 73
21
 74
0
 42
0.0000001
 43
0.0000001
 44
0.0000000001
 40
0.0
 40
0.0
 40
0.0
 40
0.0
 40
0.0054188653
 40
0.011478787
 40
0.0186790491
 40
0.0273224834
 40
0.037583074
 40
0.0495625309
 40
0.0633226557
 40
0.0789013282
 40
0.1155961608
 40
0.1597486227
 40
0.2113744106
 40
0.2704448897
 40
0.3369014165
 40
0.4106627813
 40
0.491629425
 40
0.5796857405
 40
0.7765308873
 40
1.0
 40
1.0
 40
1.0
 40
1.0
 10
3.8936969882
 20
6.1867951255
 30
0.0
 10
3.8937010647
 20
6.1867992022
 30
0.0
 10
3.8937114702
 20
6.1868061842
 30
0.0
 10
3.8937309749
 20
6.1868111831
 30
0.0
 10
3.8937544252
 20
6.1868114616
 30
0.0
 10
3.8937819583
 20
6.1868072285
 30
0.0
 10
3.8938136964
 20
6.1867985315
 30
0.0
 10
3.8938496956
 20
6.186785359
 30
0.0
 10
3.8938899759
 20
6.1867677002
 30
0.0
 10
3.893952896
 20
6.1867364002
 30
0.0
 10
3.894041954
 20
6.1866853182
 30
0.0
 10
3.8941606379
 20
6.1866092437
 30
0.0
 10
3.894296081
 20
6.1865154026
 30
0.0
 10
3.8944480707
 20
6.1864039184
 30
0.0
 10
3.8946163631
 20
6.186274928
 30
0.0
 10
3.8948006866
 20
6.1861286202
 30
0.0
 10
3.8950007455
 20
6.1859652168
 30
0.0
 10
3.895299307
 20
6.1857154451
 30
0.0
 10
3.8957087773
 20
6.1853620283
 30
0.0
 10
3.896042916
 20
6.1850648174
 30
0.0
 10
3.8962196666
 20
6.1849058019
 30
0.0
  0
SPLINE
  5
467
100
AcDbEntity
  8
0
100
AcDbSpline
 62
7
  6
CONTINUOUS
 70
0
 71
3
 72
10
 73
6
 74
0
 42
0.0000001
 43
0.0000001
 44
0.0000000001
 40
0.0
 40
0.0
 40
0.0
 40
0.0
 40
0.1932972779
 40
0.5401976966
 40
1.0
 40
1.0
 40
1.0
 40
1.0
 10
4.1246476294
 20
5.9471827151
 30
0.0
 10
4.1246481807
 20
5.9471832664
 30
0.0
 10
4.1246500484
 20
5.9471844951
 30
0.0
 10
4.1246541312
 20
5.9471851653
 30
0.0
 10
4.1246573825
 20
5.9471848246
 30
0.0
 10
4.124659211
 20
5.9471845145
 30
0.0
  0
LINE
  5
468
100
AcDbEntity
  8
0
100
AcDbLine
 62
7
  6
CONTINUOUS
 10
3.9750009087
 20
6.0975984885
 11
3.9762389995
 21
6.0967382109
  0
LINE
  5
469
100
AcDbEntity
  8
0
100
AcDbLine
 62
7
  6
CONTINUOUS
 10
3.8886023998
 20
6.1844411411
 11
3.8902451991
 21
6.1831234922
  0
LINE
  5
46A
100
AcDbEntity
  8
0
100
AcDbLine
 62
7
  6
CONTINUOUS
 10
4.0566017768
 20
6.010796937
 11
4.0594745782
 21
6.0081951678
  0
LINE
  5
46B
100
AcDbEntity
  8
0
100
AcDbLine
 62
7
  6
CONTINUOUS
 10
3.972616306
 20
6.0952138856
 11
3.9736186361
 21
6.0944089071
  0
SPLINE
  5
46C
100
AcDbEntity
  8
0
100
AcDbSpline
 62
7
  6
CONTINUOUS
 70
0
 71
3
 72
48
 73
44
 74
0
 42
0.0000001
 43
0.0000001
 44
0.0000000001
 40
0.0
 40
0.0
 40
0.0
 40
0.0
 40
0.0054297533
 40
0.0118785475
 40
0.0193339783
 40
0.0277810761
 40
0.0475777058
 40
0.0711021362
 40
0.0981554882
 40
0.1285093602
 40
0.1619083819
 40
0.1980726882
 40
0.2774699023
 40
0.3640673117
 40
0.4550023357
 40
0.5472698087
 40
0.5929472324
 40
0.6378121001
 40
0.6814893636
 40
0.7236126188
 40
0.7638271924
 40
0.8017932726
 40
0.8371889564
 40
0.8697133553
 40
0.8990894786
 40
0.9250670636
 40
0.9474253442
 40
0.9659757318
 40
0.9737736955
 40
0.9805652249
 40
0.9863375311
 40
0.9888384154
 40
0.9910812561
 40
0.9930655939
 40
0.9947913863
 40
0.9962593348
 40
0.9974711975
 40
0.9984309853
 40
0.9991476474
 40
0.9994216074
 40
0.9996463573
 40
0.9998329031
 40
1.0
 40
1.0
 40
1.0
 40
1.0
 10
3.629546761
 20
6.4717188526
 30
0.0
 10
3.6295166909
 20
6.4717663498
 30
0.0
 10
3.6294493052
 20
6.4718692438
 30
0.0
 10
3.6293364442
 20
6.4720345706
 30
0.0
 10
3.6292032712
 20
6.4722238272
 30
0.0
 10
3.6289872759
 20
6.4725237538
 30
0.0
 10
3.6286682508
 20
6.4729544609
 30
0.0
 10
3.6282279381
 20
6.4735349795
 30
0.0
 10
3.6277158856
 20
6.4741982313
 30
0.0
 10
3.6271364266
 20
6.4749385694
 30
0.0
 10
3.6264944271
 20
6.4757497228
 30
0.0
 10
3.6255317921
 20
6.4769546331
 30
0.0
 10
3.6242155168
 20
6.4785819505
 30
0.0
 10
3.6225297446
 20
6.4806396562
 30
0.0
 10
3.6207476262
 20
6.4827906305
 30
0.0
 10
3.6192263479
 20
6.4846075008
 30
0.0
 10
3.6180055599
 20
6.4860538428
 30
0.0
 10
3.61710637
 20
6.4871133126
 30
0.0
 10
3.6162280649
 20
6.4881422369
 30
0.0
 10
3.615378018
 20
6.4891319741
 30
0.0
 10
3.6145633943
 20
6.4900741824
 30
0.0
 10
3.6137910873
 20
6.4909608917
 30
0.0
 10
3.6130676577
 20
6.4917845769
 30
0.0
 10
3.612399276
 20
6.4925382304
 30
0.0
 10
3.6117916612
 20
6.493215427
 30
0.0
 10
3.6112500439
 20
6.493810408
 30
0.0
 10
3.6107790794
 20
6.4943180986
 30
0.0
 10
3.6104314205
 20
6.4946834066
 30
0.0
 10
3.6101910323
 20
6.4949282337
 30
0.0
 10
3.610041378
 20
6.4950767178
 30
0.0
 10
3.6099287748
 20
6.4951846577
 30
0.0
 10
3.6098487205
 20
6.4952584537
 30
0.0
 10
3.6097967735
 20
6.4953048665
 30
0.0
 10
3.6097500211
 20
6.495345033
 30
0.0
 10
3.6097084872
 20
6.4953789429
 30
0.0
 10
3.609672198
 20
6.4954065887
 30
0.0
 10
3.6096411607
 20
6.495428009
 30
0.0
 10
3.6096153906
 20
6.4954432018
 30
0.0
 10
3.6095968508
 20
6.4954515033
 30
0.0
 10
3.609584584
 20
6.4954544848
 30
0.0
 10
3.6095774535
 20
6.4954549448
 30
0.0
 10
3.6095714826
 20
6.4954537636
 30
0.0
 10
3.609568315
 20
6.4954517061
 30
0.0
 10
3.6095670917
 20
6.4954504827
 30
0.0
  0
LINE
  5
46D
100
AcDbEntity
  8
0
100
AcDbLine
 62
7
  6
CONTINUOUS
 10
3.6088235805
 20
6.4930513121
 11
3.5921700541
 21
6.5129372889
  0
LINE
  5
46E
100
AcDbEntity
  8
0
100
AcDbLine
 62
7
  6
CONTINUOUS
 10
4.002309082
 20
6.102809575
 11
3.9966464634
 21
6.1081954999
  0
SPLINE
  5
46F
100
AcDbEntity
  8
0
100
AcDbSpline
 62
7
  6
CONTINUOUS
 70
0
 71
3
 72
26
 73
22
 74
0
 42
0.0000001
 43
0.0000001
 44
0.0000000001
 40
0.0
 40
0.0
 40
0.0
 40
0.0
 40
0.2123645235
 40
0.4045192387
 40
0.4920111234
 40
0.5732954788
 40
0.6480483349
 40
0.7159794658
 40
0.7768361116
 40
0.8304082494
 40
0.8765376974
 40
0.8967823437
 40
0.9151404232
 40
0.9316179485
 40
0.9462323199
 40
0.9590180181
 40
0.9700362228
 40
0.9793919428
 40
0.9872662253
 40
0.9939690733
 40
1.0
 40
1.0
 40
1.0
 40
1.0
 10
3.9966464634
 20
6.1081954999
 30
0.0
 10
3.9962233926
 20
6.1085752503
 30
0.0
 10
3.9954118971
 20
6.1092923937
 30
0.0
 10
3.9944084987
 20
6.1101458077
 30
0.0
 10
3.9936610313
 20
6.1107581218
 30
0.0
 10
3.9931510181
 20
6.1111642459
 30
0.0
 10
3.9926760068
 20
6.1115301495
 30
0.0
 10
3.9922380002
 20
6.1118543281
 30
0.0
 10
3.9918388453
 20
6.1121354967
 30
0.0
 10
3.9914802151
 20
6.1123725361
 30
0.0
 10
3.9912056123
 20
6.1125392203
 30
0.0
 10
3.9910069052
 20
6.1126486839
 30
0.0
 10
3.9908754545
 20
6.1127155579
 30
0.0
 10
3.9907551131
 20
6.1127708184
 30
0.0
 10
3.9906459814
 20
6.1128144315
 30
0.0
 10
3.9905481295
 20
6.1128463897
 30
0.0
 10
3.9904615691
 20
6.1128666998
 30
0.0
 10
3.9903862153
 20
6.1128753601
 30
0.0
 10
3.9903218255
 20
6.1128722203
 30
0.0
 10
3.9902681793
 20
6.1128567555
 30
0.0
 10
3.9902394276
 20
6.1128370072
 30
0.0
 10
3.9902280114
 20
6.1128255909
 30
0.0
  0
SPLINE
  5
470
100
AcDbEntity
  8
0
100
AcDbSpline
 62
7
  6
CONTINUOUS
 70
0
 71
3
 72
61
 73
57
 74
0
 42
0.0000001
 43
0.0000001
 44
0.0000000001
 40
0.0
 40
0.0
 40
0.0
 40
0.0
 40
0.0006005582
 40
0.0009539654
 40
0.0013565567
 40
0.00233398
 40
0.0035671267
 40
0.0050713903
 40
0.0068545724
 40
0.0089207655
 40
0.0112719752
 40
0.0168312937
 40
0.0235303261
 40
0.0313585514
 40
0.0403003644
 40
0.0503362156
 40
0.0614432135
 40
0.073595481
 40
0.0867643855
 40
0.1160247168
 40
0.1489464036
 40
0.1852164677
 40
0.2244905153
 40
0.2663961869
 40
0.3105365672
 40
0.3564936942
 40
0.4038321976
 40
0.5008470169
 40
0.5978955321
 40
0.6452702847
 40
0.6912677419
 40
0.7354432362
 40
0.7773683867
 40
0.81663565
 40
0.8528628598
 40
0.8856975958
 40
0.9148214446
 40
0.9279027191
 40
0.9399544381
 40
0.9509482804
 40
0.9608589223
 40
0.9696642795
 40
0.9773458859
 40
0.9838895324
 40
0.9867317937
 40
0.9892869001
 40
0.9915551506
 40
0.9935377547
 40
0.9952374006
 40
0.9966592343
 40
0.9978129742
 40
0.998717941
 40
0.9990895972
 40
0.9994178866
 40
0.9997156731
 40
1.0
 40
1.0
 40
1.0
 40
1.0
 10
3.6639097465
 20
6.4373558671
 30
0.0
 10
3.6639142034
 20
6.437360324
 30
0.0
 10
3.6639192042
 20
6.4373695343
 30
0.0
 10
3.6639222249
 20
6.4373834549
 30
0.0
 10
3.6639234723
 20
6.4374016726
 30
0.0
 10
3.6639204693
 20
6.4374290966
 30
0.0
 10
3.6639112074
 20
6.4374670197
 30
0.0
 10
3.6638959482
 20
6.4375119936
 30
0.0
 10
3.6638746824
 20
6.4375640248
 30
0.0
 10
3.6638473815
 20
6.4376231163
 30
0.0
 10
3.6638002193
 20
6.4377166177
 30
0.0
 10
3.6637254982
 20
6.4378505747
 30
0.0
 10
3.6636165247
 20
6.4380310628
 30
0.0
 10
3.6634839538
 20
6.4382386798
 30
0.0
 10
3.6633280959
 20
6.4384729079
 30
0.0
 10
3.6631492995
 20
6.4387331609
 30
0.0
 10
3.6629479913
 20
6.4390187941
 30
0.0
 10
3.6627246558
 20
6.439329106
 30
0.0
 10
3.6623861339
 20
6.4397912279
 30
0.0
 10
3.6619117646
 20
6.4404240059
 30
0.0
 10
3.6612829978
 20
6.4412439634
 30
0.0
 10
3.6605822811
 20
6.442141127
 30
0.0
 10
3.6598162965
 20
6.4431069054
 30
0.0
 10
3.6589923205
 20
6.4441320783
 30
0.0
 10
3.6581181765
 20
6.4452068849
 30
0.0
 10
3.6572021609
 20
6.4463211062
 30
0.0
 10
3.6559261343
 20
6.4478577077
 30
0.0
 10
3.6542937896
 20
6.4497953664
 30
0.0
 10
3.6526439379
 20
6.4517186418
 30
0.0
 10
3.6513320071
 20
6.4532262394
 30
0.0
 10
3.6503789601
 20
6.4543105172
 30
0.0
 10
3.6494581516
 20
6.4553469585
 30
0.0
 10
3.6485785365
 20
6.4563254847
 30
0.0
 10
3.6477487009
 20
6.4572365575
 30
0.0
 10
3.646976774
 20
6.4580712876
 30
0.0
 10
3.6462703277
 20
6.4588215173
 30
0.0
 10
3.6457240762
 20
6.4593888726
 30
0.0
 10
3.6453245088
 20
6.4597945913
 30
0.0
 10
3.6450561394
 20
6.4600624383
 30
0.0
 10
3.644808845
 20
6.4603042728
 30
0.0
 10
3.644583231
 20
6.4605195152
 30
0.0
 10
3.6443798554
 20
6.4607076683
 30
0.0
 10
3.6441992153
 20
6.4608682952
 30
0.0
 10
3.6440622749
 20
6.4609838209
 30
0.0
 10
3.6439641542
 20
6.4610617973
 30
0.0
 10
3.6439000154
 20
6.4611103789
 30
0.0
 10
3.6438418444
 20
6.4611518524
 30
0.0
 10
3.6437896693
 20
6.4611862093
 30
0.0
 10
3.6437435178
 20
6.4612134531
 30
0.0
 10
3.6437033727
 20
6.4612336239
 30
0.0
 10
3.6436692268
 20
6.4612467539
 30
0.0
 10
3.643644098
 20
6.4612522621
 30
0.0
 10
3.6436271904
 20
6.4612524031
 30
0.0
 10
3.6436167968
 20
6.4612506506
 30
0.0
 10
3.643607871
 20
6.4612469955
 30
0.0
 10
3.6436029445
 20
6.4612432389
 30
0.0
 10
3.6436008344
 20
6.4612411289
 30
0.0
  0
LINE
  5
471
100
AcDbEntity
  8
0
100
AcDbLine
 62
7
  6
CONTINUOUS
 10
3.6297034752
 20
6.4713942067
 11
3.629546761
 21
6.4717188526
  0
LINE
  5
472
100
AcDbEntity
  8
0
100
AcDbLine
 62
7
  6
CONTINUOUS
 10
4.3191668319
 20
5.7726311639
 11
4.3208927912
 21
5.7709245121
  0
LINE
  5
473
100
AcDbEntity
  8
0
100
AcDbLine
 62
7
  6
CONTINUOUS
 10
4.2462437338
 20
5.8350698684
 11
4.2469238903
 21
5.834390507
  0
SPLINE
  5
474
100
AcDbEntity
  8
0
100
AcDbSpline
 62
7
  6
CONTINUOUS
 70
0
 71
3
 72
9
 73
5
 74
0
 42
0.0000001
 43
0.0000001
 44
0.0000000001
 40
0.0
 40
0.0
 40
0.0
 40
0.0
 40
0.3258213197
 40
1.0
 40
1.0
 40
1.0
 40
1.0
 10
3.8466840215
 20
6.2251597041
 30
0.0
 10
3.8466842379
 20
6.225158428
 30
0.0
 10
3.84668473
 20
6.2251545789
 30
0.0
 10
3.8466841161
 20
6.2251500158
 30
0.0
 10
3.8466822224
 20
6.2251481221
 30
0.0
  0
SPLINE
  5
475
100
AcDbEntity
  8
0
100
AcDbSpline
 62
7
  6
CONTINUOUS
 70
0
 71
3
 72
32
 73
28
 74
0
 42
0.0000001
 43
0.0000001
 44
0.0000000001
 40
0.0
 40
0.0
 40
0.0
 40
0.0
 40
0.1904393259
 40
0.2836394912
 40
0.3743135969
 40
0.4616049391
 40
0.5446888216
 40
0.6227803854
 40
0.6951418716
 40
0.7610895115
 40
0.8200000084
 40
0.8466396054
 40
0.8713166368
 40
0.8939728208
 40
0.914554739
 40
0.9330139994
 40
0.949307435
 40
0.963397368
 40
0.9752519795
 40
0.9848460164
 40
0.9887897351
 40
0.9921628692
 40
0.9949654377
 40
0.9971995313
 40
0.998871228
 40
0.9995013386
 40
1.0
 40
1.0
 40
1.0
 40
1.0
 10
3.8360617695
 20
6.2369945846
 30
0.0
 10
3.836750874
 20
6.2362562653
 30
0.0
 10
3.8377751086
 20
6.2351546389
 30
0.0
 10
3.8391223778
 20
6.2336967792
 30
0.0
 10
3.840096165
 20
6.2326386068
 30
0.0
 10
3.8410313416
 20
6.2316178161
 30
0.0
 10
3.8419190705
 20
6.2306440589
 30
0.0
 10
3.8427509643
 20
6.2297265455
 30
0.0
 10
3.8435191657
 20
6.2288739599
 30
0.0
 10
3.8442164142
 20
6.2280943749
 30
0.0
 10
3.8447493356
 20
6.2274931319
 30
0.0
 10
3.8451351188
 20
6.2270539501
 30
0.0
 10
3.84539302
 20
6.2267583455
 30
0.0
 10
3.8456287285
 20
6.2264860154
 30
0.0
 10
3.8458416866
 20
6.2262376086
 30
0.0
 10
3.8460313939
 20
6.22601372
 30
0.0
 10
3.8461974051
 20
6.225814887
 30
0.0
 10
3.8463393451
 20
6.2256415954
 30
0.0
 10
3.8464568844
 20
6.2254942627
 30
0.0
 10
3.8465389475
 20
6.2253874763
 30
0.0
 10
3.8465918974
 20
6.2253150875
 30
0.0
 10
3.8466226894
 20
6.2252711311
 30
0.0
 10
3.846647255
 20
6.2252338916
 30
0.0
 10
3.8466655739
 20
6.2252033918
 30
0.0
 10
3.8466766306
 20
6.2251819691
 30
0.0
 10
3.8466820008
 20
6.2251681111
 30
0.0
 10
3.8466835793
 20
6.2251623113
 30
0.0
 10
3.8466840215
 20
6.2251597041
 30
0.0
  0
LINE
  5
476
100
AcDbEntity
  8
0
100
AcDbLine
 62
7
  6
CONTINUOUS
 10
3.9076946797
 20
6.159975066
 11
3.9102964439
 21
6.1571022699
  0
LINE
  5
477
100
AcDbEntity
  8
0
100
AcDbLine
 62
7
  6
CONTINUOUS
 10
4.3925507203
 20
5.7093241541
 11
4.4101940221
 21
5.6946479412
  0
SPLINE
  5
478
100
AcDbEntity
  8
0
100
AcDbSpline
 62
7
  6
CONTINUOUS
 70
0
 71
3
 72
37
 73
33
 74
0
 42
0.0000001
 43
0.0000001
 44
0.0000000001
 40
0.0
 40
0.0
 40
0.0
 40
0.0
 40
0.0003957103
 40
0.0009338015
 40
0.0016383088
 40
0.0025196097
 40
0.0048296281
 40
0.0078826349
 40
0.0116827449
 40
0.0162289844
 40
0.0215176488
 40
0.0275431194
 40
0.0342983252
 40
0.0417749906
 40
0.0588538524
 40
0.0786923586
 40
0.1011879607
 40
0.126224278
 40
0.1536719304
 40
0.1833894705
 40
0.2152242471
 40
0.2490132011
 40
0.2845837832
 40
0.3603373371
 40
0.4409480117
 40
0.5247841372
 40
0.6101494087
 40
0.6953137799
 40
0.7785454485
 40
0.8581439091
 40
0.932473966
 40
1.0
 40
1.0
 40
1.0
 40
1.0
 10
4.3708937136
 20
5.7302039682
 30
0.0
 10
4.3708968842
 20
5.7302053548
 30
0.0
 10
4.3709052081
 20
5.7302065156
 30
0.0
 10
4.3709194648
 20
5.7302048022
 30
0.0
 10
4.3709374696
 20
5.7302000342
 30
0.0
 10
4.3709694956
 20
5.7301883484
 30
0.0
 10
4.3710189156
 20
5.7301649063
 30
0.0
 10
4.3710891921
 20
5.7301263856
 30
0.0
 10
4.3711747158
 20
5.7300751197
 30
0.0
 10
4.3712753683
 20
5.7300111762
 30
0.0
 10
4.3713910101
 20
5.7299345807
 30
0.0
 10
4.3715214808
 20
5.7298454264
 30
0.0
 10
4.3716666034
 20
5.7297438209
 30
0.0
 10
4.3718894512
 20
5.729584712
 30
0.0
 10
4.3722027569
 20
5.7293554249
 30
0.0
 10
4.37261875
 20
5.7290441169
 30
0.0
 10
4.373087535
 20
5.7286872426
 30
0.0
 10
4.3736066554
 20
5.7282866581
 30
0.0
 10
4.3741734026
 20
5.7278444319
 30
0.0
 10
4.3747848389
 20
5.7273628475
 30
0.0
 10
4.3754378093
 20
5.7268443825
 30
0.0
 10
4.37612896
 20
5.7262916977
 30
0.0
 10
4.377117611
 20
5.7254960768
 30
0.0
 10
4.3784207433
 20
5.7244381492
 30
0.0
 10
4.3800451985
 20
5.7231063797
 30
0.0
 10
4.3817286042
 20
5.7217139694
 30
0.0
 10
4.3834368361
 20
5.7202891238
 30
0.0
 10
4.3851352173
 20
5.7188607493
 30
0.0
 10
4.3867891655
 20
5.7174579236
 30
0.0
 10
4.3883648585
 20
5.7161093419
 30
0.0
 10
4.3898299056
 20
5.714842746
 30
0.0
 10
4.3907636139
 20
5.714025938
 30
0.0
 10
4.3912065593
 20
5.7136354041
 30
0.0
  0
SPLINE
  5
479
100
AcDbEntity
  8
0
100
AcDbSpline
 62
7
  6
CONTINUOUS
 70
0
 71
3
 72
32
 73
28
 74
0
 42
0.0000001
 43
0.0000001
 44
0.0000000001
 40
0.0
 40
0.0
 40
0.0
 40
0.0
 40
0.0004986612
 40
0.0011287695
 40
0.0028004597
 40
0.0050345423
 40
0.0078370992
 40
0.0112102236
 40
0.0151539262
 40
0.0247479329
 40
0.0366025142
 40
0.0506924191
 40
0.0669858334
 40
0.0854450797
 40
0.1060269927
 40
0.1286831863
 40
0.1533602395
 40
0.1799998706
 40
0.2389104887
 40
0.3048583106
 40
0.3772200287
 40
0.4553118297
 40
0.5383958431
 40
0.6256871522
 40
0.7163611148
 40
0.8095610737
 40
1.0
 40
1.0
 40
1.0
 40
1.0
 10
4.124659211
 20
5.9471845145
 30
0.0
 10
4.1246618183
 20
5.9471840723
 30
0.0
 10
4.124667618
 20
5.9471824938
 30
0.0
 10
4.124681476
 20
5.9471771237
 30
0.0
 10
4.1247028986
 20
5.9471660671
 30
0.0
 10
4.1247333983
 20
5.9471477482
 30
0.0
 10
4.1247706376
 20
5.9471231827
 30
0.0
 10
4.1248145939
 20
5.9470923909
 30
0.0
 10
4.1248869824
 20
5.9470394411
 30
0.0
 10
4.1249937685
 20
5.9469573783
 30
0.0
 10
4.1251411009
 20
5.9468398394
 30
0.0
 10
4.1253143922
 20
5.9466978996
 30
0.0
 10
4.1255132249
 20
5.9465318887
 30
0.0
 10
4.1257371132
 20
5.9463421816
 30
0.0
 10
4.12598552
 20
5.9461292236
 30
0.0
 10
4.1262578502
 20
5.945893515
 30
0.0
 10
4.126553455
 20
5.9456356136
 30
0.0
 10
4.1269926375
 20
5.9452498299
 30
0.0
 10
4.1275938818
 20
5.9447169073
 30
0.0
 10
4.1283734688
 20
5.944019657
 30
0.0
 10
4.1292260569
 20
5.9432514534
 30
0.0
 10
4.1301435725
 20
5.9424195575
 30
0.0
 10
4.1311173308
 20
5.9415318274
 30
0.0
 10
4.1321381213
 20
5.9405966511
 30
0.0
 10
4.1331962921
 20
5.9396228654
 30
0.0
 10
4.1346541487
 20
5.938275599
 30
0.0
 10
4.1357557726
 20
5.9372513667
 30
0.0
 10
4.1364940902
 20
5.9365622638
 30
0.0
  0
LINE
  5
47A
100
AcDbEntity
  8
0
100
AcDbLine
 62
7
  6
CONTINUOUS
 10
4.0817290445
 20
5.9916968938
 11
4.083940648
 21
5.989102893
  0
LINE
  5
47B
100
AcDbEntity
  8
0
100
AcDbLine
 62
7
  6
CONTINUOUS
 10
3.9962376924
 20
6.0767395227
 11
3.9970979954
 21
6.0755014018
  0
LINE
  5
47C
100
AcDbEntity
  8
0
100
AcDbLine
 62
7
  6
CONTINUOUS
 10
3.9939086652
 20
6.0741188503
 11
3.9947133925
 21
6.0731167991
  0
LINE
  5
47D
100
AcDbEntity
  8
0
100
AcDbLine
 62
7
  6
CONTINUOUS
 10
4.2442630432
 20
5.8368993961
 11
4.2462437338
 21
5.8350698684
  0
LINE
  5
47E
100
AcDbEntity
  8
0
100
AcDbLine
 62
7
  6
CONTINUOUS
 10
4.2292772349
 20
5.8503132312
 11
4.2442630432
 21
5.8368993961
  0
LINE
  5
47F
100
AcDbEntity
  8
0
100
AcDbLine
 62
7
  6
CONTINUOUS
 10
4.3014201845
 20
5.7880497502
 11
4.3175732162
 21
5.7740770235
  0
LINE
  5
480
100
AcDbEntity
  8
0
100
AcDbLine
 62
7
  6
CONTINUOUS
 10
4.168364545
 20
5.9231619395
 11
4.1689520895
 21
5.9220863763
  0
LINE
  5
481
100
AcDbEntity
  8
0
100
AcDbLine
 62
7
  6
CONTINUOUS
 10
4.0844054573
 20
5.9967199947
 11
4.0844751956
 21
5.9966423448
  0
SPLINE
  5
482
100
AcDbEntity
  8
0
100
AcDbSpline
 62
7
  6
CONTINUOUS
 70
0
 71
3
 72
25
 73
21
 74
0
 42
0.0000001
 43
0.0000001
 44
0.0000000001
 40
0.0
 40
0.0
 40
0.0
 40
0.0
 40
0.2235416991
 40
0.4203519515
 40
0.5083655549
 40
0.5892798142
 40
0.6629838726
 40
0.7293829214
 40
0.7884005149
 40
0.839982445
 40
0.8841043445
 40
0.9207870401
 40
0.9363687277
 40
0.9501388758
 40
0.962136992
 40
0.9724264529
 40
0.9811109047
 40
0.9883669256
 40
0.9944982176
 40
1.0
 40
1.0
 40
1.0
 40
1.0
 10
4.0844751956
 20
5.9966423448
 30
0.0
 10
4.0846287562
 20
5.9964710655
 30
0.0
 10
4.0849156757
 20
5.996147332
 30
0.0
 10
4.0852567192
 20
5.9957506009
 30
0.0
 10
4.0854975798
 20
5.9954613891
 30
0.0
 10
4.0856550662
 20
5.9952676288
 30
0.0
 10
4.0857960078
 20
5.995089111
 30
0.0
 10
4.085920199
 20
5.9949261119
 30
0.0
 10
4.0860274656
 20
5.9947788854
 30
0.0
 10
4.0861176825
 20
5.9946476593
 30
0.0
 10
4.0861907361
 20
5.9945326317
 30
0.0
 10
4.0862396992
 20
5.9944462824
 30
0.0
 10
4.0862696233
 20
5.9943852493
 30
0.0
 10
4.0862864666
 20
5.9943461497
 30
0.0
 10
4.0862989785
 20
5.9943111835
 30
0.0
 10
4.086307169
 20
5.99428033
 30
0.0
 10
4.0863110461
 20
5.9942535347
 30
0.0
 10
4.0863105621
 20
5.9942306816
 30
0.0
 10
4.0863055125
 20
5.9942116503
 30
0.0
 10
4.0862986358
 20
5.9942014847
 30
0.0
 10
4.0862946324
 20
5.9941974813
 30
0.0
  0
SPLINE
  5
483
100
AcDbEntity
  8
0
100
AcDbSpline
 62
7
  6
CONTINUOUS
 70
0
 71
3
 72
24
 73
20
 74
0
 42
0.0000001
 43
0.0000001
 44
0.0000000001
 40
0.0
 40
0.0
 40
0.0
 40
0.0
 40
0.2205109455
 40
0.4148687179
 40
0.5018872707
 40
0.5819701865
 40
0.6550168394
 40
0.7209453711
 40
0.7796967862
 40
0.8312417446
 40
0.8755920328
 40
0.9128234162
 40
0.9431243827
 40
0.9558025517
 40
0.9669382077
 40
0.9766677622
 40
0.9851974521
 40
0.9928337049
 40
1.0
 40
1.0
 40
1.0
 40
1.0
 10
4.0885684227
 20
6.0029430816
 30
0.0
 10
4.0887207834
 20
6.0027645742
 30
0.0
 10
4.0890048845
 20
6.0024265395
 30
0.0
 10
4.0893403117
 20
6.0020107635
 30
0.0
 10
4.0895756272
 20
6.0017064119
 30
0.0
 10
4.0897287607
 20
6.0015017613
 30
0.0
 10
4.0898649371
 20
6.0013125025
 30
0.0
 10
4.0899839586
 20
6.0011389295
 30
0.0
 10
4.0900856688
 20
6.00098131
 30
0.0
 10
4.0901699439
 20
6.0008398856
 30
0.0
 10
4.0902367376
 20
6.0007148421
 30
0.0
 10
4.0902859996
 20
6.0006063428
 30
0.0
 10
4.0903140971
 20
6.0005254761
 30
0.0
 10
4.090326596
 20
6.0004691859
 30
0.0
 10
4.0903309467
 20
6.0004336807
 30
0.0
 10
4.0903308434
 20
6.0004022913
 30
0.0
 10
4.0903261937
 20
6.0003749588
 30
0.0
 10
4.0903168363
 20
6.000351714
 30
0.0
 10
4.0903072231
 20
6.0003389437
 30
0.0
 10
4.09030183
 20
6.0003335505
 30
0.0
  0
SPLINE
  5
484
100
AcDbEntity
  8
0
100
AcDbSpline
 62
7
  6
CONTINUOUS
 70
0
 71
3
 72
22
 73
18
 74
0
 42
0.0000001
 43
0.0000001
 44
0.0000000001
 40
0.0
 40
0.0
 40
0.0
 40
0.0
 40
0.2217977426
 40
0.4160975552
 40
0.5823671447
 40
0.6548722151
 40
0.7202491675
 40
0.778491451
 40
0.829617054
 40
0.8736834144
 40
0.9108099682
 40
0.941229542
 40
0.9654008513
 40
0.9754332971
 40
0.9843352965
 40
0.9923956109
 40
1.0
 40
1.0
 40
1.0
 40
1.0
 10
3.9999402426
 20
6.0806877326
 30
0.0
 10
4.0000202122
 20
6.0805868874
 30
0.0
 10
4.0001688001
 20
6.0803965477
 30
0.0
 10
4.0003712048
 20
6.0801259006
 30
0.0
 10
4.0005162302
 20
6.0799206006
 30
0.0
 10
4.0006136774
 20
6.0797734328
 30
0.0
 10
4.0006742384
 20
6.0796770616
 30
0.0
 10
4.0007256529
 20
6.0795896416
 30
0.0
 10
4.0007678973
 20
6.079511235
 30
0.0
 10
4.0008009671
 20
6.0794418998
 30
0.0
 10
4.0008248987
 20
6.0793816315
 30
0.0
 10
4.0008397234
 20
6.0793304327
 30
0.0
 10
4.0008448811
 20
6.0792930059
 30
0.0
 10
4.000843505
 20
6.0792679497
 30
0.0
 10
4.0008401461
 20
6.0792525622
 30
0.0
 10
4.000834344
 20
6.0792394198
 30
0.0
 10
4.000828726
 20
6.0792321323
 30
0.0
 10
4.0008256058
 20
6.079229012
 30
0.0
  0
SPLINE
  5
485
100
AcDbEntity
  8
0
100
AcDbSpline
 62
7
  6
CONTINUOUS
 70
0
 71
3
 72
22
 73
18
 74
0
 42
0.0000001
 43
0.0000001
 44
0.0000000001
 40
0.0
 40
0.0
 40
0.0
 40
0.0
 40
0.2187608472
 40
0.4110400495
 40
0.5761426043
 40
0.6483464183
 40
0.7135963466
 40
0.7718806776
 40
0.8232199973
 40
0.8676813307
 40
0.9054075579
 40
0.936672532
 40
0.9619991679
 40
0.9727503677
 40
0.9824701893
 40
0.9914361
 40
1.0
 40
1.0
 40
1.0
 40
1.0
 10
4.0047799095
 20
6.0862755936
 30
0.0
 10
4.0048835373
 20
6.0861416781
 30
0.0
 10
4.0050760292
 20
6.0858883194
 30
0.0
 10
4.0053373028
 20
6.0855268638
 30
0.0
 10
4.0055236951
 20
6.085251394
 30
0.0
 10
4.00564824
 20
6.0850530425
 30
0.0
 10
4.0057253364
 20
6.0849225911
 30
0.0
 10
4.0057903278
 20
6.0848038222
 30
0.0
 10
4.0058431701
 20
6.084696849
 30
0.0
 10
4.0058838481
 20
6.0846017691
 30
0.0
 10
4.0059123902
 20
6.0845185911
 30
0.0
 10
4.0059288305
 20
6.0844473172
 30
0.0
 10
4.0059326701
 20
6.0843949274
 30
0.0
 10
4.0059284796
 20
6.0843596162
 30
0.0
 10
4.0059223246
 20
6.0843375628
 30
0.0
 10
4.0059129379
 20
6.0843185242
 30
0.0
 10
4.0059044028
 20
6.0843078093
 30
0.0
 10
4.0058997157
 20
6.0843031219
 30
0.0
  0
LINE
  5
486
100
AcDbEntity
  8
0
100
AcDbLine
 62
7
  6
CONTINUOUS
 10
3.9152717721
 20
6.1645831889
 11
3.91535659
 21
6.1642605542
  0
SPLINE
  5
487
100
AcDbEntity
  8
0
100
AcDbSpline
 62
7
  6
CONTINUOUS
 70
0
 71
3
 72
19
 73
15
 74
0
 42
0.0000001
 43
0.0000001
 44
0.0000000001
 40
0.0
 40
0.0
 40
0.0
 40
0.0
 40
0.2162311446
 40
0.4059938168
 40
0.5689456152
 40
0.7049367914
 40
0.7628673282
 40
0.8141593441
 40
0.8589322966
 40
0.8973897998
 40
0.9298778243
 40
0.9569947553
 40
0.9797868089
 40
1.0
 40
1.0
 40
1.0
 40
1.0
 10
3.9208510888
 20
6.1696301595
 30
0.0
 10
3.9209147192
 20
6.1695387425
 30
0.0
 10
3.9210324538
 20
6.1693658758
 30
0.0
 10
3.9211907712
 20
6.1691191908
 30
0.0
 10
3.9213190308
 20
6.1689025143
 30
0.0
 10
3.9214048446
 20
6.1687397898
 30
0.0
 10
3.9214571486
 20
6.1686247771
 30
0.0
 10
3.9214865191
 20
6.1685510503
 30
0.0
 10
3.9215082008
 20
6.168485178
 30
0.0
 10
3.9215222014
 20
6.168427149
 30
0.0
 10
3.9215285355
 20
6.168376892
 30
0.0
 10
3.9215271208
 20
6.168334222
 30
0.0
 10
3.9215176333
 20
6.1682989177
 30
0.0
 10
3.9215049745
 20
6.1682800667
 30
0.0
 10
3.9214976122
 20
6.1682727043
 30
0.0
  0
SPLINE
  5
488
100
AcDbEntity
  8
0
100
AcDbSpline
 62
7
  6
CONTINUOUS
 70
0
 71
3
 72
25
 73
21
 74
0
 42
0.0000001
 43
0.0000001
 44
0.0000000001
 40
0.0
 40
0.0
 40
0.0
 40
0.0
 40
0.2205697938
 40
0.321283238
 40
0.4153924925
 40
0.5832056733
 40
0.6566558179
 40
0.7229898071
 40
0.7821244425
 40
0.8340018039
 40
0.8785980724
 40
0.9159409388
 40
0.931927797
 40
0.9461571731
 40
0.9586733011
 40
0.9695445411
 40
0.9788795347
 40
0.986853476
 40
0.9937490852
 40
1.0
 40
1.0
 40
1.0
 40
1.0
 10
3.8410267948
 20
6.2494120801
 30
0.0
 10
3.8411840617
 20
6.2492113976
 30
0.0
 10
3.8414112367
 20
6.2489175771
 30
0.0
 10
3.8416998032
 20
6.2485337865
 30
0.0
 10
3.8419483244
 20
6.2481962183
 30
0.0
 10
3.8421731021
 20
6.2478802967
 30
0.0
 10
3.8423720629
 20
6.247585593
 30
0.0
 10
3.8424970184
 20
6.2473925513
 30
0.0
 10
3.8426042885
 20
6.2472178304
 30
0.0
 10
3.8426937274
 20
6.2470617252
 30
0.0
 10
3.8427652084
 20
6.2469245002
 30
0.0
 10
3.8428120019
 20
6.2468213163
 30
0.0
 10
3.8428396494
 20
6.2467482518
 30
0.0
 10
3.8428547232
 20
6.2467011834
 30
0.0
 10
3.842865251
 20
6.2466589539
 30
0.0
 10
3.842871233
 20
6.2466215438
 30
0.0
 10
3.8428726638
 20
6.2465889066
 30
0.0
 10
3.8428694747
 20
6.2465609506
 30
0.0
 10
3.8428614806
 20
6.2465376247
 30
0.0
 10
3.8428524917
 20
6.2465250174
 30
0.0
 10
3.8428473825
 20
6.2465199081
 30
0.0
  0
SPLINE
  5
489
100
AcDbEntity
  8
0
100
AcDbSpline
 62
7
  6
CONTINUOUS
 70
0
 71
3
 72
28
 73
24
 74
0
 42
0.0000001
 43
0.0000001
 44
0.0000000001
 40
0.0
 40
0.0
 40
0.0
 40
0.0
 40
0.2210131886
 40
0.4178544132
 40
0.5065416224
 40
0.5884185231
 40
0.6632684798
 40
0.7308954688
 40
0.7911255857
 40
0.8438091727
 40
0.888824244
 40
0.9084278656
 40
0.9260851382
 40
0.9417930015
 40
0.955553696
 40
0.9673771759
 40
0.9772862496
 40
0.9853271886
 40
0.9915953754
 40
0.994128619
 40
0.996318051
 40
0.9982385699
 40
1.0
 40
1.0
 40
1.0
 40
1.0
 10
3.8370639426
 20
6.2431648333
 30
0.0
 10
3.8373138436
 20
6.2428730123
 30
0.0
 10
3.8377841486
 20
6.2423194258
 30
0.0
 10
3.8383474931
 20
6.2416426295
 30
0.0
 10
3.8387510835
 20
6.2411476174
 30
0.0
 10
3.8390181118
 20
6.2408148968
 30
0.0
 10
3.8392594534
 20
6.2405085224
 30
0.0
 10
3.8394744598
 20
6.2402293303
 30
0.0
 10
3.8396625686
 20
6.23997809
 30
0.0
 10
3.8398232818
 20
6.2397554918
 30
0.0
 10
3.8399388613
 20
6.2395874603
 30
0.0
 10
3.8400168943
 20
6.2394675887
 30
0.0
 10
3.8400655675
 20
6.2393894168
 30
0.0
 10
3.8401071247
 20
6.2393188064
 30
0.0
 10
3.8401415514
 20
6.2392558012
 30
0.0
 10
3.8401688431
 20
6.2392004429
 30
0.0
 10
3.8401890356
 20
6.2391527325
 30
0.0
 10
3.8402021465
 20
6.2391126821
 30
0.0
 10
3.8402076628
 20
6.2390837375
 30
0.0
 10
3.8402078004
 20
6.2390645752
 30
0.0
 10
3.8402060559
 20
6.2390530945
 30
0.0
 10
3.8402024193
 20
6.2390434585
 30
0.0
 10
3.8401985735
 20
6.2390382116
 30
0.0
 10
3.8401964083
 20
6.2390360464
 30
0.0
  0
SPLINE
  5
48A
100
AcDbEntity
  8
0
100
AcDbSpline
 62
7
  6
CONTINUOUS
 70
0
 71
3
 72
31
 73
27
 74
0
 42
0.0000001
 43
0.0000001
 44
0.0000000001
 40
0.0
 40
0.0
 40
0.0
 40
0.0
 40
0.2083630856
 40
0.4004216734
 40
0.4889001905
 40
0.571637445
 40
0.6481455139
 40
0.7179744948
 40
0.7807153132
 40
0.8360036685
 40
0.8607528318
 40
0.8835248053
 40
0.9042889058
 40
0.9230185649
 40
0.9396920512
 40
0.9542935897
 40
0.9668152512
 40
0.9772608339
 40
0.9817123749
 40
0.9856568428
 40
0.9891041577
 40
0.9920701525
 40
0.9945809231
 40
0.9966804146
 40
0.9984445676
 40
1.0
 40
1.0
 40
1.0
 40
1.0
 10
3.7688124306
 20
6.32212336
 30
0.0
 10
3.7692980165
 20
6.3215625545
 30
0.0
 10
3.7702264232
 20
6.3204806854
 30
0.0
 10
3.7713462955
 20
6.3191481299
 30
0.0
 10
3.7721687612
 20
6.318149982
 30
0.0
 10
3.7727247089
 20
6.3174653079
 30
0.0
 10
3.7732335464
 20
6.3168279431
 30
0.0
 10
3.7736922606
 20
6.3162416993
 30
0.0
 10
3.7740981307
 20
6.3157100891
 30
0.0
 10
3.774400582
 20
6.3153014997
 30
0.0
 10
3.7746138265
 20
6.3150040001
 30
0.0
 10
3.7747531429
 20
6.3148047589
 30
0.0
 10
3.7748776488
 20
6.3146213358
 30
0.0
 10
3.7749871643
 20
6.3144540088
 30
0.0
 10
3.7750815363
 20
6.3143030343
 30
0.0
 10
3.775160655
 20
6.3141686417
 30
0.0
 10
3.7752244194
 20
6.3140510329
 30
0.0
 10
3.7752667921
 20
6.3139630137
 30
0.0
 10
3.7752923887
 20
6.3139009889
 30
0.0
 10
3.7753066443
 20
6.3138612866
 30
0.0
 10
3.7753170218
 20
6.3138258715
 30
0.0
 10
3.7753235266
 20
6.313794728
 30
0.0
 10
3.7753261687
 20
6.313767813
 30
0.0
 10
3.775324906
 20
6.3137450286
 30
0.0
 10
3.7753195889
 20
6.3137262601
 30
0.0
 10
3.7753128223
 20
6.3137162286
 30
0.0
 10
3.7753089066
 20
6.3137123128
 30
0.0
  0
LINE
  5
48B
100
AcDbEntity
  8
0
100
AcDbLine
 62
7
  6
CONTINUOUS
 10
3.7701889539
 20
6.3108810059
 11
3.770265595
 21
6.3107982673
  0
SPLINE
  5
48C
100
AcDbEntity
  8
0
100
AcDbSpline
 62
7
  6
CONTINUOUS
 70
0
 71
3
 72
38
 73
34
 74
0
 42
0.0000001
 43
0.0000001
 44
0.0000000001
 40
0.0
 40
0.0
 40
0.0
 40
0.0
 40
0.170780411
 40
0.2590958119
 40
0.3476123533
 40
0.4350123781
 40
0.5199965494
 40
0.6013025877
 40
0.6777232722
 40
0.7481238716
 40
0.7807359823
 40
0.811458725
 40
0.8401778166
 40
0.8667863939
 40
0.8911854785
 40
0.9132844103
 40
0.933001266
 40
0.9502633793
 40
0.9650079386
 40
0.9714195109
 40
0.977183166
 40
0.9822944092
 40
0.9867497694
 40
0.9905471959
 40
0.9936865378
 40
0.995010438
 40
0.9961715487
 40
0.9971715236
 40
0.9980131551
 40
0.9987013289
 40
0.9992453276
 40
0.9996643662
 40
1.0
 40
1.0
 40
1.0
 40
1.0
 10
3.770265595
 20
6.3107982673
 30
0.0
 10
3.7711001827
 20
6.309897043
 30
0.0
 10
3.7723606441
 20
6.3085244673
 30
0.0
 10
3.7740420308
 20
6.3066741537
 30
0.0
 10
3.7753151541
 20
6.3052631767
 30
0.0
 10
3.7765672863
 20
6.3038655466
 30
0.0
 10
3.7777797956
 20
6.3025020634
 30
0.0
 10
3.7789346646
 20
6.3011930139
 30
0.0
 10
3.7800147348
 20
6.2999578699
 30
0.0
 10
3.780859366
 20
6.2989821034
 30
0.0
 10
3.7814854726
 20
6.2982519077
 30
0.0
 10
3.781914711
 20
6.2977478155
 30
0.0
 10
3.782314121
 20
6.2972750424
 30
0.0
 10
3.7826822122
 20
6.2968353574
 30
0.0
 10
3.7830176124
 20
6.2964304102
 30
0.0
 10
3.783319071
 20
6.2960617235
 30
0.0
 10
3.7835854716
 20
6.2957306918
 30
0.0
 10
3.783815822
 20
6.295438567
 30
0.0
 10
3.7839840812
 20
6.2952193703
 30
0.0
 10
3.784099724
 20
6.2950640797
 30
0.0
 10
3.7841728248
 20
6.294963506
 30
0.0
 10
3.7842363622
 20
6.2948733877
 30
0.0
 10
3.7842902896
 20
6.294793813
 30
0.0
 10
3.7843345644
 20
6.294724859
 30
0.0
 10
3.7843649473
 20
6.2946737759
 30
0.0
 10
3.784384158
 20
6.2946381694
 30
0.0
 10
3.7843952914
 20
6.2946157056
 30
0.0
 10
3.7844040013
 20
6.2945959323
 30
0.0
 10
3.7844102946
 20
6.2945788445
 30
0.0
 10
3.784414202
 20
6.2945644183
 30
0.0
 10
3.7844157183
 20
6.2945525891
 30
0.0
 10
3.784414877
 20
6.294543161
 30
0.0
 10
3.7844121897
 20
6.294538163
 30
0.0
 10
3.7844104828
 20
6.2945364561
 30
0.0
  0
SPLINE
  5
48D
100
AcDbEntity
  8
0
100
AcDbSpline
 62
7
  6
CONTINUOUS
 70
0
 71
3
 72
40
 73
36
 74
0
 42
0.0000001
 43
0.0000001
 44
0.0000000001
 40
0.0
 40
0.0
 40
0.0
 40
0.0
 40
0.0712105854
 40
0.148471323
 40
0.2302649775
 40
0.3149900781
 40
0.4009933129
 40
0.4866019974
 40
0.5701559276
 40
0.6500381499
 40
0.7247044583
 40
0.7596259666
 40
0.7927116042
 40
0.823801091
 40
0.8527437066
 40
0.8793990988
 40
0.9036379642
 40
0.9253428979
 40
0.9444092409
 40
0.9529240116
 40
0.9607462121
 40
0.9678668593
 40
0.9742780759
 40
0.9799732735
 40
0.984947318
 40
0.9891969907
 40
0.9927219204
 40
0.9942138989
 40
0.9955270228
 40
0.9966634689
 40
0.9976269734
 40
0.9984239707
 40
0.9990661946
 40
0.9995765236
 40
1.0
 40
1.0
 40
1.0
 40
1.0
 10
3.7071038887
 20
6.3846507035
 30
0.0
 10
3.7075149861
 20
6.3842091222
 30
0.0
 10
3.7083680325
 20
6.3832846442
 30
0.0
 10
3.7096810224
 20
6.3818417142
 30
0.0
 10
3.7110617562
 20
6.3803056719
 30
0.0
 10
3.7124831466
 20
6.3787066269
 30
0.0
 10
3.7139174138
 20
6.3770758231
 30
0.0
 10
3.7153366263
 20
6.3754450324
 30
0.0
 10
3.7167132309
 20
6.3738459481
 30
0.0
 10
3.7180205535
 20
6.3723095922
 30
0.0
 10
3.7190530328
 20
6.3710804162
 30
0.0
 10
3.719825151
 20
6.3701503714
 30
0.0
 10
3.7203587311
 20
6.3695021495
 30
0.0
 10
3.7208572564
 20
6.3688906922
 30
0.0
 10
3.7213183018
 20
6.3683189811
 30
0.0
 10
3.7217396229
 20
6.3677898131
 30
0.0
 10
3.7221191708
 20
6.3673057868
 30
0.0
 10
3.7224550917
 20
6.3668692853
 30
0.0
 10
3.7227059708
 20
6.3665354671
 30
0.0
 10
3.7228833198
 20
6.3662935609
 30
0.0
 10
3.7229993672
 20
6.3661322159
 30
0.0
 10
3.7231034149
 20
6.3659842051
 30
0.0
 10
3.7231953385
 20
6.3658497142
 30
0.0
 10
3.7232750311
 20
6.3657289141
 30
0.0
 10
3.7233424148
 20
6.3656219594
 30
0.0
 10
3.7233974168
 20
6.3655289849
 30
0.0
 10
3.72343478
 20
6.365459894
 30
0.0
 10
3.7234580723
 20
6.365411575
 30
0.0
 10
3.7234714138
 20
6.3653809506
 30
0.0
 10
3.7234816364
 20
6.3653538841
 30
0.0
 10
3.7234887488
 20
6.3653303678
 30
0.0
 10
3.7234927792
 20
6.3653103686
 30
0.0
 10
3.7234937164
 20
6.3652937994
 30
0.0
 10
3.7234915224
 20
6.3652804578
 30
0.0
 10
3.7234873531
 20
6.3652734
 30
0.0
 10
3.7234848161
 20
6.3652708631
 30
0.0
  0
LINE
  5
48E
100
AcDbEntity
  8
0
100
AcDbLine
 62
7
  6
CONTINUOUS
 10
3.7345693754
 20
6.3467442269
 11
3.7498127282
 21
6.3297777392
  0
SPLINE
  5
48F
100
AcDbEntity
  8
0
100
AcDbSpline
 62
7
  6
CONTINUOUS
 70
0
 71
3
 72
17
 73
13
 74
0
 42
0.0000001
 43
0.0000001
 44
0.0000000001
 40
0.0
 40
0.0
 40
0.0
 40
0.0
 40
0.0415725203
 40
0.0891858322
 40
0.1422825851
 40
0.2002421906
 40
0.3279995125
 40
0.4665416811
 40
0.6094874557
 40
0.7502795963
 40
0.8824705826
 40
1.0
 40
1.0
 40
1.0
 40
1.0
 10
3.6721306709
 20
6.4196673249
 30
0.0
 10
3.6723511327
 20
6.419427449
 30
0.0
 10
3.672822106
 20
6.4189110166
 30
0.0
 10
3.6735691219
 20
6.4180831865
 30
0.0
 10
3.6743983181
 20
6.4171565488
 30
0.0
 10
3.6756415203
 20
6.4157575705
 30
0.0
 10
3.6773209696
 20
6.4138504656
 30
0.0
 10
3.6794293982
 20
6.4114337196
 30
0.0
 10
3.6815944968
 20
6.4089308895
 30
0.0
 10
3.6837168559
 20
6.4064569351
 30
0.0
 10
3.6856991883
 20
6.4041253315
 30
0.0
 10
3.6869590351
 20
6.4026277431
 30
0.0
 10
3.6875492734
 20
6.401920658
 30
0.0
  0
SPLINE
  5
490
100
AcDbEntity
  8
0
100
AcDbSpline
 62
7
  6
CONTINUOUS
 70
0
 71
3
 72
19
 73
15
 74
0
 42
0.0000001
 43
0.0000001
 44
0.0000000001
 40
0.0
 40
0.0
 40
0.0
 40
0.0
 40
0.0268203281
 40
0.0553286528
 40
0.086940273
 40
0.1226984288
 40
0.163320258
 40
0.2092867326
 40
0.2609200485
 40
0.3184356627
 40
0.4516162124
 40
0.6095134047
 40
0.7923269129
 40
1.0
 40
1.0
 40
1.0
 40
1.0
 10
3.9902280114
 20
6.1128255909
 30
0.0
 10
3.9902196449
 20
6.1128172243
 30
0.0
 10
3.9902046236
 20
6.1127975846
 30
0.0
 10
3.9901893674
 20
6.1127620552
 30
0.0
 10
3.9901808725
 20
6.1127203795
 30
0.0
 10
3.9901789389
 20
6.1126726228
 30
0.0
 10
3.9901834438
 20
6.1126187307
 30
0.0
 10
3.9901943485
 20
6.1125586621
 30
0.0
 10
3.9902116373
 20
6.1124923977
 30
0.0
 10
3.9902448793
 20
6.1123907369
 30
0.0
 10
3.9903037409
 20
6.1122484438
 30
0.0
 10
3.9903963242
 20
6.1120608979
 30
0.0
 10
3.9905139898
 20
6.1118494263
 30
0.0
 10
3.9906033637
 20
6.1117021156
 30
0.0
 10
3.9906519794
 20
6.111624461
 30
0.0
  0
LINE
  5
491
100
AcDbEntity
  8
0
100
AcDbLine
 62
7
  6
CONTINUOUS
 10
3.8428473825
 20
6.2465199081
 11
3.8417503587
 21
6.2471244143
  0
LINE
  5
492
100
AcDbEntity
  8
0
100
AcDbLine
 62
7
  6
CONTINUOUS
 10
3.6909078212
 20
6.3976829131
 11
3.6906891827
 21
6.3978522616
  0
LINE
  5
493
100
AcDbEntity
  8
0
100
AcDbLine
 62
7
  6
CONTINUOUS
 10
3.6906891827
 20
6.3978522616
 11
3.6905277824
 21
6.3980094603
  0
LINE
  5
494
100
AcDbEntity
  8
0
100
AcDbLine
 62
7
  6
CONTINUOUS
 10
3.6904807027
 20
6.39805654
 11
3.6900252205
 21
6.3985263299
  0
SPLINE
  5
495
100
AcDbEntity
  8
0
100
AcDbSpline
 62
7
  6
CONTINUOUS
 70
0
 71
3
 72
71
 73
67
 74
0
 42
0.0000001
 43
0.0000001
 44
0.0000000001
 40
0.0
 40
0.0
 40
0.0
 40
0.0
 40
0.0673338809
 40
0.1384016349
 40
0.2120187233
 40
0.2872819092
 40
0.3634593237
 40
0.4399112237
 40
0.4780498408
 40
0.5160274947
 40
0.5537631971
 40
0.5911704768
 40
0.6281551356
 40
0.6646126376
 40
0.700425041
 40
0.735457287
 40
0.7695527142
 40
0.8025276572
 40
0.8341650431
 40
0.8494033939
 40
0.8642070668
 40
0.8785361991
 40
0.8923474137
 40
0.9055936667
 40
0.9182241344
 40
0.9301842343
 40
0.9414157673
 40
0.9518573143
 40
0.9614448852
 40
0.9658979775
 40
0.9701129209
 40
0.9740815194
 40
0.9777956429
 40
0.9812473164
 40
0.984428834
 40
0.987332723
 40
0.98995198
 40
0.9922799776
 40
0.9933328502
 40
0.9943106981
 40
0.9952128608
 40
0.9960387012
 40
0.9967876688
 40
0.9974592455
 40
0.9980529625
 40
0.9985683819
 40
0.99879661
 40
0.9990051313
 40
0.9991939071
 40
0.9993628998
 40
0.9995120834
 40
0.9996414394
 40
0.999750949
 40
0.9997982555
 40
0.9998405935
 40
0.9998779596
 40
0.9999103502
 40
0.9999377616
 40
0.9999601899
 40
0.9999776316
 40
0.9999844813
 40
0.999990083
 40
0.9999944361
 40
0.9999975402
 40
0.999999395
 40
1.0
 40
1.0
 40
1.0
 40
1.0
 10
4.4626532396
 20
6.6694812622
 30
0.0
 10
4.4687374947
 20
6.6695586319
 30
0.0
 10
4.4812433665
 20
6.6697199663
 30
0.0
 10
4.5004011321
 20
6.6699742432
 30
0.0
 10
4.5202752636
 20
6.6702467114
 30
0.0
 10
4.5406109551
 20
6.670535571
 30
0.0
 10
4.5612026257
 20
6.6708396739
 30
0.0
 10
4.5784396674
 20
6.6711052897
 30
0.0
 10
4.5922250086
 20
6.6713253122
 30
0.0
 10
4.6025120712
 20
6.6714935491
 30
0.0
 10
4.6127329827
 20
6.6716650145
 30
0.0
 10
4.6228640952
 20
6.67183956
 30
0.0
 10
4.6328796328
 20
6.6720169859
 30
0.0
 10
4.6427509765
 20
6.6721970194
 30
0.0
 10
4.6524458154
 20
6.6723792877
 30
0.0
 10
4.6619271293
 20
6.6725632801
 30
0.0
 10
4.671151961
 20
6.6727482986
 30
0.0
 10
4.6800699446
 20
6.6729333925
 30
0.0
 10
4.687284128
 20
6.6730885109
 30
0.0
 10
4.6928565372
 20
6.6732116961
 30
0.0
 10
4.6968652006
 20
6.6733019495
 30
0.0
 10
4.7007448939
 20
6.6733909318
 30
0.0
 10
4.7044838482
 20
6.673478281
 30
0.0
 10
4.7080693047
 20
6.6735636085
 30
0.0
 10
4.7114874931
 20
6.6736464564
 30
0.0
 10
4.7147236363
 20
6.6737263206
 30
0.0
 10
4.7177620007
 20
6.67380264
 30
0.0
 10
4.720586004
 20
6.6738747952
 30
0.0
 10
4.7227976373
 20
6.6739322278
 30
0.0
 10
4.7244467685
 20
6.6739755729
 30
0.0
 10
4.7255883007
 20
6.6740057906
 30
0.0
 10
4.7266630726
 20
6.6740344483
 30
0.0
 10
4.7276688899
 20
6.674061451
 30
0.0
 10
4.7286036027
 20
6.6740866958
 30
0.0
 10
4.7294651197
 20
6.6741101181
 30
0.0
 10
4.730251439
 20
6.6741315977
 30
0.0
 10
4.730960654
 20
6.6741510853
 30
0.0
 10
4.73150266
 20
6.6741660386
 30
0.0
 10
4.7318963926
 20
6.6741769352
 30
0.0
 10
4.7321613259
 20
6.6741842856
 30
0.0
 10
4.7324057506
 20
6.6741910793
 30
0.0
 10
4.7326294999
 20
6.6741973045
 30
0.0
 10
4.7328324198
 20
6.6742029571
 30
0.0
 10
4.7330143713
 20
6.6742080357
 30
0.0
 10
4.7331752257
 20
6.6742125333
 30
0.0
 10
4.7332960318
 20
6.6742159138
 30
0.0
 10
4.7333820426
 20
6.6742183208
 30
0.0
 10
4.7334385472
 20
6.6742199021
 30
0.0
 10
4.7334897009
 20
6.6742213335
 30
0.0
 10
4.7335354946
 20
6.6742226146
 30
0.0
 10
4.7335759209
 20
6.6742237459
 30
0.0
 10
4.7336109739
 20
6.6742247284
 30
0.0
 10
4.7336368241
 20
6.6742254554
 30
0.0
 10
4.7336548139
 20
6.674225964
 30
0.0
 10
4.7336662867
 20
6.6742262899
 30
0.0
 10
4.7336764124
 20
6.674226579
 30
0.0
 10
4.7336851892
 20
6.6742268301
 30
0.0
 10
4.7336926181
 20
6.6742270435
 30
0.0
 10
4.7336986926
 20
6.674227216
 30
0.0
 10
4.7337029197
 20
6.6742273386
 30
0.0
 10
4.7337056095
 20
6.6742274096
 30
0.0
 10
4.7337071493
 20
6.6742274602
 30
0.0
 10
4.7337082728
 20
6.674227468
 30
0.0
 10
4.7337092409
 20
6.674227542
 30
0.0
 10
4.7337095225
 20
6.6742274607
 30
0.0
 10
4.7337099708
 20
6.674227558
 30
0.0
 10
4.7337099338
 20
6.6742275176
 30
0.0
  0
LINE
  5
496
100
AcDbEntity
  8
0
100
AcDbLine
 62
7
  6
CONTINUOUS
 10
3.6101120978
 20
6.4945499513
 11
3.6097207233
 21
6.49512124
  0
LINE
  5
497
100
AcDbEntity
  8
0
100
AcDbLine
 62
7
  6
CONTINUOUS
 10
3.7753089066
 20
6.3137123128
 11
3.7747996665
 21
6.3139560126
  0
LINE
  5
498
100
AcDbEntity
  8
0
100
AcDbLine
 62
7
  6
CONTINUOUS
 10
3.5921700541
 20
6.5129372889
 11
3.5927795345
 21
6.5121187208
  0
SPLINE
  5
499
100
AcDbEntity
  8
0
100
AcDbSpline
 62
7
  6
CONTINUOUS
 70
0
 71
3
 72
19
 73
15
 74
0
 42
0.0000001
 43
0.0000001
 44
0.0000000001
 40
0.0
 40
0.0
 40
0.0
 40
0.0
 40
0.2090604336
 40
0.3928715825
 40
0.5513613594
 40
0.684714457
 40
0.7421545503
 40
0.7936026096
 40
0.8392749442
 40
0.8794970583
 40
0.9147599417
 40
0.9458049864
 40
0.9737217402
 40
1.0
 40
1.0
 40
1.0
 40
1.0
 10
3.9274850373
 20
6.1744048882
 30
0.0
 10
3.9275623061
 20
6.1743537324
 30
0.0
 10
3.9277088482
 20
6.1742595867
 30
0.0
 10
3.9279192706
 20
6.1741351315
 30
0.0
 10
3.9281058101
 20
6.1740366771
 30
0.0
 10
3.9282473552
 20
6.1739734552
 30
0.0
 10
3.9283484799
 20
6.1739372009
 30
0.0
 10
3.9284143058
 20
6.173918024
 30
0.0
 10
3.9284739489
 20
6.1739054625
 30
0.0
 10
3.9285274328
 20
6.1738995299
 30
0.0
 10
3.9285748066
 20
6.1739002653
 30
0.0
 10
3.9286161382
 20
6.1739077968
 30
0.0
 10
3.9286513633
 20
6.1739223544
 30
0.0
 10
3.9286707708
 20
6.1739370719
 30
0.0
 10
3.9286790073
 20
6.1739453084
 30
0.0
  0
SPLINE
  5
49A
100
AcDbEntity
  8
0
100
AcDbSpline
 62
7
  6
CONTINUOUS
 70
0
 71
3
 72
19
 73
15
 74
0
 42
0.0000001
 43
0.0000001
 44
0.0000000001
 40
0.0
 40
0.0
 40
0.0
 40
0.0
 40
0.2076840803
 40
0.3905822292
 40
0.5486254514
 40
0.6819903448
 40
0.7395997505
 40
0.7913182088
 40
0.837350469
 40
0.8780031235
 40
0.9137367382
 40
0.9452413497
 40
0.9735310681
 40
1.0
 40
1.0
 40
1.0
 40
1.0
 10
3.9074159527
 20
6.1952829312
 30
0.0
 10
3.9073693239
 20
6.1953601297
 30
0.0
 10
3.9072836163
 20
6.1955065323
 30
0.0
 10
3.9071708595
 20
6.1957164861
 30
0.0
 10
3.9070822111
 20
6.195902498
 30
0.0
 10
3.9070259377
 20
6.1960434304
 30
0.0
 10
3.9069942277
 20
6.1961439881
 30
0.0
 10
3.9069777815
 20
6.196209469
 30
0.0
 10
3.9069674717
 20
6.1962687496
 30
0.0
 10
3.9069633137
 20
6.1963218474
 30
0.0
 10
3.9069653408
 20
6.1963688016
 30
0.0
 10
3.9069736696
 20
6.1964096689
 30
0.0
 10
3.9069884925
 20
6.1964443986
 30
0.0
 10
3.9070030903
 20
6.1964635648
 30
0.0
 10
3.907011218
 20
6.1964716924
 30
0.0
  0
SPLINE
  5
49B
100
AcDbEntity
  8
0
100
AcDbSpline
 62
7
  6
CONTINUOUS
 70
0
 71
3
 72
19
 73
15
 74
0
 42
0.0000001
 43
0.0000001
 44
0.0000000001
 40
0.0
 40
0.0
 40
0.0
 40
0.0
 40
0.2117652316
 40
0.3976144505
 40
0.5574310944
 40
0.6913435125
 40
0.7487512088
 40
0.7999444962
 40
0.8451264251
 40
0.8846099905
 40
0.9188794854
 40
0.9486895908
 40
0.9751892452
 40
1.0
 40
1.0
 40
1.0
 40
1.0
 10
3.847520826
 20
6.2540357546
 30
0.0
 10
3.8475969179
 20
6.2539815855
 30
0.0
 10
3.8477411148
 20
6.2538817117
 30
0.0
 10
3.8479480384
 20
6.2537487944
 30
0.0
 10
3.8481311331
 20
6.2536427093
 30
0.0
 10
3.848269879
 20
6.2535734771
 30
0.0
 10
3.8483688615
 20
6.2535328033
 30
0.0
 10
3.8484330545
 20
6.2535107423
 30
0.0
 10
3.8484910802
 20
6.2534955049
 30
0.0
 10
3.848542967
 20
6.2534870977
 30
0.0
 10
3.8485887785
 20
6.2534855517
 30
0.0
 10
3.8486286153
 20
6.2534909978
 30
0.0
 10
3.8486624435
 20
6.2535037172
 30
0.0
 10
3.848680924
 20
6.2535174108
 30
0.0
 10
3.8486886621
 20
6.2535251489
 30
0.0
  0
SPLINE
  5
49C
100
AcDbEntity
  8
0
100
AcDbSpline
 62
7
  6
CONTINUOUS
 70
0
 71
3
 72
19
 73
15
 74
0
 42
0.0000001
 43
0.0000001
 44
0.0000000001
 40
0.0
 40
0.0
 40
0.0
 40
0.0
 40
0.2091220301
 40
0.3931985751
 40
0.5521235992
 40
0.6860173147
 40
0.743730722
 40
0.7954266964
 40
0.8412898609
 40
0.881600501
 40
0.9167888508
 40
0.9475143177
 40
0.9747766934
 40
1.0
 40
1.0
 40
1.0
 40
1.0
 10
3.8278337778
 20
6.2753041149
 30
0.0
 10
3.8277884987
 20
6.2753800572
 30
0.0
 10
3.8277051987
 20
6.2755239581
 30
0.0
 10
3.8275952792
 20
6.2757299677
 30
0.0
 10
3.8275084899
 20
6.2759120454
 30
0.0
 10
3.8274529585
 20
6.2760496315
 30
0.0
 10
3.8274212715
 20
6.2761475423
 30
0.0
 10
3.8274046111
 20
6.2762110866
 30
0.0
 10
3.8273938366
 20
6.2762684351
 30
0.0
 10
3.8273889598
 20
6.2763196048
 30
0.0
 10
3.8273900044
 20
6.2763646384
 30
0.0
 10
3.8273970787
 20
6.2764036085
 30
0.0
 10
3.8274103833
 20
6.2764364972
 30
0.0
 10
3.8274238668
 20
6.2764545273
 30
0.0
 10
3.8274314078
 20
6.276462068
 30
0.0
  0
SPLINE
  5
49D
100
AcDbEntity
  8
0
100
AcDbSpline
 62
7
  6
CONTINUOUS
 70
0
 71
3
 72
19
 73
15
 74
0
 42
0.0000001
 43
0.0000001
 44
0.0000000001
 40
0.0
 40
0.0
 40
0.0
 40
0.0
 40
0.2156054568
 40
0.4044128223
 40
0.5662440493
 40
0.7011284329
 40
0.7585868219
 40
0.8095115307
 40
0.8540756571
 40
0.8925572512
 40
0.9254051959
 40
0.9533582732
 40
0.97761839
 40
1.0
 40
1.0
 40
1.0
 40
1.0
 10
3.7747264041
 20
6.3265647657
 30
0.0
 10
3.7748005809
 20
6.3265072559
 30
0.0
 10
3.7749409642
 20
6.3264009755
 30
0.0
 10
3.7751420722
 20
6.3262583343
 30
0.0
 10
3.7753194144
 20
6.3261432242
 30
0.0
 10
3.7754533926
 20
6.3260666153
 30
0.0
 10
3.7755486761
 20
6.3260203045
 30
0.0
 10
3.7756100974
 20
6.3259944944
 30
0.0
 10
3.7756653659
 20
6.3259756839
 30
0.0
 10
3.7757145113
 20
6.3259638672
 30
0.0
 10
3.7757576132
 20
6.3259590539
 30
0.0
 10
3.7757948271
 20
6.325961357
 30
0.0
 10
3.7758262145
 20
6.3259711276
 30
0.0
 10
3.7758431328
 20
6.3259831133
 30
0.0
 10
3.7758500224
 20
6.3259900029
 30
0.0
  0
SPLINE
  5
49E
100
AcDbEntity
  8
0
100
AcDbSpline
 62
7
  6
CONTINUOUS
 70
0
 71
3
 72
19
 73
15
 74
0
 42
0.0000001
 43
0.0000001
 44
0.0000000001
 40
0.0
 40
0.0
 40
0.0
 40
0.0
 40
0.211960654
 40
0.3982885437
 40
0.5588202615
 40
0.6935907864
 40
0.7514271361
 40
0.8030069686
 40
0.8484849801
 40
0.8881028891
 40
0.9222460789
 40
0.9515312998
 40
0.9769479053
 40
1.0
 40
1.0
 40
1.0
 40
1.0
 10
3.7553831893
 20
6.3481899238
 30
0.0
 10
3.755338568
 20
6.3482639071
 30
0.0
 10
3.7552563225
 20
6.348403906
 30
0.0
 10
3.7551470758
 20
6.3486038384
 30
0.0
 10
3.755060029
 20
6.3487798689
 30
0.0
 10
3.7550034071
 20
6.3489123541
 30
0.0
 10
3.7549702703
 20
6.3490062468
 30
0.0
 10
3.7549523789
 20
6.3490668327
 30
0.0
 10
3.7549401344
 20
6.3491212334
 30
0.0
 10
3.7549335412
 20
6.3491694652
 30
0.0
 10
3.754932608
 20
6.3492115765
 30
0.0
 10
3.7549374257
 20
6.3492476681
 30
0.0
 10
3.7549482087
 20
6.3492777872
 30
0.0
 10
3.754959954
 20
6.3492941084
 30
0.0
 10
3.7549665984
 20
6.3493007525
 30
0.0
  0
LINE
  5
49F
100
AcDbEntity
  8
0
100
AcDbLine
 62
7
  6
CONTINUOUS
 10
3.712283103
 20
6.3888218915
 11
3.7129782085
 21
6.3882874051
  0
LINE
  5
4A0
100
AcDbEntity
  8
0
100
AcDbLine
 62
7
  6
CONTINUOUS
 10
3.7129782085
 20
6.3882874051
 11
3.7133464834
 21
6.3881728057
  0
LINE
  5
4A1
100
AcDbEntity
  8
0
100
AcDbLine
 62
7
  6
CONTINUOUS
 10
3.6932301549
 20
6.4107542535
 11
3.6927838468
 21
6.4118043428
  0
LINE
  5
4A2
100
AcDbEntity
  8
0
100
AcDbLine
 62
7
  6
CONTINUOUS
 10
3.6636104954
 20
6.4374871864
 11
3.6639097465
 21
6.4373558671
  0
LINE
  5
4A3
100
AcDbEntity
  8
0
100
AcDbLine
 62
7
  6
CONTINUOUS
 10
3.6440906527
 20
6.4602622706
 11
3.6436008344
 21
6.4612411289
  0
LINE
  5
4A4
100
AcDbEntity
  8
0
100
AcDbLine
 62
7
  6
CONTINUOUS
 10
4.083940648
 20
5.989102893
 11
4.0830619839
 21
5.9896779224
  0
LINE
  5
4A5
100
AcDbEntity
  8
0
100
AcDbLine
 62
7
  6
CONTINUOUS
 10
3.6095670917
 20
6.4954504827
 11
3.6097207233
 21
6.49512124
  0
LINE
  5
4A6
100
AcDbEntity
  8
0
100
AcDbLine
 62
7
  6
CONTINUOUS
 10
3.9970979954
 20
6.0755014018
 11
3.9961935422
 21
6.0760853714
  0
SPLINE
  5
4A7
100
AcDbEntity
  8
0
100
AcDbSpline
 62
7
  6
CONTINUOUS
 70
0
 71
3
 72
10
 73
6
 74
0
 42
0.0000001
 43
0.0000001
 44
0.0000000001
 40
0.0
 40
0.0
 40
0.0
 40
0.0
 40
0.3762574443
 40
0.6520130519
 40
1.0
 40
1.0
 40
1.0
 40
1.0
 10
4.3208927912
 20
5.7709245121
 30
0.0
 10
4.3208910492
 20
5.7709227704
 30
0.0
 10
4.320886314
 20
5.7709218703
 30
0.0
 10
4.3208799194
 20
5.7709226426
 30
0.0
 10
4.3208759156
 20
5.7709236267
 30
0.0
 10
4.3208737291
 20
5.7709242667
 30
0.0
  0
LINE
  5
4A8
100
AcDbEntity
  8
0
100
AcDbLine
 62
7
  6
CONTINUOUS
 10
3.723385716
 20
6.3652910759
 11
3.7225185126
 21
6.3660309261
  0
LINE
  5
4A9
100
AcDbEntity
  8
0
100
AcDbLine
 62
7
  6
CONTINUOUS
 10
4.2655304331
 20
5.8230190055
 11
4.2647905829
 21
5.823886209
  0
LINE
  5
4AA
100
AcDbEntity
  8
0
100
AcDbLine
 62
7
  6
CONTINUOUS
 10
4.2980258369
 20
5.7905257135
 11
4.2973517675
 21
5.7911896769
  0
LINE
  5
4AB
100
AcDbEntity
  8
0
100
AcDbLine
 62
7
  6
CONTINUOUS
 10
4.2973517675
 20
5.7911896769
 11
4.2971824201
 21
5.7914083142
  0
SPLINE
  5
4AC
100
AcDbEntity
  8
0
100
AcDbSpline
 62
7
  6
CONTINUOUS
 70
0
 71
3
 72
10
 73
6
 74
0
 42
0.0000001
 43
0.0000001
 44
0.0000000001
 40
0.0
 40
0.0
 40
0.0
 40
0.0
 40
0.3479869484
 40
0.6237425562
 40
1.0
 40
1.0
 40
1.0
 40
1.0
 10
3.6704237737
 20
6.4213742221
 30
0.0
 10
3.6704231337
 20
6.4213764086
 30
0.0
 10
3.6704221495
 20
6.4213804124
 30
0.0
 10
3.6704213773
 20
6.4213868071
 30
0.0
 10
3.6704222774
 20
6.4213915422
 30
0.0
 10
3.670424019
 20
6.4213932843
 30
0.0
  0
SPLINE
  5
4AD
100
AcDbEntity
  8
0
100
AcDbSpline
 62
7
  6
CONTINUOUS
 70
0
 71
3
 72
25
 73
21
 74
0
 42
0.0000001
 43
0.0000001
 44
0.0000000001
 40
0.0
 40
0.0
 40
0.0
 40
0.0
 40
0.0624991303
 40
0.1249997178
 40
0.1875010884
 40
0.2500011901
 40
0.3125003651
 40
0.3437499717
 40
0.3749998346
 40
0.437499926
 40
0.500000009
 40
0.5625000874
 40
0.6250001807
 40
0.656250052
 40
0.687499666
 40
0.7499988366
 40
0.8124989151
 40
0.8750002678
 40
0.9375008629
 40
1.0
 40
1.0
 40
1.0
 40
1.0
 10
5.8999155071
 20
3.1614090936
 30
0.0
 10
5.8999155069
 20
3.1603004848
 30
0.0
 10
5.8999277495
 20
3.1580832348
 30
0.0
 10
5.8999715781
 20
3.1547576164
 30
0.0
 10
5.9000294057
 20
3.151432206
 30
0.0
 10
5.9000904991
 20
3.1481068839
 30
0.0
 10
5.90013827
 20
3.1453357518
 30
0.0
 10
5.9001708784
 20
3.1431187653
 30
0.0
 10
5.9001985276
 20
3.1409016953
 30
0.0
 10
5.9002229823
 20
3.1381302286
 30
0.0
 10
5.9002336294
 20
3.1348043473
 30
0.0
 10
5.9002230131
 20
3.1314784658
 30
0.0
 10
5.9001985643
 20
3.128706999
 30
0.0
 10
5.9001709332
 20
3.1264899285
 30
0.0
 10
5.9001383406
 20
3.1242729416
 30
0.0
 10
5.9000905641
 20
3.1215018098
 30
0.0
 10
5.9000294596
 20
3.1181764887
 30
0.0
 10
5.8999716242
 20
3.1148510792
 30
0.0
 10
5.8999277651
 20
3.1115254612
 30
0.0
 10
5.8999155089
 20
3.109308211
 30
0.0
 10
5.8999155071
 20
3.108199602
 30
0.0
  0
LINE
  5
4AE
100
AcDbEntity
  8
0
100
AcDbLine
 62
7
  6
CONTINUOUS
 10
3.6287941205
 20
6.4722037505
 11
3.6297004356
 21
6.4713896532
  0
LINE
  5
4AF
100
AcDbEntity
  8
0
100
AcDbLine
 62
7
  6
CONTINUOUS
 10
3.6629202596
 20
6.4380866641
 11
3.6636104954
 21
6.4374871864
  0
LINE
  5
4B0
100
AcDbEntity
  8
0
100
AcDbLine
 62
7
  6
CONTINUOUS
 10
4.3369866934
 20
5.7641109885
 11
4.337586171
 21
5.7634207527
  0
SPLINE
  5
4B1
100
AcDbEntity
  8
0
100
AcDbSpline
 62
7
  6
CONTINUOUS
 70
0
 71
3
 72
23
 73
19
 74
0
 42
0.0000001
 43
0.0000001
 44
0.0000000001
 40
0.0
 40
0.0
 40
0.0
 40
0.0
 40
0.0623606563
 40
0.1247733116
 40
0.1872327526
 40
0.2497335764
 40
0.3122688291
 40
0.3748306829
 40
0.4374107411
 40
0.4999999986
 40
0.5625892584
 40
0.6251693207
 40
0.6877311728
 40
0.7502664212
 40
0.8127672451
 40
0.8752266914
 40
0.9376393565
 40
1.0
 40
1.0
 40
1.0
 40
1.0
 10
5.9074155071
 20
3.1614090936
 30
0.0
 10
5.907415507
 20
3.1603029927
 30
0.0
 10
5.9074242082
 20
3.1580898664
 30
0.0
 10
5.9074541141
 20
3.1547690181
 30
0.0
 10
5.9074929452
 20
3.1514457799
 30
0.0
 10
5.9075339388
 20
3.1481203949
 30
0.0
 10
5.9075715901
 20
3.1447931519
 30
0.0
 10
5.9076016264
 20
3.1414644231
 30
0.0
 10
5.9076208838
 20
3.1381346539
 30
0.0
 10
5.9076274944
 20
3.1348043479
 30
0.0
 10
5.9076208862
 20
3.1314740418
 30
0.0
 10
5.9076016252
 20
3.1281442725
 30
0.0
 10
5.9075715893
 20
3.1248155437
 30
0.0
 10
5.9075339394
 20
3.1214883008
 30
0.0
 10
5.9074929456
 20
3.1181629158
 30
0.0
 10
5.9074541135
 20
3.1148396774
 30
0.0
 10
5.9074242081
 20
3.1115188289
 30
0.0
 10
5.9074155078
 20
3.1093057027
 30
0.0
 10
5.9074155071
 20
3.108199602
 30
0.0
  0
LINE
  5
4B2
100
AcDbEntity
  8
0
100
AcDbLine
 62
7
  6
CONTINUOUS
 10
3.7843961056
 20
6.294532089
 11
3.784283417
 21
6.294591937
  0
LINE
  5
4B3
100
AcDbEntity
  8
0
100
AcDbLine
 62
7
  6
CONTINUOUS
 10
3.784283417
 20
6.294591937
 11
3.7835036437
 21
6.2952921106
  0
LINE
  5
4B4
100
AcDbEntity
  8
0
100
AcDbLine
 62
7
  6
CONTINUOUS
 10
3.9947133925
 20
6.0731167991
 11
3.9938359195
 21
6.0738097963
  0
LINE
  5
4B5
100
AcDbEntity
  8
0
100
AcDbLine
 62
7
  6
CONTINUOUS
 10
4.1947916176
 20
5.8840041367
 11
4.1940914432
 21
5.884783911
  0
LINE
  5
4B6
100
AcDbEntity
  8
0
100
AcDbLine
 62
7
  6
CONTINUOUS
 10
4.1940914432
 20
5.884783911
 11
4.1940315959
 21
5.8848965987
  0
LINE
  5
4B7
100
AcDbEntity
  8
0
100
AcDbLine
 62
7
  6
CONTINUOUS
 10
4.1689520895
 20
5.9220863763
 11
4.1678610479
 21
5.9225793861
  0
LINE
  5
4B8
100
AcDbEntity
  8
0
100
AcDbLine
 62
7
  6
CONTINUOUS
 10
3.8466822224
 20
6.2251481221
 11
3.8465377641
 21
6.225240459
  0
LINE
  5
4B9
100
AcDbEntity
  8
0
100
AcDbLine
 62
7
  6
CONTINUOUS
 10
3.8465377641
 20
6.225240459
 11
3.8458701178
 21
6.2258652212
  0
LINE
  5
4BA
100
AcDbEntity
  8
0
100
AcDbLine
 62
7
  6
CONTINUOUS
 10
4.0862946324
 20
5.9941974813
 11
4.0852713562
 21
5.9947446191
  0
LINE
  5
4BB
100
AcDbEntity
  8
0
100
AcDbLine
 62
7
  6
CONTINUOUS
 10
4.1253645555
 20
5.946370788
 11
4.1247441384
 21
5.9470332929
  0
LINE
  5
4BC
100
AcDbEntity
  8
0
100
AcDbLine
 62
7
  6
CONTINUOUS
 10
4.1247441384
 20
5.9470332929
 11
4.1246476294
 21
5.9471827151
  0
LINE
  5
4BD
100
AcDbEntity
  8
0
100
AcDbLine
 62
7
  6
CONTINUOUS
 10
4.0008256058
 20
6.079229012
 11
3.9997847308
 21
6.0797915399
  0
LINE
  5
4BE
100
AcDbEntity
  8
0
100
AcDbLine
 62
7
  6
CONTINUOUS
 10
3.9755848791
 20
6.0966940345
 11
3.9750009087
 21
6.0975984885
  0
LINE
  5
4BF
100
AcDbEntity
  8
0
100
AcDbLine
 62
7
  6
CONTINUOUS
 10
3.8891772101
 20
6.1835627512
 11
3.8886023998
 21
6.1844411411
  0
SPLINE
  5
4C0
100
AcDbEntity
  8
0
100
AcDbSpline
 62
7
  6
CONTINUOUS
 70
0
 71
3
 72
19
 73
15
 74
0
 42
0.0000001
 43
0.0000001
 44
0.0000000001
 40
0.0
 40
0.0
 40
0.0
 40
0.0
 40
0.0220364157
 40
0.0463883437
 40
0.074700195
 40
0.1080275645
 40
0.1470115273
 40
0.1920418618
 40
0.2433586695
 40
0.3011125474
 40
0.4362413401
 40
0.597797673
 40
0.7857827269
 40
1.0
 40
1.0
 40
1.0
 40
1.0
 10
4.09030183
 20
6.0003335505
 30
0.0
 10
4.0902952486
 20
6.0003269689
 30
0.0
 10
4.0902788949
 20
6.0003154647
 30
0.0
 10
4.0902485368
 20
6.0003056925
 30
0.0
 10
4.0902121428
 20
6.0003024752
 30
0.0
 10
4.0901696265
 20
6.0003055472
 30
0.0
 10
4.0901208574
 20
6.0003148182
 30
0.0
 10
4.0900657747
 20
6.0003302847
 30
0.0
 10
4.0900043587
 20
6.0003519482
 30
0.0
 10
4.0899089483
 20
6.0003912273
 30
0.0
 10
4.0897742811
 20
6.00045693
 30
0.0
 10
4.0895953329
 20
6.0005564713
 30
0.0
 10
4.0893919306
 20
6.0006803737
 30
0.0
 10
4.0892495376
 20
6.000773063
 30
0.0
 10
4.0891742598
 20
6.0008232627
 30
0.0
  0
LINE
  5
4C1
100
AcDbEntity
  8
0
100
AcDbLine
 62
7
  6
CONTINUOUS
 10
3.973309176
 20
6.0943365551
 11
3.972616306
 21
6.0952138856
  0
LINE
  5
4C2
100
AcDbEntity
  8
0
100
AcDbLine
 62
7
  6
CONTINUOUS
 10
3.9102964439
 20
6.1571022699
 11
3.9094685918
 21
6.1578683502
  0
LINE
  5
4C3
100
AcDbEntity
  8
0
100
AcDbLine
 62
7
  6
CONTINUOUS
 10
3.91535659
 20
6.1642605542
 11
3.9149210464
 21
6.164428972
  0
LINE
  5
4C4
100
AcDbEntity
  8
0
100
AcDbLine
 62
7
  6
CONTINUOUS
 10
4.4116183726
 20
5.6932799135
 11
4.4124367958
 21
5.6926705472
  0
LINE
  5
4C5
100
AcDbEntity
  8
0
100
AcDbLine
 62
7
  6
CONTINUOUS
 10
4.3940493921
 20
5.7106126384
 11
4.3949499895
 21
5.710067585
  0
SPLINE
  5
4C6
100
AcDbEntity
  8
0
100
AcDbSpline
 62
7
  6
CONTINUOUS
 70
0
 71
3
 72
19
 73
15
 74
0
 42
0.0000001
 43
0.0000001
 44
0.0000000001
 40
0.0
 40
0.0
 40
0.0
 40
0.0
 40
0.0225407785
 40
0.0472334907
 40
0.0757429609
 40
0.1091615261
 40
0.1481620165
 40
0.1931577958
 40
0.2444051809
 40
0.3020662545
 40
0.4369682736
 40
0.5982769524
 40
0.7860157945
 40
1.0
 40
1.0
 40
1.0
 40
1.0
 10
4.0058997157
 20
6.0843031219
 30
0.0
 10
4.0058928615
 20
6.0842962676
 30
0.0
 10
4.0058759781
 20
6.0842842658
 30
0.0
 10
4.0058447077
 20
6.0842739535
 30
0.0
 10
4.0058073896
 20
6.0842704831
 30
0.0
 10
4.0057639608
 20
6.0842735718
 30
0.0
 10
4.0057142905
 20
6.0842831172
 30
0.0
 10
4.0056583145
 20
6.0842991116
 30
0.0
 10
4.0055960099
 20
6.0843215549
 30
0.0
 10
4.0054993565
 20
6.0843622875
 30
0.0
 10
4.0053631586
 20
6.0844304955
 30
0.0
 10
4.0051824742
 20
6.0845338941
 30
0.0
 10
4.0049773564
 20
6.0846626471
 30
0.0
 10
4.0048339233
 20
6.0847589789
 30
0.0
 10
4.0047581244
 20
6.0848111563
 30
0.0
  0
LINE
  5
4C7
100
AcDbEntity
  8
0
100
AcDbLine
 62
7
  6
CONTINUOUS
 10
4.3597615342
 20
5.7445913072
 11
4.3607406356
 21
5.7441013277
  0
LINE
  5
4C8
100
AcDbEntity
  8
0
100
AcDbLine
 62
7
  6
CONTINUOUS
 10
4.3369866934
 20
5.7641109885
 11
4.3368553742
 21
5.7644102394
  0
LINE
  5
4C9
100
AcDbEntity
  8
0
100
AcDbLine
 62
7
  6
CONTINUOUS
 10
4.3102533784
 20
5.7937308869
 11
4.3113038496
 21
5.79328434
  0
LINE
  5
4CA
100
AcDbEntity
  8
0
100
AcDbLine
 62
7
  6
CONTINUOUS
 10
4.2883213386
 20
5.8127836663
 11
4.2876723128
 21
5.8138469764
  0
SPLINE
  5
4CB
100
AcDbEntity
  8
0
100
AcDbSpline
 62
7
  6
CONTINUOUS
 70
0
 71
3
 72
19
 73
15
 74
0
 42
0.0000001
 43
0.0000001
 44
0.0000000001
 40
0.0
 40
0.0
 40
0.0
 40
0.0
 40
0.2119631841
 40
0.3982932971
 40
0.5588267881
 40
0.6935984684
 40
0.7514347452
 40
0.8030148402
 40
0.8484920188
 40
0.8881096139
 40
0.9222514027
 40
0.9515353276
 40
0.976950049
 40
1.0
 40
1.0
 40
1.0
 40
1.0
 10
4.2476892044
 20
5.8558838189
 30
0.0
 10
4.2477632035
 20
5.8558391855
 30
0.0
 10
4.2479032323
 20
5.8557569179
 30
0.0
 10
4.2481032071
 20
5.8556476407
 30
0.0
 10
4.2482792748
 20
5.8555605686
 30
0.0
 10
4.2484117875
 20
5.8555039287
 30
0.0
 10
4.2485056997
 20
5.8554707811
 30
0.0
 10
4.2485662974
 20
5.8554528824
 30
0.0
 10
4.248620709
 20
5.8554406335
 30
0.0
 10
4.2486689498
 20
5.8554340354
 30
0.0
 10
4.2487110689
 20
5.8554331005
 30
0.0
 10
4.2487471668
 20
5.8554379164
 30
0.0
 10
4.2487772909
 20
5.8554486995
 30
0.0
 10
4.2487936142
 20
5.8554604465
 30
0.0
 10
4.2488002593
 20
5.8554670915
 30
0.0
  0
SPLINE
  5
4CC
100
AcDbEntity
  8
0
100
AcDbSpline
 62
7
  6
CONTINUOUS
 70
0
 71
3
 72
19
 73
15
 74
0
 42
0.0000001
 43
0.0000001
 44
0.0000000001
 40
0.0
 40
0.0
 40
0.0
 40
0.0
 40
0.2156001604
 40
0.4044101218
 40
0.5662417385
 40
0.7011269136
 40
0.7585854602
 40
0.8095105147
 40
0.8540748653
 40
0.8925566676
 40
0.9254048612
 40
0.9533579924
 40
0.9776183089
 40
1.0
 40
1.0
 40
1.0
 40
1.0
 10
4.2260642704
 20
5.8752268999
 30
0.0
 10
4.2260067622
 20
5.8753010747
 30
0.0
 10
4.2259004829
 20
5.8754414568
 30
0.0
 10
4.2257578425
 20
5.8756425632
 30
0.0
 10
4.2256427319
 20
5.8758199064
 30
0.0
 10
4.2255661226
 20
5.8759538846
 30
0.0
 10
4.2255198119
 20
5.8760491684
 30
0.0
 10
4.2254940015
 20
5.8761105898
 30
0.0
 10
4.225475191
 20
5.8761658584
 30
0.0
 10
4.2254633744
 20
5.876215004
 30
0.0
 10
4.2254585607
 20
5.876258106
 30
0.0
 10
4.2254608643
 20
5.8762953199
 30
0.0
 10
4.2254706341
 20
5.8763267077
 30
0.0
 10
4.2254826205
 20
5.8763436256
 30
0.0
 10
4.22548951
 20
5.8763505153
 30
0.0
  0
SPLINE
  5
4CD
100
AcDbEntity
  8
0
100
AcDbSpline
 62
7
  6
CONTINUOUS
 70
0
 71
3
 72
19
 73
15
 74
0
 42
0.0000001
 43
0.0000001
 44
0.0000000001
 40
0.0
 40
0.0
 40
0.0
 40
0.0
 40
0.2091209213
 40
0.393196674
 40
0.5521212942
 40
0.6860149421
 40
0.743728329
 40
0.7954245586
 40
0.8412875793
 40
0.8815988223
 40
0.9167871528
 40
0.9475133131
 40
0.9747760708
 40
1.0
 40
1.0
 40
1.0
 40
1.0
 10
4.1748036812
 20
5.9283342355
 30
0.0
 10
4.1748796192
 20
5.9282889595
 30
0.0
 10
4.1750235123
 20
5.9282056657
 30
0.0
 10
4.1752295107
 20
5.9280957542
 30
0.0
 10
4.1754115788
 20
5.9280089715
 30
0.0
 10
4.1755491577
 20
5.9279534444
 30
0.0
 10
4.1756470637
 20
5.9279217605
 30
0.0
 10
4.1757106046
 20
5.9279051013
 30
0.0
 10
4.1757679505
 20
5.927894329
 30
0.0
 10
4.1758191177
 20
5.927889452
 30
0.0
 10
4.1758641492
 20
5.9278904986
 30
0.0
 10
4.1759031179
 20
5.9278975719
 30
0.0
 10
4.175936005
 20
5.9279108773
 30
0.0
 10
4.1759540343
 20
5.9279243603
 30
0.0
 10
4.175961575
 20
5.9279319008
 30
0.0
  0
SPLINE
  5
4CE
100
AcDbEntity
  8
0
100
AcDbSpline
 62
7
  6
CONTINUOUS
 70
0
 71
3
 72
19
 73
15
 74
0
 42
0.0000001
 43
0.0000001
 44
0.0000000001
 40
0.0
 40
0.0
 40
0.0
 40
0.0
 40
0.2117659965
 40
0.3976160042
 40
0.5574332124
 40
0.6913459761
 40
0.748753587
 40
0.7999470029
 40
0.8451287642
 40
0.8846121089
 40
0.9188812999
 40
0.9486908424
 40
0.9751899642
 40
1.0
 40
1.0
 40
1.0
 40
1.0
 10
4.1535353123
 20
5.9480212477
 30
0.0
 10
4.1534811389
 20
5.9480973444
 30
0.0
 10
4.1533812568
 20
5.9482415505
 30
0.0
 10
4.1532483282
 20
5.9484484873
 30
0.0
 10
4.1531422336
 20
5.9486315937
 30
0.0
 10
4.1530729947
 20
5.9487703481
 30
0.0
 10
4.153032317
 20
5.9488693368
 30
0.0
 10
4.1530102533
 20
5.9489335335
 30
0.0
 10
4.1529950141
 20
5.9489915628
 30
0.0
 10
4.1529866055
 20
5.9490434526
 30
0.0
 10
4.1529850581
 20
5.9490892666
 30
0.0
 10
4.1529905042
 20
5.9491291053
 30
0.0
 10
4.1530032229
 20
5.9491629357
 30
0.0
 10
4.1530169177
 20
5.9491814165
 30
0.0
 10
4.153024656
 20
5.949189155
 30
0.0
  0
SPLINE
  5
4CF
100
AcDbEntity
  8
0
100
AcDbSpline
 62
7
  6
CONTINUOUS
 70
0
 71
3
 72
19
 73
15
 74
0
 42
0.0000001
 43
0.0000001
 44
0.0000000001
 40
0.0
 40
0.0
 40
0.0
 40
0.0
 40
0.2076819363
 40
0.3905783748
 40
0.5486204432
 40
0.6819848718
 40
0.7395944047
 40
0.7913130028
 40
0.8373455077
 40
0.877998938
 40
0.9137330603
 40
0.9452389358
 40
0.9735296776
 40
1.0
 40
1.0
 40
1.0
 40
1.0
 10
4.0947825676
 20
6.0079163676
 30
0.0
 10
4.0948597569
 20
6.0078697458
 30
0.0
 10
4.0950061427
 20
6.0077840515
 30
0.0
 10
4.0952160723
 20
6.0076713127
 30
0.0
 10
4.0954020631
 20
6.0075826789
 30
0.0
 10
4.0955429799
 20
6.0075264157
 30
0.0
 10
4.0956435265
 20
6.0074947118
 30
0.0
 10
4.0957090005
 20
6.0074782692
 30
0.0
 10
4.0957682751
 20
6.0074679627
 30
0.0
 10
4.0958213676
 20
6.007463806
 30
0.0
 10
4.0958683172
 20
6.0074658357
 30
0.0
 10
4.0959091811
 20
6.0074741636
 30
0.0
 10
4.0959439073
 20
6.0074889876
 30
0.0
 10
4.0959630723
 20
6.0075035838
 30
0.0
 10
4.0959711996
 20
6.0075117109
 30
0.0
  0
SPLINE
  5
4D0
100
AcDbEntity
  8
0
100
AcDbSpline
 62
7
  6
CONTINUOUS
 70
0
 71
3
 72
19
 73
15
 74
0
 42
0.0000001
 43
0.0000001
 44
0.0000000001
 40
0.0
 40
0.0
 40
0.0
 40
0.0
 40
0.2090624543
 40
0.3928752788
 40
0.5513663382
 40
0.6847201493
 40
0.7421601251
 40
0.7936082497
 40
0.8392801964
 40
0.8795017722
 40
0.9147639059
 40
0.9458077631
 40
0.9737232722
 40
1.0
 40
1.0
 40
1.0
 40
1.0
 10
4.0739044938
 20
6.0279853813
 30
0.0
 10
4.0738533294
 20
6.0280626604
 30
0.0
 10
4.0737591672
 20
6.0282092217
 30
0.0
 10
4.0736346897
 20
6.0284196717
 30
0.0
 10
4.0735362169
 20
6.0286062353
 30
0.0
 10
4.073472982
 20
6.0287477983
 30
0.0
 10
4.07343672
 20
6.0288489359
 30
0.0
 10
4.0734175381
 20
6.0289147697
 30
0.0
 10
4.073404973
 20
6.02897442
 30
0.0
 10
4.0733990376
 20
6.0290279101
 30
0.0
 10
4.0733997709
 20
6.0290752893
 30
0.0
 10
4.0734073022
 20
6.0291166251
 30
0.0
 10
4.0734218592
 20
6.0291518542
 30
0.0
 10
4.0734365785
 20
6.029171263
 30
0.0
 10
4.0734448155
 20
6.0291795002
 30
0.0
  0
SPLINE
  5
4D1
100
AcDbEntity
  8
0
100
AcDbSpline
 62
7
  6
CONTINUOUS
 70
0
 71
3
 72
19
 73
15
 74
0
 42
0.0000001
 43
0.0000001
 44
0.0000000001
 40
0.0
 40
0.0
 40
0.0
 40
0.0
 40
0.2076674719
 40
0.3904763147
 40
0.5483701291
 40
0.6815488447
 40
0.7390646114
 40
0.7906979218
 40
0.836665565
 40
0.8772887766
 40
0.9130492568
 40
0.9446638154
 40
0.9731756751
 40
1.0
 40
1.0
 40
1.0
 40
1.0
 10
4.0111243601
 20
6.0911522269
 30
0.0
 10
4.0112019878
 20
6.0911036331
 30
0.0
 10
4.0113492477
 20
6.0910143003
 30
0.0
 10
4.0115606468
 20
6.0908966907
 30
0.0
 10
4.0117481291
 20
6.0908041534
 30
0.0
 10
4.0118903749
 20
6.0907453242
 30
0.0
 10
4.0119920019
 20
6.0907121015
 30
0.0
 10
4.0120582455
 20
6.0906948252
 30
0.0
 10
4.0121182951
 20
6.0906839291
 30
0.0
 10
4.012172171
 20
6.0906794315
 30
0.0
 10
4.0122199137
 20
6.0906813691
 30
0.0
 10
4.012261578
 20
6.0906898657
 30
0.0
 10
4.0122970977
 20
6.0907051214
 30
0.0
 10
4.0123167332
 20
6.0907201394
 30
0.0
 10
4.012325098
 20
6.0907285043
 30
0.0
  0
LINE
  5
4D2
100
AcDbEntity
  8
0
100
AcDbLine
 62
7
  6
CONTINUOUS
 10
3.8401964083
 20
6.2390360464
 11
3.8393873418
 21
6.2395595971
  0
LINE
  5
4D3
100
AcDbEntity
  8
0
100
AcDbLine
 62
7
  6
CONTINUOUS
 10
4.0573677223
 20
6.009969222
 11
4.0566017768
 21
6.010796937
  0
LINE
  5
4D4
100
AcDbEntity
  8
0
100
AcDbLine
 62
7
  6
CONTINUOUS
 10
4.3708891601
 20
5.7302009286
 11
4.3717032574
 21
5.7292946136
  0
LINE
  5
4D5
100
AcDbEntity
  8
0
100
AcDbLine
 62
7
  6
CONTINUOUS
 10
4.2469234235
 20
5.8343901788
 11
4.2462030119
 21
5.8349627769
  0
SPLINE
  5
4D6
100
AcDbEntity
  8
0
100
AcDbSpline
 62
7
  6
CONTINUOUS
 70
0
 71
3
 72
9
 73
5
 74
0
 42
0.0000001
 43
0.0000001
 44
0.0000000001
 40
0.0
 40
0.0
 40
0.0
 40
0.0
 40
0.2454499035
 40
1.0
 40
1.0
 40
1.0
 40
1.0
 10
4.2462030119
 20
5.8349627769
 30
0.0
 10
4.2461969406
 20
5.8349678959
 30
0.0
 10
4.2461722096
 20
5.8349887565
 30
0.0
 10
4.2461474948
 20
5.8350096362
 30
0.0
 10
4.2461288545
 20
5.8350254008
 30
0.0
  0
SPLINE
  5
4D7
100
AcDbEntity
  8
0
100
AcDbSpline
 62
7
  6
CONTINUOUS
 70
0
 71
3
 72
9
 73
5
 74
0
 42
0.0000001
 43
0.0000001
 44
0.0000000001
 40
0.0
 40
0.0
 40
0.0
 40
0.0
 40
0.2482822578
 40
1.0
 40
1.0
 40
1.0
 40
1.0
 10
4.2461288545
 20
5.8350254008
 30
0.0
 10
4.2461263679
 20
5.8350275038
 30
0.0
 10
4.2461163534
 20
5.8350359745
 30
0.0
 10
4.2461063413
 20
5.835044448
 30
0.0
 10
4.2460988163
 20
5.8350508192
 30
0.0
  0
LINE
  5
4D8
100
AcDbEntity
  8
0
100
AcDbLine
 62
7
  6
CONTINUOUS
 10
4.3208737291
 20
5.7709242667
 11
4.3207650888
 21
5.77098258
  0
LINE
  5
4D9
100
AcDbEntity
  8
0
100
AcDbLine
 62
7
  6
CONTINUOUS
 10
4.3207650888
 20
5.77098258
 11
4.3200091612
 21
5.771541692
  0
SPLINE
  5
4DA
100
AcDbEntity
  8
0
100
AcDbSpline
 62
7
  6
CONTINUOUS
 70
0
 71
3
 72
9
 73
5
 74
0
 42
0.0000001
 43
0.0000001
 44
0.0000000001
 40
0.0
 40
0.0
 40
0.0
 40
0.0
 40
0.5479968672
 40
1.0
 40
1.0
 40
1.0
 40
1.0
 10
4.1940315959
 20
5.8848965987
 30
0.0
 10
4.1940314653
 20
5.8848994026
 30
0.0
 10
4.1940317495
 20
5.8849046276
 30
0.0
 10
4.1940343264
 20
5.8849093382
 30
0.0
 10
4.1940359635
 20
5.8849109754
 30
0.0
  0
LINE
  5
4DB
100
AcDbEntity
  8
0
100
AcDbLine
 62
7
  6
CONTINUOUS
 10
4.2647905829
 20
5.823886209
 11
4.26477037
 21
5.8239853091
  0
LINE
  5
4DC
100
AcDbEntity
  8
0
100
AcDbLine
 62
7
  6
CONTINUOUS
 10
4.2137704599
 20
5.8749063321
 11
4.2132118198
 21
5.8758093997
  0
LINE
  5
4DD
100
AcDbEntity
  8
0
100
AcDbLine
 62
7
  6
CONTINUOUS
 10
4.1391681644
 20
5.9397600301
 11
4.1385355535
 21
5.9406969013
  0
LINE
  5
4DE
100
AcDbEntity
  8
0
100
AcDbLine
 62
7
  6
CONTINUOUS
 10
4.1466239193
 20
5.9422508542
 11
4.1460194151
 21
5.9433478755
  0
LINE
  5
4DF
100
AcDbEntity
  8
0
100
AcDbLine
 62
7
  6
CONTINUOUS
 10
4.0639283565
 20
6.0154217263
 11
4.0637600611
 21
6.0158570831
  0
SPLINE
  5
4E0
100
AcDbEntity
  8
0
100
AcDbSpline
 62
7
  6
CONTINUOUS
 70
0
 71
3
 72
19
 73
15
 74
0
 42
0.0000001
 43
0.0000001
 44
0.0000000001
 40
0.0
 40
0.0
 40
0.0
 40
0.0
 40
0.2154836941
 40
0.4043361301
 40
0.5663512
 40
0.7015279061
 40
0.7591544305
 40
0.8102468104
 40
0.8549618135
 40
0.8935507194
 40
0.9264249603
 40
0.9542662018
 40
0.9782054715
 40
1.0
 40
1.0
 40
1.0
 40
1.0
 10
4.0683194863
 20
6.0208665714
 30
0.0
 10
4.0682646114
 20
6.02094188
 30
0.0
 10
4.0681632015
 20
6.0210843393
 30
0.0
 10
4.068027176
 20
6.0212880559
 30
0.0
 10
4.0679174401
 20
6.0214673799
 30
0.0
 10
4.0678444688
 20
6.0216025071
 30
0.0
 10
4.0678003904
 20
6.0216983615
 30
0.0
 10
4.0677758415
 20
6.0217600423
 30
0.0
 10
4.0677579789
 20
6.0218154036
 30
0.0
 10
4.0677467985
 20
6.02186447
 30
0.0
 10
4.0677423011
 20
6.021907313
 30
0.0
 10
4.0677445859
 20
6.0219440843
 30
0.0
 10
4.0677539658
 20
6.0219748818
 30
0.0
 10
4.067765547
 20
6.0219914412
 30
0.0
 10
4.0677722113
 20
6.0219981053
 30
0.0
  0
LINE
  5
4E1
100
AcDbEntity
  8
0
100
AcDbLine
 62
7
  6
CONTINUOUS
 10
3.9792912931
 20
6.100284895
 11
3.978728519
 21
6.1013260989
  0
SPLINE
  5
4E2
100
AcDbEntity
  8
0
100
AcDbSpline
 62
7
  6
CONTINUOUS
 70
0
 71
3
 72
19
 73
15
 74
0
 42
0.0000001
 43
0.0000001
 44
0.0000000001
 40
0.0
 40
0.0
 40
0.0
 40
0.0
 40
0.2139830687
 40
0.4017209701
 40
0.5630289135
 40
0.6979304926
 40
0.7555915078
 40
0.8068389096
 40
0.851834885
 40
0.890835618
 40
0.9242546891
 40
0.9527647401
 40
0.9774583015
 40
1.0
 40
1.0
 40
1.0
 40
1.0
 10
3.9843105933
 20
6.1052587192
 30
0.0
 10
3.9842584219
 20
6.105334511
 30
0.0
 10
3.9841621014
 20
6.1054779307
 30
0.0
 10
3.9840333639
 20
6.1056830294
 30
0.0
 10
3.9839299781
 20
6.1058636972
 30
0.0
 10
3.9838617792
 20
6.1059998827
 30
0.0
 10
3.9838210523
 20
6.1060965274
 30
0.0
 10
3.9837986124
 20
6.1061588266
 30
0.0
 10
3.9837826207
 20
6.1062147977
 30
0.0
 10
3.9837730776
 20
6.106264464
 30
0.0
 10
3.9837699901
 20
6.1063078893
 30
0.0
 10
3.9837734615
 20
6.1063452045
 30
0.0
 10
3.9837837736
 20
6.1063764727
 30
0.0
 10
3.9837957749
 20
6.1063933549
 30
0.0
 10
3.9838026289
 20
6.1064002087
 30
0.0
  0
SPLINE
  5
4E3
100
AcDbEntity
  8
0
100
AcDbSpline
 62
7
  6
CONTINUOUS
 70
0
 71
3
 72
19
 73
15
 74
0
 42
0.0000001
 43
0.0000001
 44
0.0000000001
 40
0.0
 40
0.0
 40
0.0
 40
0.0
 40
0.2142179729
 40
0.4022036105
 40
0.5637603509
 40
0.6988893225
 40
0.7566432373
 40
0.8079599713
 40
0.8529902715
 40
0.8919739823
 40
0.92530117
 40
0.9536125899
 40
0.9779641179
 40
1.0
 40
1.0
 40
1.0
 40
1.0
 10
3.900322807
 20
6.1896746967
 30
0.0
 10
3.900272604
 20
6.1897499785
 30
0.0
 10
3.9001799087
 20
6.189892379
 30
0.0
 10
3.900055998
 20
6.1900957919
 30
0.0
 10
3.8999564498
 20
6.1902747494
 30
0.0
 10
3.8998907424
 20
6.1904094233
 30
0.0
 10
3.8998514602
 20
6.1905048385
 30
0.0
 10
3.899829795
 20
6.1905662575
 30
0.0
 10
3.8998143268
 20
6.1906213427
 30
0.0
 10
3.8998050549
 20
6.1906701142
 30
0.0
 10
3.8998019819
 20
6.1907126323
 30
0.0
 10
3.8998051992
 20
6.1907490278
 30
0.0
 10
3.899814971
 20
6.1907793872
 30
0.0
 10
3.8998264756
 20
6.1907957414
 30
0.0
 10
3.8998330575
 20
6.190802323
 30
0.0
  0
LINE
  5
4E4
100
AcDbEntity
  8
0
100
AcDbLine
 62
7
  6
CONTINUOUS
 10
3.8942441264
 20
6.1857718488
 11
3.8936969882
 21
6.1867951255
  0
LINE
  5
4E5
100
AcDbEntity
  8
0
100
AcDbLine
 62
7
  6
CONTINUOUS
 10
3.7747996665
 20
6.3139560126
 11
3.774405839
 21
6.3142709529
  0
LINE
  5
4E6
100
AcDbEntity
  8
0
100
AcDbLine
 62
7
  6
CONTINUOUS
 10
3.8220789703
 20
6.2683614248
 11
3.8215858833
 21
6.2694525825
  0
SPLINE
  5
4E7
100
AcDbEntity
  8
0
100
AcDbSpline
 62
7
  6
CONTINUOUS
 70
0
 71
3
 72
9
 73
5
 74
0
 42
0.0000001
 43
0.0000001
 44
0.0000000001
 40
0.0
 40
0.0
 40
0.0
 40
0.0
 40
0.4519810624
 40
1.0
 40
1.0
 40
1.0
 40
1.0
 10
3.7844104828
 20
6.2945364561
 30
0.0
 10
3.7844088457
 20
6.294534819
 30
0.0
 10
3.7844041348
 20
6.2945322422
 30
0.0
 10
3.7843989098
 20
6.2945319583
 30
0.0
 10
3.7843961056
 20
6.294532089
 30
0.0
  0
LINE
  5
4E8
100
AcDbEntity
  8
0
100
AcDbLine
 62
7
  6
CONTINUOUS
 10
3.7234848161
 20
6.3652708631
 11
3.723385716
 21
6.3652910759
  0
LINE
  5
4E9
100
AcDbEntity
  8
0
100
AcDbLine
 62
7
  6
CONTINUOUS
 10
3.670716957
 20
6.4209332827
 11
3.6704991507
 21
6.4212391652
  0
LINE
  5
4EA
100
AcDbEntity
  8
0
100
AcDbLine
 62
7
  6
CONTINUOUS
 10
3.6704991507
 20
6.4212391652
 11
3.6704237737
 21
6.4213742221
  0
LINE
  5
4EB
100
AcDbEntity
  8
0
100
AcDbLine
 62
7
  6
CONTINUOUS
 10
3.6710413301
 20
6.4205094862
 11
3.670716957
 21
6.4209332827
  0
LINE
  5
4EC
100
AcDbEntity
  8
0
100
AcDbLine
 62
7
  6
CONTINUOUS
 10
3.7344803437
 20
6.3466820956
 11
3.7338896857
 21
6.3474239165
  0
SPLINE
  5
4ED
100
AcDbEntity
  8
0
100
AcDbSpline
 62
7
  6
CONTINUOUS
 70
0
 71
3
 72
9
 73
5
 74
0
 42
0.0000001
 43
0.0000001
 44
0.0000000001
 40
0.0
 40
0.0
 40
0.0
 40
0.0
 40
0.2539154114
 40
1.0
 40
1.0
 40
1.0
 40
1.0
 10
3.7345423992
 20
6.3466086735
 30
0.0
 10
3.7345376787
 20
6.3466142508
 30
0.0
 10
3.734519091
 20
6.3466362188
 30
0.0
 10
3.7345005169
 20
6.3466581983
 30
0.0
 10
3.7344866673
 20
6.3466746038
 30
0.0
  0
SPLINE
  5
4EE
100
AcDbEntity
  8
0
100
AcDbSpline
 62
7
  6
CONTINUOUS
 70
0
 71
3
 72
19
 73
15
 74
0
 42
0.0000001
 43
0.0000001
 44
0.0000000001
 40
0.0
 40
0.0
 40
0.0
 40
0.0
 40
0.0217961341
 40
0.0457367446
 40
0.0735790879
 40
0.1064540226
 40
0.1450434486
 40
0.1897586431
 40
0.2408510824
 40
0.2984774115
 40
0.4336533526
 40
0.5956672258
 40
0.7845180969
 40
1.0
 40
1.0
 40
1.0
 40
1.0
 10
3.9214976122
 20
6.1682727043
 30
0.0
 10
3.9214909488
 20
6.1682660407
 30
0.0
 10
3.9214743913
 20
6.1682544605
 30
0.0
 10
3.9214435977
 20
6.1682450801
 30
0.0
 10
3.9214068312
 20
6.1682427942
 30
0.0
 10
3.9213639942
 20
6.1682472887
 30
0.0
 10
3.9213149349
 20
6.1682584654
 30
0.0
 10
3.9212595818
 20
6.1682763228
 30
0.0
 10
3.9211979104
 20
6.1683008656
 30
0.0
 10
3.9211020709
 20
6.1683449334
 30
0.0
 10
3.920966965
 20
6.1684178883
 30
0.0
 10
3.9207876695
 20
6.168527601
 30
0.0
 10
3.9205839857
 20
6.1686635984
 30
0.0
 10
3.9204415495
 20
6.168764988
 30
0.0
 10
3.9203662531
 20
6.168819852
 30
0.0
  0
ENDSEC
  0
SECTION
  2
OBJECTS
  0
DICTIONARY
  5
C
100
AcDbDictionary
280
0
281
1
  3
ACAD_GROUP
350
D
  3
ACAD_MLINESTYLE
350
17
  3
ACAD_LAYOUT
350
1A
  3
ACAD_PLOTSETTINGS
350
19
  3
ACAD_PLOTSTYLENAME
350
E
  0
DICTIONARY
  5
D
102
{ACAD_REACTORS
330
C
102
}
100
AcDbDictionary
280
0
281
1
  0
ACDBDICTIONARYWDFLT
  5
E
102
{ACAD_REACTORS
330
C
102
}
100
AcDbDictionary
281
1
  3
Normal
350
F
100
AcDbDictionaryWithDefault
340
F
  0
DICTIONARY
  5
17
102
{ACAD_REACTORS
330
C
102
}
100
AcDbDictionary
280
0
281
1
  3
Standard
350
18
  0
DICTIONARY
  5
19
102
{ACAD_REACTORS
330
C
102
}
100
AcDbDictionary
281
1
  0
DICTIONARY
  5
1A
102
{ACAD_REACTORS
330
C
102
}
100
AcDbDictionary
281
1
  3
Model
350
4EF
  3
Layout1
350
4F0
  0
ACDBPLACEHOLDER
  5
F
102
{ACAD_REACTORS
330
E
102
}
  0
MLINESTYLE
  5
18
102
{ACAD_REACTORS
330
17
102
}
100
AcDbMlineStyle
  2
STANDARD
 70
0
  3

 62
256
 51
90.0
 52
90.0
 71
2
 49
0.5
 62
256
  6
BYLAYER
 49
-0.5
 62
256
  6
BYLAYER
  0
LAYOUT
  5
4EF
102
{ACAD_REACTORS
330
1A
102
}
100
AcDbPlotSettings
  1

  2
none_device
  4
ANSI_A_(11.00_x_8.50_Inches)
  6

 40
0.0
 41
0.0
 42
0.0
 43
0.0
 44
279.4
 45
215.9
 46
0.0
 47
0.0
 48
0.0
 49
0.0
140
0.0
141
0.0
142
1.0
143
1.0
 70
1024
 72
0
 73
0
 74
0
  7

 75
0
147
1.0
148
0.0
149
0.0
100
AcDbLayout
  1
Model
 70
0
 71
0
 10
0.0
 20
0.0
 11
11.0
 21
8.5
 12
0.0
 22
0.0
 32
0.0
 14
0.0
 24
0.0
 34
0.0
 15
0.0
 25
0.0
 35
0.0
146
0.0
 13
0.0
 23
0.0
 33
0.0
 16
1.0
 26
0.0
 36
0.0
 17
0.0
 27
1.0
 37
0.0
 76
0
330
202
345
0
346
0
  0
LAYOUT
  5
4F0
102
{ACAD_REACTORS
330
1A
102
}
100
AcDbPlotSettings
  1

  2
none_device
  4
ANSI_A_(11.00_x_8.50_Inches)
  6

 40
0.0
 41
0.0
 42
0.0
 43
0.0
 44
279.4
 45
215.9
 46
0.0
 47
0.0
 48
0.0
 49
0.0
140
0.0
141
0.0
142
1.0
143
1.0
 70
0
 72
0
 73
0
 74
0
  7

 75
0
147
1.0
148
0.0
149
0.0
100
AcDbLayout
  1
Layout1
 70
0
 71
1
 10
0.0
 20
0.0
 11
11.0
 21
8.5
 12
0.0
 22
0.0
 32
0.0
 14
0.0
 24
0.0
 34
0.0
 15
0.0
 25
0.0
 35
0.0
146
0.0
 13
0.0
 23
0.0
 33
0.0
 16
1.0
 26
0.0
 36
0.0
 17
0.0
 27
1.0
 37
0.0
 76
0
330
203
345
0
346
0
  0
ENDSEC
  0
EOF
