999
DXF file: 3-2564bp_TOP.dxf
999
Pro/ENGINEER 2018400 by Parametric Technology Corporation
  0
SECTION
  2
HEADER
  9
$ACADVER
  1
AC1027
  9
$DWGCODEPAGE
  3
ANSI_1252
  9
$EXTMAX
 10
11.0
 20
8.5
 30
0.0
  9
$EXTMIN
 10
0.0
 20
0.0
 30
0.0
  9
$LIMMIN
 10
0.0
 20
0.0
  9
$LIMMAX
 10
11.0
 20
8.5
  9
$VIEWCTR
 10
5.5
 20
4.25
  9
$VIEWSIZE
 40
8.5
  9
$CLAYER
  8
0
  9
$LTSCALE
 40
0.605
  9
$CELTYPE
  6
BYLAYER
  9
$DIMSCALE
 40
1.0
  9
$DIMASZ
 40
0.1
  9
$DIMEXO
 40
0.0625
  9
$DIMDLI
 40
0.418
  9
$DIMEXE
 40
0.125
  9
$DIMCEN
 40
0.099
  9
$DIMLFAC
 40
1.0
  9
$DIMBLK
  1
_FILLED
  9
$DIMALT
 70
1
  9
$DIMALTD
 70
1
  9
$DIMALTTD
 70
2
  9
$DIMALTF
 40
25.4
  9
$DIMTXT
 40
0.08
  9
$DIMTOL
 70
1
  9
$DIMLIM
 70
0
  9
$DIMTFAC
 40
1.0
  9
$DIMTP
 40
0.01
  9
$DIMTM
 40
0.01
  9
$DIMGAP
 40
0.09
  9
$DIMDSEP
 70
46
  9
$AUNITS
 70
0
  9
$PDMODE
 70
3
  9
$PDSIZE
 40
0.3125
  9
$HANDSEED
  5
26F
  9
$TILEMODE
 70
1
  9
$MEASUREMENT
 70
0
  9
$INSUNITS
 70
1
  0
ENDSEC
  0
SECTION
  2
CLASSES
  0
CLASS
  1
ACDBDICTIONARYWDFLT
  2
AcDbDictionaryWithDefault
  3
AutoCAD 2000
 90
0
 91
1
280
0
281
0
  0
CLASS
  1
ACDBPLACEHOLDER
  2
AcDbPlaceHolder
  3
AutoCAD 2000
 90
0
 91
1
280
0
281
0
  0
CLASS
  1
LAYOUT
  2
AcDbLayout
  3
AutoCAD 2000
 90
0
 91
0
280
0
281
0
  0
ENDSEC
  0
SECTION
  2
TABLES
  0
TABLE
  2
VPORT
  5
8
100
AcDbSymbolTable
 70
2
  0
VPORT
  5
1F4
100
AcDbSymbolTableRecord
100
AcDbViewportTableRecord
  2
*ACTIVE
 70
0
 10
0.0
 20
0.0
 11
1.0
 21
1.0
 12
5.5
 22
4.25
 13
0.0
 23
0.0
 14
1.0
 24
1.0
 15
0.0
 25
0.0
 16
0.0
 26
0.0
 36
1.0
 17
0.0
 27
0.0
 37
0.0
 40
8.5
 41
1.2941176471
 42
50.0
 43
0.0
 44
0.0
 50
0.0
 51
0.0
 71
0
 72
100
 73
1
 74
1
 75
0
 76
0
 77
0
 78
0
  0
ENDTAB
  0
TABLE
  2
LTYPE
  5
5
100
AcDbSymbolTable
 70
6
  0
LTYPE
  5
14
100
AcDbSymbolTableRecord
100
AcDbLinetypeTableRecord
  2
BYBLOCK
 70
0
  3

 72
65
 73
0
 40
0.0
  0
LTYPE
  5
15
100
AcDbSymbolTableRecord
100
AcDbLinetypeTableRecord
  2
BYLAYER
 70
0
  3

 72
65
 73
0
 40
0.0
  0
LTYPE
  5
16
100
AcDbSymbolTableRecord
100
AcDbLinetypeTableRecord
  2
CONTINUOUS
 70
64
  3
Solid line
 72
65
 73
0
 40
0.0
  0
LTYPE
  5
1F5
100
AcDbSymbolTableRecord
100
AcDbLinetypeTableRecord
  2
CENTER
 70
64
  3
____ _ ____ _ ____ _ ____ _ ____ _ ____ _ ____
 72
65
 73
4
 40
0.6
 49
0.375
 74
0
 49
-0.075
 74
0
 49
0.075
 74
0
 49
-0.075
 74
0
  0
LTYPE
  5
1F6
100
AcDbSymbolTableRecord
100
AcDbLinetypeTableRecord
  2
HIDDEN
 70
64
  3
- - - - - - - - - - - - - - - - - - - -
 72
65
 73
2
 40
0.2
 49
0.1
 74
0
 49
-0.1
 74
0
  0
LTYPE
  5
1F7
100
AcDbSymbolTableRecord
100
AcDbLinetypeTableRecord
  2
PHANTOM
 70
64
  3
_____ _ _ _____ _ _ _____ _ _ _____
 72
65
 73
6
 40
0.8
 49
0.45
 74
0
 49
-0.05
 74
0
 49
0.1
 74
0
 49
-0.05
 74
0
 49
0.1
 74
0
 49
-0.05
 74
0
  0
LTYPE
  5
1F8
100
AcDbSymbolTableRecord
100
AcDbLinetypeTableRecord
  2
DOT
 70
64
  3
. . . . . . . . . . . . . . . . . . . .
 72
65
 73
2
 40
0.2
 49
0.1
 74
0
 49
-0.1
 74
0
  0
LTYPE
  5
1F9
100
AcDbSymbolTableRecord
100
AcDbLinetypeTableRecord
  2
DASHED
 70
64
  3
- - - - - - - - - - - - - - - - - - - -
 72
65
 73
2
 40
0.2
 49
0.1
 74
0
 49
-0.1
 74
0
  0
ENDTAB
  0
TABLE
  2
LAYER
  5
2
100
AcDbSymbolTable
 70
36
  0
LAYER
  5
10
100
AcDbSymbolTableRecord
100
AcDbLayerTableRecord
  2
0
 70
0
 62
7
  6
CONTINUOUS
370
-3
390
F
  0
LAYER
  5
1FA
100
AcDbSymbolTableRecord
100
AcDbLayerTableRecord
  2
DEFAULT_1
 70
0
 62
7
  6
CENTER
370
-3
390
F
  0
LAYER
  5
1FB
100
AcDbSymbolTableRecord
100
AcDbLayerTableRecord
  2
DEFAULT_2
 70
0
 62
8
  6
HIDDEN
370
-3
390
F
  0
LAYER
  5
1FC
100
AcDbSymbolTableRecord
100
AcDbLayerTableRecord
  2
DEFAULT_3
 70
0
 62
7
  6
PHANTOM
370
-3
390
F
  0
LAYER
  5
1FD
100
AcDbSymbolTableRecord
100
AcDbLayerTableRecord
  2
DEFAULT_COORDINATE_SYSTEM
 70
0
 62
7
  6
CONTINUOUS
370
-3
390
F
  0
LAYER
  5
1FE
100
AcDbSymbolTableRecord
100
AcDbLayerTableRecord
  2
DEFAULT_DATUM_AXES
 70
0
 62
7
  6
CONTINUOUS
370
-3
390
F
  0
LAYER
  5
1FF
100
AcDbSymbolTableRecord
100
AcDbLayerTableRecord
  2
DEFAULT_DATUM_PLANES
 70
0
 62
7
  6
CONTINUOUS
370
-3
390
F
  0
ENDTAB
  0
TABLE
  2
STYLE
  5
3
100
AcDbSymbolTable
 70
1
  0
STYLE
  5
11
100
AcDbSymbolTableRecord
100
AcDbTextStyleTableRecord
  2
STANDARD
 70
0
 40
0.0
 41
0.8
 50
0.0
 71
0
 42
0.2
  3
txt
  4

  0
STYLE
  5
200
100
AcDbSymbolTableRecord
100
AcDbTextStyleTableRecord
  2
TEXTSTYLE_1
 70
0
 40
0.0
 41
0.8
 50
0.0
 71
0
 42
0.2
  3
gdt
  4

  0
ENDTAB
  0
TABLE
  2
VIEW
  5
6
100
AcDbSymbolTable
 70
0
  0
ENDTAB
  0
TABLE
  2
UCS
  5
7
100
AcDbSymbolTable
 70
0
  0
ENDTAB
  0
TABLE
  2
APPID
  5
9
100
AcDbSymbolTable
 70
1
  0
APPID
  5
201
100
AcDbSymbolTableRecord
100
AcDbRegAppTableRecord
  2
ACAD
 70
0
  0
ENDTAB
  0
TABLE
  2
BLOCK_RECORD
  5
1
100
AcDbSymbolTable
 70
0
  0
BLOCK_RECORD
  5
202
100
AcDbSymbolTableRecord
100
AcDbBlockTableRecord
  2
*Model_Space
  0
BLOCK_RECORD
  5
203
100
AcDbSymbolTableRecord
100
AcDbBlockTableRecord
  2
*Paper_Space
  0
BLOCK_RECORD
  5
204
100
AcDbSymbolTableRecord
100
AcDbBlockTableRecord
  2
_FILLED
  0
ENDTAB
  0
TABLE
  2
DIMSTYLE
  5
A
100
AcDbSymbolTable
 70
1
100
AcDbDimStyleTable
 71
0
  0
DIMSTYLE
105
205
100
AcDbSymbolTableRecord
100
AcDbDimStyleTableRecord
  2
STANDARD
 70
0
  3

  4

 40
1.0
 41
0.1
 42
0.0625
 43
0.38
 44
0.125
 45
0.0
 46
0.0
 47
0.01
 48
0.01
140
0.08
141
0.09
142
0.0
143
25.4
144
1.0
145
0.0
146
1.0
147
0.09
 71
1.0
 72
0.0
 73
1
 74
1
 75
0
 76
0
 77
0
 78
4
 79
1
170
1
171
1
172
0
173
0
174
0
175
0
176
0
177
0
178
0
270
2
179
2
271
2
272
2
273
2
274
2
275
0
280
0
281
0
282
0
283
1
284
4
285
0
286
0
287
3
288
0
340
11
278
46
341
204
342
204
343
204
344
204
  0
ENDTAB
  0
ENDSEC
  0
SECTION
  2
BLOCKS
  0
BLOCK
  5
20
100
AcDbEntity
  8
0
100
AcDbBlockBegin
  2
*Model_Space
 70
0
 10
0.0
 20
0.0
 30
0.0
  3
*Model_Space
  1

  0
ENDBLK
  5
21
100
AcDbEntity
  8
0
100
AcDbBlockEnd
  0
BLOCK
  5
1C
100
AcDbEntity
  8
0
100
AcDbBlockBegin
  2
*Paper_Space
 70
0
 10
0.0
 20
0.0
 30
0.0
  3
*Paper_Space
  1

  0
ENDBLK
  5
1D
100
AcDbEntity
  8
0
100
AcDbBlockEnd
  0
BLOCK
  5
206
100
AcDbEntity
  8
0
100
AcDbBlockBegin
  2
_FILLED
 70
64
 10
0.0
 20
0.0
  3
_FILLED
  1

  0
SOLID
  5
207
100
AcDbEntity
  8
0
  6
BYBLOCK
 62
0
100
AcDbTrace
 10
0.0
 20
0.0
 11
-1.0
 21
0.2
 12
-1.0
 22
-0.2
 13
-1.0
 23
-0.2
  0
ENDBLK
  5
208
100
AcDbEntity
  8
0
  6
BYBLOCK
 62
0
100
AcDbBlockEnd
  0
ENDSEC
  0
SECTION
  2
ENTITIES
  0
MTEXT
  5
209
100
AcDbEntity
  8
0
100
AcDbMText
 62
2
  6
CONTINUOUS
  7
STANDARD
 71
3
 72
1
 10
5.6498835404
 20
2.0862250208
 30
0.0
 11
1.0
 21
0.0
 31
0.0
 73
2
 44
0.9
  1
SCALE  .250
 40
0.08
 41
0.704
  0
LINE
  5
20A
100
AcDbEntity
  8
0
100
AcDbLine
 62
7
  6
CONTINUOUS
 10
0.0
 20
0.0
 11
0.0
 21
8.5
  0
LINE
  5
20B
100
AcDbEntity
  8
0
100
AcDbLine
 62
7
  6
CONTINUOUS
 10
0.0
 20
0.0
 11
11.0
 21
0.0
  0
LINE
  5
20C
100
AcDbEntity
  8
0
100
AcDbLine
 62
7
  6
CONTINUOUS
 10
0.0
 20
8.5
 11
11.0
 21
8.5
  0
LINE
  5
20D
100
AcDbEntity
  8
0
100
AcDbLine
 62
7
  6
CONTINUOUS
 10
11.0
 20
0.0
 11
11.0
 21
8.5
  0
LINE
  5
20E
100
AcDbEntity
  8
0
100
AcDbLine
 62
7
  6
CONTINUOUS
 10
4.1623059006
 20
6.0470389543
 11
4.1623059006
 21
6.1170389543
  0
LINE
  5
20F
100
AcDbEntity
  8
0
100
AcDbLine
 62
7
  6
CONTINUOUS
 10
4.1698059006
 20
6.0395389543
 11
4.1698059006
 21
6.1170389543
  0
LINE
  5
210
100
AcDbEntity
  8
0
100
AcDbLine
 62
7
  6
CONTINUOUS
 10
4.3923059006
 20
3.5243906857
 11
4.3923059006
 21
3.6797207425
  0
LINE
  5
211
100
AcDbEntity
  8
0
100
AcDbLine
 62
7
  6
CONTINUOUS
 10
5.1311452996
 20
3.847238669
 11
5.1310673132
 21
3.8472383193
  0
LINE
  5
212
100
AcDbEntity
  8
0
100
AcDbLine
 62
7
  6
CONTINUOUS
 10
5.3348059006
 20
3.8670389543
 11
4.9273059006
 21
3.8670389543
  0
LINE
  5
213
100
AcDbEntity
  8
0
100
AcDbLine
 62
7
  6
CONTINUOUS
 10
5.1310673132
 20
3.8472383193
 11
5.1309707564
 21
3.8472383446
  0
LINE
  5
214
100
AcDbEntity
  8
0
100
AcDbLine
 62
7
  6
CONTINUOUS
 10
5.1310559006
 20
3.8472383188
 11
5.1309707567
 21
3.8472387022
  0
LINE
  5
215
100
AcDbEntity
  8
0
100
AcDbLine
 62
7
  6
CONTINUOUS
 10
4.9123059006
 20
3.8820389543
 11
5.3498059006
 21
3.8820389543
  0
LINE
  5
216
100
AcDbEntity
  8
0
100
AcDbLine
 62
7
  6
CONTINUOUS
 10
4.7660559006
 20
3.6903273443
 11
4.7660559006
 21
3.7311627609
  0
LINE
  5
217
100
AcDbEntity
  8
0
100
AcDbLine
 62
7
  6
CONTINUOUS
 10
4.8773059006
 20
5.9595389543
 11
4.8773059006
 21
6.0395389543
  0
LINE
  5
218
100
AcDbEntity
  8
0
100
AcDbLine
 62
7
  6
CONTINUOUS
 10
4.8848059006
 20
5.9520389543
 11
4.8848059006
 21
6.0395389543
  0
LINE
  5
219
100
AcDbEntity
  8
0
100
AcDbLine
 62
7
  6
CONTINUOUS
 10
4.9123059006
 20
3.8820389543
 11
4.9123059006
 21
6.1195389543
  0
LINE
  5
21A
100
AcDbEntity
  8
0
100
AcDbLine
 62
7
  6
CONTINUOUS
 10
4.9273059006
 20
3.8670389543
 11
4.9273059006
 21
6.1170389543
  0
LINE
  5
21B
100
AcDbEntity
  8
0
100
AcDbLine
 62
7
  6
CONTINUOUS
 10
4.9560559006
 20
3.7417693626
 11
4.9560559006
 21
3.7674019834
  0
LINE
  5
21C
100
AcDbEntity
  8
0
100
AcDbLine
 62
7
  6
CONTINUOUS
 10
4.9560559006
 20
3.7744730512
 11
4.9560559006
 21
3.8160155746
  0
LINE
  5
21D
100
AcDbEntity
  8
0
100
AcDbLine
 62
7
  6
CONTINUOUS
 10
4.9685559006
 20
3.7700876419
 11
4.9685559006
 21
3.8670389543
  0
LINE
  5
21E
100
AcDbEntity
  8
0
100
AcDbLine
 62
7
  6
CONTINUOUS
 10
4.9935559006
 20
6.1195389543
 11
4.9935559006
 21
6.2265389543
  0
LINE
  5
21F
100
AcDbEntity
  8
0
100
AcDbLine
 62
7
  6
CONTINUOUS
 10
5.0998997917
 20
3.8670389543
 11
5.0998997917
 21
3.8640978923
  0
LINE
  5
220
100
AcDbEntity
  8
0
100
AcDbLine
 62
7
  6
CONTINUOUS
 10
5.1622120096
 20
3.8670389543
 11
5.1622120096
 21
3.8640978923
  0
LINE
  5
221
100
AcDbEntity
  8
0
100
AcDbLine
 62
7
  6
CONTINUOUS
 10
5.2685559006
 20
6.1195389543
 11
5.2685559006
 21
6.2265389543
  0
LINE
  5
222
100
AcDbEntity
  8
0
100
AcDbLine
 62
7
  6
CONTINUOUS
 10
5.2935559006
 20
3.7700876419
 11
5.2935559006
 21
3.8670389543
  0
LINE
  5
223
100
AcDbEntity
  8
0
100
AcDbLine
 62
7
  6
CONTINUOUS
 10
5.3060559006
 20
3.7417693626
 11
5.3060559006
 21
3.7674019834
  0
LINE
  5
224
100
AcDbEntity
  8
0
100
AcDbLine
 62
7
  6
CONTINUOUS
 10
5.3060559006
 20
3.7744730512
 11
5.3060559006
 21
3.8160155746
  0
LINE
  5
225
100
AcDbEntity
  8
0
100
AcDbLine
 62
7
  6
CONTINUOUS
 10
5.3348059006
 20
3.8670389543
 11
5.3348059006
 21
6.1170389543
  0
LINE
  5
226
100
AcDbEntity
  8
0
100
AcDbLine
 62
7
  6
CONTINUOUS
 10
5.3498059006
 20
3.8820389543
 11
5.3498059006
 21
6.1195389543
  0
LINE
  5
227
100
AcDbEntity
  8
0
100
AcDbLine
 62
7
  6
CONTINUOUS
 10
5.3773059006
 20
5.9520389543
 11
5.3773059006
 21
6.0395389543
  0
LINE
  5
228
100
AcDbEntity
  8
0
100
AcDbLine
 62
7
  6
CONTINUOUS
 10
5.3848059006
 20
5.9595389543
 11
5.3848059006
 21
6.0395389543
  0
LINE
  5
229
100
AcDbEntity
  8
0
100
AcDbLine
 62
7
  6
CONTINUOUS
 10
5.4960559006
 20
3.6903273443
 11
5.4960559006
 21
3.7311627609
  0
LINE
  5
22A
100
AcDbEntity
  8
0
100
AcDbLine
 62
7
  6
CONTINUOUS
 10
5.8698059006
 20
3.5243906857
 11
5.8698059006
 21
3.6797207425
  0
LINE
  5
22B
100
AcDbEntity
  8
0
100
AcDbLine
 62
7
  6
CONTINUOUS
 10
6.0923059006
 20
6.0395389543
 11
6.0923059006
 21
6.1170389543
  0
LINE
  5
22C
100
AcDbEntity
  8
0
100
AcDbLine
 62
7
  6
CONTINUOUS
 10
6.0998059006
 20
6.0470389543
 11
6.0998059006
 21
6.1170389543
  0
LINE
  5
22D
100
AcDbEntity
  8
0
100
AcDbLine
 62
7
  6
CONTINUOUS
 10
5.3773059006
 20
5.9520389543
 11
5.3498059006
 21
5.9520389543
  0
LINE
  5
22E
100
AcDbEntity
  8
0
100
AcDbLine
 62
7
  6
CONTINUOUS
 10
4.9123059006
 20
5.9520389543
 11
4.8848059006
 21
5.9520389543
  0
LINE
  5
22F
100
AcDbEntity
  8
0
100
AcDbLine
 62
7
  6
CONTINUOUS
 10
5.3848059006
 20
5.9595389543
 11
5.3498059006
 21
5.9595389543
  0
LINE
  5
230
100
AcDbEntity
  8
0
100
AcDbLine
 62
7
  6
CONTINUOUS
 10
4.9123059006
 20
5.9595389543
 11
4.8773059006
 21
5.9595389543
  0
LINE
  5
231
100
AcDbEntity
  8
0
100
AcDbLine
 62
7
  6
CONTINUOUS
 10
6.0923059006
 20
6.0395389543
 11
5.3498059006
 21
6.0395389543
  0
LINE
  5
232
100
AcDbEntity
  8
0
100
AcDbLine
 62
7
  6
CONTINUOUS
 10
4.9123059006
 20
6.0395389543
 11
4.1698059006
 21
6.0395389543
  0
LINE
  5
233
100
AcDbEntity
  8
0
100
AcDbLine
 62
7
  6
CONTINUOUS
 10
6.0998059006
 20
6.0470389543
 11
5.3498059006
 21
6.0470389543
  0
LINE
  5
234
100
AcDbEntity
  8
0
100
AcDbLine
 62
7
  6
CONTINUOUS
 10
4.9123059006
 20
6.0470389543
 11
4.1623059006
 21
6.0470389543
  0
LINE
  5
235
100
AcDbEntity
  8
0
100
AcDbLine
 62
7
  6
CONTINUOUS
 10
4.1623059006
 20
6.1170389543
 11
6.0998059006
 21
6.1170389543
  0
LINE
  5
236
100
AcDbEntity
  8
0
100
AcDbLine
 62
7
  6
CONTINUOUS
 10
4.9123059006
 20
6.1195389543
 11
5.3498059006
 21
6.1195389543
  0
LINE
  5
237
100
AcDbEntity
  8
0
100
AcDbLine
 62
7
  6
CONTINUOUS
 10
4.9935558931
 20
6.2265389543
 11
5.2685559082
 21
6.2265389543
  0
ARC
  5
238
100
AcDbEntity
  8
0
100
AcDbCircle
 62
7
  6
CONTINUOUS
 10
5.0460965302
 20
3.7674015071
 40
0.0900406295
100
AcDbArc
 50
177.7475474832
 51
179.9996969227
  0
ARC
  5
239
100
AcDbEntity
  8
0
100
AcDbCircle
 62
7
  6
CONTINUOUS
 10
5.2160322581
 20
3.7674018411
 40
0.0900236425
100
AcDbArc
 50
0.0000905428
 51
2.2527653211
  0
ARC
  5
23A
100
AcDbEntity
  8
0
100
AcDbCircle
 62
7
  6
CONTINUOUS
 10
5.3348059006
 20
3.8820389543
 40
0.015
100
AcDbArc
 50
270.0
 51
360.0
  0
ARC
  5
23B
100
AcDbEntity
  8
0
100
AcDbCircle
 62
7
  6
CONTINUOUS
 10
4.9273059006
 20
3.8820389543
 40
0.015
100
AcDbArc
 50
180.0
 51
270.0
  0
ARC
  5
23C
100
AcDbEntity
  8
0
100
AcDbCircle
 62
7
  6
CONTINUOUS
 10
6.0923059006
 20
6.0470389543
 40
0.0075
100
AcDbArc
 50
270.0
 51
360.0
  0
ARC
  5
23D
100
AcDbEntity
  8
0
100
AcDbCircle
 62
7
  6
CONTINUOUS
 10
4.1698059006
 20
6.0470389543
 40
0.0075
100
AcDbArc
 50
180.0
 51
270.0
  0
ARC
  5
23E
100
AcDbEntity
  8
0
100
AcDbCircle
 62
7
  6
CONTINUOUS
 10
4.8848059006
 20
5.9595389543
 40
0.0075
100
AcDbArc
 50
180.0
 51
270.0
  0
ARC
  5
23F
100
AcDbEntity
  8
0
100
AcDbCircle
 62
7
  6
CONTINUOUS
 10
5.3773059006
 20
5.9595389543
 40
0.0075
100
AcDbArc
 50
270.0
 51
360.0
  0
SPLINE
  5
240
100
AcDbEntity
  8
0
100
AcDbSpline
 62
7
  6
CONTINUOUS
 70
0
 71
3
 72
65
 73
61
 74
0
 42
0.0000001
 43
0.0000001
 44
0.0000000001
 40
0.0
 40
0.0
 40
0.0
 40
0.0
 40
0.0130934482
 40
0.0262138107
 40
0.0393876455
 40
0.0526407682
 40
0.0659979199
 40
0.0794824459
 40
0.0931160072
 40
0.1069183311
 40
0.1209070065
 40
0.135097321
 40
0.1495021463
 40
0.1641318658
 40
0.178994346
 40
0.1940949414
 40
0.2250107197
 40
0.2408334083
 40
0.2568916596
 40
0.2731793129
 40
0.2896882361
 40
0.3064084596
 40
0.3233283159
 40
0.3404345808
 40
0.3577126163
 40
0.3751465151
 40
0.3927192434
 40
0.4282025646
 40
0.4460804633
 40
0.4640206496
 40
0.500000009
 40
0.5359793688
 40
0.5539195549
 40
0.5717974532
 40
0.6072807735
 40
0.6248535015
 40
0.6422873998
 40
0.6595654349
 40
0.6766716996
 40
0.6935915551
 40
0.7103117777
 40
0.7268207001
 40
0.7431083526
 40
0.7591666031
 40
0.7749892912
 40
0.8059050676
 40
0.8210056618
 40
0.8358681409
 40
0.8504978595
 40
0.864902684
 40
0.8790929979
 40
0.8930816727
 40
0.906883996
 40
0.9205175566
 40
0.9340020817
 40
0.9473592328
 40
0.960612355
 40
0.9737861895
 40
0.9869065518
 40
1.0
 40
1.0
 40
1.0
 40
1.0
 10
5.3060559006
 20
3.7744730512
 30
0.0
 10
5.3060559006
 20
3.7724005331
 30
0.0
 10
5.3059123804
 20
3.7682498139
 30
0.0
 10
5.3052674866
 20
3.7620440187
 30
0.0
 10
5.3041950629
 20
3.7558717706
 30
0.0
 10
5.3026986382
 20
3.7497499942
 30
0.0
 10
5.3007830332
 20
3.743694684
 30
0.0
 10
5.2984542539
 20
3.7377214421
 30
0.0
 10
5.2957193787
 20
3.7318452518
 30
0.0
 10
5.2925864564
 20
3.7260804973
 30
0.0
 10
5.2890644088
 20
3.72044095
 30
0.0
 10
5.2851629559
 20
3.7149397954
 30
0.0
 10
5.2808925368
 20
3.7095896422
 30
0.0
 10
5.2762643459
 20
3.7044026173
 30
0.0
 10
5.2712899967
 20
3.69939015
 30
0.0
 10
5.2641581866
 20
3.6929048507
 30
0.0
 10
5.2564299535
 20
3.6868684497
 30
0.0
 10
5.2481915562
 20
3.6813028158
 30
0.0
 10
5.2416862386
 20
3.6773210549
 30
0.0
 10
5.2349190656
 20
3.6735738659
 30
0.0
 10
5.2279057965
 20
3.6700693233
 30
0.0
 10
5.2206631211
 20
3.6668152837
 30
0.0
 10
5.2132081503
 20
3.6638189994
 30
0.0
 10
5.2055585023
 20
3.6610871921
 30
0.0
 10
5.1977323065
 20
3.6586260213
 30
0.0
 10
5.1897478954
 20
3.656441009
 30
0.0
 10
5.1788827533
 20
3.653894628
 30
0.0
 10
5.1678160448
 20
3.6519316794
 30
0.0
 10
5.1566127474
 20
3.6505526422
 30
0.0
 10
5.1452893126
 20
3.6495619015
 30
0.0
 10
5.1310558963
 20
3.6490667148
 30
0.0
 10
5.11682248
 20
3.649561902
 30
0.0
 10
5.1054990453
 20
3.6505526431
 30
0.0
 10
5.0942957482
 20
3.6519316807
 30
0.0
 10
5.08322904
 20
3.6538946297
 30
0.0
 10
5.0723638982
 20
3.6564410109
 30
0.0
 10
5.0643794874
 20
3.6586260235
 30
0.0
 10
5.0565532918
 20
3.6610871945
 30
0.0
 10
5.0489036441
 20
3.663819002
 30
0.0
 10
5.0414486737
 20
3.6668152864
 30
0.0
 10
5.0342059988
 20
3.6700693261
 30
0.0
 10
5.0271927301
 20
3.6735738687
 30
0.0
 10
5.0204255576
 20
3.6773210578
 30
0.0
 10
5.0139202404
 20
3.6813028187
 30
0.0
 10
5.0056818437
 20
3.6868684527
 30
0.0
 10
4.9979536113
 20
3.6929048535
 30
0.0
 10
4.9908218019
 20
3.6993901526
 30
0.0
 10
4.9858474532
 20
3.7044026197
 30
0.0
 10
4.9812192627
 20
3.7095896443
 30
0.0
 10
4.9769488439
 20
3.7149397973
 30
0.0
 10
4.9730473913
 20
3.7204409517
 30
0.0
 10
4.969525344
 20
3.7260804989
 30
0.0
 10
4.9663924218
 20
3.7318452531
 30
0.0
 10
4.9636575469
 20
3.7377214432
 30
0.0
 10
4.9613287677
 20
3.7436946848
 30
0.0
 10
4.9594131629
 20
3.7497499946
 30
0.0
 10
4.9579167383
 20
3.7558717709
 30
0.0
 10
4.9568443146
 20
3.7620440188
 30
0.0
 10
4.9561994208
 20
3.768249814
 30
0.0
 10
4.9560559006
 20
3.7724005331
 30
0.0
 10
4.9560559006
 20
3.7744730512
 30
0.0
  0
SPLINE
  5
241
100
AcDbEntity
  8
0
100
AcDbSpline
 62
7
  6
CONTINUOUS
 70
0
 71
3
 72
16
 73
12
 74
0
 42
0.0000001
 43
0.0000001
 44
0.0000000001
 40
0.0
 40
0.0
 40
0.0
 40
0.0
 40
0.1271712882
 40
0.2540922402
 40
0.3173942398
 40
0.380548519
 40
0.5063000615
 40
0.6312037078
 40
0.7551486647
 40
0.8780801609
 40
1.0
 40
1.0
 40
1.0
 40
1.0
 10
5.1309707564
 20
3.8472383446
 30
0.0
 10
5.1278421811
 20
3.8472402406
 30
0.0
 10
5.1215894287
 20
3.8474527788
 30
0.0
 10
5.1138148135
 20
3.8482405885
 30
0.0
 10
5.1076520285
 20
3.8491834405
 30
0.0
 10
5.1015533524
 20
3.850330731
 30
0.0
 10
5.0940434311
 20
3.8521489138
 30
0.0
 10
5.0852542236
 20
3.8549451207
 30
0.0
 10
5.0767544612
 20
3.858345571
 30
0.0
 10
5.0685995333
 20
3.8623412206
 30
0.0
 10
5.0634065401
 20
3.8654085181
 30
0.0
 10
5.060888253
 20
3.8670377913
 30
0.0
  0
SPLINE
  5
242
100
AcDbEntity
  8
0
100
AcDbSpline
 62
7
  6
CONTINUOUS
 70
0
 71
3
 72
16
 73
12
 74
0
 42
0.0000001
 43
0.0000001
 44
0.0000000001
 40
0.0
 40
0.0
 40
0.0
 40
0.0
 40
0.1219199416
 40
0.2448514755
 40
0.3687964151
 40
0.4937000099
 40
0.6194514852
 40
0.682605735
 40
0.7459077115
 40
0.8728286508
 40
1.0
 40
1.0
 40
1.0
 40
1.0
 10
5.2012246848
 20
3.8670385266
 30
0.0
 10
5.1987065145
 20
3.8654092851
 30
0.0
 10
5.1935137641
 20
3.8623420366
 30
0.0
 10
5.1853592177
 20
3.8583464136
 30
0.0
 10
5.1768598517
 20
3.8549459442
 30
0.0
 10
5.1680710496
 20
3.8521496711
 30
0.0
 10
5.1605614678
 20
3.8503313936
 30
0.0
 10
5.1544630617
 20
3.8491840032
 30
0.0
 10
5.148300544
 20
3.8482410347
 30
0.0
 10
5.1405262551
 20
3.847453049
 30
0.0
 10
5.1342737537
 20
3.8472403379
 30
0.0
 10
5.1311452999
 20
3.8472383473
 30
0.0
  0
SPLINE
  5
243
100
AcDbEntity
  8
0
100
AcDbSpline
 62
7
  6
CONTINUOUS
 70
0
 71
3
 72
31
 73
27
 74
0
 42
0.0000001
 43
0.0000001
 44
0.0000000001
 40
0.0
 40
0.0
 40
0.0
 40
0.0
 40
0.0708634964
 40
0.1405147056
 40
0.2089191868
 40
0.2760580067
 40
0.3419287493
 40
0.4065463858
 40
0.4699439524
 40
0.532172977
 40
0.5628750252
 40
0.5933128098
 40
0.6234979561
 40
0.6534431922
 40
0.6831623148
 40
0.7126701473
 40
0.7419824902
 40
0.7711160629
 40
0.8000884385
 40
0.82891797
 40
0.8576237108
 40
0.886225327
 40
0.9147430042
 40
0.9431973578
 40
0.971609292
 40
1.0
 40
1.0
 40
1.0
 40
1.0
 10
4.9123044473
 20
3.9396290179
 30
0.0
 10
4.9067268678
 20
3.9366554352
 30
0.0
 10
4.8958112018
 20
3.9304835518
 30
0.0
 10
4.8800794715
 20
3.9204798955
 30
0.0
 10
4.8651772268
 20
3.9098383399
 30
0.0
 10
4.8511548068
 20
3.8985923802
 30
0.0
 10
4.8380593485
 20
3.8867770635
 30
0.0
 10
4.8259354283
 20
3.8744292001
 30
0.0
 10
4.8148252783
 20
3.8615880071
 30
0.0
 10
4.8064057685
 20
3.8504586595
 30
0.0
 10
4.8002252059
 20
3.8413521415
 30
0.0
 10
4.7958866886
 20
3.8344557874
 30
0.0
 10
4.7918287865
 20
3.8274686696
 30
0.0
 10
4.7880552172
 20
3.8203964789
 30
0.0
 10
4.784569569
 20
3.8132451372
 30
0.0
 10
4.7813751824
 20
3.8060206638
 30
0.0
 10
4.7784751698
 20
3.7987292101
 30
0.0
 10
4.7758723957
 20
3.7913770486
 30
0.0
 10
4.7735694672
 20
3.7839705715
 30
0.0
 10
4.7715687226
 20
3.7765162839
 30
0.0
 10
4.7698722188
 20
3.7690207978
 30
0.0
 10
4.7684817204
 20
3.761490817
 30
0.0
 10
4.7673986871
 20
3.7539331443
 30
0.0
 10
4.7666242659
 20
3.7463545982
 30
0.0
 10
4.7661592804
 20
3.738762258
 30
0.0
 10
4.7660559006
 20
3.733695093
 30
0.0
 10
4.7660559006
 20
3.7311627609
 30
0.0
  0
SPLINE
  5
244
100
AcDbEntity
  8
0
100
AcDbSpline
 62
7
  6
CONTINUOUS
 70
0
 71
3
 72
31
 73
27
 74
0
 42
0.0000001
 43
0.0000001
 44
0.0000000001
 40
0.0
 40
0.0
 40
0.0
 40
0.0
 40
0.0283907073
 40
0.0568026407
 40
0.0852569936
 40
0.1137746702
 40
0.1423762859
 40
0.1710820261
 40
0.1999115572
 40
0.2288839325
 40
0.2580175048
 40
0.2873298475
 40
0.3168376797
 40
0.3465568022
 40
0.3765020382
 40
0.4066871845
 40
0.4371249691
 40
0.4678270172
 40
0.530056042
 40
0.5934536089
 40
0.6580712456
 40
0.7239419885
 40
0.79108081
 40
0.8594852923
 40
0.9291365026
 40
1.0
 40
1.0
 40
1.0
 40
1.0
 10
5.4960559006
 20
3.7311627609
 30
0.0
 10
5.4960559006
 20
3.7336950931
 30
0.0
 10
5.4959525209
 20
3.7387622584
 30
0.0
 10
5.4954875352
 20
3.7463545991
 30
0.0
 10
5.494713114
 20
3.7539331456
 30
0.0
 10
5.4936300806
 20
3.7614908188
 30
0.0
 10
5.492239582
 20
3.7690208
 30
0.0
 10
5.490543078
 20
3.7765162866
 30
0.0
 10
5.4885423331
 20
3.7839705747
 30
0.0
 10
5.4862394044
 20
3.7913770522
 30
0.0
 10
5.4836366299
 20
3.7987292142
 30
0.0
 10
5.4807366169
 20
3.8060206683
 30
0.0
 10
5.4775422299
 20
3.8132451422
 30
0.0
 10
5.4740565812
 20
3.8203964844
 30
0.0
 10
5.4702830115
 20
3.8274686755
 30
0.0
 10
5.4662251088
 20
3.8344557938
 30
0.0
 10
5.461886591
 20
3.8413521483
 30
0.0
 10
5.4557060274
 20
3.8504586668
 30
0.0
 10
5.4472865166
 20
3.8615880151
 30
0.0
 10
5.4361763651
 20
3.8744292087
 30
0.0
 10
5.4240524433
 20
3.8867770726
 30
0.0
 10
5.4109569832
 20
3.8985923898
 30
0.0
 10
5.3969345613
 20
3.9098383499
 30
0.0
 10
5.3820323145
 20
3.9204799058
 30
0.0
 10
5.3663005821
 20
3.9304835622
 30
0.0
 10
5.3553849147
 20
3.9366554457
 30
0.0
 10
5.3498073345
 20
3.9396290283
 30
0.0
  0
SPLINE
  5
245
100
AcDbEntity
  8
0
100
AcDbSpline
 62
7
  6
CONTINUOUS
 70
0
 71
3
 72
43
 73
39
 74
0
 42
0.0000001
 43
0.0000001
 44
0.0000000001
 40
0.0
 40
0.0
 40
0.0
 40
0.0
 40
0.0730145027
 40
0.1091440778
 40
0.144988008
 40
0.1805245013
 40
0.2157331857
 40
0.2505952378
 40
0.285093513
 40
0.3192126758
 40
0.35293933
 40
0.3862621491
 40
0.4191720042
 40
0.4516620902
 40
0.4837280473
 40
0.515368077
 40
0.5465830508
 40
0.577376607
 40
0.6077552353
 40
0.6377283446
 40
0.6673083095
 40
0.6965104937
 40
0.7253532437
 40
0.7538578507
 40
0.7820484763
 40
0.8099520379
 40
0.8375980527
 40
0.8650184383
 40
0.8786558407
 40
0.8922497801
 40
0.9058048052
 40
0.9193255615
 40
0.9328167809
 40
0.9462832698
 40
0.9597298982
 40
0.973161585
 40
0.9865832926
 40
1.0
 40
1.0
 40
1.0
 40
1.0
 10
4.9123050909
 20
4.1807950401
 30
0.0
 10
4.8937892803
 20
4.1767236171
 30
0.0
 10
4.8662790975
 20
4.1698274432
 30
0.0
 10
4.8302118999
 20
4.1590254838
 30
0.0
 10
4.8037238238
 20
4.1501999503
 30
0.0
 10
4.7777481362
 20
4.140636515
 30
0.0
 10
4.752324882
 20
4.1303496986
 30
0.0
 10
4.7274939296
 20
4.1193553037
 30
0.0
 10
4.7032940457
 20
4.1076701449
 30
0.0
 10
4.6797630705
 20
4.0953120847
 30
0.0
 10
4.6569378046
 20
4.0822999866
 30
0.0
 10
4.634853977
 20
4.0686536895
 30
0.0
 10
4.6135461944
 20
4.0543939768
 30
0.0
 10
4.5930479001
 20
4.0395425467
 30
0.0
 10
4.5733913339
 20
4.0241219834
 30
0.0
 10
4.554607495
 20
4.0081557296
 30
0.0
 10
4.5367261077
 20
3.9916680613
 30
0.0
 10
4.5197755886
 20
3.9746840651
 30
0.0
 10
4.5037830145
 20
3.9572296179
 30
0.0
 10
4.4887740909
 20
3.9393313707
 30
0.0
 10
4.4747731184
 20
3.9210167347
 30
0.0
 10
4.4618029573
 20
3.9023138697
 30
0.0
 10
4.4498849878
 20
3.8832516785
 30
0.0
 10
4.4390390616
 20
3.8638597841
 30
0.0
 10
4.4292834615
 20
3.8441685691
 30
0.0
 10
4.4206347995
 20
3.8242089773
 30
0.0
 10
4.4131081059
 20
3.8040131617
 30
0.0
 10
4.4077718413
 20
3.7869813296
 30
0.0
 10
4.4040811346
 20
3.7732779218
 30
0.0
 10
4.4016054389
 20
3.7629798066
 30
0.0
 10
4.3994184285
 20
3.7526475636
 30
0.0
 10
4.3975210364
 20
3.7422853166
 30
0.0
 10
4.3959141152
 20
3.731897327
 30
0.0
 10
4.3945983785
 20
3.7214878446
 30
0.0
 10
4.3935744156
 20
3.7110611552
 30
0.0
 10
4.3928426846
 20
3.7006215193
 30
0.0
 10
4.3924035147
 20
3.6901733472
 30
0.0
 10
4.3923059006
 20
3.6832043799
 30
0.0
 10
4.3923059006
 20
3.6797207425
 30
0.0
  0
SPLINE
  5
246
100
AcDbEntity
  8
0
100
AcDbSpline
 62
7
  6
CONTINUOUS
 70
0
 71
3
 72
43
 73
39
 74
0
 42
0.0000001
 43
0.0000001
 44
0.0000000001
 40
0.0
 40
0.0
 40
0.0
 40
0.0
 40
0.0134167074
 40
0.0268384149
 40
0.0402701017
 40
0.0537167301
 40
0.067183219
 40
0.0806744384
 40
0.0941951947
 40
0.1077502198
 40
0.1213441592
 40
0.1349815616
 40
0.1624019472
 40
0.1900479621
 40
0.2179515237
 40
0.2461421493
 40
0.2746467564
 40
0.3034895065
 40
0.3326916907
 40
0.3622716558
 40
0.3922447651
 40
0.4226233935
 40
0.4534169497
 40
0.4846319235
 40
0.5162719533
 40
0.5483379104
 40
0.5808279964
 40
0.6137378515
 40
0.6470606706
 40
0.6807873248
 40
0.7149064876
 40
0.7494047627
 40
0.7842668148
 40
0.8194754991
 40
0.8550119924
 40
0.8908559225
 40
0.9269854975
 40
1.0
 40
1.0
 40
1.0
 40
1.0
 10
5.8698059006
 20
3.6797207425
 30
0.0
 10
5.8698059006
 20
3.6832043798
 30
0.0
 10
5.8697082865
 20
3.690173347
 30
0.0
 10
5.8692691166
 20
3.700621519
 30
0.0
 10
5.8685373857
 20
3.7110611547
 30
0.0
 10
5.8675134228
 20
3.7214878439
 30
0.0
 10
5.8661976862
 20
3.7318973261
 30
0.0
 10
5.864590765
 20
3.7422853155
 30
0.0
 10
5.862693373
 20
3.7526475624
 30
0.0
 10
5.8605063627
 20
3.7629798053
 30
0.0
 10
5.858030667
 20
3.7732779203
 30
0.0
 10
5.8543399604
 20
3.7869813279
 30
0.0
 10
5.849003696
 20
3.8040131598
 30
0.0
 10
5.8414770026
 20
3.8242089751
 30
0.0
 10
5.8328283409
 20
3.8441685667
 30
0.0
 10
5.823072741
 20
3.8638597816
 30
0.0
 10
5.8122268151
 20
3.8832516757
 30
0.0
 10
5.8003088459
 20
3.9023138668
 30
0.0
 10
5.7873386851
 20
3.9210167316
 30
0.0
 10
5.7733377129
 20
3.9393313675
 30
0.0
 10
5.7583287897
 20
3.9572296146
 30
0.0
 10
5.742336216
 20
3.9746840616
 30
0.0
 10
5.7253856972
 20
3.9916680578
 30
0.0
 10
5.7075043103
 20
4.008155726
 30
0.0
 10
5.6887204718
 20
4.0241219797
 30
0.0
 10
5.669063906
 20
4.039542543
 30
0.0
 10
5.6485656122
 20
4.054393973
 30
0.0
 10
5.6272578301
 20
4.0686536857
 30
0.0
 10
5.6051740029
 20
4.0822999828
 30
0.0
 10
5.5823487376
 20
4.095312081
 30
0.0
 10
5.5588177629
 20
4.1076701412
 30
0.0
 10
5.5346178796
 20
4.1193553
 30
0.0
 10
5.5097869277
 20
4.130349695
 30
0.0
 10
5.484363674
 20
4.1406365115
 30
0.0
 10
5.458387987
 20
4.150199947
 30
0.0
 10
5.4318999115
 20
4.1590254806
 30
0.0
 10
5.3958327146
 20
4.1698274402
 30
0.0
 10
5.3683225324
 20
4.1767236144
 30
0.0
 10
5.3498067222
 20
4.1807950375
 30
0.0
  0
SPLINE
  5
247
100
AcDbEntity
  8
0
100
AcDbSpline
 62
7
  6
CONTINUOUS
 70
0
 71
3
 72
51
 73
47
 74
0
 42
0.0000001
 43
0.0000001
 44
0.0000000001
 40
0.0
 40
0.0
 40
0.0
 40
0.0
 40
0.0362165762
 40
0.072390088
 40
0.1084777245
 40
0.1444372254
 40
0.1802271368
 40
0.2158070864
 40
0.2511380584
 40
0.2861826711
 40
0.3209054573
 40
0.3552731486
 40
0.3892549626
 40
0.4228228937
 40
0.4559520055
 40
0.4886207264
 40
0.520811143
 40
0.5525092915
 40
0.5837054432
 40
0.6143943779
 40
0.6295494852
 40
0.644578034
 40
0.6594807508
 40
0.6742586871
 40
0.7034434199
 40
0.7321498308
 40
0.7463313142
 40
0.7604013715
 40
0.7743634186
 40
0.7882212092
 40
0.801978829
 40
0.8156406911
 40
0.8292115273
 40
0.8426963787
 40
0.8561005846
 40
0.8694297686
 40
0.8826898235
 40
0.8958868943
 40
0.9090273589
 40
0.9221178077
 40
0.9351650206
 40
0.9481759435
 40
0.9611576622
 40
0.9741173795
 40
0.9870623702
 40
1.0
 40
1.0
 40
1.0
 40
1.0
 10
5.1310559006
 20
2.999818852
 30
0.0
 10
5.1431205924
 20
2.999818852
 30
0.0
 10
5.167237736
 20
3.0002377748
 30
0.0
 10
5.203332327
 20
3.0021218132
 30
0.0
 10
5.2392543715
 20
3.0052569321
 30
0.0
 10
5.2749173241
 20
3.0096357265
 30
0.0
 10
5.3102360033
 20
3.0152478591
 30
0.0
 10
5.345125874
 20
3.0220800942
 30
0.0
 10
5.3795034993
 20
3.030116328
 30
0.0
 10
5.4132866746
 20
3.0393376433
 30
0.0
 10
5.4463946404
 20
3.0497223579
 30
0.0
 10
5.4787482672
 20
3.0612460873
 30
0.0
 10
5.5102702377
 20
3.0738818163
 30
0.0
 10
5.5408852234
 20
3.0875999683
 30
0.0
 10
5.5705200444
 20
3.1023684884
 30
0.0
 10
5.5991038394
 20
3.1181529345
 30
0.0
 10
5.6265681616
 20
3.1349165215
 30
0.0
 10
5.65284729
 20
3.1526203698
 30
0.0
 10
5.6778776967
 20
3.1712230085
 30
0.0
 10
5.6977287462
 20
3.1875065687
 30
0.0
 10
5.7129181029
 20
3.2009439533
 30
0.0
 10
5.7239144177
 20
3.2111769821
 30
0.0
 10
5.7345552246
 20
3.2216005227
 30
0.0
 10
5.7482024118
 20
3.2356846685
 30
0.0
 10
5.76435474
 20
3.2537325864
 30
0.0
 10
5.7793687972
 20
3.272485445
 30
0.0
 10
5.7905849182
 20
3.2877923846
 30
0.0
 10
5.7985669911
 20
3.2993724121
 30
0.0
 10
5.8061474066
 20
3.3110909872
 30
0.0
 10
5.8133214538
 20
3.3229412349
 30
0.0
 10
5.8200845539
 20
3.3349160598
 30
0.0
 10
5.8264323872
 20
3.3470082952
 30
0.0
 10
5.832360866
 20
3.3592106656
 30
0.0
 10
5.8378661487
 20
3.371515799
 30
0.0
 10
5.8429446428
 20
3.3839162267
 30
0.0
 10
5.8475930111
 20
3.3964043872
 30
0.0
 10
5.851808178
 20
3.4089726294
 30
0.0
 10
5.8555873358
 20
3.4216132169
 30
0.0
 10
5.858927952
 20
3.4343183331
 30
0.0
 10
5.8618277739
 20
3.4470800876
 30
0.0
 10
5.864284835
 20
3.4598905214
 30
0.0
 10
5.8662974602
 20
3.4727416208
 30
0.0
 10
5.8678642728
 20
3.4856253029
 30
0.0
 10
5.8689841958
 20
3.4985335087
 30
0.0
 10
5.8696564603
 20
3.5114578955
 30
0.0
 10
5.8698059006
 20
3.5200808218
 30
0.0
 10
5.8698059006
 20
3.5243906857
 30
0.0
  0
SPLINE
  5
248
100
AcDbEntity
  8
0
100
AcDbSpline
 62
7
  6
CONTINUOUS
 70
0
 71
3
 72
51
 73
47
 74
0
 42
0.0000001
 43
0.0000001
 44
0.0000000001
 40
0.0
 40
0.0
 40
0.0
 40
0.0
 40
0.0129376298
 40
0.0258826204
 40
0.0388423376
 40
0.0518240563
 40
0.0648349792
 40
0.0778821921
 40
0.0909726409
 40
0.1041131055
 40
0.1173101763
 40
0.1305702312
 40
0.1438994152
 40
0.1573036211
 40
0.1707884726
 40
0.1843593088
 40
0.1980211709
 40
0.2117787908
 40
0.2256365813
 40
0.2395986285
 40
0.2536686858
 40
0.2678501693
 40
0.2965565802
 40
0.3257413132
 40
0.3405192494
 40
0.3554219663
 40
0.3704505152
 40
0.3856056225
 40
0.4162945573
 40
0.4474907091
 40
0.4791888576
 40
0.5113792743
 40
0.5440479952
 40
0.5771771071
 40
0.6107450382
 40
0.6447268522
 40
0.6790945435
 40
0.7138173296
 40
0.7488619423
 40
0.7841929143
 40
0.8197728638
 40
0.8555627751
 40
0.8915222759
 40
0.9276099123
 40
0.963783424
 40
1.0
 40
1.0
 40
1.0
 40
1.0
 10
4.3923059006
 20
3.5243906857
 30
0.0
 10
4.3923059006
 20
3.5200808218
 30
0.0
 10
4.3924553409
 20
3.5114578955
 30
0.0
 10
4.3931276054
 20
3.4985335088
 30
0.0
 10
4.3942475284
 20
3.485625303
 30
0.0
 10
4.3958143411
 20
3.472741621
 30
0.0
 10
4.3978269663
 20
3.4598905216
 30
0.0
 10
4.4002840273
 20
3.4470800878
 30
0.0
 10
4.4031838492
 20
3.4343183333
 30
0.0
 10
4.4065244654
 20
3.4216132171
 30
0.0
 10
4.4103036232
 20
3.4089726296
 30
0.0
 10
4.41451879
 20
3.3964043874
 30
0.0
 10
4.4191671584
 20
3.3839162269
 30
0.0
 10
4.4242456525
 20
3.3715157992
 30
0.0
 10
4.4297509352
 20
3.3592106658
 30
0.0
 10
4.4356794139
 20
3.3470082953
 30
0.0
 10
4.4420272473
 20
3.3349160599
 30
0.0
 10
4.4487903474
 20
3.322941235
 30
0.0
 10
4.4559643946
 20
3.3110909872
 30
0.0
 10
4.4635448101
 20
3.2993724122
 30
0.0
 10
4.4715268831
 20
3.2877923846
 30
0.0
 10
4.4827430041
 20
3.2724854449
 30
0.0
 10
4.4977570614
 20
3.2537325863
 30
0.0
 10
4.5139093896
 20
3.2356846683
 30
0.0
 10
4.5275565768
 20
3.2216005225
 30
0.0
 10
4.5381973837
 20
3.2111769819
 30
0.0
 10
4.5491936986
 20
3.2009439531
 30
0.0
 10
4.5643830554
 20
3.1875065684
 30
0.0
 10
4.584234105
 20
3.1712230082
 30
0.0
 10
4.6092645117
 20
3.1526203694
 30
0.0
 10
4.6355436402
 20
3.1349165212
 30
0.0
 10
4.6630079624
 20
3.1181529342
 30
0.0
 10
4.6915917575
 20
3.1023684881
 30
0.0
 10
4.7212265785
 20
3.087599968
 30
0.0
 10
4.7518415643
 20
3.073881816
 30
0.0
 10
4.7833635348
 20
3.061246087
 30
0.0
 10
4.8157171616
 20
3.0497223577
 30
0.0
 10
4.8488251273
 20
3.0393376431
 30
0.0
 10
4.8826083026
 20
3.0301163279
 30
0.0
 10
4.9169859279
 20
3.022080094
 30
0.0
 10
4.9518757985
 20
3.015247859
 30
0.0
 10
4.9871944776
 20
3.0096357264
 30
0.0
 10
5.0228574301
 20
3.0052569321
 30
0.0
 10
5.0587794745
 20
3.0021218132
 30
0.0
 10
5.0948740654
 20
3.0002377748
 30
0.0
 10
5.1189912089
 20
2.999818852
 30
0.0
 10
5.1310559006
 20
2.999818852
 30
0.0
  0
SPLINE
  5
249
100
AcDbEntity
  8
0
100
AcDbSpline
 62
7
  6
CONTINUOUS
 70
0
 71
3
 72
49
 73
45
 74
0
 42
0.0000001
 43
0.0000001
 44
0.0000000001
 40
0.0
 40
0.0
 40
0.0
 40
0.0
 40
0.012797024
 40
0.0256919718
 40
0.0387068813
 40
0.0518622344
 40
0.0651767535
 40
0.0786672415
 40
0.0923484625
 40
0.1062330707
 40
0.1203315701
 40
0.1346523105
 40
0.1639751418
 40
0.1942355889
 40
0.2254276571
 40
0.2575171999
 40
0.2904451391
 40
0.3241307955
 40
0.3584752033
 40
0.3933643528
 40
0.4286723383
 40
0.4642644179
 40
0.5
 40
0.5357355821
 40
0.5713276617
 40
0.6066356472
 40
0.6415247967
 40
0.6758692045
 40
0.7095548609
 40
0.7424828001
 40
0.7745723429
 40
0.8057644111
 40
0.8360248582
 40
0.8653476895
 40
0.8796684299
 40
0.8937669293
 40
0.9076515375
 40
0.9213327585
 40
0.9348232465
 40
0.9481377656
 40
0.9612931187
 40
0.9743080282
 40
0.987202976
 40
1.0
 40
1.0
 40
1.0
 40
1.0
 10
5.0174623025
 20
3.867038799
 30
0.0
 10
5.0176925905
 20
3.865833153
 30
0.0
 10
5.0182308473
 20
3.863426461
 30
0.0
 10
5.0192632038
 20
3.859857981
 30
0.0
 10
5.0205211037
 20
3.856326031
 30
0.0
 10
5.0220019035
 20
3.8528379436
 30
0.0
 10
5.0237025565
 20
3.8494007086
 30
0.0
 10
5.0256195636
 20
3.8460212663
 30
0.0
 10
5.0277490011
 20
3.8427064024
 30
0.0
 10
5.0300865046
 20
3.8394627921
 30
0.0
 10
5.0326273851
 20
3.8362968703
 30
0.0
 10
5.0363078946
 20
3.8321557006
 30
0.0
 10
5.0414021557
 20
3.8272098104
 30
0.0
 10
5.0481849643
 20
3.8217331427
 30
0.0
 10
5.0556317754
 20
3.8167098505
 30
0.0
 10
5.0636823191
 20
3.8121798312
 30
0.0
 10
5.0722721774
 20
3.8081785973
 30
0.0
 10
5.0813325506
 20
3.8047377522
 30
0.0
 10
5.0907909459
 20
3.8018844976
 30
0.0
 10
5.1005716759
 20
3.7996414485
 30
0.0
 10
5.1105964641
 20
3.7980264105
 30
0.0
 10
5.1207850631
 20
3.7970522204
 30
0.0
 10
5.1310559006
 20
3.7967266267
 30
0.0
 10
5.1413267381
 20
3.7970522204
 30
0.0
 10
5.1515153371
 20
3.7980264105
 30
0.0
 10
5.1615401253
 20
3.7996414485
 30
0.0
 10
5.1713208553
 20
3.8018844976
 30
0.0
 10
5.1807792507
 20
3.8047377522
 30
0.0
 10
5.1898396239
 20
3.8081785973
 30
0.0
 10
5.1984294822
 20
3.8121798312
 30
0.0
 10
5.2064800258
 20
3.8167098505
 30
0.0
 10
5.2139268369
 20
3.8217331427
 30
0.0
 10
5.2207096456
 20
3.8272098104
 30
0.0
 10
5.2258039066
 20
3.8321557006
 30
0.0
 10
5.2294844161
 20
3.8362968703
 30
0.0
 10
5.2320252967
 20
3.8394627921
 30
0.0
 10
5.2343628001
 20
3.8427064024
 30
0.0
 10
5.2364922376
 20
3.8460212663
 30
0.0
 10
5.2384092447
 20
3.8494007086
 30
0.0
 10
5.2401098978
 20
3.8528379436
 30
0.0
 10
5.2415906976
 20
3.856326031
 30
0.0
 10
5.2428485974
 20
3.859857981
 30
0.0
 10
5.2438809539
 20
3.863426461
 30
0.0
 10
5.2444192108
 20
3.865833153
 30
0.0
 10
5.2446494987
 20
3.867038799
 30
0.0
  0
SPLINE
  5
24A
100
AcDbEntity
  8
0
100
AcDbSpline
 62
7
  6
CONTINUOUS
 70
0
 71
3
 72
15
 73
11
 74
0
 42
0.0000001
 43
0.0000001
 44
0.0000000001
 40
0.0
 40
0.0
 40
0.0
 40
0.0
 40
0.1294336644
 40
0.2571635724
 40
0.3833848627
 40
0.5083132465
 40
0.6321830942
 40
0.7552444834
 40
0.8777597464
 40
1.0
 40
1.0
 40
1.0
 40
1.0
 10
5.2935559006
 20
3.8619435073
 30
0.0
 10
5.2945776441
 20
3.8601359654
 30
0.0
 10
5.2965028385
 20
3.8564841072
 30
0.0
 10
5.2990367688
 20
3.8508761573
 30
0.0
 10
5.3011910664
 20
3.8451885386
 30
0.0
 10
5.3029605807
 20
3.8394343786
 30
0.0
 10
5.3043412118
 20
3.833626721
 30
0.0
 10
5.3053297062
 20
3.8277787232
 30
0.0
 10
5.3059237396
 20
3.8219040831
 30
0.0
 10
5.3060559006
 20
3.8179765152
 30
0.0
 10
5.3060559006
 20
3.8160155746
 30
0.0
  0
SPLINE
  5
24B
100
AcDbEntity
  8
0
100
AcDbSpline
 62
7
  6
CONTINUOUS
 70
0
 71
3
 72
15
 73
11
 74
0
 42
0.0000001
 43
0.0000001
 44
0.0000000001
 40
0.0
 40
0.0
 40
0.0
 40
0.0
 40
0.1222402536
 40
0.2447555166
 40
0.3678169058
 40
0.4916867535
 40
0.6166151373
 40
0.7428364276
 40
0.8705663356
 40
1.0
 40
1.0
 40
1.0
 40
1.0
 10
4.9560559006
 20
3.8160155746
 30
0.0
 10
4.9560559006
 20
3.8179765152
 30
0.0
 10
4.9561880616
 20
3.8219040831
 30
0.0
 10
4.956782095
 20
3.8277787232
 30
0.0
 10
4.9577705894
 20
3.833626721
 30
0.0
 10
4.9591512205
 20
3.8394343786
 30
0.0
 10
4.9609207348
 20
3.8451885386
 30
0.0
 10
4.9630750325
 20
3.8508761573
 30
0.0
 10
4.9656089627
 20
3.8564841072
 30
0.0
 10
4.9675341571
 20
3.8601359654
 30
0.0
 10
4.9685559006
 20
3.8619435073
 30
0.0
  0
SPLINE
  5
24C
100
AcDbEntity
  8
0
100
AcDbSpline
 62
7
  6
CONTINUOUS
 70
0
 71
3
 72
49
 73
45
 74
0
 42
0.0000001
 43
0.0000001
 44
0.0000000001
 40
0.0
 40
0.0
 40
0.0
 40
0.0
 40
0.0130573203
 40
0.0261211572
 40
0.0391980042
 40
0.05229431
 40
0.0654164554
 40
0.0785707326
 40
0.0917633234
 40
0.1050002802
 40
0.1182875065
 40
0.1316307391
 40
0.1450355321
 40
0.158507241
 40
0.1720510095
 40
0.1856717571
 40
0.1993741676
 40
0.2131626801
 40
0.241011809
 40
0.2692522833
 40
0.2979101464
 40
0.3124037323
 40
0.3270094185
 40
0.3565626594
 40
0.3865851512
 40
0.4017762733
 40
0.417087609
 40
0.448070482
 40
0.4795363839
 40
0.5114820865
 40
0.5439007575
 40
0.5767821631
 40
0.6101128759
 40
0.6438764862
 40
0.6780538146
 40
0.7126231235
 40
0.7475603275
 40
0.7828392002
 40
0.8184315793
 40
0.8543075678
 40
0.8904357324
 40
0.9267832995
 40
0.9633163481
 40
1.0
 40
1.0
 40
1.0
 40
1.0
 10
5.8698059006
 20
3.6797207425
 30
0.0
 10
5.8698059006
 20
3.6758291189
 30
0.0
 10
5.8696828311
 20
3.6680433687
 30
0.0
 10
5.8691291576
 20
3.6563720148
 30
0.0
 10
5.8682066789
 20
3.6447122361
 30
0.0
 10
5.8669158605
 20
3.6330700257
 30
0.0
 10
5.8652573535
 20
3.6214511733
 30
0.0
 10
5.8632319946
 20
3.6098615077
 30
0.0
 10
5.8608408048
 20
3.5983068283
 30
0.0
 10
5.8580849892
 20
3.5867929194
 30
0.0
 10
5.8549659362
 20
3.5753255423
 30
0.0
 10
5.8514852166
 20
3.5639104345
 30
0.0
 10
5.8476445819
 20
3.5525533045
 30
0.0
 10
5.8434459657
 20
3.541259833
 30
0.0
 10
5.8388914748
 20
3.5300356585
 30
0.0
 10
5.8339834151
 20
3.5188864164
 30
0.0
 10
5.8287241891
 20
3.5078175774
 30
0.0
 10
5.8212230491
 20
3.4931263052
 30
0.0
 10
5.8109692047
 20
3.4749852461
 30
0.0
 10
5.7973479736
 20
3.4537006678
 30
0.0
 10
5.7849345513
 20
3.4364060774
 30
0.0
 10
5.774363487
 20
3.4228182573
 30
0.0
 10
5.7632808297
 20
3.4092973514
 30
0.0
 10
5.7486237944
 20
3.3927319956
 30
0.0
 10
5.7330584087
 20
3.3767734012
 30
0.0
 10
5.7200159524
 20
3.3643095177
 30
0.0
 10
5.7064768505
 20
3.3519581035
 30
0.0
 10
5.688822854
 20
3.3369299222
 30
0.0
 10
5.6666086719
 20
3.3196525228
 30
0.0
 10
5.6433260327
 20
3.3030947225
 30
0.0
 10
5.6190217232
 20
3.2872896416
 30
0.0
 10
5.5937441763
 20
3.2722685817
 30
0.0
 10
5.5675438514
 20
3.2580613888
 30
0.0
 10
5.540473009
 20
3.244696277
 30
0.0
 10
5.5125856453
 20
3.2321998028
 30
0.0
 10
5.4839373771
 20
3.2205968031
 30
0.0
 10
5.4545853364
 20
3.2099103462
 30
0.0
 10
5.4245880562
 20
3.2001616845
 30
0.0
 10
5.3940053589
 20
3.1913702106
 30
0.0
 10
5.3628982248
 20
3.1835534157
 30
0.0
 10
5.3313287201
 20
3.1767268589
 30
0.0
 10
5.2993596889
 20
3.1709041165
 30
0.0
 10
5.2670553223
 20
3.1660968238
 30
0.0
 10
5.2453749457
 20
3.163579561
 30
0.0
 10
5.2344959478
 20
3.1624917222
 30
0.0
  0
SPLINE
  5
24D
100
AcDbEntity
  8
0
100
AcDbSpline
 62
7
  6
CONTINUOUS
 70
0
 71
3
 72
10
 73
6
 74
0
 42
0.0000001
 43
0.0000001
 44
0.0000000001
 40
0.0
 40
0.0
 40
0.0
 40
0.0
 40
0.249467543
 40
0.6244735826
 40
1.0
 40
1.0
 40
1.0
 40
1.0
 10
5.2344959478
 20
3.1624917222
 30
0.0
 10
5.2259232863
 20
3.1616345041
 30
0.0
 10
5.2044362971
 20
3.159758003
 30
0.0
 10
5.169947105
 20
3.1578281781
 30
0.0
 10
5.1440247835
 20
3.1573456079
 30
0.0
 10
5.1310559006
 20
3.1573456079
 30
0.0
  0
SPLINE
  5
24E
100
AcDbEntity
  8
0
100
AcDbSpline
 62
7
  6
CONTINUOUS
 70
0
 71
3
 72
51
 73
47
 74
0
 42
0.0000001
 43
0.0000001
 44
0.0000000001
 40
0.0
 40
0.0
 40
0.0
 40
0.0
 40
0.0128508591
 40
0.0257094521
 40
0.0385834803
 40
0.0514805803
 40
0.0644082925
 40
0.0773740303
 40
0.090385051
 40
0.103448428
 40
0.1165710247
 40
0.1297594704
 40
0.1430201383
 40
0.1563591256
 40
0.1697822357
 40
0.1832949631
 40
0.19690248
 40
0.2106096254
 40
0.2244208963
 40
0.2383404406
 40
0.2523720527
 40
0.26651917
 40
0.2951690856
 40
0.3243134641
 40
0.339077159
 40
0.3539695078
 40
0.3689914852
 40
0.3841437326
 40
0.4148377092
 40
0.4460525687
 40
0.4777822192
 40
0.5100160211
 40
0.5427390809
 40
0.5759325538
 40
0.6095739477
 40
0.6436374254
 40
0.6780941064
 40
0.7129123621
 40
0.7480581089
 40
0.7834950944
 40
0.8191851804
 40
0.8550886209
 40
0.8911643363
 40
0.9273701841
 40
0.9636632304
 40
1.0
 40
1.0
 40
1.0
 40
1.0
 10
5.8698059006
 20
3.5243906857
 30
0.0
 10
5.8698059006
 20
3.5201167997
 30
0.0
 10
5.8696574495
 20
3.5115657128
 30
0.0
 10
5.8689896229
 20
3.4987487186
 30
0.0
 10
5.8678770313
 20
3.4859470653
 30
0.0
 10
5.8663203534
 20
3.4731686936
 30
0.0
 10
5.8643205378
 20
3.4604212711
 30
0.0
 10
5.8618788027
 20
3.4477125144
 30
0.0
 10
5.8589966361
 20
3.4350500958
 30
0.0
 10
5.8556757927
 20
3.4224416626
 30
0.0
 10
5.8519182931
 20
3.4098948252
 30
0.0
 10
5.847726422
 20
3.3974171551
 30
0.0
 10
5.8431027266
 20
3.385016179
 30
0.0
 10
5.8380500154
 20
3.3726993744
 30
0.0
 10
5.832571355
 20
3.3604741655
 30
0.0
 10
5.8266700684
 20
3.3483479188
 30
0.0
 10
5.8203497319
 20
3.3363279384
 30
0.0
 10
5.8136141752
 20
3.3244214642
 30
0.0
 10
5.806467471
 20
3.3126356571
 30
0.0
 10
5.7989139634
 20
3.3009776347
 30
0.0
 10
5.7909581442
 20
3.2894543192
 30
0.0
 10
5.7797743048
 20
3.2742159139
 30
0.0
 10
5.7647977063
 20
3.2555398391
 30
0.0
 10
5.7486825688
 20
3.2375619538
 30
0.0
 10
5.7350620601
 20
3.2235271678
 30
0.0
 10
5.724438219
 20
3.2131363009
 30
0.0
 10
5.7134570859
 20
3.2029330597
 30
0.0
 10
5.6982837796
 20
3.1895303091
 30
0.0
 10
5.6784480617
 20
3.173284007
 30
0.0
 10
5.6534309514
 20
3.1547190702
 30
0.0
 10
5.627157322
 20
3.1370450604
 30
0.0
 10
5.5996908302
 20
3.1203045848
 30
0.0
 10
5.5710974554
 20
3.1045375803
 30
0.0
 10
5.5414460052
 20
3.0897817973
 30
0.0
 10
5.5108077771
 20
3.0760725484
 30
0.0
 10
5.4792564434
 20
3.0634426619
 30
0.0
 10
5.4468678619
 20
3.0519223948
 30
0.0
 10
5.4137199036
 20
3.0415393531
 30
0.0
 10
5.3798922646
 20
3.0323184278
 30
0.0
 10
5.3454662758
 20
3.0242817307
 30
0.0
 10
5.3105247136
 20
3.0174485367
 30
0.0
 10
5.2751515822
 20
3.0118352412
 30
0.0
 10
5.2394319788
 20
3.0074553116
 30
0.0
 10
5.2034516413
 20
3.0043192597
 30
0.0
 10
5.1672976652
 20
3.0024346134
 30
0.0
 10
5.1431406346
 20
3.0020155511
 30
0.0
 10
5.1310559006
 20
3.0020155511
 30
0.0
  0
SPLINE
  5
24F
100
AcDbEntity
  8
0
100
AcDbSpline
 62
7
  6
CONTINUOUS
 70
0
 71
3
 72
45
 73
41
 74
0
 42
0.0000001
 43
0.0000001
 44
0.0000000001
 40
0.0
 40
0.0
 40
0.0
 40
0.0
 40
0.0128511998
 40
0.0257101338
 40
0.0385845033
 40
0.0514819454
 40
0.0644100003
 40
0.0773760819
 40
0.0903874476
 40
0.103451171
 40
0.1165741157
 40
0.1297629111
 40
0.1563597803
 40
0.18329297
 40
0.2106051325
 40
0.2383336019
 40
0.2523655861
 40
0.2665130785
 40
0.2951637538
 40
0.3243089051
 40
0.3390729915
 40
0.3539657352
 40
0.3841383687
 40
0.4148331592
 40
0.4460488463
 40
0.4777793383
 40
0.5100139948
 40
0.5427379223
 40
0.5759322754
 40
0.6095745613
 40
0.6436389423
 40
0.6780965369
 40
0.712915716
 40
0.7480623947
 40
0.7835003199
 40
0.8191913523
 40
0.8550957448
 40
0.8911724168
 40
0.9273792247
 40
1.0
 40
1.0
 40
1.0
 40
1.0
 10
5.4960559003
 20
3.7311627609
 30
0.0
 10
5.4960559003
 20
3.7290511285
 30
0.0
 10
5.495982554
 20
3.724826226
 30
0.0
 10
5.4956525957
 20
3.7184936333
 30
0.0
 10
5.4951028889
 20
3.7121686202
 30
0.0
 10
5.4943337687
 20
3.70585511
 30
0.0
 10
5.493345704
 20
3.6995568909
 30
0.0
 10
5.4921392974
 20
3.6932777768
 30
0.0
 10
5.4907152812
 20
3.6870215531
 30
0.0
 10
5.4890745321
 20
3.6807920182
 30
0.0
 10
5.4872180119
 20
3.674592857
 30
0.0
 10
5.4844490609
 20
3.6663505949
 30
0.0
 10
5.4804467535
 20
3.6561354092
 30
0.0
 10
5.4748153651
 20
3.6440950954
 30
0.0
 10
5.4683555721
 20
3.6322661931
 30
0.0
 10
5.4623189466
 20
3.6226465638
 30
0.0
 10
5.4570989932
 20
3.6150859462
 30
0.0
 10
5.4515732722
 20
3.6075569305
 30
0.0
 10
5.4441736803
 20
3.598329521
 30
0.0
 10
5.436211557
 20
3.5894470513
 30
0.0
 10
5.429481937
 20
3.5825127484
 30
0.0
 10
5.4224531708
 20
3.5756381133
 30
0.0
 10
5.4132203211
 20
3.567279764
 30
0.0
 10
5.4015103563
 20
3.5576888428
 30
0.0
 10
5.3891498007
 20
3.5485161796
 30
0.0
 10
5.3761686255
 20
3.5397838816
 30
0.0
 10
5.3625980291
 20
3.531512773
 30
0.0
 10
5.3484706796
 20
3.5237226485
 30
0.0
 10
5.3338205544
 20
3.5164321425
 30
0.0
 10
5.3186828854
 20
3.5096587065
 30
0.0
 10
5.3030940706
 20
3.5034185597
 30
0.0
 10
5.2870915904
 20
3.4977266509
 30
0.0
 10
5.2707139194
 20
3.4925966202
 30
0.0
 10
5.2540004311
 20
3.4880407654
 30
0.0
 10
5.2369913194
 20
3.4840700116
 30
0.0
 10
5.2197274446
 20
3.4806938808
 30
0.0
 10
5.2022504523
 20
3.477920481
 30
0.0
 10
5.1846018578
 20
3.475756435
 30
0.0
 10
5.1608787446
 20
3.4736886806
 30
0.0
 10
5.1429885125
 20
3.4730687857
 30
0.0
 10
5.1310559006
 20
3.4730687857
 30
0.0
  0
SPLINE
  5
250
100
AcDbEntity
  8
0
100
AcDbSpline
 62
7
  6
CONTINUOUS
 70
0
 71
3
 72
37
 73
33
 74
0
 42
0.0000001
 43
0.0000001
 44
0.0000000001
 40
0.0
 40
0.0
 40
0.0
 40
0.0
 40
0.025707185
 40
0.0514760778
 40
0.0773673541
 40
0.1034396676
 40
0.1297487397
 40
0.1563465589
 40
0.1832807103
 40
0.2105938481
 40
0.238323308
 40
0.2665008542
 40
0.2951525525
 40
0.324298745
 40
0.3539541149
 40
0.3841278258
 40
0.4148237128
 40
0.4460405145
 40
0.4777721394
 40
0.5100079475
 40
0.5427330434
 40
0.5759285818
 40
0.6095720693
 40
0.6436376667
 40
0.6780964917
 40
0.7129169144
 40
0.7480648482
 40
0.7835040388
 40
0.8550905702
 40
0.8911685304
 40
0.9273766288
 40
1.0
 40
1.0
 40
1.0
 40
1.0
 10
5.3060559003
 20
3.7674019834
 30
0.0
 10
5.3060559003
 20
3.7653768258
 30
0.0
 10
5.3059149187
 20
3.7613202451
 30
0.0
 10
5.3052812886
 20
3.7552537945
 30
0.0
 10
5.3042270169
 20
3.7492167106
 30
0.0
 10
5.3027547607
 20
3.7432240904
 30
0.0
 10
5.3008682131
 20
3.7372903989
 30
0.0
 10
5.2985720855
 20
3.7314300499
 30
0.0
 10
5.2958720851
 20
3.7256572021
 30
0.0
 10
5.2927748859
 20
3.7199857742
 30
0.0
 10
5.2892881071
 20
3.7144294034
 30
0.0
 10
5.2854202894
 20
3.7090014216
 30
0.0
 10
5.2811808674
 20
3.7037148321
 30
0.0
 10
5.2765801475
 20
3.698582284
 30
0.0
 10
5.2716292852
 20
3.6936160463
 30
0.0
 10
5.2663402564
 20
3.6888279867
 30
0.0
 10
5.2607258327
 20
3.6842295453
 30
0.0
 10
5.2547995547
 20
3.679831708
 30
0.0
 10
5.2485756994
 20
3.6756449855
 30
0.0
 10
5.24206925
 20
3.671679387
 30
0.0
 10
5.235295863
 20
3.6679443953
 30
0.0
 10
5.2282718307
 20
3.6644489471
 30
0.0
 10
5.2210140434
 20
3.6612014095
 30
0.0
 10
5.2135399562
 20
3.6582095587
 30
0.0
 10
5.2058675268
 20
3.6554805592
 30
0.0
 10
5.198015247
 20
3.6530209628
 30
0.0
 10
5.1900018235
 20
3.6508366227
 30
0.0
 10
5.1790930697
 20
3.6482899934
 30
0.0
 10
5.1679803105
 20
3.6463265624
 30
0.0
 10
5.1567287241
 20
3.6449469084
 30
0.0
 10
5.1453544619
 20
3.6439554992
 30
0.0
 10
5.1367770161
 20
3.6436582967
 30
0.0
 10
5.1310559006
 20
3.6436582967
 30
0.0
  0
SPLINE
  5
251
100
AcDbEntity
  8
0
100
AcDbSpline
 62
7
  6
CONTINUOUS
 70
0
 71
3
 72
45
 73
41
 74
0
 42
0.0000001
 43
0.0000001
 44
0.0000000001
 40
0.0
 40
0.0
 40
0.0
 40
0.0
 40
0.0128511998
 40
0.0257101338
 40
0.0385845033
 40
0.0514819454
 40
0.0644100003
 40
0.0773760819
 40
0.0903874476
 40
0.103451171
 40
0.1165741157
 40
0.1297629111
 40
0.1563597803
 40
0.18329297
 40
0.2106051325
 40
0.2383336019
 40
0.2523655861
 40
0.2665130785
 40
0.2951637538
 40
0.3243089051
 40
0.3390729915
 40
0.3539657352
 40
0.3841383687
 40
0.4148331592
 40
0.4460488463
 40
0.4777793383
 40
0.5100139948
 40
0.5427379223
 40
0.5759322754
 40
0.6095745613
 40
0.6436389423
 40
0.6780965369
 40
0.712915716
 40
0.7480623947
 40
0.7835003199
 40
0.8191913523
 40
0.8550957448
 40
0.8911724168
 40
0.9273792247
 40
1.0
 40
1.0
 40
1.0
 40
1.0
 10
4.766055901
 20
3.6903273443
 30
0.0
 10
4.766055901
 20
3.6882157119
 30
0.0
 10
4.7661292473
 20
3.6839908094
 30
0.0
 10
4.7664592055
 20
3.6776582167
 30
0.0
 10
4.7670089124
 20
3.6713332036
 30
0.0
 10
4.7677780325
 20
3.6650196934
 30
0.0
 10
4.7687660973
 20
3.6587214743
 30
0.0
 10
4.7699725039
 20
3.6524423602
 30
0.0
 10
4.7713965201
 20
3.6461861365
 30
0.0
 10
4.7730372691
 20
3.6399566016
 30
0.0
 10
4.7748937893
 20
3.6337574404
 30
0.0
 10
4.7776627403
 20
3.6255151783
 30
0.0
 10
4.7816650477
 20
3.6152999926
 30
0.0
 10
4.7872964361
 20
3.6032596788
 30
0.0
 10
4.7937562291
 20
3.5914307764
 30
0.0
 10
4.7997928547
 20
3.5818111472
 30
0.0
 10
4.805012808
 20
3.5742505296
 30
0.0
 10
4.810538529
 20
3.5667215139
 30
0.0
 10
4.8179381209
 20
3.5574941044
 30
0.0
 10
4.8259002442
 20
3.5486116347
 30
0.0
 10
4.8326298643
 20
3.5416773317
 30
0.0
 10
4.8396586305
 20
3.5348026967
 30
0.0
 10
4.8488914802
 20
3.5264443473
 30
0.0
 10
4.860601445
 20
3.5168534262
 30
0.0
 10
4.8729620005
 20
3.507680763
 30
0.0
 10
4.8859431757
 20
3.498948465
 30
0.0
 10
4.8995137721
 20
3.4906773564
 30
0.0
 10
4.9136411216
 20
3.4828872319
 30
0.0
 10
4.9282912468
 20
3.4755967259
 30
0.0
 10
4.9434289159
 20
3.4688232899
 30
0.0
 10
4.9590177306
 20
3.4625831431
 30
0.0
 10
4.9750202108
 20
3.4568912343
 30
0.0
 10
4.9913978819
 20
3.4517612036
 30
0.0
 10
5.0081113701
 20
3.4472053488
 30
0.0
 10
5.0251204819
 20
3.443234595
 30
0.0
 10
5.0423843567
 20
3.4398584642
 30
0.0
 10
5.0598613489
 20
3.4370850644
 30
0.0
 10
5.0775099435
 20
3.4349210184
 30
0.0
 10
5.1012330566
 20
3.432853264
 30
0.0
 10
5.1191232887
 20
3.4322333691
 30
0.0
 10
5.1310559006
 20
3.4322333691
 30
0.0
  0
SPLINE
  5
252
100
AcDbEntity
  8
0
100
AcDbSpline
 62
7
  6
CONTINUOUS
 70
0
 71
3
 72
37
 73
33
 74
0
 42
0.0000001
 43
0.0000001
 44
0.0000000001
 40
0.0
 40
0.0
 40
0.0
 40
0.0
 40
0.025707185
 40
0.0514760778
 40
0.0773673541
 40
0.1034396676
 40
0.1297487397
 40
0.1563465589
 40
0.1832807103
 40
0.2105938481
 40
0.238323308
 40
0.2665008542
 40
0.2951525525
 40
0.324298745
 40
0.3539541149
 40
0.3841278258
 40
0.4148237128
 40
0.4460405145
 40
0.4777721394
 40
0.5100079475
 40
0.5427330434
 40
0.5759285818
 40
0.6095720693
 40
0.6436376667
 40
0.6780964917
 40
0.7129169144
 40
0.7480648482
 40
0.7835040388
 40
0.8550905702
 40
0.8911685304
 40
0.9273766288
 40
1.0
 40
1.0
 40
1.0
 40
1.0
 10
4.956055901
 20
3.7417693626
 30
0.0
 10
4.956055901
 20
3.739744205
 30
0.0
 10
4.9561968825
 20
3.7356876243
 30
0.0
 10
4.9568305126
 20
3.7296211737
 30
0.0
 10
4.9578847843
 20
3.7235840897
 30
0.0
 10
4.9593570405
 20
3.7175914696
 30
0.0
 10
4.9612435882
 20
3.711657778
 30
0.0
 10
4.9635397157
 20
3.7057974291
 30
0.0
 10
4.9662397161
 20
3.7000245813
 30
0.0
 10
4.9693369153
 20
3.6943531534
 30
0.0
 10
4.9728236941
 20
3.6887967826
 30
0.0
 10
4.9766915118
 20
3.6833688008
 30
0.0
 10
4.9809309339
 20
3.6780822113
 30
0.0
 10
4.9855316537
 20
3.6729496632
 30
0.0
 10
4.990482516
 20
3.6679834255
 30
0.0
 10
4.9957715448
 20
3.6631953659
 30
0.0
 10
5.0013859686
 20
3.6585969245
 30
0.0
 10
5.0073122466
 20
3.6541990872
 30
0.0
 10
5.0135361019
 20
3.6500123646
 30
0.0
 10
5.0200425513
 20
3.6460467662
 30
0.0
 10
5.0268159383
 20
3.6423117745
 30
0.0
 10
5.0338399706
 20
3.6388163263
 30
0.0
 10
5.0410977578
 20
3.6355687887
 30
0.0
 10
5.048571845
 20
3.6325769379
 30
0.0
 10
5.0562442744
 20
3.6298479384
 30
0.0
 10
5.0640965542
 20
3.6273883419
 30
0.0
 10
5.0721099778
 20
3.6252040019
 30
0.0
 10
5.0830187315
 20
3.6226573726
 30
0.0
 10
5.0941314908
 20
3.6206939416
 30
0.0
 10
5.1053830771
 20
3.6193142875
 30
0.0
 10
5.1167573393
 20
3.6183228784
 30
0.0
 10
5.1253347851
 20
3.6180256759
 30
0.0
 10
5.1310559006
 20
3.6180256759
 30
0.0
  0
SPLINE
  5
253
100
AcDbEntity
  8
0
100
AcDbSpline
 62
7
  6
CONTINUOUS
 70
0
 71
3
 72
37
 73
33
 74
0
 42
0.0000001
 43
0.0000001
 44
0.0000000001
 40
0.0
 40
0.0
 40
0.0
 40
0.0
 40
0.0257072016
 40
0.0514760796
 40
0.0773673541
 40
0.1034396678
 40
0.1297487399
 40
0.1563465586
 40
0.1832807103
 40
0.2105938484
 40
0.238323308
 40
0.2665008547
 40
0.295152553
 40
0.3242987449
 40
0.3539541152
 40
0.3841278264
 40
0.4148237127
 40
0.4460405148
 40
0.47777214
 40
0.5100079474
 40
0.5427330436
 40
0.5759285823
 40
0.6095720693
 40
0.6436376669
 40
0.6780964922
 40
0.7129169144
 40
0.7480648483
 40
0.7835040391
 40
0.8550905702
 40
0.8911685306
 40
0.9273766313
 40
1.0
 40
1.0
 40
1.0
 40
1.0
 10
4.9560559006
 20
3.7744730512
 30
0.0
 10
4.9560559006
 20
3.7724478923
 30
0.0
 10
4.9561968825
 20
3.7683913115
 30
0.0
 10
4.9568305132
 20
3.7623248609
 30
0.0
 10
4.9578847837
 20
3.7562877781
 30
0.0
 10
4.9593570408
 20
3.7502951583
 30
0.0
 10
4.9612435885
 20
3.7443614668
 30
0.0
 10
4.9635397151
 20
3.7385011175
 30
0.0
 10
4.9662397163
 20
3.73272827
 30
0.0
 10
4.9693369157
 20
3.7270568422
 30
0.0
 10
4.9728236937
 20
3.7215004708
 30
0.0
 10
4.9766915119
 20
3.7160724894
 30
0.0
 10
4.9809309343
 20
3.7107859002
 30
0.0
 10
4.9855316534
 20
3.7056533514
 30
0.0
 10
4.9904825161
 20
3.7006871141
 30
0.0
 10
4.9957715452
 20
3.6958990549
 30
0.0
 10
5.0013859683
 20
3.6913006127
 30
0.0
 10
5.0073122466
 20
3.6869027758
 30
0.0
 10
5.0135361022
 20
3.6827160536
 30
0.0
 10
5.0200425511
 20
3.6787504544
 30
0.0
 10
5.0268159383
 20
3.6750154631
 30
0.0
 10
5.0338399708
 20
3.6715200153
 30
0.0
 10
5.0410977577
 20
3.668272477
 30
0.0
 10
5.048571845
 20
3.6652806264
 30
0.0
 10
5.0562442746
 20
3.6625516275
 30
0.0
 10
5.0640965542
 20
3.6600920302
 30
0.0
 10
5.0721099778
 20
3.6579076904
 30
0.0
 10
5.0830187317
 20
3.6553610618
 30
0.0
 10
5.0941314907
 20
3.6533976297
 30
0.0
 10
5.1053830774
 20
3.6520179766
 30
0.0
 10
5.1167573395
 20
3.6510265665
 30
0.0
 10
5.1253347853
 20
3.6507293648
 30
0.0
 10
5.1310559006
 20
3.6507293648
 30
0.0
  0
SPLINE
  5
254
100
AcDbEntity
  8
0
100
AcDbSpline
 62
7
  6
CONTINUOUS
 70
0
 71
3
 72
37
 73
33
 74
0
 42
0.0000001
 43
0.0000001
 44
0.0000000001
 40
0.0
 40
0.0
 40
0.0
 40
0.0
 40
0.0726233687
 40
0.1088314694
 40
0.1449094298
 40
0.2164959609
 40
0.2519351517
 40
0.2870830856
 40
0.3219035078
 40
0.3563623331
 40
0.3904279307
 40
0.4240714177
 40
0.4572669564
 40
0.4899920526
 40
0.52222786
 40
0.5539594852
 40
0.5851762873
 40
0.6158721736
 40
0.6460458848
 40
0.6757012551
 40
0.704847447
 40
0.7334991453
 40
0.761676692
 40
0.7894061516
 40
0.8167192897
 40
0.8436534414
 40
0.8702512601
 40
0.8965603322
 40
0.9226326459
 40
0.9485239204
 40
0.9742927984
 40
1.0
 40
1.0
 40
1.0
 40
1.0
 10
5.1310559006
 20
3.6507293648
 30
0.0
 10
5.1367770159
 20
3.6507293648
 30
0.0
 10
5.1453544617
 20
3.6510265665
 30
0.0
 10
5.1567287238
 20
3.6520179766
 30
0.0
 10
5.1679803105
 20
3.6533976297
 30
0.0
 10
5.1790930696
 20
3.6553610618
 30
0.0
 10
5.1900018235
 20
3.6579076904
 30
0.0
 10
5.1980152471
 20
3.6600920302
 30
0.0
 10
5.2058675266
 20
3.6625516275
 30
0.0
 10
5.2135399562
 20
3.6652806264
 30
0.0
 10
5.2210140436
 20
3.668272477
 30
0.0
 10
5.2282718305
 20
3.6715200153
 30
0.0
 10
5.235295863
 20
3.6750154631
 30
0.0
 10
5.2420692502
 20
3.6787504544
 30
0.0
 10
5.2485756991
 20
3.6827160536
 30
0.0
 10
5.2547995546
 20
3.6869027758
 30
0.0
 10
5.2607258329
 20
3.6913006127
 30
0.0
 10
5.2663402561
 20
3.6958990549
 30
0.0
 10
5.2716292852
 20
3.7006871141
 30
0.0
 10
5.2765801479
 20
3.7056533514
 30
0.0
 10
5.281180867
 20
3.7107859002
 30
0.0
 10
5.2854202893
 20
3.7160724894
 30
0.0
 10
5.2892881076
 20
3.7215004708
 30
0.0
 10
5.2927748855
 20
3.7270568422
 30
0.0
 10
5.295872085
 20
3.73272827
 30
0.0
 10
5.2985720861
 20
3.7385011175
 30
0.0
 10
5.3008682127
 20
3.7443614668
 30
0.0
 10
5.3027547605
 20
3.7502951583
 30
0.0
 10
5.3042270175
 20
3.7562877781
 30
0.0
 10
5.305281288
 20
3.7623248609
 30
0.0
 10
5.3059149188
 20
3.7683913115
 30
0.0
 10
5.3060559006
 20
3.7724478923
 30
0.0
 10
5.3060559006
 20
3.7744730512
 30
0.0
  0
SPLINE
  5
255
100
AcDbEntity
  8
0
100
AcDbSpline
 62
7
  6
CONTINUOUS
 70
0
 71
3
 72
9
 73
5
 74
0
 42
0.0000001
 43
0.0000001
 44
0.0000000001
 40
0.0
 40
0.0
 40
0.0
 40
0.0
 40
0.248263919
 40
1.0
 40
1.0
 40
1.0
 40
1.0
 10
5.0879537284
 20
3.8670381036
 30
0.0
 10
5.0889313311
 20
3.8667532324
 30
0.0
 10
5.0928812565
 20
3.8656478952
 30
0.0
 10
5.0968779058
 20
3.8647100693
 30
0.0
 10
5.0998997917
 20
3.8640978923
 30
0.0
  0
SPLINE
  5
256
100
AcDbEntity
  8
0
100
AcDbSpline
 62
7
  6
CONTINUOUS
 70
0
 71
3
 72
15
 73
11
 74
0
 42
0.0000001
 43
0.0000001
 44
0.0000000001
 40
0.0
 40
0.0
 40
0.0
 40
0.0
 40
0.1294336644
 40
0.2571635724
 40
0.3833848627
 40
0.5083132465
 40
0.6321830942
 40
0.7552444834
 40
0.8777597464
 40
1.0
 40
1.0
 40
1.0
 40
1.0
 10
4.9685559006
 20
3.7700876419
 30
0.0
 10
4.9675341571
 20
3.7718951838
 30
0.0
 10
4.9656089627
 20
3.775547042
 30
0.0
 10
4.9630750325
 20
3.7811549919
 30
0.0
 10
4.9609207348
 20
3.7868426106
 30
0.0
 10
4.9591512205
 20
3.7925967706
 30
0.0
 10
4.9577705894
 20
3.7984044283
 30
0.0
 10
4.956782095
 20
3.804252426
 30
0.0
 10
4.9561880616
 20
3.8101270661
 30
0.0
 10
4.9560559006
 20
3.814054634
 30
0.0
 10
4.9560559006
 20
3.8160155746
 30
0.0
  0
SPLINE
  5
257
100
AcDbEntity
  8
0
100
AcDbSpline
 62
7
  6
CONTINUOUS
 70
0
 71
3
 72
15
 73
11
 74
0
 42
0.0000001
 43
0.0000001
 44
0.0000000001
 40
0.0
 40
0.0
 40
0.0
 40
0.0
 40
0.1222402536
 40
0.2447555166
 40
0.3678169058
 40
0.4916867535
 40
0.6166151373
 40
0.7428364276
 40
0.8705663356
 40
1.0
 40
1.0
 40
1.0
 40
1.0
 10
5.3060559006
 20
3.8160155746
 30
0.0
 10
5.3060559006
 20
3.814054634
 30
0.0
 10
5.3059237396
 20
3.8101270661
 30
0.0
 10
5.3053297062
 20
3.804252426
 30
0.0
 10
5.3043412118
 20
3.7984044283
 30
0.0
 10
5.3029605807
 20
3.7925967706
 30
0.0
 10
5.3011910664
 20
3.7868426106
 30
0.0
 10
5.2990367688
 20
3.7811549919
 30
0.0
 10
5.2965028385
 20
3.775547042
 30
0.0
 10
5.2945776441
 20
3.7718951838
 30
0.0
 10
5.2935559006
 20
3.7700876419
 30
0.0
  0
SPLINE
  5
258
100
AcDbEntity
  8
0
100
AcDbSpline
 62
7
  6
CONTINUOUS
 70
0
 71
3
 72
43
 73
39
 74
0
 42
0.0000001
 43
0.0000001
 44
0.0000000001
 40
0.0
 40
0.0
 40
0.0
 40
0.0
 40
0.0131204711
 40
0.0263971452
 40
0.039838169
 40
0.0534504206
 40
0.0812045226
 40
0.1096974139
 40
0.1389426936
 40
0.1689369347
 40
0.1996610027
 40
0.2310815111
 40
0.2631523346
 40
0.2958161347
 40
0.3290058612
 40
0.3626462324
 40
0.3966551715
 40
0.430945211
 40
0.4654248687
 40
0.5
 40
0.5345751313
 40
0.569054789
 40
0.6033448285
 40
0.6373537676
 40
0.6709941388
 40
0.7041838653
 40
0.7368476654
 40
0.7689184889
 40
0.8003389973
 40
0.8310630653
 40
0.8610573064
 40
0.8903025861
 40
0.9187954774
 40
0.9465495794
 40
0.960161831
 40
0.9736028548
 40
0.9868795289
 40
1.0
 40
1.0
 40
1.0
 40
1.0
 10
4.9685559006
 20
3.8319594853
 30
0.0
 10
4.9693659701
 20
3.8305264109
 30
0.0
 10
4.9710630576
 20
3.8276806981
 30
0.0
 10
4.973815408
 20
3.8235065192
 30
0.0
 10
4.9767854232
 20
3.819407702
 30
0.0
 10
4.981057066
 20
3.8140166487
 30
0.0
 10
4.9869312538
 20
3.8074968215
 30
0.0
 10
4.9947293734
 20
3.8001165307
 30
0.0
 10
5.0032795019
 20
3.7931681024
 30
0.0
 10
5.0125338776
 20
3.7866897095
 30
0.0
 10
5.0224414273
 20
3.7807164368
 30
0.0
 10
5.0329474514
 20
3.7752808273
 30
0.0
 10
5.0439940406
 20
3.7704124947
 30
0.0
 10
5.05552033
 20
3.7661380166
 30
0.0
 10
5.0674628243
 20
3.7624807532
 30
0.0
 10
5.0797557363
 20
3.7594607192
 30
0.0
 10
5.0923313421
 20
3.7570944562
 30
0.0
 10
5.1051203523
 20
3.7553949349
 30
0.0
 10
5.1180522941
 20
3.7543714784
 30
0.0
 10
5.1310559006
 20
3.7540297002
 30
0.0
 10
5.1440595072
 20
3.7543714784
 30
0.0
 10
5.1569914489
 20
3.7553949349
 30
0.0
 10
5.1697804592
 20
3.7570944562
 30
0.0
 10
5.182356065
 20
3.7594607192
 30
0.0
 10
5.194648977
 20
3.7624807532
 30
0.0
 10
5.2065914713
 20
3.7661380166
 30
0.0
 10
5.2181177606
 20
3.7704124947
 30
0.0
 10
5.2291643499
 20
3.7752808273
 30
0.0
 10
5.239670374
 20
3.7807164368
 30
0.0
 10
5.2495779236
 20
3.7866897095
 30
0.0
 10
5.2588322993
 20
3.7931681024
 30
0.0
 10
5.2673824278
 20
3.8001165307
 30
0.0
 10
5.2751805474
 20
3.8074968215
 30
0.0
 10
5.2810547352
 20
3.8140166487
 30
0.0
 10
5.2853263781
 20
3.819407702
 30
0.0
 10
5.2882963932
 20
3.8235065192
 30
0.0
 10
5.2910487436
 20
3.8276806981
 30
0.0
 10
5.2927458312
 20
3.8305264109
 30
0.0
 10
5.2935559006
 20
3.8319594853
 30
0.0
  0
SPLINE
  5
259
100
AcDbEntity
  8
0
100
AcDbSpline
 62
7
  6
CONTINUOUS
 70
0
 71
3
 72
33
 73
29
 74
0
 42
0.0000001
 43
0.0000001
 44
0.0000000001
 40
0.0
 40
0.0
 40
0.0
 40
0.0
 40
0.0689069709
 40
0.1377255895
 40
0.2063636953
 40
0.2747191314
 40
0.3426749544
 40
0.4100927567
 40
0.4768045468
 40
0.542603102
 40
0.5750859902
 40
0.6072401914
 40
0.6390240893
 40
0.6703918971
 40
0.7012938068
 40
0.7316766275
 40
0.7614851451
 40
0.790664622
 40
0.8191647693
 40
0.8469457264
 40
0.8739866749
 40
0.8872349887
 40
0.9003048814
 40
0.9259324654
 40
0.9509781269
 40
0.9755956528
 40
0.9878124284
 40
1.0
 40
1.0
 40
1.0
 40
1.0
 10
5.1310559006
 20
3.8500959393
 30
0.0
 10
5.1302105753
 20
3.8500959393
 30
0.0
 10
5.1285208534
 20
3.8501258844
 30
0.0
 10
5.125992354
 20
3.8502611946
 30
0.0
 10
5.1234771796
 20
3.8504884555
 30
0.0
 10
5.1209829729
 20
3.8508103171
 30
0.0
 10
5.1185185392
 20
3.8512305443
 30
0.0
 10
5.1160944358
 20
3.8517540546
 30
0.0
 10
5.1137238113
 20
3.8523869406
 30
0.0
 10
5.1117980766
 20
3.8530142772
 30
0.0
 10
5.1103012087
 20
3.8535805004
 30
0.0
 10
5.1092093016
 20
3.854035993
 30
0.0
 10
5.1081471048
 20
3.8545252466
 30
0.0
 10
5.1071188573
 20
3.8550494292
 30
0.0
 10
5.1061294189
 20
3.8556096445
 30
0.0
 10
5.1051843326
 20
3.8562068833
 30
0.0
 10
5.1042898908
 20
3.8568419369
 30
0.0
 10
5.1034531848
 20
3.8575152791
 30
0.0
 10
5.1026820969
 20
3.8582269517
 30
0.0
 10
5.1019853128
 20
3.8589762934
 30
0.0
 10
5.1014706928
 20
3.859635582
 30
0.0
 10
5.1011067181
 20
3.8601799645
 30
0.0
 10
5.1007801447
 20
3.8607274414
 30
0.0
 10
5.1004344504
 20
3.8614309123
 30
0.0
 10
5.1001286266
 20
3.8623049031
 30
0.0
 10
5.0999724942
 20
3.8630503564
 30
0.0
 10
5.0999101902
 20
3.8636488815
 30
0.0
 10
5.0998997917
 20
3.8639483796
 30
0.0
 10
5.0998997917
 20
3.8640978923
 30
0.0
  0
SPLINE
  5
25A
100
AcDbEntity
  8
0
100
AcDbSpline
 62
7
  6
CONTINUOUS
 70
0
 71
3
 72
33
 73
29
 74
0
 42
0.0000001
 43
0.0000001
 44
0.0000000001
 40
0.0
 40
0.0
 40
0.0
 40
0.0
 40
0.0121875646
 40
0.0244043262
 40
0.0490218325
 40
0.0740674824
 40
0.099695052
 40
0.1127649419
 40
0.1260132537
 40
0.1530541942
 40
0.1808351547
 40
0.2093353039
 40
0.2385147814
 40
0.2683233027
 40
0.2987061306
 40
0.3296080488
 40
0.3609758557
 40
0.3927597508
 40
0.4249139479
 40
0.4573968314
 40
0.5231953736
 40
0.5899071675
 40
0.6573249811
 40
0.7252808191
 40
0.7936362626
 40
0.8622743677
 40
0.9310929982
 40
1.0
 40
1.0
 40
1.0
 40
1.0
 10
5.1622120096
 20
3.8640978923
 30
0.0
 10
5.1622120096
 20
3.8639483797
 30
0.0
 10
5.1622016111
 20
3.8636488819
 30
0.0
 10
5.1621393072
 20
3.8630503572
 30
0.0
 10
5.161983175
 20
3.8623049045
 30
0.0
 10
5.1616773515
 20
3.8614309141
 30
0.0
 10
5.1613316576
 20
3.8607274434
 30
0.0
 10
5.1610050845
 20
3.8601799667
 30
0.0
 10
5.16064111
 20
3.8596355842
 30
0.0
 10
5.1601264902
 20
3.8589762955
 30
0.0
 10
5.1594297063
 20
3.8582269537
 30
0.0
 10
5.1586586185
 20
3.8575152809
 30
0.0
 10
5.1578219126
 20
3.8568419385
 30
0.0
 10
5.1569274707
 20
3.8562068847
 30
0.0
 10
5.1559823843
 20
3.8556096457
 30
0.0
 10
5.1549929458
 20
3.8550494302
 30
0.0
 10
5.1539646983
 20
3.8545252476
 30
0.0
 10
5.1529025016
 20
3.8540359939
 30
0.0
 10
5.1518105946
 20
3.8535805012
 30
0.0
 10
5.1503137271
 20
3.8530142781
 30
0.0
 10
5.1483879926
 20
3.8523869414
 30
0.0
 10
5.1460173681
 20
3.8517540552
 30
0.0
 10
5.1435932643
 20
3.8512305448
 30
0.0
 10
5.1411288303
 20
3.8508103174
 30
0.0
 10
5.1386346233
 20
3.8504884557
 30
0.0
 10
5.1361194487
 20
3.8502611947
 30
0.0
 10
5.1335909487
 20
3.8501258844
 30
0.0
 10
5.1319012263
 20
3.8500959393
 30
0.0
 10
5.1310559006
 20
3.8500959393
 30
0.0
  0
SPLINE
  5
25B
100
AcDbEntity
  8
0
100
AcDbSpline
 62
7
  6
CONTINUOUS
 70
0
 71
3
 72
22
 73
18
 74
0
 42
0.0000001
 43
0.0000001
 44
0.0000000001
 40
0.0
 40
0.0
 40
0.0
 40
0.0
 40
0.0525767073
 40
0.1064586348
 40
0.1617630519
 40
0.2185669642
 40
0.3367069863
 40
0.3672192355
 40
0.3981009773
 40
0.4609269171
 40
0.5251018616
 40
0.5905093706
 40
0.6570118409
 40
0.7244537248
 40
0.7926646723
 40
0.8614625964
 40
1.0
 40
1.0
 40
1.0
 40
1.0
 10
5.0500656366
 20
3.867038605
 30
0.0
 10
5.0508361851
 20
3.8655728377
 30
0.0
 10
5.0525412306
 20
3.8626788906
 30
0.0
 10
5.05552118
 20
3.8585385751
 30
0.0
 10
5.0589360526
 20
3.8545711475
 30
0.0
 10
5.0641071848
 20
3.849478005
 30
0.0
 10
5.069245161
 20
3.8454950489
 30
0.0
 10
5.0739954258
 20
3.8424274974
 30
0.0
 10
5.0773537291
 20
3.8404186106
 30
0.0
 10
5.081748095
 20
3.8380829555
 30
0.0
 10
5.0872739499
 20
3.8355855148
 30
0.0
 10
5.0930510529
 20
3.833391488
 30
0.0
 10
5.099046172
 20
3.8315134166
 30
0.0
 10
5.1052248453
 20
3.8299619891
 30
0.0
 10
5.1115520586
 20
3.828746012
 30
0.0
 10
5.1201548292
 20
3.8275788603
 30
0.0
 10
5.1266925038
 20
3.8272292988
 30
0.0
 10
5.1310559006
 20
3.8272292988
 30
0.0
  0
SPLINE
  5
25C
100
AcDbEntity
  8
0
100
AcDbSpline
 62
7
  6
CONTINUOUS
 70
0
 71
3
 72
22
 73
18
 74
0
 42
0.0000001
 43
0.0000001
 44
0.0000000001
 40
0.0
 40
0.0
 40
0.0
 40
0.0
 40
0.0525767073
 40
0.1064586348
 40
0.1617630519
 40
0.2185669642
 40
0.3367069863
 40
0.3672192355
 40
0.3981009773
 40
0.4609269171
 40
0.5251018616
 40
0.5905093706
 40
0.6570118409
 40
0.7244537248
 40
0.7926646723
 40
0.8614625964
 40
1.0
 40
1.0
 40
1.0
 40
1.0
 10
5.2120461646
 20
3.867038605
 30
0.0
 10
5.2112756162
 20
3.8655728377
 30
0.0
 10
5.2095705706
 20
3.8626788906
 30
0.0
 10
5.2065906212
 20
3.8585385751
 30
0.0
 10
5.2031757487
 20
3.8545711475
 30
0.0
 10
5.1980046164
 20
3.849478005
 30
0.0
 10
5.1928666402
 20
3.8454950489
 30
0.0
 10
5.1881163754
 20
3.8424274974
 30
0.0
 10
5.1847580721
 20
3.8404186106
 30
0.0
 10
5.1803637063
 20
3.8380829555
 30
0.0
 10
5.1748378514
 20
3.8355855148
 30
0.0
 10
5.1690607484
 20
3.833391488
 30
0.0
 10
5.1630656293
 20
3.8315134166
 30
0.0
 10
5.1568869559
 20
3.8299619891
 30
0.0
 10
5.1505597427
 20
3.828746012
 30
0.0
 10
5.141956972
 20
3.8275788603
 30
0.0
 10
5.1354192974
 20
3.8272292988
 30
0.0
 10
5.1310559006
 20
3.8272292988
 30
0.0
  0
SPLINE
  5
25D
100
AcDbEntity
  8
0
100
AcDbSpline
 62
7
  6
CONTINUOUS
 70
0
 71
3
 72
9
 73
5
 74
0
 42
0.0000001
 43
0.0000001
 44
0.0000000001
 40
0.0
 40
0.0
 40
0.0
 40
0.0
 40
0.2517040215
 40
1.0
 40
1.0
 40
1.0
 40
1.0
 10
5.1622120096
 20
3.8640978923
 30
0.0
 10
5.163223827
 20
3.8643028674
 30
0.0
 10
5.167235221
 20
3.8651584193
 30
0.0
 10
5.1712114703
 20
3.8661794703
 30
0.0
 10
5.1741580729
 20
3.8670381036
 30
0.0
  0
SPLINE
  5
25E
100
AcDbEntity
  8
0
100
AcDbSpline
 62
7
  6
CONTINUOUS
 70
0
 71
3
 72
45
 73
41
 74
0
 42
0.0000001
 43
0.0000001
 44
0.0000000001
 40
0.0
 40
0.0
 40
0.0
 40
0.0
 40
0.0726207753
 40
0.1088275832
 40
0.1449042552
 40
0.1808086477
 40
0.2164996801
 40
0.2519376053
 40
0.287084284
 40
0.3219034631
 40
0.3563610577
 40
0.3904254387
 40
0.4240677246
 40
0.4572620777
 40
0.4899860052
 40
0.5222206617
 40
0.5539511537
 40
0.5851668408
 40
0.6158616313
 40
0.6460342648
 40
0.6609270085
 40
0.6756910949
 40
0.7048362462
 40
0.7334869215
 40
0.7476344139
 40
0.7616663981
 40
0.7893948675
 40
0.81670703
 40
0.8436402197
 40
0.8702370889
 40
0.8834258843
 40
0.896548829
 40
0.9096125524
 40
0.9226239181
 40
0.9355899997
 40
0.9485180546
 40
0.9614154967
 40
0.9742898662
 40
0.9871488002
 40
1.0
 40
1.0
 40
1.0
 40
1.0
 10
5.1310559006
 20
3.4322333691
 30
0.0
 10
5.1429885125
 20
3.4322333691
 30
0.0
 10
5.1608787446
 20
3.432853264
 30
0.0
 10
5.1846018578
 20
3.4349210184
 30
0.0
 10
5.2022504523
 20
3.4370850644
 30
0.0
 10
5.2197274446
 20
3.4398584642
 30
0.0
 10
5.2369913194
 20
3.443234595
 30
0.0
 10
5.2540004311
 20
3.4472053488
 30
0.0
 10
5.2707139194
 20
3.4517612036
 30
0.0
 10
5.2870915904
 20
3.4568912343
 30
0.0
 10
5.3030940706
 20
3.4625831431
 30
0.0
 10
5.3186828854
 20
3.4688232899
 30
0.0
 10
5.3338205544
 20
3.4755967259
 30
0.0
 10
5.3484706796
 20
3.4828872319
 30
0.0
 10
5.3625980291
 20
3.4906773564
 30
0.0
 10
5.3761686255
 20
3.498948465
 30
0.0
 10
5.3891498007
 20
3.507680763
 30
0.0
 10
5.4015103563
 20
3.5168534262
 30
0.0
 10
5.4132203211
 20
3.5264443473
 30
0.0
 10
5.4224531708
 20
3.5348026967
 30
0.0
 10
5.429481937
 20
3.5416773317
 30
0.0
 10
5.436211557
 20
3.5486116347
 30
0.0
 10
5.4441736803
 20
3.5574941044
 30
0.0
 10
5.4515732722
 20
3.5667215139
 30
0.0
 10
5.4570989932
 20
3.5742505296
 30
0.0
 10
5.4623189466
 20
3.5818111472
 30
0.0
 10
5.4683555721
 20
3.5914307764
 30
0.0
 10
5.4748153651
 20
3.6032596788
 30
0.0
 10
5.4804467535
 20
3.6152999926
 30
0.0
 10
5.4844490609
 20
3.6255151783
 30
0.0
 10
5.4872180119
 20
3.6337574404
 30
0.0
 10
5.4890745321
 20
3.6399566016
 30
0.0
 10
5.4907152812
 20
3.6461861365
 30
0.0
 10
5.4921392974
 20
3.6524423602
 30
0.0
 10
5.493345704
 20
3.6587214743
 30
0.0
 10
5.4943337687
 20
3.6650196934
 30
0.0
 10
5.4951028889
 20
3.6713332036
 30
0.0
 10
5.4956525957
 20
3.6776582167
 30
0.0
 10
5.495982554
 20
3.6839908094
 30
0.0
 10
5.4960559003
 20
3.6882157119
 30
0.0
 10
5.4960559003
 20
3.6903273443
 30
0.0
  0
SPLINE
  5
25F
100
AcDbEntity
  8
0
100
AcDbSpline
 62
7
  6
CONTINUOUS
 70
0
 71
3
 72
37
 73
33
 74
0
 42
0.0000001
 43
0.0000001
 44
0.0000000001
 40
0.0
 40
0.0
 40
0.0
 40
0.0
 40
0.0726233712
 40
0.1088314696
 40
0.1449094298
 40
0.2164959612
 40
0.2519351518
 40
0.2870830856
 40
0.3219035083
 40
0.3563623333
 40
0.3904279307
 40
0.4240714182
 40
0.4572669566
 40
0.4899920525
 40
0.5222278606
 40
0.5539594855
 40
0.5851762872
 40
0.6158721742
 40
0.6460458851
 40
0.675701255
 40
0.7048474475
 40
0.7334991458
 40
0.761676692
 40
0.7894061519
 40
0.8167192897
 40
0.8436534411
 40
0.8702512603
 40
0.8965603324
 40
0.9226326459
 40
0.9485239222
 40
0.974292815
 40
1.0
 40
1.0
 40
1.0
 40
1.0
 10
5.1310559006
 20
3.6180256759
 30
0.0
 10
5.1367770161
 20
3.6180256759
 30
0.0
 10
5.1453544619
 20
3.6183228784
 30
0.0
 10
5.1567287241
 20
3.6193142875
 30
0.0
 10
5.1679803105
 20
3.6206939416
 30
0.0
 10
5.1790930697
 20
3.6226573726
 30
0.0
 10
5.1900018235
 20
3.6252040019
 30
0.0
 10
5.198015247
 20
3.6273883419
 30
0.0
 10
5.2058675268
 20
3.6298479384
 30
0.0
 10
5.2135399562
 20
3.6325769379
 30
0.0
 10
5.2210140434
 20
3.6355687887
 30
0.0
 10
5.2282718307
 20
3.6388163263
 30
0.0
 10
5.235295863
 20
3.6423117745
 30
0.0
 10
5.24206925
 20
3.6460467662
 30
0.0
 10
5.2485756994
 20
3.6500123646
 30
0.0
 10
5.2547995547
 20
3.6541990872
 30
0.0
 10
5.2607258327
 20
3.6585969245
 30
0.0
 10
5.2663402564
 20
3.6631953659
 30
0.0
 10
5.2716292852
 20
3.6679834255
 30
0.0
 10
5.2765801475
 20
3.6729496632
 30
0.0
 10
5.2811808674
 20
3.6780822113
 30
0.0
 10
5.2854202894
 20
3.6833688008
 30
0.0
 10
5.2892881071
 20
3.6887967826
 30
0.0
 10
5.2927748859
 20
3.6943531534
 30
0.0
 10
5.2958720851
 20
3.7000245813
 30
0.0
 10
5.2985720855
 20
3.7057974291
 30
0.0
 10
5.3008682131
 20
3.711657778
 30
0.0
 10
5.3027547607
 20
3.7175914696
 30
0.0
 10
5.3042270169
 20
3.7235840897
 30
0.0
 10
5.3052812886
 20
3.7296211737
 30
0.0
 10
5.3059149187
 20
3.7356876243
 30
0.0
 10
5.3060559003
 20
3.739744205
 30
0.0
 10
5.3060559003
 20
3.7417693626
 30
0.0
  0
SPLINE
  5
260
100
AcDbEntity
  8
0
100
AcDbSpline
 62
7
  6
CONTINUOUS
 70
0
 71
3
 72
10
 73
6
 74
0
 42
0.0000001
 43
0.0000001
 44
0.0000000001
 40
0.0
 40
0.0
 40
0.0
 40
0.0
 40
0.2503912577
 40
0.6256283919
 40
1.0
 40
1.0
 40
1.0
 40
1.0
 10
5.1310559006
 20
3.1573456079
 30
0.0
 10
5.1224085873
 20
3.1573456079
 30
0.0
 10
5.1008016381
 20
3.1576138491
 30
0.0
 10
5.0662911482
 20
3.1591144839
 30
0.0
 10
5.0404806965
 20
3.16120531
 30
0.0
 10
5.0276158534
 20
3.1624917222
 30
0.0
  0
SPLINE
  5
261
100
AcDbEntity
  8
0
100
AcDbSpline
 62
7
  6
CONTINUOUS
 70
0
 71
3
 72
49
 73
45
 74
0
 42
0.0000001
 43
0.0000001
 44
0.0000000001
 40
0.0
 40
0.0
 40
0.0
 40
0.0
 40
0.0366836519
 40
0.0732167005
 40
0.1095642676
 40
0.1456924322
 40
0.1815684207
 40
0.2171607998
 40
0.2524396725
 40
0.2873768765
 40
0.3219461854
 40
0.3561235138
 40
0.3898871241
 40
0.4232178369
 40
0.4560992425
 40
0.4885179135
 40
0.5204636161
 40
0.551929518
 40
0.582912391
 40
0.5982237267
 40
0.6134148488
 40
0.6434373406
 40
0.6729905815
 40
0.6875962677
 40
0.7020898536
 40
0.7307477167
 40
0.758988191
 40
0.7868373199
 40
0.8006258324
 40
0.8143282429
 40
0.8279489905
 40
0.841492759
 40
0.8549644679
 40
0.8683692609
 40
0.8817124935
 40
0.8949997198
 40
0.9082366766
 40
0.9214292674
 40
0.9345835446
 40
0.94770569
 40
0.9608019958
 40
0.9738788428
 40
0.9869426797
 40
1.0
 40
1.0
 40
1.0
 40
1.0
 10
5.0276158534
 20
3.1624917222
 30
0.0
 10
5.0167368555
 20
3.163579561
 30
0.0
 10
4.995056479
 20
3.1660968238
 30
0.0
 10
4.9627521123
 20
3.1709041165
 30
0.0
 10
4.9307830811
 20
3.1767268589
 30
0.0
 10
4.8992135765
 20
3.1835534157
 30
0.0
 10
4.8681064424
 20
3.1913702106
 30
0.0
 10
4.837523745
 20
3.2001616845
 30
0.0
 10
4.8075264648
 20
3.2099103462
 30
0.0
 10
4.7781744242
 20
3.2205968031
 30
0.0
 10
4.749526156
 20
3.2321998028
 30
0.0
 10
4.7216387922
 20
3.244696277
 30
0.0
 10
4.6945679498
 20
3.2580613888
 30
0.0
 10
4.668367625
 20
3.2722685817
 30
0.0
 10
4.643090078
 20
3.2872896416
 30
0.0
 10
4.6187857685
 20
3.3030947225
 30
0.0
 10
4.5955031293
 20
3.3196525228
 30
0.0
 10
4.5732889473
 20
3.3369299222
 30
0.0
 10
4.5556349508
 20
3.3519581035
 30
0.0
 10
4.5420958488
 20
3.3643095177
 30
0.0
 10
4.5290533925
 20
3.3767734012
 30
0.0
 10
4.5134880068
 20
3.3927319956
 30
0.0
 10
4.4988309716
 20
3.4092973514
 30
0.0
 10
4.4877483142
 20
3.4228182573
 30
0.0
 10
4.47717725
 20
3.4364060774
 30
0.0
 10
4.4647638276
 20
3.4537006678
 30
0.0
 10
4.4511425965
 20
3.4749852461
 30
0.0
 10
4.4408887521
 20
3.4931263052
 30
0.0
 10
4.4333876122
 20
3.5078175774
 30
0.0
 10
4.4281283861
 20
3.5188864164
 30
0.0
 10
4.4232203265
 20
3.5300356585
 30
0.0
 10
4.4186658355
 20
3.541259833
 30
0.0
 10
4.4144672193
 20
3.5525533045
 30
0.0
 10
4.4106265847
 20
3.5639104345
 30
0.0
 10
4.407145865
 20
3.5753255423
 30
0.0
 10
4.404026812
 20
3.5867929194
 30
0.0
 10
4.4012709965
 20
3.5983068283
 30
0.0
 10
4.3988798066
 20
3.6098615077
 30
0.0
 10
4.3968544477
 20
3.6214511733
 30
0.0
 10
4.3951959408
 20
3.6330700257
 30
0.0
 10
4.3939051224
 20
3.6447122361
 30
0.0
 10
4.3929826437
 20
3.6563720148
 30
0.0
 10
4.3924289701
 20
3.6680433687
 30
0.0
 10
4.3923059006
 20
3.6758291189
 30
0.0
 10
4.3923059006
 20
3.6797207425
 30
0.0
  0
SPLINE
  5
262
100
AcDbEntity
  8
0
100
AcDbSpline
 62
7
  6
CONTINUOUS
 70
0
 71
3
 72
51
 73
47
 74
0
 42
0.0000001
 43
0.0000001
 44
0.0000000001
 40
0.0
 40
0.0
 40
0.0
 40
0.0
 40
0.0363367696
 40
0.0726298159
 40
0.1088356637
 40
0.1449113791
 40
0.1808148196
 40
0.2165049056
 40
0.2519418911
 40
0.2870876379
 40
0.3219058936
 40
0.3563625746
 40
0.3904260523
 40
0.4240674462
 40
0.4572609191
 40
0.4899839789
 40
0.5222177808
 40
0.5539474313
 40
0.5851622908
 40
0.6158562674
 40
0.6310085148
 40
0.6460304922
 40
0.660922841
 40
0.6756865359
 40
0.7048309144
 40
0.73348083
 40
0.7476279473
 40
0.7616595594
 40
0.7755791037
 40
0.7893903746
 40
0.80309752
 40
0.8167050369
 40
0.8302177643
 40
0.8436408744
 40
0.8569798617
 40
0.8702405296
 40
0.8834289753
 40
0.896551572
 40
0.909614949
 40
0.9226259697
 40
0.9355917075
 40
0.9485194197
 40
0.9614165197
 40
0.9742905479
 40
0.9871491409
 40
1.0
 40
1.0
 40
1.0
 40
1.0
 10
5.1310559006
 20
3.0020155511
 30
0.0
 10
5.1189711666
 20
3.0020155511
 30
0.0
 10
5.094814136
 20
3.0024346134
 30
0.0
 10
5.05866016
 20
3.0043192597
 30
0.0
 10
5.0226798224
 20
3.0074553116
 30
0.0
 10
4.986960219
 20
3.0118352412
 30
0.0
 10
4.9515870877
 20
3.0174485367
 30
0.0
 10
4.9166455254
 20
3.0242817307
 30
0.0
 10
4.8822195367
 20
3.0323184278
 30
0.0
 10
4.8483918976
 20
3.0415393531
 30
0.0
 10
4.8152439393
 20
3.0519223948
 30
0.0
 10
4.7828553579
 20
3.0634426619
 30
0.0
 10
4.7513040241
 20
3.0760725484
 30
0.0
 10
4.720665796
 20
3.0897817973
 30
0.0
 10
4.6910143458
 20
3.1045375803
 30
0.0
 10
4.662420971
 20
3.1203045848
 30
0.0
 10
4.6349544793
 20
3.1370450604
 30
0.0
 10
4.6086808498
 20
3.1547190702
 30
0.0
 10
4.5836637396
 20
3.173284007
 30
0.0
 10
4.5638280216
 20
3.1895303091
 30
0.0
 10
4.5486547154
 20
3.2029330597
 30
0.0
 10
4.5376735822
 20
3.2131363009
 30
0.0
 10
4.5270497412
 20
3.2235271678
 30
0.0
 10
4.5134292325
 20
3.2375619538
 30
0.0
 10
4.4973140949
 20
3.2555398391
 30
0.0
 10
4.4823374965
 20
3.2742159139
 30
0.0
 10
4.4711536571
 20
3.2894543192
 30
0.0
 10
4.4631978379
 20
3.3009776347
 30
0.0
 10
4.4556443303
 20
3.3126356571
 30
0.0
 10
4.448497626
 20
3.3244214642
 30
0.0
 10
4.4417620693
 20
3.3363279384
 30
0.0
 10
4.4354417328
 20
3.3483479188
 30
0.0
 10
4.4295404463
 20
3.3604741655
 30
0.0
 10
4.4240617859
 20
3.3726993744
 30
0.0
 10
4.4190090746
 20
3.385016179
 30
0.0
 10
4.4143853792
 20
3.3974171551
 30
0.0
 10
4.4101935081
 20
3.4098948252
 30
0.0
 10
4.4064360086
 20
3.4224416626
 30
0.0
 10
4.4031151651
 20
3.4350500958
 30
0.0
 10
4.4002329985
 20
3.4477125144
 30
0.0
 10
4.3977912635
 20
3.4604212711
 30
0.0
 10
4.3957914479
 20
3.4731686936
 30
0.0
 10
4.3942347699
 20
3.4859470653
 30
0.0
 10
4.3931221784
 20
3.4987487186
 30
0.0
 10
4.3924543517
 20
3.5115657128
 30
0.0
 10
4.3923059006
 20
3.5201167997
 30
0.0
 10
4.3923059006
 20
3.5243906857
 30
0.0
  0
SPLINE
  5
263
100
AcDbEntity
  8
0
100
AcDbSpline
 62
7
  6
CONTINUOUS
 70
0
 71
3
 72
52
 73
48
 74
0
 42
0.0000001
 43
0.0000001
 44
0.0000000001
 40
0.0
 40
0.0
 40
0.0
 40
0.0
 40
0.0370640339
 40
0.0740712351
 40
0.1109651825
 40
0.147690349
 40
0.1841925247
 40
0.2204192641
 40
0.2563203386
 40
0.2918481964
 40
0.3269584292
 40
0.3616102478
 40
0.3957669668
 40
0.4293964979
 40
0.4624718499
 40
0.494971631
 40
0.5268805522
 40
0.5581899192
 40
0.5888981039
 40
0.60402992
 40
0.6190142998
 40
0.648545622
 40
0.6775173221
 40
0.6918043946
 40
0.7059636314
 40
0.7200001308
 40
0.7339195077
 40
0.7477278839
 40
0.7614318749
 40
0.7750385725
 40
0.7885555234
 40
0.8019907039
 40
0.8153524898
 40
0.828649623
 40
0.841891173
 40
0.8550864958
 40
0.8682451884
 40
0.8813770411
 40
0.8944919869
 40
0.9076000493
 40
0.9207112886
 40
0.9338357481
 40
0.9469834003
 40
0.9601640941
 40
0.9733875035
 40
0.9866630787
 40
1.0
 40
1.0
 40
1.0
 40
1.0
 10
5.1310559006
 20
3.4216267674
 30
0.0
 10
5.137935342
 20
3.4216267674
 30
0.0
 10
5.1516852032
 20
3.4218960437
 30
0.0
 10
5.1722508403
 20
3.4231068606
 30
0.0
 10
5.1926905944
 20
3.4251207763
 30
0.0
 10
5.2129414272
 20
3.4279316364
 30
0.0
 10
5.2329414102
 20
3.4315308516
 30
0.0
 10
5.2526292461
 20
3.4359074262
 30
0.0
 10
5.2719446335
 20
3.4410479944
 30
0.0
 10
5.2908284045
 20
3.4469368628
 30
0.0
 10
5.3092227185
 20
3.4535560601
 30
0.0
 10
5.3270712329
 20
3.4608853963
 30
0.0
 10
5.3443192749
 20
3.4689025289
 30
0.0
 10
5.3609140023
 20
3.4775830298
 30
0.0
 10
5.37680457
 20
3.4869004733
 30
0.0
 10
5.3919422418
 20
3.4968264856
 30
0.0
 10
5.4062806597
 20
3.5073309579
 30
0.0
 10
5.419775511
 20
3.5183816754
 30
0.0
 10
5.4303357254
 20
3.5280656301
 30
0.0
 10
5.4383147072
 20
3.5360545924
 30
0.0
 10
5.4459032587
 20
3.5441178088
 30
0.0
 10
5.4547990172
 20
3.5544697176
 30
0.0
 10
5.4629483515
 20
3.5652583126
 30
0.0
 10
5.4689463744
 20
3.574069542
 30
0.0
 10
5.4731649761
 20
3.5807331981
 30
0.0
 10
5.4771208524
 20
3.5874770573
 30
0.0
 10
5.4808110023
 20
3.5942960151
 30
0.0
 10
5.4842325584
 20
3.6011848202
 30
0.0
 10
5.487382877
 20
3.6081381883
 30
0.0
 10
5.4902595169
 20
3.6151507769
 30
0.0
 10
5.4928602481
 20
3.622217197
 30
0.0
 10
5.4951830522
 20
3.6293320149
 30
0.0
 10
5.4972261252
 20
3.6364897567
 30
0.0
 10
5.4989878789
 20
3.643684913
 30
0.0
 10
5.5004669426
 20
3.6509119426
 30
0.0
 10
5.5016621645
 20
3.6581652773
 30
0.0
 10
5.5025726132
 20
3.6654393266
 30
0.0
 10
5.5031975788
 20
3.6727284818
 30
0.0
 10
5.5035365738
 20
3.6800271214
 30
0.0
 10
5.503589334
 20
3.6873296157
 30
0.0
 10
5.5033558181
 20
3.6946303315
 30
0.0
 10
5.5028362087
 20
3.7019236367
 30
0.0
 10
5.5020309102
 20
3.7092039086
 30
0.0
 10
5.5009405532
 20
3.7164655239
 30
0.0
 10
5.4995659773
 20
3.72370292
 30
0.0
 10
5.4979082909
 20
3.730910388
 30
0.0
 10
5.4966184514
 20
3.7356799895
 30
0.0
 10
5.4959274529
 20
3.7380570524
 30
0.0
  0
SPLINE
  5
264
100
AcDbEntity
  8
0
100
AcDbSpline
 62
7
  6
CONTINUOUS
 70
0
 71
3
 72
52
 73
48
 74
0
 42
0.0000001
 43
0.0000001
 44
0.0000000001
 40
0.0
 40
0.0
 40
0.0
 40
0.0
 40
0.0133369211
 40
0.0266124962
 40
0.0398359055
 40
0.0530165992
 40
0.0661642513
 40
0.0792887107
 40
0.0923999499
 40
0.1055080122
 40
0.118622958
 40
0.1317548107
 40
0.1449135033
 40
0.1581088261
 40
0.1713503761
 40
0.1846475093
 40
0.1980092953
 40
0.2114444758
 40
0.2249614268
 40
0.2385681244
 40
0.2522721155
 40
0.2660804918
 40
0.2799998688
 40
0.2940363682
 40
0.3081956051
 40
0.3224826777
 40
0.351454378
 40
0.3809857004
 40
0.3959700803
 40
0.4111018965
 40
0.4418100814
 40
0.4731194485
 40
0.5050283697
 40
0.537528151
 40
0.570603503
 40
0.6042330342
 40
0.6383897532
 40
0.6730415718
 40
0.7081518045
 40
0.7436796622
 40
0.7795807367
 40
0.8158074759
 40
0.8523096515
 40
0.889034818
 40
0.9259287652
 40
0.9629359662
 40
1.0
 40
1.0
 40
1.0
 40
1.0
 10
4.7661843446
 20
3.7380570397
 30
0.0
 10
4.7654933464
 20
3.7356799768
 30
0.0
 10
4.7642035072
 20
3.7309103755
 30
0.0
 10
4.7625458214
 20
3.7237029076
 30
0.0
 10
4.7611712459
 20
3.7164655117
 30
0.0
 10
4.7600808895
 20
3.7092038965
 30
0.0
 10
4.7592755915
 20
3.7019236248
 30
0.0
 10
4.7587559825
 20
3.6946303198
 30
0.0
 10
4.7585224671
 20
3.6873296041
 30
0.0
 10
4.7585752277
 20
3.6800271101
 30
0.0
 10
4.7589142232
 20
3.6727284707
 30
0.0
 10
4.7595391892
 20
3.6654393157
 30
0.0
 10
4.7604496383
 20
3.6581652667
 30
0.0
 10
4.7616448606
 20
3.6509119321
 30
0.0
 10
4.7631239246
 20
3.6436849028
 30
0.0
 10
4.7648856787
 20
3.6364897468
 30
0.0
 10
4.7669287521
 20
3.6293320052
 30
0.0
 10
4.7692515564
 20
3.6222171876
 30
0.0
 10
4.7718522879
 20
3.6151507678
 30
0.0
 10
4.7747289281
 20
3.6081381794
 30
0.0
 10
4.7778792469
 20
3.6011848116
 30
0.0
 10
4.7813008033
 20
3.5942960068
 30
0.0
 10
4.7849909535
 20
3.5874770492
 30
0.0
 10
4.7889468299
 20
3.5807331903
 30
0.0
 10
4.7931654317
 20
3.5740695344
 30
0.0
 10
4.7991634549
 20
3.5652583054
 30
0.0
 10
4.8073127894
 20
3.5544697109
 30
0.0
 10
4.8162085481
 20
3.5441178026
 30
0.0
 10
4.8237970997
 20
3.5360545866
 30
0.0
 10
4.8317760816
 20
3.5280656246
 30
0.0
 10
4.842336296
 20
3.5183816704
 30
0.0
 10
4.8558311473
 20
3.5073309534
 30
0.0
 10
4.8701695651
 20
3.4968264817
 30
0.0
 10
4.8853072368
 20
3.4869004698
 30
0.0
 10
4.9011978043
 20
3.4775830268
 30
0.0
 10
4.9177925315
 20
3.4689025264
 30
0.0
 10
4.9350405732
 20
3.4608853941
 30
0.0
 10
4.9528890873
 20
3.4535560583
 30
0.0
 10
4.9712834009
 20
3.4469368615
 30
0.0
 10
4.9901671715
 20
3.4410479933
 30
0.0
 10
5.0094825584
 20
3.4359074255
 30
0.0
 10
5.0291703938
 20
3.4315308511
 30
0.0
 10
5.0491703763
 20
3.427931636
 30
0.0
 10
5.0694212085
 20
3.4251207761
 30
0.0
 10
5.089860962
 20
3.4231068605
 30
0.0
 10
5.1104265986
 20
3.4218960437
 30
0.0
 10
5.1241764595
 20
3.4216267674
 30
0.0
 10
5.1310559006
 20
3.4216267674
 30
0.0
  0
SPLINE
  5
265
100
AcDbEntity
  8
0
100
AcDbSpline
 62
7
  6
CONTINUOUS
 70
0
 71
3
 72
90
 73
86
 74
0
 42
0.0000001
 43
0.0000001
 44
0.0000000001
 40
0.0
 40
0.0
 40
0.0
 40
0.0
 40
0.0179965163
 40
0.0358577046
 40
0.0535685615
 40
0.0711148959
 40
0.0884834255
 40
0.1056618761
 40
0.1226390808
 40
0.1394050818
 40
0.1559512328
 40
0.1722703012
 40
0.1883565717
 40
0.2042059475
 40
0.2198160497
 40
0.2351863129
 40
0.2503180747
 40
0.257796011
 40
0.265215739
 40
0.2798825126
 40
0.2943269563
 40
0.3014693396
 40
0.3085599277
 40
0.322590704
 40
0.3364344129
 40
0.3432917186
 40
0.3501084099
 40
0.3568867885
 40
0.3636292714
 40
0.3703383852
 40
0.3770167605
 40
0.3836671255
 40
0.3902922979
 40
0.3968951779
 40
0.4034787389
 40
0.4100460188
 40
0.4166001102
 40
0.4231441503
 40
0.4296813107
 40
0.4362147866
 40
0.4427477856
 40
0.4492835173
 40
0.4558251815
 40
0.4623759581
 40
0.4689389956
 40
0.4755174008
 40
0.482114229
 40
0.4887324738
 40
0.4953750578
 40
0.5020448243
 40
0.5087445288
 40
0.5154768315
 40
0.5222442908
 40
0.5290493567
 40
0.5358943655
 40
0.5427815352
 40
0.5497129613
 40
0.5637150266
 40
0.5779161162
 40
0.5850957582
 40
0.5923295051
 40
0.6069627354
 40
0.621824797
 40
0.629344023
 40
0.636922413
 40
0.6522571238
 40
0.6678315973
 40
0.6836455453
 40
0.6996968523
 40
0.7159816706
 40
0.7324945184
 40
0.7492283824
 40
0.7661748195
 40
0.7833240603
 40
0.8006651111
 40
0.8181858556
 40
0.8358731551
 40
0.8537129472
 40
0.8716903431
 40
0.8897897237
 40
0.9079948339
 40
0.9262888757
 40
0.944654601
 40
0.9630744025
 40
1.0
 40
1.0
 40
1.0
 40
1.0
 10
5.3498071239
 20
4.178417631
 30
0.0
 10
5.3600840567
 20
4.1761394386
 30
0.0
 10
5.3804880794
 20
4.1712649832
 30
0.0
 10
5.410709816
 20
4.1629730916
 30
0.0
 10
5.4403830043
 20
4.1537423258
 30
0.0
 10
5.469448979
 20
4.1435908545
 30
0.0
 10
5.4978508111
 20
4.1325385231
 30
0.0
 10
5.5255327299
 20
4.1206069664
 30
0.0
 10
5.5524404136
 20
4.1078195247
 30
0.0
 10
5.5785210452
 20
4.0942012074
 30
0.0
 10
5.603723428
 20
4.0797786391
 30
0.0
 10
5.6279980764
 20
4.0645800107
 30
0.0
 10
5.6512973202
 20
4.0486350127
 30
0.0
 10
5.6735753592
 20
4.0319748133
 30
0.0
 10
5.6947884733
 20
4.0146318675
 30
0.0
 10
5.7148946472
 20
3.9966403334
 30
0.0
 10
5.7307569226
 20
3.9810747066
 30
0.0
 10
5.7428470078
 20
3.9683311338
 30
0.0
 10
5.7544439029
 20
3.955501542
 30
0.0
 10
5.7681886658
 20
3.9391294116
 30
0.0
 10
5.7809914849
 20
3.9222127437
 30
0.0
 10
5.7905830821
 20
3.9084497282
 30
0.0
 10
5.7996746683
 20
3.8946402812
 30
0.0
 10
5.8102329353
 20
3.8771124893
 30
0.0
 10
5.8197457046
 20
3.8591493782
 30
0.0
 10
5.826667132
 20
3.844616027
 30
0.0
 10
5.8315002829
 20
3.8336710537
 30
0.0
 10
5.8359890664
 20
3.8226529454
 30
0.0
 10
5.8401313162
 20
3.8115670302
 30
0.0
 10
5.8439249685
 20
3.8004187854
 30
0.0
 10
5.847368149
 20
3.7892136901
 30
0.0
 10
5.8504591515
 20
3.777957261
 30
0.0
 10
5.8531964447
 20
3.7666550392
 30
0.0
 10
5.8555786716
 20
3.7553125905
 30
0.0
 10
5.8576046509
 20
3.7439355014
 30
0.0
 10
5.8592733774
 20
3.7325293769
 30
0.0
 10
5.8605840231
 20
3.7210998374
 30
0.0
 10
5.8615359375
 20
3.7096525155
 30
0.0
 10
5.8621286481
 20
3.6981930534
 30
0.0
 10
5.8623618605
 20
3.6867270996
 30
0.0
 10
5.8622354589
 20
3.6752603064
 30
0.0
 10
5.8617495062
 20
3.6637983261
 30
0.0
 10
5.8609042436
 20
3.6523468089
 30
0.0
 10
5.8597000908
 20
3.640911399
 30
0.0
 10
5.8581376455
 20
3.6294977322
 30
0.0
 10
5.856217683
 20
3.6181114329
 30
0.0
 10
5.853941156
 20
3.6067581109
 30
0.0
 10
5.8513091934
 20
3.5954433586
 30
0.0
 10
5.8483231
 20
3.5841727481
 30
0.0
 10
5.8449843557
 20
3.5729518285
 30
0.0
 10
5.8412946142
 20
3.5617861229
 30
0.0
 10
5.8372557022
 20
3.5506811255
 30
0.0
 10
5.8328696193
 20
3.539642301
 30
0.0
 10
5.8281385313
 20
3.5286750727
 30
0.0
 10
5.8230647917
 20
3.5177848554
 30
0.0
 10
5.8176508528
 20
3.5069769179
 30
0.0
 10
5.8099569745
 20
3.4926359538
 30
0.0
 10
5.79949038
 20
3.4749375256
 30
0.0
 10
5.7880062131
 20
3.457707978
 30
0.0
 10
5.7781854128
 20
3.4441531541
 30
0.0
 10
5.7678651393
 20
3.4306549607
 30
0.0
 10
5.7541680316
 20
3.414091882
 30
0.0
 10
5.7395605
 20
3.3980999403
 30
0.0
 10
5.7272875576
 20
3.3855895895
 30
0.0
 10
5.7145260787
 20
3.3731780517
 30
0.0
 10
5.697845321
 20
3.3580478726
 30
0.0
 10
5.6767942029
 20
3.3406066125
 30
0.0
 10
5.6546715477
 20
3.3238428761
 30
0.0
 10
5.631521133
 20
3.3077896713
 30
0.0
 10
5.6073883717
 20
3.2924782799
 30
0.0
 10
5.5823206849
 20
3.277938638
 30
0.0
 10
5.5563672879
 20
3.2641991563
 30
0.0
 10
5.5295791317
 20
3.2512866974
 30
0.0
 10
5.5020087965
 20
3.2392265132
 30
0.0
 10
5.4737103937
 20
3.2280421965
 30
0.0
 10
5.4447394613
 20
3.2177556327
 30
0.0
 10
5.4151528555
 20
3.2083869562
 30
0.0
 10
5.3850086422
 20
3.199954509
 30
0.0
 10
5.3543659778
 20
3.1924748041
 30
0.0
 10
5.3232850159
 20
3.1859624923
 30
0.0
 10
5.2918267044
 20
3.1804303282
 30
0.0
 10
5.2600529879
 20
3.175889162
 30
0.0
 10
5.2280254757
 20
3.1723478491
 30
0.0
 10
5.1850388076
 20
3.1689661454
 30
0.0
 10
5.1526542103
 20
3.1679522097
 30
0.0
 10
5.1310559006
 20
3.1679522097
 30
0.0
  0
SPLINE
  5
266
100
AcDbEntity
  8
0
100
AcDbSpline
 62
7
  6
CONTINUOUS
 70
0
 71
3
 72
90
 73
86
 74
0
 42
0.0000001
 43
0.0000001
 44
0.0000000001
 40
0.0
 40
0.0
 40
0.0
 40
0.0
 40
0.0369255975
 40
0.055345399
 40
0.0737111243
 40
0.0920051661
 40
0.1102102763
 40
0.1283096569
 40
0.1462870528
 40
0.1641268449
 40
0.1818141444
 40
0.1993348889
 40
0.2166759397
 40
0.2338251805
 40
0.2507716176
 40
0.2675054816
 40
0.2840183294
 40
0.3003031477
 40
0.3163544547
 40
0.3321684027
 40
0.3477428762
 40
0.363077587
 40
0.370655977
 40
0.378175203
 40
0.3930372646
 40
0.4076704949
 40
0.4149042418
 40
0.4220838838
 40
0.4362849734
 40
0.4502870387
 40
0.4572184648
 40
0.4641056345
 40
0.4709506433
 40
0.4777557092
 40
0.4845231685
 40
0.4912554712
 40
0.4979551757
 40
0.5046249422
 40
0.5112675262
 40
0.517885771
 40
0.5244825992
 40
0.5310610044
 40
0.5376240419
 40
0.5441748185
 40
0.5507164827
 40
0.5572522144
 40
0.5637852134
 40
0.5703186893
 40
0.5768558497
 40
0.5833998898
 40
0.5899539812
 40
0.5965212611
 40
0.6031048221
 40
0.6097077021
 40
0.6163328745
 40
0.6229832395
 40
0.6296616148
 40
0.6363707286
 40
0.6431132115
 40
0.6498915901
 40
0.6567082814
 40
0.6635655871
 40
0.677409296
 40
0.6914400723
 40
0.6985306604
 40
0.7056730437
 40
0.7201174874
 40
0.734784261
 40
0.742203989
 40
0.7496819253
 40
0.7648136871
 40
0.7801839503
 40
0.7957940525
 40
0.8116434283
 40
0.8277296988
 40
0.8440487672
 40
0.8605949182
 40
0.8773609192
 40
0.8943381239
 40
0.9115165745
 40
0.9288851041
 40
0.9464314385
 40
0.9641422954
 40
0.9820034837
 40
1.0
 40
1.0
 40
1.0
 40
1.0
 10
5.1310559006
 20
3.1679522097
 30
0.0
 10
5.1094575909
 20
3.1679522097
 30
0.0
 10
5.0770729936
 20
3.1689661454
 30
0.0
 10
5.0340863255
 20
3.1723478491
 30
0.0
 10
5.0020588134
 20
3.175889162
 30
0.0
 10
4.9702850968
 20
3.1804303282
 30
0.0
 10
4.9388267854
 20
3.1859624923
 30
0.0
 10
4.9077458235
 20
3.1924748041
 30
0.0
 10
4.877103159
 20
3.199954509
 30
0.0
 10
4.8469589458
 20
3.2083869562
 30
0.0
 10
4.81737234
 20
3.2177556327
 30
0.0
 10
4.7884014075
 20
3.2280421965
 30
0.0
 10
4.7601030048
 20
3.2392265132
 30
0.0
 10
4.7325326696
 20
3.2512866974
 30
0.0
 10
4.7057445134
 20
3.2641991563
 30
0.0
 10
4.6797911164
 20
3.277938638
 30
0.0
 10
4.6547234296
 20
3.2924782799
 30
0.0
 10
4.6305906682
 20
3.3077896713
 30
0.0
 10
4.6074402535
 20
3.3238428761
 30
0.0
 10
4.5853175984
 20
3.3406066125
 30
0.0
 10
4.5642664803
 20
3.3580478726
 30
0.0
 10
4.5475857226
 20
3.3731780517
 30
0.0
 10
4.5348242436
 20
3.3855895895
 30
0.0
 10
4.5225513013
 20
3.3980999403
 30
0.0
 10
4.5079437696
 20
3.414091882
 30
0.0
 10
4.4942466619
 20
3.4306549607
 30
0.0
 10
4.4839263884
 20
3.4441531541
 30
0.0
 10
4.4741055882
 20
3.457707978
 30
0.0
 10
4.4626214212
 20
3.4749375256
 30
0.0
 10
4.4521548268
 20
3.4926359538
 30
0.0
 10
4.4444609485
 20
3.5069769179
 30
0.0
 10
4.4390470096
 20
3.5177848554
 30
0.0
 10
4.4339732699
 20
3.5286750727
 30
0.0
 10
4.4292421819
 20
3.539642301
 30
0.0
 10
4.4248560991
 20
3.5506811255
 30
0.0
 10
4.420817187
 20
3.5617861229
 30
0.0
 10
4.4171274456
 20
3.5729518285
 30
0.0
 10
4.4137887012
 20
3.5841727481
 30
0.0
 10
4.4108026078
 20
3.5954433586
 30
0.0
 10
4.4081706452
 20
3.6067581109
 30
0.0
 10
4.4058941182
 20
3.6181114329
 30
0.0
 10
4.4039741558
 20
3.6294977322
 30
0.0
 10
4.4024117105
 20
3.640911399
 30
0.0
 10
4.4012075576
 20
3.6523468089
 30
0.0
 10
4.400362295
 20
3.6637983261
 30
0.0
 10
4.3998763423
 20
3.6752603064
 30
0.0
 10
4.3997499408
 20
3.6867270996
 30
0.0
 10
4.3999831532
 20
3.6981930534
 30
0.0
 10
4.4005758637
 20
3.7096525155
 30
0.0
 10
4.4015277781
 20
3.7210998374
 30
0.0
 10
4.4028384238
 20
3.7325293769
 30
0.0
 10
4.4045071504
 20
3.7439355014
 30
0.0
 10
4.4065331296
 20
3.7553125905
 30
0.0
 10
4.4089153565
 20
3.7666550392
 30
0.0
 10
4.4116526497
 20
3.777957261
 30
0.0
 10
4.4147436522
 20
3.7892136901
 30
0.0
 10
4.4181868328
 20
3.8004187854
 30
0.0
 10
4.421980485
 20
3.8115670302
 30
0.0
 10
4.4261227348
 20
3.8226529454
 30
0.0
 10
4.4306115183
 20
3.8336710537
 30
0.0
 10
4.4354446692
 20
3.844616027
 30
0.0
 10
4.4423660966
 20
3.8591493782
 30
0.0
 10
4.451878866
 20
3.8771124893
 30
0.0
 10
4.462437133
 20
3.8946402812
 30
0.0
 10
4.4715287191
 20
3.9084497282
 30
0.0
 10
4.4811203163
 20
3.9222127437
 30
0.0
 10
4.4939231354
 20
3.9391294116
 30
0.0
 10
4.5076678984
 20
3.955501542
 30
0.0
 10
4.5192647934
 20
3.9683311338
 30
0.0
 10
4.5313548786
 20
3.9810747066
 30
0.0
 10
4.5472171541
 20
3.9966403334
 30
0.0
 10
4.5673233279
 20
4.0146318675
 30
0.0
 10
4.588536442
 20
4.0319748133
 30
0.0
 10
4.610814481
 20
4.0486350127
 30
0.0
 10
4.6341137249
 20
4.0645800107
 30
0.0
 10
4.6583883733
 20
4.0797786391
 30
0.0
 10
4.683590756
 20
4.0942012074
 30
0.0
 10
4.7096713877
 20
4.1078195247
 30
0.0
 10
4.7365790713
 20
4.1206069664
 30
0.0
 10
4.7642609902
 20
4.1325385231
 30
0.0
 10
4.7926628222
 20
4.1435908545
 30
0.0
 10
4.821728797
 20
4.1537423258
 30
0.0
 10
4.8514019852
 20
4.1629730916
 30
0.0
 10
4.8816237219
 20
4.1712649832
 30
0.0
 10
4.9020277445
 20
4.1761394386
 30
0.0
 10
4.9123046774
 20
4.178417631
 30
0.0
  0
SPLINE
  5
267
100
AcDbEntity
  8
0
100
AcDbSpline
 62
7
  6
CONTINUOUS
 70
0
 71
3
 72
45
 73
41
 74
0
 42
0.0000001
 43
0.0000001
 44
0.0000000001
 40
0.0
 40
0.0
 40
0.0
 40
0.0
 40
0.0726207753
 40
0.1088275832
 40
0.1449042552
 40
0.1808086477
 40
0.2164996801
 40
0.2519376053
 40
0.287084284
 40
0.3219034631
 40
0.3563610577
 40
0.3904254387
 40
0.4240677246
 40
0.4572620777
 40
0.4899860052
 40
0.5222206617
 40
0.5539511537
 40
0.5851668408
 40
0.6158616313
 40
0.6460342648
 40
0.6609270085
 40
0.6756910949
 40
0.7048362462
 40
0.7334869215
 40
0.7476344139
 40
0.7616663981
 40
0.7893948675
 40
0.81670703
 40
0.8436402197
 40
0.8702370889
 40
0.8834258843
 40
0.896548829
 40
0.9096125524
 40
0.9226239181
 40
0.9355899997
 40
0.9485180546
 40
0.9614154967
 40
0.9742898662
 40
0.9871488002
 40
1.0
 40
1.0
 40
1.0
 40
1.0
 10
5.1310559006
 20
3.4730687857
 30
0.0
 10
5.1191232887
 20
3.4730687857
 30
0.0
 10
5.1012330566
 20
3.4736886806
 30
0.0
 10
5.0775099435
 20
3.475756435
 30
0.0
 10
5.0598613489
 20
3.477920481
 30
0.0
 10
5.0423843567
 20
3.4806938808
 30
0.0
 10
5.0251204819
 20
3.4840700116
 30
0.0
 10
5.0081113701
 20
3.4880407654
 30
0.0
 10
4.9913978819
 20
3.4925966202
 30
0.0
 10
4.9750202108
 20
3.4977266509
 30
0.0
 10
4.9590177306
 20
3.5034185597
 30
0.0
 10
4.9434289159
 20
3.5096587065
 30
0.0
 10
4.9282912468
 20
3.5164321425
 30
0.0
 10
4.9136411216
 20
3.5237226485
 30
0.0
 10
4.8995137721
 20
3.531512773
 30
0.0
 10
4.8859431757
 20
3.5397838816
 30
0.0
 10
4.8729620005
 20
3.5485161796
 30
0.0
 10
4.860601445
 20
3.5576888428
 30
0.0
 10
4.8488914802
 20
3.567279764
 30
0.0
 10
4.8396586305
 20
3.5756381133
 30
0.0
 10
4.8326298643
 20
3.5825127484
 30
0.0
 10
4.8259002442
 20
3.5894470513
 30
0.0
 10
4.8179381209
 20
3.598329521
 30
0.0
 10
4.810538529
 20
3.6075569305
 30
0.0
 10
4.805012808
 20
3.6150859462
 30
0.0
 10
4.7997928547
 20
3.6226465638
 30
0.0
 10
4.7937562291
 20
3.6322661931
 30
0.0
 10
4.7872964361
 20
3.6440950954
 30
0.0
 10
4.7816650477
 20
3.6561354092
 30
0.0
 10
4.7776627403
 20
3.6663505949
 30
0.0
 10
4.7748937893
 20
3.674592857
 30
0.0
 10
4.7730372691
 20
3.6807920182
 30
0.0
 10
4.7713965201
 20
3.6870215531
 30
0.0
 10
4.7699725039
 20
3.6932777768
 30
0.0
 10
4.7687660973
 20
3.6995568909
 30
0.0
 10
4.7677780325
 20
3.70585511
 30
0.0
 10
4.7670089124
 20
3.7121686202
 30
0.0
 10
4.7664592055
 20
3.7184936333
 30
0.0
 10
4.7661292473
 20
3.724826226
 30
0.0
 10
4.766055901
 20
3.7290511285
 30
0.0
 10
4.766055901
 20
3.7311627609
 30
0.0
  0
SPLINE
  5
268
100
AcDbEntity
  8
0
100
AcDbSpline
 62
7
  6
CONTINUOUS
 70
0
 71
3
 72
39
 73
35
 74
0
 42
0.0000001
 43
0.0000001
 44
0.0000000001
 40
0.0
 40
0.0
 40
0.0
 40
0.0
 40
0.0745203761
 40
0.1116319356
 40
0.148557161
 40
0.1852364302
 40
0.2216122664
 40
0.2576298869
 40
0.2932377649
 40
0.3283881988
 40
0.3630378942
 40
0.397148556
 40
0.4306874912
 40
0.4636282188
 40
0.4959510801
 40
0.527643843
 40
0.5432539682
 40
0.5587056937
 40
0.5891341454
 40
0.618945971
 40
0.6481639507
 40
0.6768205268
 40
0.7049578678
 40
0.7326277007
 40
0.7598908649
 40
0.7868165494
 40
0.8134811935
 40
0.8399670571
 40
0.8663604987
 40
0.8927500319
 40
0.9192242625
 40
0.9458698187
 40
0.9727693935
 40
1.0
 40
1.0
 40
1.0
 40
1.0
 10
5.1310559006
 20
3.6074190742
 30
0.0
 10
5.1381127491
 20
3.6074190742
 30
0.0
 10
5.1486908791
 20
3.6078524739
 30
0.0
 10
5.1626869948
 20
3.6092985489
 30
0.0
 10
5.1730653096
 20
3.6108099903
 30
0.0
 10
5.1833019731
 20
3.6127445356
 30
0.0
 10
5.1933629711
 20
3.615095729
 30
0.0
 10
5.2032143531
 20
3.6178556811
 30
0.0
 10
5.2128230151
 20
3.6210151466
 30
0.0
 10
5.2221566336
 20
3.6245635443
 30
0.0
 10
5.2311838185
 20
3.6284889974
 30
0.0
 10
5.2398742088
 20
3.6327783791
 30
0.0
 10
5.2481985559
 20
3.6374173419
 30
0.0
 10
5.256128888
 20
3.6423904287
 30
0.0
 10
5.2636383381
 20
3.6476809055
 30
0.0
 10
5.2695543908
 20
3.6523631963
 30
0.0
 10
5.2740489997
 20
3.6562520135
 30
0.0
 10
5.2783382311
 20
3.6601912364
 30
0.0
 10
5.2833968632
 20
3.6652763082
 30
0.0
 10
5.2889852048
 20
3.671650666
 30
0.0
 10
5.2940416999
 20
3.6782450314
 30
0.0
 10
5.2985489156
 20
3.6850372411
 30
0.0
 10
5.3024913689
 20
3.6920045707
 30
0.0
 10
5.3058553819
 20
3.6991235925
 30
0.0
 10
5.3086292001
 20
3.7063702819
 30
0.0
 10
5.3108030473
 20
3.7137200675
 30
0.0
 10
5.3123692
 20
3.7211479099
 30
0.0
 10
5.3133220529
 20
3.7286283942
 30
0.0
 10
5.313658179
 20
3.7361358354
 30
0.0
 10
5.3133763613
 20
3.7436444208
 30
0.0
 10
5.3124776321
 20
3.7511282841
 30
0.0
 10
5.3109651685
 20
3.7585618659
 30
0.0
 10
5.3088446042
 20
3.7659191921
 30
0.0
 10
5.30704254
 20
3.7707243426
 30
0.0
 10
5.3060465718
 20
3.7731028934
 30
0.0
  0
SPLINE
  5
269
100
AcDbEntity
  8
0
100
AcDbSpline
 62
7
  6
CONTINUOUS
 70
0
 71
3
 72
39
 73
35
 74
0
 42
0.0000001
 43
0.0000001
 44
0.0000000001
 40
0.0
 40
0.0
 40
0.0
 40
0.0
 40
0.0272306064
 40
0.0541301812
 40
0.0807757373
 40
0.1072499679
 40
0.1336395012
 40
0.1600329427
 40
0.1865188063
 40
0.2131834505
 40
0.2401091349
 40
0.2673722991
 40
0.2950421321
 40
0.3231794732
 40
0.3518360493
 40
0.3810540289
 40
0.4108658546
 40
0.4412943063
 40
0.4567460318
 40
0.472356157
 40
0.5040489199
 40
0.5363717813
 40
0.5693125088
 40
0.6028514441
 40
0.6369621059
 40
0.6716118012
 40
0.7067622352
 40
0.7423701131
 40
0.7783877337
 40
0.8147635699
 40
0.851442839
 40
0.8883680644
 40
0.9254796239
 40
1.0
 40
1.0
 40
1.0
 40
1.0
 10
4.9560652291
 20
3.7731028927
 30
0.0
 10
4.955069261
 20
3.7707243419
 30
0.0
 10
4.9532671968
 20
3.7659191914
 30
0.0
 10
4.9511466325
 20
3.7585618652
 30
0.0
 10
4.949634169
 20
3.7511282834
 30
0.0
 10
4.9487354399
 20
3.7436444201
 30
0.0
 10
4.9484536222
 20
3.7361358348
 30
0.0
 10
4.9487897484
 20
3.7286283935
 30
0.0
 10
4.9497426014
 20
3.7211479093
 30
0.0
 10
4.9513087541
 20
3.713720067
 30
0.0
 10
4.9534826013
 20
3.7063702814
 30
0.0
 10
4.9562564196
 20
3.699123592
 30
0.0
 10
4.9596204326
 20
3.6920045703
 30
0.0
 10
4.963562886
 20
3.6850372407
 30
0.0
 10
4.9680701017
 20
3.678245031
 30
0.0
 10
4.9731265968
 20
3.6716506656
 30
0.0
 10
4.9787149384
 20
3.6652763079
 30
0.0
 10
4.9837735704
 20
3.6601912361
 30
0.0
 10
4.9880628019
 20
3.6562520132
 30
0.0
 10
4.9925574108
 20
3.652363196
 30
0.0
 10
4.9984734635
 20
3.6476809052
 30
0.0
 10
5.0059829136
 20
3.6423904285
 30
0.0
 10
5.0139132456
 20
3.6374173417
 30
0.0
 10
5.0222375927
 20
3.6327783789
 30
0.0
 10
5.030927983
 20
3.6284889973
 30
0.0
 10
5.0399551679
 20
3.6245635442
 30
0.0
 10
5.0492887864
 20
3.6210151465
 30
0.0
 10
5.0588974483
 20
3.6178556811
 30
0.0
 10
5.0687488303
 20
3.615095729
 30
0.0
 10
5.0788098283
 20
3.6127445356
 30
0.0
 10
5.0890464918
 20
3.6108099903
 30
0.0
 10
5.0994248066
 20
3.6092985489
 30
0.0
 10
5.1134209222
 20
3.6078524739
 30
0.0
 10
5.1239990521
 20
3.6074190742
 30
0.0
 10
5.1310559006
 20
3.6074190742
 30
0.0
  0
SPLINE
  5
26A
100
AcDbEntity
  8
0
100
AcDbSpline
 62
7
  6
CONTINUOUS
 70
0
 71
3
 72
64
 73
60
 74
0
 42
0.0000001
 43
0.0000001
 44
0.0000000001
 40
0.0
 40
0.0
 40
0.0
 40
0.0
 40
0.0334708839
 40
0.0499021773
 40
0.0661238839
 40
0.097924111
 40
0.1135072252
 40
0.1288783905
 40
0.1440402878
 40
0.1589969955
 40
0.1737540228
 40
0.1883183315
 40
0.2026983455
 40
0.2169039472
 40
0.230946455
 40
0.2448385848
 40
0.2585943877
 40
0.2722291688
 40
0.2857593809
 40
0.2992024968
 40
0.3125768591
 40
0.3259015109
 40
0.3391960094
 40
0.3524802265
 40
0.3657741424
 40
0.3790976353
 40
0.3924702743
 40
0.4059111202
 40
0.4194385387
 40
0.4330700301
 40
0.4468220788
 40
0.4607100251
 40
0.4747479579
 40
0.4889486332
 40
0.5033234106
 40
0.5178822149
 40
0.5326335128
 40
0.5475843086
 40
0.5627401536
 40
0.5781051675
 40
0.5936820716
 40
0.6094722274
 40
0.6416856262
 40
0.6581108492
 40
0.6747421848
 40
0.6915749828
 40
0.7086035676
 40
0.7258212977
 40
0.7432206284
 40
0.7785255013
 40
0.7964162417
 40
0.8144505802
 40
0.8509010024
 40
0.8692970565
 40
0.8877890236
 40
0.9250047175
 40
0.9437051575
 40
0.9624477713
 40
1.0
 40
1.0
 40
1.0
 40
1.0
 10
5.3498077311
 20
3.9364084117
 30
0.0
 10
5.3570340792
 20
3.9324553309
 30
0.0
 10
5.3676167309
 20
3.9261994421
 30
0.0
 10
5.3811649994
 20
3.9171810366
 30
0.0
 10
5.3940431683
 20
3.9079169183
 30
0.0
 10
5.406237131
 20
3.8980737876
 30
0.0
 10
5.4176597537
 20
3.8876755517
 30
0.0
 10
5.4257389345
 20
3.8797006772
 30
0.0
 10
5.4333747714
 20
3.8715099474
 30
0.0
 10
5.4405559252
 20
3.8631154634
 30
0.0
 10
5.4472714868
 20
3.8545298471
 30
0.0
 10
5.4535112983
 20
3.8457659557
 30
0.0
 10
5.4592658897
 20
3.8368369368
 30
0.0
 10
5.4645265166
 20
3.8277561937
 30
0.0
 10
5.4692851629
 20
3.8185373694
 30
0.0
 10
5.4735345656
 20
3.8091943329
 30
0.0
 10
5.4772682179
 20
3.7997411556
 30
0.0
 10
5.4804803915
 20
3.7901920963
 30
0.0
 10
5.4831661443
 20
3.7805615786
 30
0.0
 10
5.4853213328
 20
3.7708641691
 30
0.0
 10
5.4869426283
 20
3.7611145559
 30
0.0
 10
5.488027517
 20
3.7513275217
 30
0.0
 10
5.4885743193
 20
3.7415179198
 30
0.0
 10
5.4885821846
 20
3.7317006454
 30
0.0
 10
5.4880511013
 20
3.7218906085
 30
0.0
 10
5.4869818947
 20
3.7121027052
 30
0.0
 10
5.4853762205
 20
3.7023517902
 30
0.0
 10
5.4832365685
 20
3.6926526487
 30
0.0
 10
5.480566243
 20
3.683019972
 30
0.0
 10
5.477369365
 20
3.6734683306
 30
0.0
 10
5.4736508524
 20
3.6640121527
 30
0.0
 10
5.4694164116
 20
3.6546657018
 30
0.0
 10
5.4646725263
 20
3.6454430554
 30
0.0
 10
5.4594264377
 20
3.6363580886
 30
0.0
 10
5.4536861403
 20
3.6274244509
 30
0.0
 10
5.447460358
 20
3.6186555541
 30
0.0
 10
5.440758536
 20
3.6100645496
 30
0.0
 10
5.4335908283
 20
3.6016643173
 30
0.0
 10
5.4259680599
 20
3.5934674335
 30
0.0
 10
5.4179017977
 20
3.5854862146
 30
0.0
 10
5.4094040129
 20
3.5777324587
 30
0.0
 10
5.3974373502
 20
3.5676470865
 30
0.0
 10
5.3847291036
 20
3.5581362516
 30
0.0
 10
5.3713653769
 20
3.5492205981
 30
0.0
 10
5.3609150103
 20
3.5427714943
 30
0.0
 10
5.3501192886
 20
3.5366141089
 30
0.0
 10
5.3389942026
 20
3.5307574837
 30
0.0
 10
5.3275563787
 20
3.5252103712
 30
0.0
 10
5.3118372898
 20
3.5182047427
 30
0.0
 10
5.2956375062
 20
3.5118921978
 30
0.0
 10
5.2790299414
 20
3.506276956
 30
0.0
 10
5.2619916014
 20
3.5010800097
 30
0.0
 10
5.244609246
 20
3.4966117871
 30
0.0
 10
5.2269506307
 20
3.4928736096
 30
0.0
 10
5.2090074349
 20
3.4896054937
 30
0.0
 10
5.1908586331
 20
3.4870880776
 30
0.0
 10
5.1725688767
 20
3.4853216478
 30
0.0
 10
5.1541548962
 20
3.4840551589
 30
0.0
 10
5.1402972144
 20
3.4836753875
 30
0.0
 10
5.1310559006
 20
3.4836753875
 30
0.0
  0
SPLINE
  5
26B
100
AcDbEntity
  8
0
100
AcDbSpline
 62
7
  6
CONTINUOUS
 70
0
 71
3
 72
64
 73
60
 74
0
 42
0.0000001
 43
0.0000001
 44
0.0000000001
 40
0.0
 40
0.0
 40
0.0
 40
0.0
 40
0.0375522287
 40
0.0562948425
 40
0.0749952825
 40
0.1122109764
 40
0.1307029435
 40
0.1490989976
 40
0.1855494198
 40
0.2035837583
 40
0.2214744987
 40
0.2567793716
 40
0.2741787023
 40
0.2913964324
 40
0.3084250172
 40
0.3252578152
 40
0.3418891508
 40
0.3583143738
 40
0.3905277726
 40
0.4063179284
 40
0.4218948325
 40
0.4372598464
 40
0.4524156914
 40
0.4673664872
 40
0.4821177851
 40
0.4966765894
 40
0.5110513668
 40
0.5252520421
 40
0.5392899749
 40
0.5531779212
 40
0.5669299699
 40
0.5805614613
 40
0.5940888798
 40
0.6075297257
 40
0.6209023647
 40
0.6342258576
 40
0.6475197735
 40
0.6608039906
 40
0.6740984891
 40
0.6874231409
 40
0.7007975032
 40
0.7142406191
 40
0.7277708312
 40
0.7414056123
 40
0.7551614152
 40
0.769053545
 40
0.7830960528
 40
0.7973016545
 40
0.8116816685
 40
0.8262459772
 40
0.8410030045
 40
0.8559597122
 40
0.8711216095
 40
0.8864927748
 40
0.902075889
 40
0.9338761161
 40
0.9500978227
 40
0.9665291161
 40
1.0
 40
1.0
 40
1.0
 40
1.0
 10
5.1310559006
 20
3.4836753875
 30
0.0
 10
5.1218145869
 20
3.4836753875
 30
0.0
 10
5.107956905
 20
3.4840551589
 30
0.0
 10
5.0895429246
 20
3.4853216478
 30
0.0
 10
5.0712531682
 20
3.4870880776
 30
0.0
 10
5.0531043664
 20
3.4896054937
 30
0.0
 10
5.0351611705
 20
3.4928736096
 30
0.0
 10
5.0175025553
 20
3.4966117871
 30
0.0
 10
5.0001201999
 20
3.5010800097
 30
0.0
 10
4.9830818599
 20
3.506276956
 30
0.0
 10
4.966474295
 20
3.5118921978
 30
0.0
 10
4.9502745114
 20
3.5182047427
 30
0.0
 10
4.9345554225
 20
3.5252103712
 30
0.0
 10
4.9231175987
 20
3.5307574837
 30
0.0
 10
4.9119925127
 20
3.5366141089
 30
0.0
 10
4.9011967909
 20
3.5427714943
 30
0.0
 10
4.8907464243
 20
3.5492205981
 30
0.0
 10
4.8773826977
 20
3.5581362516
 30
0.0
 10
4.864674451
 20
3.5676470865
 30
0.0
 10
4.8527077884
 20
3.5777324587
 30
0.0
 10
4.8442100036
 20
3.5854862146
 30
0.0
 10
4.8361437414
 20
3.5934674335
 30
0.0
 10
4.8285209729
 20
3.6016643173
 30
0.0
 10
4.8213532653
 20
3.6100645496
 30
0.0
 10
4.8146514433
 20
3.6186555541
 30
0.0
 10
4.808425661
 20
3.6274244509
 30
0.0
 10
4.8026853635
 20
3.6363580886
 30
0.0
 10
4.797439275
 20
3.6454430554
 30
0.0
 10
4.7926953897
 20
3.6546657018
 30
0.0
 10
4.7884609488
 20
3.6640121527
 30
0.0
 10
4.7847424362
 20
3.6734683306
 30
0.0
 10
4.7815455582
 20
3.683019972
 30
0.0
 10
4.7788752328
 20
3.6926526487
 30
0.0
 10
4.7767355808
 20
3.7023517902
 30
0.0
 10
4.7751299066
 20
3.7121027052
 30
0.0
 10
4.7740607
 20
3.7218906085
 30
0.0
 10
4.7735296166
 20
3.7317006454
 30
0.0
 10
4.7735374819
 20
3.7415179198
 30
0.0
 10
4.7740842843
 20
3.7513275217
 30
0.0
 10
4.7751691729
 20
3.7611145559
 30
0.0
 10
4.7767904684
 20
3.7708641691
 30
0.0
 10
4.7789456569
 20
3.7805615786
 30
0.0
 10
4.7816314098
 20
3.7901920963
 30
0.0
 10
4.7848435834
 20
3.7997411556
 30
0.0
 10
4.7885772356
 20
3.8091943329
 30
0.0
 10
4.7928266383
 20
3.8185373694
 30
0.0
 10
4.7975852846
 20
3.8277561937
 30
0.0
 10
4.8028459115
 20
3.8368369368
 30
0.0
 10
4.808600503
 20
3.8457659557
 30
0.0
 10
4.8148403144
 20
3.8545298471
 30
0.0
 10
4.821555876
 20
3.8631154634
 30
0.0
 10
4.8287370299
 20
3.8715099474
 30
0.0
 10
4.8363728668
 20
3.8797006772
 30
0.0
 10
4.8444520475
 20
3.8876755517
 30
0.0
 10
4.8558746703
 20
3.8980737876
 30
0.0
 10
4.8680686329
 20
3.9079169183
 30
0.0
 10
4.8809468019
 20
3.9171810366
 30
0.0
 10
4.8944950703
 20
3.9261994421
 30
0.0
 10
4.905077722
 20
3.9324553309
 30
0.0
 10
4.9123040701
 20
3.9364084117
 30
0.0
  0
SPLINE
  5
26C
100
AcDbEntity
  8
0
100
AcDbSpline
 62
7
  6
CONTINUOUS
 70
0
 71
3
 72
37
 73
33
 74
0
 42
0.0000001
 43
0.0000001
 44
0.0000000001
 40
0.0
 40
0.0
 40
0.0
 40
0.0
 40
0.0726233712
 40
0.1088314696
 40
0.1449094298
 40
0.2164959612
 40
0.2519351518
 40
0.2870830856
 40
0.3219035083
 40
0.3563623333
 40
0.3904279307
 40
0.4240714182
 40
0.4572669566
 40
0.4899920525
 40
0.5222278606
 40
0.5539594855
 40
0.5851762872
 40
0.6158721742
 40
0.6460458851
 40
0.675701255
 40
0.7048474475
 40
0.7334991458
 40
0.761676692
 40
0.7894061519
 40
0.8167192897
 40
0.8436534411
 40
0.8702512603
 40
0.8965603324
 40
0.9226326459
 40
0.9485239222
 40
0.974292815
 40
1.0
 40
1.0
 40
1.0
 40
1.0
 10
5.1310559006
 20
3.6436582967
 30
0.0
 10
5.1253347851
 20
3.6436582967
 30
0.0
 10
5.1167573393
 20
3.6439554992
 30
0.0
 10
5.1053830771
 20
3.6449469084
 30
0.0
 10
5.0941314908
 20
3.6463265624
 30
0.0
 10
5.0830187315
 20
3.6482899934
 30
0.0
 10
5.0721099778
 20
3.6508366227
 30
0.0
 10
5.0640965542
 20
3.6530209628
 30
0.0
 10
5.0562442744
 20
3.6554805592
 30
0.0
 10
5.048571845
 20
3.6582095587
 30
0.0
 10
5.0410977578
 20
3.6612014095
 30
0.0
 10
5.0338399706
 20
3.6644489471
 30
0.0
 10
5.0268159383
 20
3.6679443953
 30
0.0
 10
5.0200425513
 20
3.671679387
 30
0.0
 10
5.0135361019
 20
3.6756449855
 30
0.0
 10
5.0073122466
 20
3.679831708
 30
0.0
 10
5.0013859686
 20
3.6842295453
 30
0.0
 10
4.9957715448
 20
3.6888279867
 30
0.0
 10
4.990482516
 20
3.6936160463
 30
0.0
 10
4.9855316537
 20
3.698582284
 30
0.0
 10
4.9809309339
 20
3.7037148321
 30
0.0
 10
4.9766915118
 20
3.7090014216
 30
0.0
 10
4.9728236941
 20
3.7144294034
 30
0.0
 10
4.9693369153
 20
3.7199857742
 30
0.0
 10
4.9662397161
 20
3.7256572021
 30
0.0
 10
4.9635397157
 20
3.7314300499
 30
0.0
 10
4.9612435882
 20
3.7372903989
 30
0.0
 10
4.9593570405
 20
3.7432240904
 30
0.0
 10
4.9578847843
 20
3.7492167106
 30
0.0
 10
4.9568305126
 20
3.7552537945
 30
0.0
 10
4.9561968825
 20
3.7613202451
 30
0.0
 10
4.956055901
 20
3.7653768258
 30
0.0
 10
4.956055901
 20
3.7674019834
 30
0.0
  0
ENDSEC
  0
SECTION
  2
OBJECTS
  0
DICTIONARY
  5
C
100
AcDbDictionary
280
0
281
1
  3
ACAD_GROUP
350
D
  3
ACAD_MLINESTYLE
350
17
  3
ACAD_LAYOUT
350
1A
  3
ACAD_PLOTSETTINGS
350
19
  3
ACAD_PLOTSTYLENAME
350
E
  0
DICTIONARY
  5
D
102
{ACAD_REACTORS
330
C
102
}
100
AcDbDictionary
280
0
281
1
  0
ACDBDICTIONARYWDFLT
  5
E
102
{ACAD_REACTORS
330
C
102
}
100
AcDbDictionary
281
1
  3
Normal
350
F
100
AcDbDictionaryWithDefault
340
F
  0
DICTIONARY
  5
17
102
{ACAD_REACTORS
330
C
102
}
100
AcDbDictionary
280
0
281
1
  3
Standard
350
18
  0
DICTIONARY
  5
19
102
{ACAD_REACTORS
330
C
102
}
100
AcDbDictionary
281
1
  0
DICTIONARY
  5
1A
102
{ACAD_REACTORS
330
C
102
}
100
AcDbDictionary
281
1
  3
Model
350
26D
  3
Layout1
350
26E
  0
ACDBPLACEHOLDER
  5
F
102
{ACAD_REACTORS
330
E
102
}
  0
MLINESTYLE
  5
18
102
{ACAD_REACTORS
330
17
102
}
100
AcDbMlineStyle
  2
STANDARD
 70
0
  3

 62
256
 51
90.0
 52
90.0
 71
2
 49
0.5
 62
256
  6
BYLAYER
 49
-0.5
 62
256
  6
BYLAYER
  0
LAYOUT
  5
26D
102
{ACAD_REACTORS
330
1A
102
}
100
AcDbPlotSettings
  1

  2
none_device
  4
ANSI_A_(11.00_x_8.50_Inches)
  6

 40
0.0
 41
0.0
 42
0.0
 43
0.0
 44
279.4
 45
215.9
 46
0.0
 47
0.0
 48
0.0
 49
0.0
140
0.0
141
0.0
142
1.0
143
1.0
 70
1024
 72
0
 73
0
 74
0
  7

 75
0
147
1.0
148
0.0
149
0.0
100
AcDbLayout
  1
Model
 70
0
 71
0
 10
0.0
 20
0.0
 11
11.0
 21
8.5
 12
0.0
 22
0.0
 32
0.0
 14
0.0
 24
0.0
 34
0.0
 15
0.0
 25
0.0
 35
0.0
146
0.0
 13
0.0
 23
0.0
 33
0.0
 16
1.0
 26
0.0
 36
0.0
 17
0.0
 27
1.0
 37
0.0
 76
0
330
202
345
0
346
0
  0
LAYOUT
  5
26E
102
{ACAD_REACTORS
330
1A
102
}
100
AcDbPlotSettings
  1

  2
none_device
  4
ANSI_A_(11.00_x_8.50_Inches)
  6

 40
0.0
 41
0.0
 42
0.0
 43
0.0
 44
279.4
 45
215.9
 46
0.0
 47
0.0
 48
0.0
 49
0.0
140
0.0
141
0.0
142
1.0
143
1.0
 70
0
 72
0
 73
0
 74
0
  7

 75
0
147
1.0
148
0.0
149
0.0
100
AcDbLayout
  1
Layout1
 70
0
 71
1
 10
0.0
 20
0.0
 11
11.0
 21
8.5
 12
0.0
 22
0.0
 32
0.0
 14
0.0
 24
0.0
 34
0.0
 15
0.0
 25
0.0
 35
0.0
146
0.0
 13
0.0
 23
0.0
 33
0.0
 16
1.0
 26
0.0
 36
0.0
 17
0.0
 27
1.0
 37
0.0
 76
0
330
203
345
0
346
0
  0
ENDSEC
  0
EOF
