999
DXF file: 3-2574ts_FRONT.dxf
999
Pro/ENGINEER 2018400 by Parametric Technology Corporation
  0
SECTION
  2
HEADER
  9
$ACADVER
  1
AC1027
  9
$DWGCODEPAGE
  3
ANSI_1252
  9
$EXTMAX
 10
11.0
 20
8.5
 30
0.0
  9
$EXTMIN
 10
0.0
 20
0.0
 30
0.0
  9
$LIMMIN
 10
0.0
 20
0.0
  9
$LIMMAX
 10
11.0
 20
8.5
  9
$VIEWCTR
 10
5.5
 20
4.25
  9
$VIEWSIZE
 40
8.5
  9
$CLAYER
  8
0
  9
$LTSCALE
 40
0.605
  9
$CELTYPE
  6
BYLAYER
  9
$DIMSCALE
 40
1.0
  9
$DIMASZ
 40
0.1
  9
$DIMEXO
 40
0.0625
  9
$DIMDLI
 40
0.418
  9
$DIMEXE
 40
0.125
  9
$DIMCEN
 40
0.099
  9
$DIMLFAC
 40
1.0
  9
$DIMBLK
  1
_FILLED
  9
$DIMALT
 70
1
  9
$DIMALTD
 70
2
  9
$DIMALTTD
 70
2
  9
$DIMALTF
 40
25.4
  9
$DIMTXT
 40
0.08
  9
$DIMTOL
 70
1
  9
$DIMLIM
 70
0
  9
$DIMTFAC
 40
1.0
  9
$DIMTP
 40
0.001
  9
$DIMTM
 40
0.001
  9
$DIMGAP
 40
0.09
  9
$DIMDSEP
 70
46
  9
$AUNITS
 70
0
  9
$PDMODE
 70
3
  9
$PDSIZE
 40
0.3125
  9
$HANDSEED
  5
3D6
  9
$TILEMODE
 70
1
  9
$MEASUREMENT
 70
0
  9
$INSUNITS
 70
1
  0
ENDSEC
  0
SECTION
  2
CLASSES
  0
CLASS
  1
ACDBDICTIONARYWDFLT
  2
AcDbDictionaryWithDefault
  3
AutoCAD 2000
 90
0
 91
1
280
0
281
0
  0
CLASS
  1
ACDBPLACEHOLDER
  2
AcDbPlaceHolder
  3
AutoCAD 2000
 90
0
 91
1
280
0
281
0
  0
CLASS
  1
LAYOUT
  2
AcDbLayout
  3
AutoCAD 2000
 90
0
 91
0
280
0
281
0
  0
ENDSEC
  0
SECTION
  2
TABLES
  0
TABLE
  2
VPORT
  5
8
100
AcDbSymbolTable
 70
2
  0
VPORT
  5
1F4
100
AcDbSymbolTableRecord
100
AcDbViewportTableRecord
  2
*ACTIVE
 70
0
 10
0.0
 20
0.0
 11
1.0
 21
1.0
 12
5.5
 22
4.25
 13
0.0
 23
0.0
 14
1.0
 24
1.0
 15
0.0
 25
0.0
 16
0.0
 26
0.0
 36
1.0
 17
0.0
 27
0.0
 37
0.0
 40
8.5
 41
1.2941176471
 42
50.0
 43
0.0
 44
0.0
 50
0.0
 51
0.0
 71
0
 72
100
 73
1
 74
1
 75
0
 76
0
 77
0
 78
0
  0
ENDTAB
  0
TABLE
  2
LTYPE
  5
5
100
AcDbSymbolTable
 70
6
  0
LTYPE
  5
14
100
AcDbSymbolTableRecord
100
AcDbLinetypeTableRecord
  2
BYBLOCK
 70
0
  3

 72
65
 73
0
 40
0.0
  0
LTYPE
  5
15
100
AcDbSymbolTableRecord
100
AcDbLinetypeTableRecord
  2
BYLAYER
 70
0
  3

 72
65
 73
0
 40
0.0
  0
LTYPE
  5
16
100
AcDbSymbolTableRecord
100
AcDbLinetypeTableRecord
  2
CONTINUOUS
 70
64
  3
Solid line
 72
65
 73
0
 40
0.0
  0
LTYPE
  5
1F5
100
AcDbSymbolTableRecord
100
AcDbLinetypeTableRecord
  2
CENTER
 70
64
  3
____ _ ____ _ ____ _ ____ _ ____ _ ____ _ ____
 72
65
 73
4
 40
0.6
 49
0.375
 74
0
 49
-0.075
 74
0
 49
0.075
 74
0
 49
-0.075
 74
0
  0
LTYPE
  5
1F6
100
AcDbSymbolTableRecord
100
AcDbLinetypeTableRecord
  2
HIDDEN
 70
64
  3
- - - - - - - - - - - - - - - - - - - -
 72
65
 73
2
 40
0.2
 49
0.1
 74
0
 49
-0.1
 74
0
  0
LTYPE
  5
1F7
100
AcDbSymbolTableRecord
100
AcDbLinetypeTableRecord
  2
PHANTOM
 70
64
  3
_____ _ _ _____ _ _ _____ _ _ _____
 72
65
 73
6
 40
0.8
 49
0.45
 74
0
 49
-0.05
 74
0
 49
0.1
 74
0
 49
-0.05
 74
0
 49
0.1
 74
0
 49
-0.05
 74
0
  0
LTYPE
  5
1F8
100
AcDbSymbolTableRecord
100
AcDbLinetypeTableRecord
  2
DOT
 70
64
  3
. . . . . . . . . . . . . . . . . . . .
 72
65
 73
2
 40
0.2
 49
0.1
 74
0
 49
-0.1
 74
0
  0
LTYPE
  5
1F9
100
AcDbSymbolTableRecord
100
AcDbLinetypeTableRecord
  2
DASHED
 70
64
  3
- - - - - - - - - - - - - - - - - - - -
 72
65
 73
2
 40
0.2
 49
0.1
 74
0
 49
-0.1
 74
0
  0
ENDTAB
  0
TABLE
  2
LAYER
  5
2
100
AcDbSymbolTable
 70
36
  0
LAYER
  5
10
100
AcDbSymbolTableRecord
100
AcDbLayerTableRecord
  2
0
 70
0
 62
7
  6
CONTINUOUS
370
-3
390
F
  0
LAYER
  5
1FA
100
AcDbSymbolTableRecord
100
AcDbLayerTableRecord
  2
DEFAULT_1
 70
0
 62
7
  6
CENTER
370
-3
390
F
  0
LAYER
  5
1FB
100
AcDbSymbolTableRecord
100
AcDbLayerTableRecord
  2
DEFAULT_2
 70
0
 62
8
  6
HIDDEN
370
-3
390
F
  0
LAYER
  5
1FC
100
AcDbSymbolTableRecord
100
AcDbLayerTableRecord
  2
DEFAULT_3
 70
0
 62
7
  6
PHANTOM
370
-3
390
F
  0
LAYER
  5
1FD
100
AcDbSymbolTableRecord
100
AcDbLayerTableRecord
  2
01___PRT_ALL_DTM_PLN
 70
0
 62
7
  6
CONTINUOUS
370
-3
390
F
  0
LAYER
  5
1FE
100
AcDbSymbolTableRecord
100
AcDbLayerTableRecord
  2
01___PRT_DEF_DTM_PLN
 70
0
 62
7
  6
CONTINUOUS
370
-3
390
F
  0
LAYER
  5
1FF
100
AcDbSymbolTableRecord
100
AcDbLayerTableRecord
  2
02___PRT_ALL_AXES
 70
0
 62
7
  6
CONTINUOUS
370
-3
390
F
  0
LAYER
  5
200
100
AcDbSymbolTableRecord
100
AcDbLayerTableRecord
  2
03___PRT_ALL_CURVES
 70
0
 62
7
  6
CONTINUOUS
370
-3
390
F
  0
LAYER
  5
201
100
AcDbSymbolTableRecord
100
AcDbLayerTableRecord
  2
04___PRT_ALL_DTM_PNT
 70
0
 62
7
  6
CONTINUOUS
370
-3
390
F
  0
LAYER
  5
202
100
AcDbSymbolTableRecord
100
AcDbLayerTableRecord
  2
05___PRT_ALL_DTM_CSYS
 70
0
 62
7
  6
CONTINUOUS
370
-3
390
F
  0
LAYER
  5
203
100
AcDbSymbolTableRecord
100
AcDbLayerTableRecord
  2
05___PRT_DEF_DTM_CSYS
 70
0
 62
7
  6
CONTINUOUS
370
-3
390
F
  0
LAYER
  5
204
100
AcDbSymbolTableRecord
100
AcDbLayerTableRecord
  2
06___PRT_ALL_SURFS
 70
0
 62
7
  6
CONTINUOUS
370
-3
390
F
  0
LAYER
  5
205
100
AcDbSymbolTableRecord
100
AcDbLayerTableRecord
  2
ALL_ASSEMBLY_MEMBERS
 70
0
 62
7
  6
CONTINUOUS
370
-3
390
F
  0
LAYER
  5
206
100
AcDbSymbolTableRecord
100
AcDbLayerTableRecord
  2
ALL_FEATURES
 70
0
 62
7
  6
CONTINUOUS
370
-3
390
F
  0
LAYER
  5
207
100
AcDbSymbolTableRecord
100
AcDbLayerTableRecord
  2
AXES_FEATURES
 70
0
 62
7
  6
CONTINUOUS
370
-3
390
F
  0
LAYER
  5
208
100
AcDbSymbolTableRecord
100
AcDbLayerTableRecord
  2
CHAMFER_FEATURES
 70
0
 62
7
  6
CONTINUOUS
370
-3
390
F
  0
LAYER
  5
209
100
AcDbSymbolTableRecord
100
AcDbLayerTableRecord
  2
COSMETIC_SKETCHES
 70
0
 62
7
  6
CONTINUOUS
370
-3
390
F
  0
LAYER
  5
20A
100
AcDbSymbolTableRecord
100
AcDbLayerTableRecord
  2
CUT_FEATURES
 70
0
 62
7
  6
CONTINUOUS
370
-3
390
F
  0
LAYER
  5
20B
100
AcDbSymbolTableRecord
100
AcDbLayerTableRecord
  2
DATUM_CURVES
 70
0
 62
7
  6
CONTINUOUS
370
-3
390
F
  0
LAYER
  5
20C
100
AcDbSymbolTableRecord
100
AcDbLayerTableRecord
  2
DATUM_PLANES
 70
0
 62
7
  6
CONTINUOUS
370
-3
390
F
  0
LAYER
  5
20D
100
AcDbSymbolTableRecord
100
AcDbLayerTableRecord
  2
DATUM_POINTS
 70
0
 62
7
  6
CONTINUOUS
370
-3
390
F
  0
LAYER
  5
20E
100
AcDbSymbolTableRecord
100
AcDbLayerTableRecord
  2
DEFAULT_COORDINATE_SYSTEM
 70
0
 62
7
  6
CONTINUOUS
370
-3
390
F
  0
LAYER
  5
20F
100
AcDbSymbolTableRecord
100
AcDbLayerTableRecord
  2
DEFAULT_DATUM_AXES
 70
0
 62
7
  6
CONTINUOUS
370
-3
390
F
  0
LAYER
  5
210
100
AcDbSymbolTableRecord
100
AcDbLayerTableRecord
  2
DEFAULT_DATUM_CURVES
 70
0
 62
7
  6
CONTINUOUS
370
-3
390
F
  0
LAYER
  5
211
100
AcDbSymbolTableRecord
100
AcDbLayerTableRecord
  2
DEFAULT_DATUM_PLANES
 70
0
 62
7
  6
CONTINUOUS
370
-3
390
F
  0
LAYER
  5
212
100
AcDbSymbolTableRecord
100
AcDbLayerTableRecord
  2
DEFAULT_SURFACES
 70
0
 62
7
  6
CONTINUOUS
370
-3
390
F
  0
LAYER
  5
213
100
AcDbSymbolTableRecord
100
AcDbLayerTableRecord
  2
DIMENSIONS
 70
0
 62
7
  6
CONTINUOUS
370
-3
390
F
  0
LAYER
  5
214
100
AcDbSymbolTableRecord
100
AcDbLayerTableRecord
  2
HOLE_FEATURES
 70
0
 62
7
  6
CONTINUOUS
370
-3
390
F
  0
LAYER
  5
215
100
AcDbSymbolTableRecord
100
AcDbLayerTableRecord
  2
NOTES
 70
0
 62
7
  6
CONTINUOUS
370
-3
390
F
  0
LAYER
  5
216
100
AcDbSymbolTableRecord
100
AcDbLayerTableRecord
  2
PART_REFERENCE_DIMENSIONS
 70
0
 62
7
  6
CONTINUOUS
370
-3
390
F
  0
LAYER
  5
217
100
AcDbSymbolTableRecord
100
AcDbLayerTableRecord
  2
PLATED_SURFACE_AREA
 70
0
 62
7
  6
CONTINUOUS
370
-3
390
F
  0
LAYER
  5
218
100
AcDbSymbolTableRecord
100
AcDbLayerTableRecord
  2
POINTS
 70
0
 62
7
  6
CONTINUOUS
370
-3
390
F
  0
LAYER
  5
219
100
AcDbSymbolTableRecord
100
AcDbLayerTableRecord
  2
PROTRUSION
 70
0
 62
7
  6
CONTINUOUS
370
-3
390
F
  0
LAYER
  5
21A
100
AcDbSymbolTableRecord
100
AcDbLayerTableRecord
  2
PROTRUSION_FEATURES
 70
0
 62
7
  6
CONTINUOUS
370
-3
390
F
  0
LAYER
  5
21B
100
AcDbSymbolTableRecord
100
AcDbLayerTableRecord
  2
QUILT
 70
0
 62
7
  6
CONTINUOUS
370
-3
390
F
  0
LAYER
  5
21C
100
AcDbSymbolTableRecord
100
AcDbLayerTableRecord
  2
QUILTS
 70
0
 62
7
  6
CONTINUOUS
370
-3
390
F
  0
LAYER
  5
21D
100
AcDbSymbolTableRecord
100
AcDbLayerTableRecord
  2
REFERENCE_DIMENSIONS
 70
0
 62
7
  6
CONTINUOUS
370
-3
390
F
  0
LAYER
  5
21E
100
AcDbSymbolTableRecord
100
AcDbLayerTableRecord
  2
ROUND_FEATURES
 70
0
 62
7
  6
CONTINUOUS
370
-3
390
F
  0
LAYER
  5
21F
100
AcDbSymbolTableRecord
100
AcDbLayerTableRecord
  2
XSEC_DATUMS
 70
0
 62
7
  6
CONTINUOUS
370
-3
390
F
  0
ENDTAB
  0
TABLE
  2
STYLE
  5
3
100
AcDbSymbolTable
 70
1
  0
STYLE
  5
11
100
AcDbSymbolTableRecord
100
AcDbTextStyleTableRecord
  2
STANDARD
 70
0
 40
0.0
 41
0.8
 50
0.0
 71
0
 42
0.2
  3
txt
  4

  0
STYLE
  5
220
100
AcDbSymbolTableRecord
100
AcDbTextStyleTableRecord
  2
TEXTSTYLE_1
 70
0
 40
0.0
 41
0.8
 50
0.0
 71
0
 42
0.2
  3
gdt
  4

  0
ENDTAB
  0
TABLE
  2
VIEW
  5
6
100
AcDbSymbolTable
 70
0
  0
ENDTAB
  0
TABLE
  2
UCS
  5
7
100
AcDbSymbolTable
 70
0
  0
ENDTAB
  0
TABLE
  2
APPID
  5
9
100
AcDbSymbolTable
 70
1
  0
APPID
  5
221
100
AcDbSymbolTableRecord
100
AcDbRegAppTableRecord
  2
ACAD
 70
0
  0
ENDTAB
  0
TABLE
  2
BLOCK_RECORD
  5
1
100
AcDbSymbolTable
 70
0
  0
BLOCK_RECORD
  5
222
100
AcDbSymbolTableRecord
100
AcDbBlockTableRecord
  2
*Model_Space
  0
BLOCK_RECORD
  5
223
100
AcDbSymbolTableRecord
100
AcDbBlockTableRecord
  2
*Paper_Space
  0
BLOCK_RECORD
  5
224
100
AcDbSymbolTableRecord
100
AcDbBlockTableRecord
  2
_FILLED
  0
ENDTAB
  0
TABLE
  2
DIMSTYLE
  5
A
100
AcDbSymbolTable
 70
1
100
AcDbDimStyleTable
 71
0
  0
DIMSTYLE
105
225
100
AcDbSymbolTableRecord
100
AcDbDimStyleTableRecord
  2
STANDARD
 70
0
  3

  4

 40
1.0
 41
0.1
 42
0.0625
 43
0.38
 44
0.125
 45
0.0
 46
0.0
 47
0.001
 48
0.001
140
0.08
141
0.09
142
0.0
143
25.4
144
1.0
145
0.0
146
1.0
147
0.09
 71
1.0
 72
0.0
 73
1
 74
1
 75
0
 76
0
 77
0
 78
4
 79
1
170
1
171
2
172
0
173
0
174
0
175
0
176
0
177
0
178
0
270
2
179
3
271
3
272
3
273
2
274
2
275
0
280
0
281
0
282
0
283
1
284
4
285
0
286
0
287
3
288
0
340
11
278
46
341
224
342
224
343
224
344
224
  0
ENDTAB
  0
ENDSEC
  0
SECTION
  2
BLOCKS
  0
BLOCK
  5
20
100
AcDbEntity
  8
0
100
AcDbBlockBegin
  2
*Model_Space
 70
0
 10
0.0
 20
0.0
 30
0.0
  3
*Model_Space
  1

  0
ENDBLK
  5
21
100
AcDbEntity
  8
0
100
AcDbBlockEnd
  0
BLOCK
  5
1C
100
AcDbEntity
  8
0
100
AcDbBlockBegin
  2
*Paper_Space
 70
0
 10
0.0
 20
0.0
 30
0.0
  3
*Paper_Space
  1

  0
ENDBLK
  5
1D
100
AcDbEntity
  8
0
100
AcDbBlockEnd
  0
BLOCK
  5
226
100
AcDbEntity
  8
0
100
AcDbBlockBegin
  2
_FILLED
 70
64
 10
0.0
 20
0.0
  3
_FILLED
  1

  0
SOLID
  5
227
100
AcDbEntity
  8
0
  6
BYBLOCK
 62
0
100
AcDbTrace
 10
0.0
 20
0.0
 11
-1.0
 21
0.2
 12
-1.0
 22
-0.2
 13
-1.0
 23
-0.2
  0
ENDBLK
  5
228
100
AcDbEntity
  8
0
  6
BYBLOCK
 62
0
100
AcDbBlockEnd
  0
ENDSEC
  0
SECTION
  2
ENTITIES
  0
MTEXT
  5
229
100
AcDbEntity
  8
0
100
AcDbMText
 62
2
  6
CONTINUOUS
  7
STANDARD
 71
3
 72
1
 10
4.6583462733
 20
2.7165877329
 30
0.0
 11
1.0
 21
0.0
 31
0.0
 73
2
 44
0.9
  1
SCALE  .500
 40
0.08
 41
0.704
  0
LINE
  5
22A
100
AcDbEntity
  8
0
100
AcDbLine
 62
7
  6
CONTINUOUS
 10
0.0
 20
0.0
 11
0.0
 21
8.5
  0
LINE
  5
22B
100
AcDbEntity
  8
0
100
AcDbLine
 62
7
  6
CONTINUOUS
 10
0.0
 20
0.0
 11
11.0
 21
0.0
  0
LINE
  5
22C
100
AcDbEntity
  8
0
100
AcDbLine
 62
7
  6
CONTINUOUS
 10
0.0
 20
8.5
 11
11.0
 21
8.5
  0
LINE
  5
22D
100
AcDbEntity
  8
0
100
AcDbLine
 62
7
  6
CONTINUOUS
 10
11.0
 20
0.0
 11
11.0
 21
8.5
  0
LINE
  5
22E
100
AcDbEntity
  8
0
100
AcDbLine
 62
7
  6
CONTINUOUS
 10
2.7208462733
 20
5.5465877329
 11
2.7208462733
 21
2.8265877329
  0
LINE
  5
22F
100
AcDbEntity
  8
0
100
AcDbLine
 62
7
  6
CONTINUOUS
 10
2.7358462733
 20
2.8115877329
 11
2.7358462733
 21
5.5615877329
  0
LINE
  5
230
100
AcDbEntity
  8
0
100
AcDbLine
 62
7
  6
CONTINUOUS
 10
2.7358462733
 20
2.8115877329
 11
6.5808462733
 21
2.8115877329
  0
LINE
  5
231
100
AcDbEntity
  8
0
100
AcDbLine
 62
7
  6
CONTINUOUS
 10
2.7208462733
 20
2.8265877329
 11
6.5958462733
 21
2.8265877329
  0
LINE
  5
232
100
AcDbEntity
  8
0
100
AcDbLine
 62
7
  6
CONTINUOUS
 10
4.0438487054
 20
4.4001273319
 11
4.0414035517
 21
4.3926019227
  0
LINE
  5
233
100
AcDbEntity
  8
0
100
AcDbLine
 62
7
  6
CONTINUOUS
 10
4.0198398142
 20
4.3262355626
 11
4.0173946596
 21
4.3187101506
  0
LINE
  5
234
100
AcDbEntity
  8
0
100
AcDbLine
 62
7
  6
CONTINUOUS
 10
4.0742870911
 20
4.4880677668
 11
4.0589205555
 21
4.4407744332
  0
LINE
  5
235
100
AcDbEntity
  8
0
100
AcDbLine
 62
7
  6
CONTINUOUS
 10
4.0731142924
 20
4.4464907463
 11
4.0854454645
 21
4.4844421915
  0
LINE
  5
236
100
AcDbEntity
  8
0
100
AcDbLine
 62
7
  6
CONTINUOUS
 10
4.7331512579
 20
3.5068252264
 11
4.5835412887
 21
3.5068252264
  0
LINE
  5
237
100
AcDbEntity
  8
0
100
AcDbLine
 62
7
  6
CONTINUOUS
 10
4.5793604788
 20
3.508499085
 11
4.7373320678
 21
3.508499085
  0
LINE
  5
238
100
AcDbEntity
  8
0
100
AcDbLine
 62
7
  6
CONTINUOUS
 10
4.4712596973
 20
3.5423859218
 11
4.5762449864
 21
3.5081598541
  0
LINE
  5
239
100
AcDbEntity
  8
0
100
AcDbLine
 62
7
  6
CONTINUOUS
 10
4.4743752077
 20
3.5427251469
 11
4.5793604788
 21
3.508499085
  0
LINE
  5
23A
100
AcDbEntity
  8
0
100
AcDbLine
 62
7
  6
CONTINUOUS
 10
4.1273234971
 20
3.8055275987
 11
4.1312798404
 21
3.7986750112
  0
LINE
  5
23B
100
AcDbEntity
  8
0
100
AcDbLine
 62
7
  6
CONTINUOUS
 10
4.1362726653
 20
3.8478716687
 11
4.1310853867
 21
3.8594483855
  0
LINE
  5
23C
100
AcDbEntity
  8
0
100
AcDbLine
 62
7
  6
CONTINUOUS
 10
4.1270952093
 20
4.4196989985
 11
4.1241492784
 21
4.4071004922
  0
LINE
  5
23D
100
AcDbEntity
  8
0
100
AcDbLine
 62
7
  6
CONTINUOUS
 10
4.11154051
 20
4.2835300249
 11
4.1153347154
 21
4.2952073883
  0
LINE
  5
23E
100
AcDbEntity
  8
0
100
AcDbLine
 62
7
  6
CONTINUOUS
 10
4.1355494013
 20
4.3574217942
 11
4.1393436066
 21
4.3690991576
  0
LINE
  5
23F
100
AcDbEntity
  8
0
100
AcDbLine
 62
7
  6
CONTINUOUS
 10
4.1047776612
 20
4.4156898622
 11
4.1097672316
 21
4.4261898748
  0
LINE
  5
240
100
AcDbEntity
  8
0
100
AcDbLine
 62
7
  6
CONTINUOUS
 10
4.3022487313
 20
4.6695303828
 11
4.2922657875
 21
4.6620076951
  0
LINE
  5
241
100
AcDbEntity
  8
0
100
AcDbLine
 62
7
  6
CONTINUOUS
 10
4.3223565386
 20
4.6220759196
 11
4.3323394825
 21
4.6295986073
  0
LINE
  5
242
100
AcDbEntity
  8
0
100
AcDbLine
 62
7
  6
CONTINUOUS
 10
4.5793604111
 20
3.508499085
 11
4.5804257518
 21
3.5078051003
  0
LINE
  5
243
100
AcDbEntity
  8
0
100
AcDbLine
 62
7
  6
CONTINUOUS
 10
4.1560729532
 20
3.9329490049
 11
4.1805954633
 21
3.8904747713
  0
LINE
  5
244
100
AcDbEntity
  8
0
100
AcDbLine
 62
7
  6
CONTINUOUS
 10
4.2204196387
 20
3.845098914
 11
4.2142804855
 21
3.8557322393
  0
LINE
  5
245
100
AcDbEntity
  8
0
100
AcDbLine
 62
7
  6
CONTINUOUS
 10
4.1993418747
 20
3.8816066722
 11
4.1662927621
 21
3.9388494143
  0
LINE
  5
246
100
AcDbEntity
  8
0
100
AcDbLine
 62
7
  6
CONTINUOUS
 10
4.4614169904
 20
3.5483940604
 11
4.4614531548
 21
3.5483299801
  0
LINE
  5
247
100
AcDbEntity
  8
0
100
AcDbLine
 62
7
  6
CONTINUOUS
 10
4.0663763204
 20
4.0885538748
 11
4.0685469226
 21
4.0762437779
  0
LINE
  5
248
100
AcDbEntity
  8
0
100
AcDbLine
 62
7
  6
CONTINUOUS
 10
4.1177873102
 20
4.0849261867
 11
4.115616708
 21
4.0972362837
  0
LINE
  5
249
100
AcDbEntity
  8
0
100
AcDbLine
 62
7
  6
CONTINUOUS
 10
4.4942057364
 20
4.4590377893
 11
4.5496317639
 21
4.4945104469
  0
LINE
  5
24A
100
AcDbEntity
  8
0
100
AcDbLine
 62
7
  6
CONTINUOUS
 10
4.5550223009
 20
4.4946729816
 11
4.5032803802
 21
4.4615581523
  0
LINE
  5
24B
100
AcDbEntity
  8
0
100
AcDbLine
 62
7
  6
CONTINUOUS
 10
4.4995962732
 20
4.4510496414
 11
4.5032803802
 21
4.4534069595
  0
LINE
  5
24C
100
AcDbEntity
  8
0
100
AcDbLine
 62
7
  6
CONTINUOUS
 10
4.4995945049
 20
3.8245877329
 11
4.8170980417
 21
3.8245877329
  0
LINE
  5
24D
100
AcDbEntity
  8
0
100
AcDbLine
 62
7
  6
CONTINUOUS
 10
4.4603845764
 20
3.5562503289
 11
4.4603837186
 21
3.5562705164
  0
LINE
  5
24E
100
AcDbEntity
  8
0
100
AcDbLine
 62
7
  6
CONTINUOUS
 10
4.5032803802
 20
4.4534069595
 11
4.5032803802
 21
4.4615581523
  0
LINE
  5
24F
100
AcDbEntity
  8
0
100
AcDbLine
 62
7
  6
CONTINUOUS
 10
4.4995962732
 20
4.4510496414
 11
4.4995945049
 21
3.8245877329
  0
LINE
  5
250
100
AcDbEntity
  8
0
100
AcDbLine
 62
7
  6
CONTINUOUS
 10
4.4895962733
 20
4.4506150753
 11
4.4895944986
 21
3.8240326159
  0
LINE
  5
251
100
AcDbEntity
  8
0
100
AcDbLine
 62
7
  6
CONTINUOUS
 10
4.4895962733
 20
3.8245877329
 11
4.489573919
 21
3.8198525609
  0
LINE
  5
252
100
AcDbEntity
  8
0
100
AcDbLine
 62
7
  6
CONTINUOUS
 10
4.4895916521
 20
3.8240326395
 11
4.489569609
 21
3.8213848288
  0
LWPOLYLINE
  5
253
100
AcDbEntity
  8
0
100
AcDbPolyline
 62
7
  6
CONTINUOUS
 90
73
 70
0
 10
4.489569609
 20
3.8213848288
 10
4.4895357262
 20
3.8181862697
 10
4.4894946457
 20
3.8149920897
 10
4.4894463852
 20
3.8118021314
 10
4.4893909675
 20
3.8086166203
 10
4.4893284254
 20
3.8054361628
 10
4.4892587832
 20
3.8022607851
 10
4.4891820657
 20
3.7990905242
 10
4.4890983134
 20
3.7959260004
 10
4.4890075549
 20
3.7927672429
 10
4.4889098186
 20
3.7896142825
 10
4.4888051532
 20
3.7864677405
 10
4.488693591
 20
3.7833276439
 10
4.4885751643
 20
3.780194022
 10
4.4884499297
 20
3.7770674965
 10
4.4883179234
 20
3.7739480925
 10
4.4881791814
 20
3.7708358372
 10
4.4880337685
 20
3.7677313528
 10
4.4878817245
 20
3.7646346625
 10
4.4877230892
 20
3.7615457911
 10
4.4875579354
 20
3.7584653614
 10
4.4873863067
 20
3.7553933941
 10
4.4872082466
 20
3.7523299118
 10
4.4870238358
 20
3.7492755378
 10
4.4868331215
 20
3.7462302902
 10
4.4866361511
 20
3.7431941892
 10
4.4864330131
 20
3.7401678585
 10
4.4862237584
 20
3.7371513133
 10
4.4860084379
 20
3.7341445717
 10
4.4857871481
 20
3.7311482572
 10
4.4855599435
 20
3.7281623827
 10
4.4853268786
 20
3.7251869633
 10
4.4850880576
 20
3.722222623
 10
4.4848435385
 20
3.7192693716
 10
4.4845933794
 20
3.7163272215
 10
4.4843376923
 20
3.7133967969
 10
4.4840765387
 20
3.7104781048
 10
4.48380998
 20
3.7075711546
 10
4.483538136
 20
3.7046765711
 10
4.4832610715
 20
3.7017943577
 10
4.4829788512
 20
3.6989245212
 10
4.4826916029
 20
3.6960676868
 10
4.4823993928
 20
3.6932238407
 10
4.4821022907
 20
3.6903930006
 10
4.4818004361
 20
3.687575835
 10
4.4814939045
 20
3.6847723758
 10
4.4811827636
 20
3.6819825882
 10
4.4808671494
 20
3.6792070366
 10
4.4805471394
 20
3.6764457458
 10
4.4802228044
 20
3.673698682
 10
4.4798942759
 20
3.6709663187
 10
4.4795616295
 20
3.668248643
 10
4.4792249416
 20
3.6655456529
 10
4.4788843511
 20
3.6628578355
 10
4.4785399353
 20
3.6601851744
 10
4.4781917727
 20
3.6575276652
 10
4.4778400095
 20
3.6548858095
 10
4.477484725
 20
3.6522595872
 10
4.4771259996
 20
3.6496489913
 10
4.4767639874
 20
3.64705454
 10
4.4763987694
 20
3.6444762086
 10
4.476030428
 20
3.6419139884
 10
4.475659126
 20
3.6393684167
 10
4.4752849456
 20
3.6368394636
 10
4.4749079717
 20
3.6343271192
 10
4.4745283767
 20
3.6318319466
 10
4.4741462438
 20
3.6293539077
 10
4.4737616606
 20
3.6268929942
 10
4.4733748118
 20
3.6244498102
 10
4.4729857905
 20
3.6220243625
 10
4.4725946784
 20
3.6196165909
 10
4.4722016492
 20
3.6172269938
 10
4.4718068092
 20
3.6148556472
  0
LWPOLYLINE
  5
254
100
AcDbEntity
  8
0
100
AcDbPolyline
 62
7
  6
CONTINUOUS
 90
4
 70
0
 10
4.4602083346
 20
3.5549546244
 10
4.4600978352
 20
3.5533326557
 10
4.460387229
 20
3.5510160173
 10
4.4614169904
 20
3.5483940604
  0
LINE
  5
255
100
AcDbEntity
  8
0
100
AcDbLine
 62
7
  6
CONTINUOUS
 10
4.5550223009
 20
4.4960877329
 11
4.5550223009
 21
4.4946729816
  0
LINE
  5
256
100
AcDbEntity
  8
0
100
AcDbLine
 62
7
  6
CONTINUOUS
 10
4.5570149824
 20
4.8118946909
 11
4.5570149824
 21
4.8000256597
  0
LINE
  5
257
100
AcDbEntity
  8
0
100
AcDbLine
 62
7
  6
CONTINUOUS
 10
4.5815715983
 20
4.8148278414
 11
4.5815715983
 21
4.7365877329
  0
LINE
  5
258
100
AcDbEntity
  8
ALL_FEATURES
100
AcDbLine
 62
7
  6
CONTINUOUS
 10
4.5933462733
 20
4.667189407
 11
4.5933462733
 21
4.782371001
  0
LINE
  5
259
100
AcDbEntity
  8
0
100
AcDbLine
 62
7
  6
CONTINUOUS
 10
4.5938499048
 20
4.7878239414
 11
4.5938499048
 21
4.8369970142
  0
LINE
  5
25A
100
AcDbEntity
  8
0
100
AcDbLine
 62
7
  6
CONTINUOUS
 10
4.6583462733
 20
3.8245877329
 11
4.6583462733
 21
3.5427235317
  0
LINE
  5
25B
100
AcDbEntity
  8
0
100
AcDbLine
 62
7
  6
CONTINUOUS
 10
4.4718068092
 20
3.6148556472
 11
4.4710120326
 21
3.6101674748
  0
LINE
  5
25C
100
AcDbEntity
  8
0
100
AcDbLine
 62
7
  6
CONTINUOUS
 10
4.4710120326
 20
3.6101674748
 11
4.470211135
 21
3.6055523133
  0
LINE
  5
25D
100
AcDbEntity
  8
0
100
AcDbLine
 62
7
  6
CONTINUOUS
 10
4.470211135
 20
3.6055523133
 11
4.4694049369
 21
3.6010106019
  0
LINE
  5
25E
100
AcDbEntity
  8
0
100
AcDbLine
 62
7
  6
CONTINUOUS
 10
4.4694049369
 20
3.6010106019
 11
4.468594254
 21
3.5965427474
  0
LINE
  5
25F
100
AcDbEntity
  8
0
100
AcDbLine
 62
7
  6
CONTINUOUS
 10
4.4603339507
 20
3.5556284435
 11
4.4602083346
 21
3.5549546244
  0
LINE
  5
260
100
AcDbEntity
  8
0
100
AcDbLine
 62
7
  6
CONTINUOUS
 10
4.468594254
 20
3.5965427474
 11
4.4677799935
 21
3.5921496451
  0
LINE
  5
261
100
AcDbEntity
  8
0
100
AcDbLine
 62
7
  6
CONTINUOUS
 10
4.4677799935
 20
3.5921496451
 11
4.466962712
 21
3.5878303199
  0
LINE
  5
262
100
AcDbEntity
  8
0
100
AcDbLine
 62
7
  6
CONTINUOUS
 10
4.466962712
 20
3.5878303199
 11
4.466145096
 21
3.5835948427
  0
LINE
  5
263
100
AcDbEntity
  8
0
100
AcDbLine
 62
7
  6
CONTINUOUS
 10
4.466145096
 20
3.5835948427
 11
4.4653320134
 21
3.5794635485
  0
LINE
  5
264
100
AcDbEntity
  8
0
100
AcDbLine
 62
7
  6
CONTINUOUS
 10
4.4653320134
 20
3.5794635485
 11
4.4645427701
 21
3.5755267337
  0
LINE
  5
265
100
AcDbEntity
  8
0
100
AcDbLine
 62
7
  6
CONTINUOUS
 10
4.4645427701
 20
3.5755267337
 11
4.4637898964
 21
3.5718357476
  0
LINE
  5
266
100
AcDbEntity
  8
0
100
AcDbLine
 62
7
  6
CONTINUOUS
 10
4.4637898964
 20
3.5718357476
 11
4.4630942122
 21
3.5684788863
  0
LINE
  5
267
100
AcDbEntity
  8
0
100
AcDbLine
 62
7
  6
CONTINUOUS
 10
4.4630942122
 20
3.5684788863
 11
4.4624606463
 21
3.5654652297
  0
LINE
  5
268
100
AcDbEntity
  8
0
100
AcDbLine
 62
7
  6
CONTINUOUS
 10
4.4624606463
 20
3.5654652297
 11
4.4616422676
 21
3.5616322174
  0
LINE
  5
269
100
AcDbEntity
  8
0
100
AcDbLine
 62
7
  6
CONTINUOUS
 10
4.4604386679
 20
3.5557055613
 11
4.4603917431
 21
3.5554895971
  0
LINE
  5
26A
100
AcDbEntity
  8
0
100
AcDbLine
 62
7
  6
CONTINUOUS
 10
4.4616422676
 20
3.5616322174
 11
4.460862669
 21
3.5580430262
  0
LINE
  5
26B
100
AcDbEntity
  8
0
100
AcDbLine
 62
7
  6
CONTINUOUS
 10
4.460862669
 20
3.5580430262
 11
4.4603455368
 21
3.555697532
  0
LINE
  5
26C
100
AcDbEntity
  8
0
100
AcDbLine
 62
7
  6
CONTINUOUS
 10
4.4604402434
 20
3.5557043558
 11
4.4603917431
 21
3.5554895971
  0
LINE
  5
26D
100
AcDbEntity
  8
0
100
AcDbLine
 62
7
  6
CONTINUOUS
 10
4.4603455439
 20
3.5556975637
 11
4.4603477883
 21
3.5557074573
  0
LINE
  5
26E
100
AcDbEntity
  8
0
100
AcDbLine
 62
7
  6
CONTINUOUS
 10
5.0392310613
 20
4.6502318214
 11
5.0070916809
 21
4.6119295992
  0
LINE
  5
26F
100
AcDbEntity
  8
0
100
AcDbLine
 62
7
  6
CONTINUOUS
 10
5.0166672364
 20
4.6038947541
 11
5.0488066169
 21
4.6421969762
  0
LINE
  5
270
100
AcDbEntity
  8
0
100
AcDbLine
 62
7
  6
CONTINUOUS
 10
4.1662927621
 20
3.9388494143
 11
4.1560729532
 21
3.9329490049
  0
LINE
  5
271
100
AcDbEntity
  8
0
100
AcDbLine
 62
7
  6
CONTINUOUS
 10
5.2909901848
 20
4.2863332673
 11
5.302323014
 21
4.2893698897
  0
LINE
  5
272
100
AcDbEntity
  8
0
100
AcDbLine
 62
7
  6
CONTINUOUS
 10
4.0685469226
 20
4.0762437779
 11
4.1177873102
 21
4.0849261867
  0
LINE
  5
273
100
AcDbEntity
  8
0
100
AcDbLine
 62
7
  6
CONTINUOUS
 10
4.115616708
 20
4.0972362837
 11
4.0663763204
 21
4.0885538748
  0
LINE
  5
274
100
AcDbEntity
  8
0
100
AcDbLine
 62
7
  6
CONTINUOUS
 10
5.2057086339
 20
4.1324258575
 11
5.2555183688
 21
4.1280680704
  0
LINE
  5
275
100
AcDbEntity
  8
0
100
AcDbLine
 62
7
  6
CONTINUOUS
 10
5.2566078155
 20
4.1405205041
 11
5.2067980806
 21
4.1448782913
  0
LINE
  5
276
100
AcDbEntity
  8
0
100
AcDbLine
 62
7
  6
CONTINUOUS
 10
4.0323309253
 20
4.2834464251
 11
4.0436190447
 21
4.2797786927
  0
LINE
  5
277
100
AcDbEntity
  8
0
100
AcDbLine
 62
7
  6
CONTINUOUS
 10
4.037129745
 20
4.3077075481
 11
4.11154051
 21
4.2835300249
  0
LINE
  5
278
100
AcDbEntity
  8
0
100
AcDbLine
 62
7
  6
CONTINUOUS
 10
4.1153347154
 20
4.2952073883
 11
4.0198398142
 21
4.3262355626
  0
LINE
  5
279
100
AcDbEntity
  8
0
100
AcDbLine
 62
7
  6
CONTINUOUS
 10
4.0563398174
 20
4.3573381972
 11
4.0676279369
 21
4.3536704649
  0
LINE
  5
27A
100
AcDbEntity
  8
0
100
AcDbLine
 62
7
  6
CONTINUOUS
 10
4.0611386362
 20
4.3815993174
 11
4.1355494013
 21
4.3574217942
  0
LINE
  5
27B
100
AcDbEntity
  8
0
100
AcDbLine
 62
7
  6
CONTINUOUS
 10
4.1393436066
 20
4.3690991576
 11
4.0438487054
 21
4.4001273319
  0
LINE
  5
27C
100
AcDbEntity
  8
0
100
AcDbLine
 62
7
  6
CONTINUOUS
 10
4.0589205555
 20
4.4407744332
 11
4.1047776612
 21
4.4156898622
  0
LINE
  5
27D
100
AcDbEntity
  8
0
100
AcDbLine
 62
7
  6
CONTINUOUS
 10
4.0970095147
 20
4.4330605897
 11
4.0731142924
 21
4.4464907463
  0
LINE
  5
27E
100
AcDbEntity
  8
0
100
AcDbLine
 62
7
  6
CONTINUOUS
 10
5.1414114533
 20
3.7660695736
 11
5.1510222432
 21
3.7593400261
  0
LINE
  5
27F
100
AcDbEntity
  8
0
100
AcDbLine
 62
7
  6
CONTINUOUS
 10
5.1855497951
 20
3.8251811195
 11
5.1933725305
 21
3.8197035812
  0
LINE
  5
280
100
AcDbEntity
  8
0
100
AcDbLine
 62
7
  6
CONTINUOUS
 10
4.2922657875
 20
4.6620076951
 11
4.3223565386
 21
4.6220759196
  0
LINE
  5
281
100
AcDbEntity
  8
0
100
AcDbLine
 62
7
  6
CONTINUOUS
 10
4.3323394825
 20
4.6295986073
 11
4.3022487313
 21
4.6695303828
  0
LINE
  5
282
100
AcDbEntity
  8
06___PRT_ALL_SURFS
100
AcDbLine
 62
7
  6
CONTINUOUS
 10
4.8271274803
 20
3.8209129355
 11
4.8270962733
 21
3.8245877329
  0
LINE
  5
283
100
AcDbEntity
  8
0
100
AcDbLine
 62
7
  6
CONTINUOUS
 10
4.827096273
 20
3.824587822
 11
4.8271186276
 21
3.8198525609
  0
LINE
  5
284
100
AcDbEntity
  8
ALL_FEATURES
100
AcDbLine
 62
7
  6
CONTINUOUS
 10
4.7233462733
 20
4.667189407
 11
4.7233462733
 21
4.782371001
  0
LINE
  5
285
100
AcDbEntity
  8
0
100
AcDbLine
 62
7
  6
CONTINUOUS
 10
4.7616702457
 20
4.4960877329
 11
4.7616702457
 21
4.4946729816
  0
LINE
  5
286
100
AcDbEntity
  8
0
100
AcDbLine
 62
7
  6
CONTINUOUS
 10
4.8134121664
 20
4.4534069595
 11
4.8134121664
 21
4.4615581523
  0
LINE
  5
287
100
AcDbEntity
  8
0
100
AcDbLine
 62
7
  6
CONTINUOUS
 10
4.8170962734
 20
4.4510496414
 11
4.8170980417
 21
3.8245877329
  0
LINE
  5
288
100
AcDbEntity
  8
0
100
AcDbLine
 62
7
  6
CONTINUOUS
 10
4.8270962733
 20
4.4506150753
 11
4.8270962733
 21
3.8245877329
  0
LINE
  5
289
100
AcDbEntity
  8
0
100
AcDbLine
 62
7
  6
CONTINUOUS
 10
4.2142804855
 20
3.8557322393
 11
4.1273234971
 21
3.8055275987
  0
LINE
  5
28A
100
AcDbEntity
  8
0
100
AcDbLine
 62
7
  6
CONTINUOUS
 10
4.1526617172
 20
3.8059788598
 11
4.2204196387
 21
3.845098914
  0
LINE
  5
28B
100
AcDbEntity
  8
0
100
AcDbLine
 62
7
  6
CONTINUOUS
 10
4.167480208
 20
3.7861787818
 11
4.1777590905
 21
3.7921132974
  0
LINE
  5
28C
100
AcDbEntity
  8
0
100
AcDbLine
 62
7
  6
CONTINUOUS
 10
5.2894526826
 20
4.3374026203
 11
5.2373316397
 21
4.3334647476
  0
LINE
  5
28D
100
AcDbEntity
  8
0
100
AcDbLine
 62
7
  6
CONTINUOUS
 10
5.2533073317
 20
4.3231272656
 11
5.2806621405
 21
4.3248780535
  0
LINE
  5
28E
100
AcDbEntity
  8
0
100
AcDbLine
 62
7
  6
CONTINUOUS
 10
4.0854454645
 20
4.4844421915
 11
4.0742870911
 21
4.4880677668
  0
LINE
  5
28F
100
AcDbEntity
  8
0
100
AcDbLine
 62
7
  6
CONTINUOUS
 10
5.2305024117
 20
3.872730547
 11
5.2208357461
 21
3.8794992191
  0
LINE
  5
290
100
AcDbEntity
  8
0
100
AcDbLine
 62
7
  6
CONTINUOUS
 10
5.17954456
 20
3.800074116
 11
5.1430252139
 21
3.8374699356
  0
LINE
  5
291
100
AcDbEntity
  8
0
100
AcDbLine
 62
7
  6
CONTINUOUS
 10
5.1453752202
 20
3.8185870401
 11
5.1642997337
 21
3.7987574256
  0
LINE
  5
292
100
AcDbEntity
  8
0
100
AcDbLine
 62
7
  6
CONTINUOUS
 10
4.8563469973
 20
3.5556975935
 11
4.8563385002
 21
3.555733345
  0
LINE
  5
293
100
AcDbEntity
  8
0
100
AcDbLine
 62
7
  6
CONTINUOUS
 10
4.8563469947
 20
3.5556975997
 11
4.8563385002
 21
3.555733345
  0
LINE
  5
294
100
AcDbEntity
  8
0
100
AcDbLine
 62
7
  6
CONTINUOUS
 10
4.8562480914
 20
3.555723015
 11
4.8563008035
 21
3.5554895971
  0
LINE
  5
295
100
AcDbEntity
  8
06___PRT_ALL_SURFS
100
AcDbLine
 62
7
  6
CONTINUOUS
 10
4.8563470016
 20
3.5556975686
 11
4.8556869779
 21
3.5586963039
  0
LINE
  5
296
100
AcDbEntity
  8
0
100
AcDbLine
 62
7
  6
CONTINUOUS
 10
4.856249802
 20
3.5557243237
 11
4.8563008035
 21
3.5554895971
  0
LINE
  5
297
100
AcDbEntity
  8
06___PRT_ALL_SURFS
100
AcDbLine
 62
7
  6
CONTINUOUS
 10
4.8556869779
 20
3.5586963039
 11
4.8551221635
 21
3.5612987172
  0
LINE
  5
298
100
AcDbEntity
  8
06___PRT_ALL_SURFS
100
AcDbLine
 62
7
  6
CONTINUOUS
 10
4.8551221635
 20
3.5612987172
 11
4.8543516228
 21
3.5649003149
  0
LINE
  5
299
100
AcDbEntity
  8
06___PRT_ALL_SURFS
100
AcDbLine
 62
7
  6
CONTINUOUS
 10
4.8543516228
 20
3.5649003149
 11
4.8537428645
 21
3.5677878016
  0
LINE
  5
29A
100
AcDbEntity
  8
06___PRT_ALL_SURFS
100
AcDbLine
 62
7
  6
CONTINUOUS
 10
4.8537428645
 20
3.5677878016
 11
4.8530828506
 21
3.570961355
  0
LINE
  5
29B
100
AcDbEntity
  8
06___PRT_ALL_SURFS
100
AcDbLine
 62
7
  6
CONTINUOUS
 10
4.8530828506
 20
3.570961355
 11
4.8523849404
 21
3.5743672061
  0
LINE
  5
29C
100
AcDbEntity
  8
06___PRT_ALL_SURFS
100
AcDbLine
 62
7
  6
CONTINUOUS
 10
4.8523849404
 20
3.5743672061
 11
4.8516685674
 21
3.5779186344
  0
LINE
  5
29D
100
AcDbEntity
  8
06___PRT_ALL_SURFS
100
AcDbLine
 62
7
  6
CONTINUOUS
 10
4.8516685674
 20
3.5779186344
 11
4.8509376
 21
3.5816026846
  0
LINE
  5
29E
100
AcDbEntity
  8
06___PRT_ALL_SURFS
100
AcDbLine
 62
7
  6
CONTINUOUS
 10
4.8509376
 20
3.5816026846
 11
4.8501956426
 21
3.5854070923
  0
LINE
  5
29F
100
AcDbEntity
  8
06___PRT_ALL_SURFS
100
AcDbLine
 62
7
  6
CONTINUOUS
 10
4.8501956426
 20
3.5854070923
 11
4.8494461618
 21
3.5893196037
  0
LINE
  5
2A0
100
AcDbEntity
  8
06___PRT_ALL_SURFS
100
AcDbLine
 62
7
  6
CONTINUOUS
 10
4.8494461618
 20
3.5893196037
 11
4.8486931671
 21
3.5933242569
  0
LINE
  5
2A1
100
AcDbEntity
  8
06___PRT_ALL_SURFS
100
AcDbLine
 62
7
  6
CONTINUOUS
 10
4.8486931671
 20
3.5933242569
 11
4.8479396356
 21
3.5974095886
  0
LINE
  5
2A2
100
AcDbEntity
  8
06___PRT_ALL_SURFS
100
AcDbLine
 62
7
  6
CONTINUOUS
 10
4.8479396356
 20
3.5974095886
 11
4.8471897549
 21
3.6015565093
  0
LINE
  5
2A3
100
AcDbEntity
  8
06___PRT_ALL_SURFS
100
AcDbLine
 62
7
  6
CONTINUOUS
 10
4.8471897549
 20
3.6015565093
 11
4.8464480038
 21
3.6057427235
  0
LINE
  5
2A4
100
AcDbEntity
  8
06___PRT_ALL_SURFS
100
AcDbLine
 62
7
  6
CONTINUOUS
 10
4.8464480038
 20
3.6057427235
 11
4.8457157951
 21
3.6099619117
  0
LINE
  5
2A5
100
AcDbEntity
  8
06___PRT_ALL_SURFS
100
AcDbLine
 62
7
  6
CONTINUOUS
 10
4.8457157951
 20
3.6099619117
 11
4.8449931649
 21
3.6142154042
  0
LINE
  5
2A6
100
AcDbEntity
  8
06___PRT_ALL_SURFS
100
AcDbLine
 62
7
  6
CONTINUOUS
 10
4.8449931649
 20
3.6142154042
 11
4.8442785076
 21
3.6185146417
  0
LINE
  5
2A7
100
AcDbEntity
  8
06___PRT_ALL_SURFS
100
AcDbLine
 62
7
  6
CONTINUOUS
 10
4.8442785076
 20
3.6185146417
 11
4.8435713134
 21
3.622865302
  0
LINE
  5
2A8
100
AcDbEntity
  8
06___PRT_ALL_SURFS
100
AcDbLine
 62
7
  6
CONTINUOUS
 10
4.8435713134
 20
3.622865302
 11
4.842870901
 21
3.6272747012
  0
LINE
  5
2A9
100
AcDbEntity
  8
06___PRT_ALL_SURFS
100
AcDbLine
 62
7
  6
CONTINUOUS
 10
4.842870901
 20
3.6272747012
 11
4.8421766467
 21
3.6317505085
  0
LINE
  5
2AA
100
AcDbEntity
  8
06___PRT_ALL_SURFS
100
AcDbLine
 62
7
  6
CONTINUOUS
 10
4.8421766467
 20
3.6317505085
 11
4.8414884125
 21
3.6362979421
  0
LINE
  5
2AB
100
AcDbEntity
  8
06___PRT_ALL_SURFS
100
AcDbLine
 62
7
  6
CONTINUOUS
 10
4.8414884125
 20
3.6362979421
 11
4.840805769
 21
3.6409247967
  0
LINE
  5
2AC
100
AcDbEntity
  8
06___PRT_ALL_SURFS
100
AcDbLine
 62
7
  6
CONTINUOUS
 10
4.840805769
 20
3.6409247967
 11
4.8401283496
 21
3.6456393172
  0
LWPOLYLINE
  5
2AD
100
AcDbEntity
  8
06___PRT_ALL_SURFS
100
AcDbPolyline
 62
7
  6
CONTINUOUS
 90
58
 70
0
 10
4.8401283496
 20
3.6456393172
 10
4.8394564945
 20
3.6504456088
 10
4.8391226783
 20
3.6528852027
 10
4.8387904926
 20
3.6553487194
 10
4.8384601439
 20
3.657835566
 10
4.8381317465
 20
3.660345826
 10
4.8378054289
 20
3.6628794854
 10
4.8374814116
 20
3.6654358014
 10
4.8371598145
 20
3.6680147997
 10
4.8368407574
 20
3.6706165166
 10
4.8365244526
 20
3.6732402196
 10
4.8362110184
 20
3.6758859303
 10
4.8359005727
 20
3.6785536815
 10
4.8355933196
 20
3.6812427526
 10
4.835289385
 20
3.6839530758
 10
4.834988875
 20
3.6866847651
 10
4.8346919575
 20
3.6894373692
 10
4.8343987669
 20
3.6922107282
 10
4.8341093996
 20
3.6950050414
 10
4.833823966
 20
3.6978203931
 10
4.8335425863
 20
3.7006567787
 10
4.8332653773
 20
3.7035142381
 10
4.8329924459
 20
3.7063929222
 10
4.8327239137
 20
3.7092928458
 10
4.8324599027
 20
3.7122140251
 10
4.8322005238
 20
3.715156612
 10
4.8319459018
 20
3.718120619
 10
4.8316961622
 20
3.7211060598
 10
4.8314514198
 20
3.7241130874
 10
4.8312118028
 20
3.7271417118
 10
4.83097744
 20
3.7301919441
 10
4.8307484505
 20
3.7332639384
 10
4.8305249659
 20
3.7363577017
 10
4.8303071184
 20
3.7394732424
 10
4.8300950314
 20
3.7426107157
 10
4.8298888398
 20
3.7457701279
 10
4.8296886797
 20
3.7489514821
 10
4.8294946791
 20
3.7521549281
 10
4.8293069762
 20
3.7553804774
 10
4.829125711
 20
3.7586281216
 10
4.8289510177
 20
3.7618979794
 10
4.8287830385
 20
3.765190047
 10
4.8286219164
 20
3.7685043243
 10
4.8284677893
 20
3.7718409343
 10
4.828320803
 20
3.7751998712
 10
4.8281811041
 20
3.7785811296
 10
4.828048835
 20
3.7819848317
 10
4.8279241449
 20
3.7854109682
 10
4.8278071842
 20
3.7888595292
 10
4.8276980997
 20
3.7923306343
 10
4.8275970446
 20
3.7958242701
 10
4.8275041726
 20
3.7993404225
 10
4.8274196355
 20
3.8028792084
 10
4.8273435901
 20
3.8064406053
 10
4.8272761938
 20
3.8100245994
 10
4.827217603
 20
3.8136313183
 10
4.8271679777
 20
3.8172607884
 10
4.8271274803
 20
3.8209129355
  0
LINE
  5
2AE
100
AcDbEntity
  8
0
100
AcDbLine
 62
7
  6
CONTINUOUS
 10
4.8563079815
 20
3.5562502786
 11
4.856308828
 21
3.5562705164
  0
LINE
  5
2AF
100
AcDbEntity
  8
0
100
AcDbLine
 62
7
  6
CONTINUOUS
 10
4.8134121664
 20
4.4534069595
 11
4.5032803802
 21
4.4534069595
  0
LINE
  5
2B0
100
AcDbEntity
  8
0
100
AcDbLine
 62
7
  6
CONTINUOUS
 10
4.5032803802
 20
4.4615581523
 11
4.8134121664
 21
4.4615581523
  0
LINE
  5
2B1
100
AcDbEntity
  8
0
100
AcDbLine
 62
7
  6
CONTINUOUS
 10
4.7616702457
 20
4.4946729816
 11
4.5550223009
 21
4.4946729816
  0
LINE
  5
2B2
100
AcDbEntity
  8
0
100
AcDbLine
 62
7
  6
CONTINUOUS
 10
4.5550223009
 20
4.4960877329
 11
4.7616702457
 21
4.4960877329
  0
LINE
  5
2B3
100
AcDbEntity
  8
0
100
AcDbLine
 62
7
  6
CONTINUOUS
 10
4.8170962734
 20
4.4510496414
 11
4.8134121664
 21
4.4534069595
  0
LINE
  5
2B4
100
AcDbEntity
  8
0
100
AcDbLine
 62
7
  6
CONTINUOUS
 10
4.7616702457
 20
4.4946729816
 11
4.8134121664
 21
4.4615581523
  0
LINE
  5
2B5
100
AcDbEntity
  8
0
100
AcDbLine
 62
7
  6
CONTINUOUS
 10
4.7670607827
 20
4.4945104469
 11
4.8224868102
 21
4.4590377893
  0
LWPOLYLINE
  5
2B6
100
AcDbEntity
  8
0
100
AcDbPolyline
 62
7
  6
CONTINUOUS
 90
5
 70
0
 10
4.8552780423
 20
3.5483985064
 10
4.8562735073
 20
3.5508885363
 10
4.856590492
 20
3.5531290819
 10
4.8565137972
 20
3.5547385942
 10
4.8563689007
 20
3.5555948887
  0
LINE
  5
2B7
100
AcDbEntity
  8
0
100
AcDbLine
 62
7
  6
CONTINUOUS
 10
4.8552780423
 20
3.5483985064
 11
4.8552393918
 21
3.5483299801
  0
LINE
  5
2B8
100
AcDbEntity
  8
0
100
AcDbLine
 62
7
  6
CONTINUOUS
 10
5.2067980806
 20
4.1448782913
 11
5.2057086339
 21
4.1324258575
  0
LINE
  5
2B9
100
AcDbEntity
  8
0
100
AcDbLine
 62
7
  6
CONTINUOUS
 10
5.2555183688
 20
4.1280680704
 11
5.2566078155
 21
4.1405205041
  0
LINE
  5
2BA
100
AcDbEntity
  8
0
100
AcDbLine
 62
7
  6
CONTINUOUS
 10
5.1205106785
 20
3.840160999
 11
5.1270113297
 21
3.8513476989
  0
LINE
  5
2BB
100
AcDbEntity
  8
0
100
AcDbLine
 62
7
  6
CONTINUOUS
 10
5.1416281838
 20
3.9178900925
 11
5.1343900096
 21
3.9075529084
  0
LINE
  5
2BC
100
AcDbEntity
  8
0
100
AcDbLine
 62
7
  6
CONTINUOUS
 10
5.2208357461
 20
3.8794992191
 11
5.1927438048
 21
3.8393797691
  0
LINE
  5
2BD
100
AcDbEntity
  8
0
100
AcDbLine
 62
7
  6
CONTINUOUS
 10
5.1642997337
 20
3.7987574256
 11
5.1414114533
 21
3.7660695736
  0
LINE
  5
2BE
100
AcDbEntity
  8
0
100
AcDbLine
 62
7
  6
CONTINUOUS
 10
5.1510222432
 20
3.7593400261
 11
5.17954456
 21
3.800074116
  0
LINE
  5
2BF
100
AcDbEntity
  8
0
100
AcDbLine
 62
7
  6
CONTINUOUS
 10
5.1933725305
 20
3.8197035812
 11
5.2305024117
 21
3.872730547
  0
LINE
  5
2C0
100
AcDbEntity
  8
0
100
AcDbLine
 62
7
  6
CONTINUOUS
 10
5.1430252139
 20
3.8374699356
 11
5.1351837575
 21
3.8288875328
  0
LINE
  5
2C1
100
AcDbEntity
  8
0
100
AcDbLine
 62
7
  6
CONTINUOUS
 10
4.7373321355
 20
3.508499085
 11
4.7362667948
 21
3.5078051003
  0
LINE
  5
2C2
100
AcDbEntity
  8
0
100
AcDbLine
 62
7
  6
CONTINUOUS
 10
4.5815715983
 20
4.7365877329
 11
4.5938499048
 21
4.7365877329
  0
LINE
  5
2C3
100
AcDbEntity
  8
ALL_FEATURES
100
AcDbLine
 62
7
  6
CONTINUOUS
 10
4.5933462733
 20
4.782371001
 11
4.7233462733
 21
4.782371001
  0
LINE
  5
2C4
100
AcDbEntity
  8
ALL_FEATURES
100
AcDbLine
 62
7
  6
CONTINUOUS
 10
4.6138008187
 20
4.8108118923
 11
4.7028917278
 21
4.8108118923
  0
LINE
  5
2C5
100
AcDbEntity
  8
0
100
AcDbLine
 62
7
  6
CONTINUOUS
 10
4.5938499048
 20
4.8369970142
 11
4.5859372183
 21
4.8369970142
  0
LINE
  5
2C6
100
AcDbEntity
  8
0
100
AcDbLine
 62
7
  6
CONTINUOUS
 10
5.0070916809
 20
4.6119295992
 11
5.0166672364
 21
4.6038947541
  0
LINE
  5
2C7
100
AcDbEntity
  8
0
100
AcDbLine
 62
7
  6
CONTINUOUS
 10
5.0488066169
 20
4.6421969762
 11
5.0392310613
 21
4.6502318214
  0
LINE
  5
2C8
100
AcDbEntity
  8
0
100
AcDbLine
 62
7
  6
CONTINUOUS
 10
5.2207981011
 20
4.3179473951
 11
5.2164071298
 21
4.3301178549
  0
LINE
  5
2C9
100
AcDbEntity
  8
0
100
AcDbLine
 62
7
  6
CONTINUOUS
 10
5.2806621405
 20
4.3248780535
 11
5.2909901848
 21
4.2863332673
  0
LINE
  5
2CA
100
AcDbEntity
  8
0
100
AcDbLine
 62
7
  6
CONTINUOUS
 10
5.302323014
 20
4.2893698897
 11
5.2894526826
 21
4.3374026203
  0
LINE
  5
2CB
100
AcDbEntity
  8
0
100
AcDbLine
 62
7
  6
CONTINUOUS
 10
5.2373316397
 20
4.3334647476
 11
5.2388657506
 21
4.3219411813
  0
LINE
  5
2CC
100
AcDbEntity
  8
0
100
AcDbLine
 62
7
  6
CONTINUOUS
 10
4.8423173389
 20
3.5427251469
 11
4.7373320678
 21
3.508499085
  0
LINE
  5
2CD
100
AcDbEntity
  8
0
100
AcDbLine
 62
7
  6
CONTINUOUS
 10
4.8454328493
 20
3.5423859218
 11
4.7404475601
 21
3.5081598541
  0
LINE
  5
2CE
100
AcDbEntity
  8
0
100
AcDbLine
 62
7
  6
CONTINUOUS
 10
2.7208462733
 20
5.5465877329
 11
6.5958462733
 21
5.5465877329
  0
LINE
  5
2CF
100
AcDbEntity
  8
0
100
AcDbLine
 62
7
  6
CONTINUOUS
 10
6.5808462733
 20
5.5615877329
 11
2.7358462733
 21
5.5615877329
  0
LINE
  5
2D0
100
AcDbEntity
  8
0
100
AcDbLine
 62
7
  6
CONTINUOUS
 10
6.5808462733
 20
2.8115877329
 11
6.5808462733
 21
5.5615877329
  0
LINE
  5
2D1
100
AcDbEntity
  8
0
100
AcDbLine
 62
7
  6
CONTINUOUS
 10
6.5958462733
 20
2.8265877329
 11
6.5958462733
 21
5.5465877329
  0
ARC
  5
2D2
100
AcDbEntity
  8
0
100
AcDbCircle
 62
7
  6
CONTINUOUS
 10
2.1600966845
 20
3.5534819111
 40
2.6822418369
100
AcDbArc
 50
359.7702225249
 51
0.0433494909
  0
ARC
  5
2D3
100
AcDbEntity
  8
0
100
AcDbCircle
 62
7
  6
CONTINUOUS
 10
3.3602438418
 20
3.8047532938
 40
1.1278525786
100
AcDbArc
 50
347.2724681771
 51
348.1948256878
  0
ARC
  5
2D4
100
AcDbEntity
  8
0
100
AcDbCircle
 62
7
  6
CONTINUOUS
 10
4.5835155624
 20
3.526812634
 40
0.0199874242
100
AcDbArc
 50
251.9130714051
 51
270.0737466366
  0
ARC
  5
2D5
100
AcDbEntity
  8
0
100
AcDbCircle
 62
7
  6
CONTINUOUS
 10
2.7358462733
 20
2.8265877329
 40
0.015
100
AcDbArc
 50
180.0
 51
270.0
  0
ARC
  5
2D6
100
AcDbEntity
  8
0
100
AcDbCircle
 62
7
  6
CONTINUOUS
 10
4.4701416181
 20
3.5532740461
 40
0.0099963659
100
AcDbArc
 50
209.6415219842
 51
251.8542512721
  0
ARC
  5
2D7
100
AcDbEntity
  8
0
100
AcDbCircle
 62
7
  6
CONTINUOUS
 10
4.4701399423
 20
3.5532764168
 40
0.0099960606
100
AcDbArc
 50
167.2086984387
 51
209.2363411176
  0
ARC
  5
2D8
100
AcDbEntity
  8
0
100
AcDbCircle
 62
7
  6
CONTINUOUS
 10
4.470091045
 20
3.5540697183
 40
0.0099536776
100
AcDbArc
 50
167.2261144599
 51
169.8850725768
  0
ARC
  5
2D9
100
AcDbEntity
  8
0
100
AcDbCircle
 62
7
  6
CONTINUOUS
 10
4.4700613345
 20
3.5540752469
 40
0.009923458
100
AcDbArc
 50
169.886370911
 51
170.5309147115
  0
ARC
  5
2DA
100
AcDbEntity
  8
0
100
AcDbCircle
 62
7
  6
CONTINUOUS
 10
4.470049999
 20
3.5540779606
 40
0.009911847
100
AcDbArc
 50
170.5308578667
 51
180.7280940344
  0
ARC
  5
2DB
100
AcDbEntity
  8
0
100
AcDbCircle
 62
7
  6
CONTINUOUS
 10
4.5772996761
 20
3.5113424301
 40
0.0033527841
100
AcDbArc
 50
251.6648053663
 51
257.3389655352
  0
ARC
  5
2DC
100
AcDbEntity
  8
ALL_FEATURES
100
AcDbCircle
 62
7
  6
CONTINUOUS
 10
4.6233462733
 20
4.782371001
 40
0.03
100
AcDbArc
 50
108.553004535
 51
180.0
  0
ARC
  5
2DD
100
AcDbEntity
  8
0
100
AcDbCircle
 62
7
  6
CONTINUOUS
 10
2.7358462733
 20
5.5465877329
 40
0.015
100
AcDbArc
 50
90.0
 51
180.0
  0
ARC
  5
2DE
100
AcDbEntity
  8
0
100
AcDbCircle
 62
7
  6
CONTINUOUS
 10
4.5550223009
 20
4.4860877329
 40
0.01
100
AcDbArc
 50
90.0
 51
122.6192430712
  0
ARC
  5
2DF
100
AcDbEntity
  8
0
100
AcDbCircle
 62
7
  6
CONTINUOUS
 10
4.4995962733
 20
4.4506150753
 40
0.01
100
AcDbArc
 50
122.6209324379
 51
180.0018508748
  0
ARC
  5
2E0
100
AcDbEntity
  8
0
100
AcDbCircle
 62
7
  6
CONTINUOUS
 10
4.551766866
 20
4.4867554457
 40
0.0085606794
100
AcDbArc
 50
67.6491190992
 51
72.3543316305
  0
ARC
  5
2E1
100
AcDbEntity
  8
0
100
AcDbCircle
 62
7
  6
CONTINUOUS
 10
7.1565958621
 20
3.5534819107
 40
2.6822418369
100
AcDbArc
 50
179.9566505003
 51
180.2297774664
  0
ARC
  5
2E2
100
AcDbEntity
  8
0
100
AcDbCircle
 62
7
  6
CONTINUOUS
 10
5.9564516921
 20
3.8047539584
 40
1.1278556389
100
AcDbArc
 50
191.8047644519
 51
192.7275313188
  0
ARC
  5
2E3
100
AcDbEntity
  8
0
100
AcDbCircle
 62
7
  6
CONTINUOUS
 10
5.0263493342
 20
3.7849436404
 40
0.1642024482
100
AcDbArc
 50
25.7192428244
 51
38.8502571725
  0
ARC
  5
2E4
100
AcDbEntity
  8
0
100
AcDbCircle
 62
7
  6
CONTINUOUS
 10
4.7331769841
 20
3.526812634
 40
0.0199874242
100
AcDbArc
 50
269.9262533634
 51
288.0869285949
  0
ARC
  5
2E5
100
AcDbEntity
  8
0
100
AcDbCircle
 62
7
  6
CONTINUOUS
 10
6.5808462733
 20
2.8265877329
 40
0.015
100
AcDbArc
 50
270.0
 51
360.0
  0
ARC
  5
2E6
100
AcDbEntity
  8
0
100
AcDbCircle
 62
7
  6
CONTINUOUS
 10
4.846550928
 20
3.5532740457
 40
0.0099963659
100
AcDbArc
 50
288.1457519477
 51
330.3584812749
  0
ARC
  5
2E7
100
AcDbEntity
  8
0
100
AcDbCircle
 62
7
  6
CONTINUOUS
 10
4.8465526089
 20
3.5532764207
 40
0.0099960566
100
AcDbArc
 50
330.7928231596
 51
12.7912858963
  0
ARC
  5
2E8
100
AcDbEntity
  8
0
100
AcDbCircle
 62
7
  6
CONTINUOUS
 10
4.8466015748
 20
3.5540697339
 40
0.0099536028
100
AcDbArc
 50
10.1057085465
 51
12.7738908849
  0
ARC
  5
2E9
100
AcDbEntity
  8
0
100
AcDbCircle
 62
7
  6
CONTINUOUS
 10
4.8466312792
 20
3.5540752584
 40
0.0099233899
100
AcDbArc
 50
9.4692976342
 51
10.104399742
  0
ARC
  5
2EA
100
AcDbEntity
  8
0
100
AcDbCircle
 62
7
  6
CONTINUOUS
 10
4.8466423054
 20
3.5540779416
 40
0.0099120893
100
AcDbArc
 50
359.2368504018
 51
9.4693561271
  0
ARC
  5
2EB
100
AcDbEntity
  8
0
100
AcDbCircle
 62
7
  6
CONTINUOUS
 10
4.7393928704
 20
3.5113424301
 40
0.0033527841
100
AcDbArc
 50
282.6610344651
 51
288.3351946336
  0
ARC
  5
2EC
100
AcDbEntity
  8
0
100
AcDbCircle
 62
7
  6
CONTINUOUS
 10
4.6583462733
 20
4.1865877329
 40
0.5
100
AcDbArc
 50
290.2803976545
 51
82.5283168654
  0
ARC
  5
2ED
100
AcDbEntity
  8
0
100
AcDbCircle
 62
7
  6
CONTINUOUS
 10
4.6583462733
 20
4.1865877329
 40
0.5
100
AcDbArc
 50
97.4716831346
 51
249.7196023455
  0
ARC
  5
2EE
100
AcDbEntity
  8
ALL_ASSEMBLY_MEMBERS
100
AcDbCircle
 62
7
  6
CONTINUOUS
 10
4.6583462733
 20
4.1865877329
 40
0.49725
100
AcDbArc
 50
290.4103365657
 51
82.4881504374
  0
ARC
  5
2EF
100
AcDbEntity
  8
ALL_ASSEMBLY_MEMBERS
100
AcDbCircle
 62
7
  6
CONTINUOUS
 10
4.6583462733
 20
4.1865877329
 40
0.49725
100
AcDbArc
 50
97.5118495626
 51
249.589621748
  0
ARC
  5
2F0
100
AcDbEntity
  8
ALL_FEATURES
100
AcDbCircle
 62
7
  6
CONTINUOUS
 10
4.6583462733
 20
4.1865877329
 40
0.4925
100
AcDbArc
 50
290.5694386119
 51
82.4134534849
  0
ARC
  5
2F1
100
AcDbEntity
  8
ALL_FEATURES
100
AcDbCircle
 62
7
  6
CONTINUOUS
 10
4.6583462733
 20
4.1865877329
 40
0.4925
100
AcDbArc
 50
97.5865465151
 51
249.4306155519
  0
ARC
  5
2F2
100
AcDbEntity
  8
0
100
AcDbCircle
 62
7
  6
CONTINUOUS
 10
4.6583462733
 20
4.1865877329
 40
0.485
100
AcDbArc
 50
290.8225898747
 51
249.1773275852
  0
ARC
  5
2F3
100
AcDbEntity
  8
0
100
AcDbCircle
 62
7
  6
CONTINUOUS
 10
4.6583462733
 20
4.1865877329
 40
0.3995
100
AcDbArc
 50
294.9930664732
 51
245.0069335268
  0
ARC
  5
2F4
100
AcDbEntity
  8
ALL_FEATURES
100
AcDbCircle
 62
7
  6
CONTINUOUS
 10
4.6583462733
 20
4.6780877329
 40
0.14
100
AcDbArc
 50
71.446995465
 51
108.553004535
  0
ARC
  5
2F5
100
AcDbEntity
  8
ALL_FEATURES
100
AcDbCircle
 62
7
  6
CONTINUOUS
 10
4.6933462733
 20
4.782371001
 40
0.03
100
AcDbArc
 50
0.0
 51
71.446995465
  0
ARC
  5
2F6
100
AcDbEntity
  8
0
100
AcDbCircle
 62
7
  6
CONTINUOUS
 10
6.5808462733
 20
5.5465877329
 40
0.015
100
AcDbArc
 50
0.0
 51
90.0
  0
ARC
  5
2F7
100
AcDbEntity
  8
0
100
AcDbCircle
 62
7
  6
CONTINUOUS
 10
4.7616702457
 20
4.4860877329
 40
0.01
100
AcDbArc
 50
57.3807569288
 51
90.0
  0
ARC
  5
2F8
100
AcDbEntity
  8
0
100
AcDbCircle
 62
7
  6
CONTINUOUS
 10
4.8170962733
 20
4.4506150753
 40
0.01
100
AcDbArc
 50
359.9981491252
 51
57.3790675621
  0
ARC
  5
2F9
100
AcDbEntity
  8
0
100
AcDbCircle
 62
7
  6
CONTINUOUS
 10
4.7649256806
 20
4.4867554457
 40
0.0085606794
100
AcDbArc
 50
107.6456683695
 51
112.3508809009
  0
LINE
  5
2FA
100
AcDbEntity
  8
0
100
AcDbLine
 62
7
  6
CONTINUOUS
 10
4.8563008035
 20
3.5554895971
 11
4.8563469973
 21
3.5556975935
  0
LINE
  5
2FB
100
AcDbEntity
  8
0
100
AcDbLine
 62
7
  6
CONTINUOUS
 10
4.7393822713
 20
3.5078128568
 11
4.7404475601
 21
3.5081598541
  0
LINE
  5
2FC
100
AcDbEntity
  8
0
100
AcDbLine
 62
7
  6
CONTINUOUS
 10
4.8496642131
 20
3.5437746313
 11
4.8454328493
 21
3.5423859218
  0
LINE
  5
2FD
100
AcDbEntity
  8
0
100
AcDbLine
 62
7
  6
CONTINUOUS
 10
4.4603917431
 20
3.5554895971
 11
4.4603455413
 21
3.5556975576
  0
LINE
  5
2FE
100
AcDbEntity
  8
0
100
AcDbLine
 62
7
  6
CONTINUOUS
 10
4.4670283335
 20
3.5437746313
 11
4.4712596973
 21
3.5423859218
  0
LINE
  5
2FF
100
AcDbEntity
  8
0
100
AcDbLine
 62
7
  6
CONTINUOUS
 10
4.5773102753
 20
3.5078128568
 11
4.5762449864
 21
3.5081598541
  0
LINE
  5
300
100
AcDbEntity
  8
0
100
AcDbLine
 62
7
  6
CONTINUOUS
 10
4.4603980789
 20
3.5559341286
 11
4.4603845651
 21
3.5562502786
  0
LINE
  5
301
100
AcDbEntity
  8
0
100
AcDbLine
 62
7
  6
CONTINUOUS
 10
4.8562944697
 20
3.55593411
 11
4.8563079815
 21
3.5562502786
  0
SPLINE
  5
302
100
AcDbEntity
  8
0
100
AcDbSpline
 62
7
  6
CONTINUOUS
 70
0
 71
3
 72
24
 73
20
 74
0
 42
0.0000001
 43
0.0000001
 44
0.0000000001
 40
0.0
 40
0.0
 40
0.0
 40
0.0
 40
0.0055042943
 40
0.0121083885
 40
0.0204944916
 40
0.0309871441
 40
0.0437381272
 40
0.0588132587
 40
0.0762093177
 40
0.0958931471
 40
0.1419294211
 40
0.1964577449
 40
0.2587427061
 40
0.3279318741
 40
0.4031012346
 40
0.4831510132
 40
0.6533170995
 40
0.8290435942
 40
1.0
 40
1.0
 40
1.0
 40
1.0
 10
4.8454328452
 20
3.5423859205
 30
0.0
 10
4.8454568109
 20
3.542393271
 30
0.0
 10
4.8455053206
 20
3.5424242163
 30
0.0
 10
4.8455579127
 20
3.5425031299
 30
0.0
 10
4.8455978082
 20
3.5426127568
 30
0.0
 10
4.8456260028
 20
3.5427543964
 30
0.0
 10
4.8456426259
 20
3.5429283088
 30
0.0
 10
4.8456474038
 20
3.5431343332
 30
0.0
 10
4.8456403959
 20
3.5433718347
 30
0.0
 10
4.8456138298
 20
3.5437495074
 30
0.0
 10
4.8455482057
 20
3.5442935015
 30
0.0
 10
4.8454277286
 20
3.5450254357
 30
0.0
 10
4.8452631823
 20
3.545856516
 30
0.0
 10
4.8450567307
 20
3.5467747685
 30
0.0
 10
4.8448109819
 20
3.5477668515
 30
0.0
 10
4.8444280528
 20
3.5491984529
 30
0.0
 10
4.8438792941
 20
3.5510594091
 30
0.0
 10
4.8431477851
 20
3.553296978
 30
0.0
 10
4.8426138321
 20
3.5547831292
 30
0.0
 10
4.8423381981
 20
3.5555112722
 30
0.0
  0
SPLINE
  5
303
100
AcDbEntity
  8
0
100
AcDbSpline
 62
7
  6
CONTINUOUS
 70
0
 71
3
 72
11
 73
7
 74
0
 42
0.0000001
 43
0.0000001
 44
0.0000000001
 40
0.0
 40
0.0
 40
0.0
 40
0.0
 40
0.2331137413
 40
0.4735384724
 40
0.7276976508
 40
1.0
 40
1.0
 40
1.0
 40
1.0
 10
4.8454328456
 20
3.5423859206
 30
0.0
 10
4.8451960275
 20
3.5423073971
 30
0.0
 10
4.8446952037
 20
3.5422021364
 30
0.0
 10
4.8439109346
 20
3.5422111721
 30
0.0
 10
4.8431037357
 20
3.5423839368
 30
0.0
 10
4.8425788449
 20
3.5425964931
 30
0.0
 10
4.8423173389
 20
3.5427251469
 30
0.0
  0
SPLINE
  5
304
100
AcDbEntity
  8
0
100
AcDbSpline
 62
7
  6
CONTINUOUS
 70
0
 71
3
 72
11
 73
7
 74
0
 42
0.0000001
 43
0.0000001
 44
0.0000000001
 40
0.0
 40
0.0
 40
0.0
 40
0.0
 40
0.2652421842
 40
0.5176512268
 40
0.7610720747
 40
1.0
 40
1.0
 40
1.0
 40
1.0
 10
4.5804257518
 20
3.5078051003
 30
0.0
 10
4.5806710807
 20
3.5076454667
 30
0.0
 10
4.5811693652
 20
3.5073623285
 30
0.0
 10
4.5819520395
 20
3.5070501314
 30
0.0
 10
4.5827442391
 20
3.5068637289
 30
0.0
 10
4.5832776366
 20
3.5068239176
 30
0.0
 10
4.5835412887
 20
3.5068252264
 30
0.0
  0
SPLINE
  5
305
100
AcDbEntity
  8
0
100
AcDbSpline
 62
7
  6
CONTINUOUS
 70
0
 71
3
 72
11
 73
7
 74
0
 42
0.0000001
 43
0.0000001
 44
0.0000000001
 40
0.0
 40
0.0
 40
0.0
 40
0.0
 40
0.2708780283
 40
0.5254663575
 40
0.7669124082
 40
1.0
 40
1.0
 40
1.0
 40
1.0
 10
4.7373320678
 20
3.508499085
 30
0.0
 10
4.7375654352
 20
3.508384275
 30
0.0
 10
4.7380334164
 20
3.5081905357
 30
0.0
 10
4.7387516726
 20
3.5080145077
 30
0.0
 10
4.739453758
 20
3.5079665378
 30
0.0
 10
4.7399093933
 20
3.508022099
 30
0.0
 10
4.7401277428
 20
3.5080711729
 30
0.0
  0
SPLINE
  5
306
100
AcDbEntity
  8
0
100
AcDbSpline
 62
7
  6
CONTINUOUS
 70
0
 71
3
 72
11
 73
7
 74
0
 42
0.0000001
 43
0.0000001
 44
0.0000000001
 40
0.0
 40
0.0
 40
0.0
 40
0.0
 40
0.2602561051
 40
0.5119770998
 40
0.7575813511
 40
1.0
 40
1.0
 40
1.0
 40
1.0
 10
4.5804257617
 20
3.5078050942
 30
0.0
 10
4.5801626397
 20
3.5077277906
 30
0.0
 10
4.5796341567
 20
3.507609651
 30
0.0
 10
4.5788352336
 20
3.5075493097
 30
0.0
 10
4.5780550556
 20
3.507610668
 30
0.0
 10
4.5775527887
 20
3.507732674
 30
0.0
 10
4.577310255
 20
3.5078128634
 30
0.0
  0
SPLINE
  5
307
100
AcDbEntity
  8
0
100
AcDbSpline
 62
7
  6
CONTINUOUS
 70
0
 71
3
 72
11
 73
7
 74
0
 42
0.0000001
 43
0.0000001
 44
0.0000000001
 40
0.0
 40
0.0
 40
0.0
 40
0.0
 40
0.2291288932
 40
0.4679732364
 40
0.723734125
 40
1.0
 40
1.0
 40
1.0
 40
1.0
 10
4.4978898432
 20
4.4613956177
 30
0.0
 10
4.4982497716
 20
4.4616259718
 30
0.0
 10
4.4990577657
 20
4.46199088
 30
0.0
 10
4.5004073
 20
4.4621925063
 30
0.0
 10
4.5018503255
 20
4.462053025
 30
0.0
 10
4.5028037914
 20
4.4617539522
 30
0.0
 10
4.5032803802
 20
4.4615581523
 30
0.0
  0
SPLINE
  5
308
100
AcDbEntity
  8
0
100
AcDbSpline
 62
7
  6
CONTINUOUS
 70
0
 71
3
 72
11
 73
7
 74
0
 42
0.0000001
 43
0.0000001
 44
0.0000000001
 40
0.0
 40
0.0
 40
0.0
 40
0.0
 40
0.2725678896
 40
0.5270175081
 40
0.7675039339
 40
1.0
 40
1.0
 40
1.0
 40
1.0
 10
4.5543618609
 20
4.4949133396
 30
0.0
 10
4.553937866
 20
4.4950477886
 30
0.0
 10
4.5530943536
 20
4.4952416754
 30
0.0
 10
4.5518333332
 20
4.495279433
 30
0.0
 10
4.5506581892
 20
4.4950482907
 30
0.0
 10
4.5499513288
 20
4.4947149684
 30
0.0
 10
4.5496317639
 20
4.4945104469
 30
0.0
  0
LINE
  5
309
100
AcDbEntity
  8
0
100
AcDbLine
 62
7
  6
CONTINUOUS
 10
4.6583462733
 20
3.5427235317
 11
4.4743752077
 21
3.5427251469
  0
LINE
  5
30A
100
AcDbEntity
  8
0
100
AcDbLine
 62
7
  6
CONTINUOUS
 10
4.6583462733
 20
3.5427235317
 11
4.8423173389
 21
3.5427251469
  0
SPLINE
  5
30B
100
AcDbEntity
  8
0
100
AcDbSpline
 62
7
  6
CONTINUOUS
 70
0
 71
3
 72
11
 73
7
 74
0
 42
0.0000001
 43
0.0000001
 44
0.0000000001
 40
0.0
 40
0.0
 40
0.0
 40
0.0
 40
0.2652421842
 40
0.5176512268
 40
0.7610720747
 40
1.0
 40
1.0
 40
1.0
 40
1.0
 10
4.7362667948
 20
3.5078051003
 30
0.0
 10
4.7360214659
 20
3.5076454667
 30
0.0
 10
4.7355231814
 20
3.5073623285
 30
0.0
 10
4.734740507
 20
3.5070501314
 30
0.0
 10
4.7339483075
 20
3.5068637289
 30
0.0
 10
4.73341491
 20
3.5068239176
 30
0.0
 10
4.7331512579
 20
3.5068252264
 30
0.0
  0
SPLINE
  5
30C
100
AcDbEntity
  8
0
100
AcDbSpline
 62
7
  6
CONTINUOUS
 70
0
 71
3
 72
11
 73
7
 74
0
 42
0.0000001
 43
0.0000001
 44
0.0000000001
 40
0.0
 40
0.0
 40
0.0
 40
0.0
 40
0.2602561051
 40
0.5119770998
 40
0.7575813511
 40
1.0
 40
1.0
 40
1.0
 40
1.0
 10
4.7362667849
 20
3.5078050942
 30
0.0
 10
4.7365299069
 20
3.5077277906
 30
0.0
 10
4.7370583899
 20
3.507609651
 30
0.0
 10
4.737857313
 20
3.5075493097
 30
0.0
 10
4.738637491
 20
3.507610668
 30
0.0
 10
4.7391397578
 20
3.507732674
 30
0.0
 10
4.7393822916
 20
3.5078128634
 30
0.0
  0
SPLINE
  5
30D
100
AcDbEntity
  8
0
100
AcDbSpline
 62
7
  6
CONTINUOUS
 70
0
 71
3
 72
11
 73
7
 74
0
 42
0.0000001
 43
0.0000001
 44
0.0000000001
 40
0.0
 40
0.0
 40
0.0
 40
0.0
 40
0.255382025
 40
0.5080734501
 40
0.756718457
 40
1.0
 40
1.0
 40
1.0
 40
1.0
 10
4.8271186522
 20
3.8198524937
 30
0.0
 10
4.8272649228
 20
3.7971912821
 30
0.0
 10
4.8286730527
 20
3.752106237
 30
0.0
 10
4.8342078659
 20
3.6851564165
 30
0.0
 10
4.8431616689
 20
3.6196595216
 30
0.0
 10
4.8514950411
 20
3.5767812023
 30
0.0
 10
4.8562480914
 20
3.555723015
 30
0.0
  0
SPLINE
  5
30E
100
AcDbEntity
  8
0
100
AcDbSpline
 62
7
  6
CONTINUOUS
 70
0
 71
3
 72
11
 73
7
 74
0
 42
0.0000001
 43
0.0000001
 44
0.0000000001
 40
0.0
 40
0.0
 40
0.0
 40
0.0
 40
0.2725678896
 40
0.5270175081
 40
0.7675039339
 40
1.0
 40
1.0
 40
1.0
 40
1.0
 10
4.7623306857
 20
4.4949133396
 30
0.0
 10
4.7627546806
 20
4.4950477886
 30
0.0
 10
4.763598193
 20
4.4952416754
 30
0.0
 10
4.7648592134
 20
4.495279433
 30
0.0
 10
4.7660343574
 20
4.4950482907
 30
0.0
 10
4.7667412178
 20
4.4947149684
 30
0.0
 10
4.7670607827
 20
4.4945104469
 30
0.0
  0
LINE
  5
30F
100
AcDbEntity
  8
0
100
AcDbLine
 62
7
  6
CONTINUOUS
 10
4.5032803802
 20
4.4534069595
 11
4.4978898432
 21
4.4613956177
  0
LINE
  5
310
100
AcDbEntity
  8
0
100
AcDbLine
 62
7
  6
CONTINUOUS
 10
4.4995962731
 20
4.4510496415
 11
4.4942057362
 21
4.4590377892
  0
SPLINE
  5
311
100
AcDbEntity
  8
0
100
AcDbSpline
 62
7
  6
CONTINUOUS
 70
0
 71
3
 72
11
 73
7
 74
0
 42
0.0000001
 43
0.0000001
 44
0.0000000001
 40
0.0
 40
0.0
 40
0.0
 40
0.0
 40
0.2291288932
 40
0.4679732364
 40
0.723734125
 40
1.0
 40
1.0
 40
1.0
 40
1.0
 10
4.8188027034
 20
4.4613956177
 30
0.0
 10
4.818442775
 20
4.4616259718
 30
0.0
 10
4.8176347809
 20
4.46199088
 30
0.0
 10
4.8162852465
 20
4.4621925063
 30
0.0
 10
4.8148422211
 20
4.462053025
 30
0.0
 10
4.8138887552
 20
4.4617539522
 30
0.0
 10
4.8134121664
 20
4.4615581523
 30
0.0
  0
LINE
  5
312
100
AcDbEntity
  8
0
100
AcDbLine
 62
7
  6
CONTINUOUS
 10
4.8134121664
 20
4.4534069595
 11
4.8188027034
 21
4.4613956177
  0
LINE
  5
313
100
AcDbEntity
  8
0
100
AcDbLine
 62
7
  6
CONTINUOUS
 10
4.8170962734
 20
4.4510496415
 11
4.8224868104
 21
4.4590377892
  0
LINE
  5
314
100
AcDbEntity
  8
0
100
AcDbLine
 62
7
  6
CONTINUOUS
 10
4.6583462733
 20
3.5555104942
 11
4.4743543545
 21
3.5555112745
  0
LINE
  5
315
100
AcDbEntity
  8
0
100
AcDbLine
 62
7
  6
CONTINUOUS
 10
4.4701174286
 20
3.5568942437
 11
4.4743543545
 21
3.5555112745
  0
SPLINE
  5
316
100
AcDbEntity
  8
0
100
AcDbSpline
 62
7
  6
CONTINUOUS
 70
0
 71
3
 72
11
 73
7
 74
0
 42
0.0000001
 43
0.0000001
 44
0.0000000001
 40
0.0
 40
0.0
 40
0.0
 40
0.0
 40
0.2553748526
 40
0.5081037854
 40
0.7567647393
 40
1.0
 40
1.0
 40
1.0
 40
1.0
 10
4.4995943979
 20
3.8245877329
 30
0.0
 10
4.4994517787
 20
3.8016216673
 30
0.0
 10
4.4980324143
 20
3.7559259085
 30
0.0
 10
4.4924398522
 20
3.6880681716
 30
0.0
 10
4.4833833868
 20
3.6216852312
 30
0.0
 10
4.4749396314
 20
3.5782308711
 30
0.0
 10
4.4701174286
 20
3.5568942437
 30
0.0
  0
SPLINE
  5
317
100
AcDbEntity
  8
0
100
AcDbSpline
 62
7
  6
CONTINUOUS
 70
0
 71
3
 72
11
 73
7
 74
0
 42
0.0000001
 43
0.0000001
 44
0.0000000001
 40
0.0
 40
0.0
 40
0.0
 40
0.0
 40
0.2553748526
 40
0.5081037854
 40
0.7567647393
 40
1.0
 40
1.0
 40
1.0
 40
1.0
 10
4.8170981486
 20
3.8245877329
 30
0.0
 10
4.8172407679
 20
3.8016216673
 30
0.0
 10
4.8186601322
 20
3.7559259085
 30
0.0
 10
4.8242526943
 20
3.6880681716
 30
0.0
 10
4.8333091598
 20
3.6216852312
 30
0.0
 10
4.8417529152
 20
3.5782308711
 30
0.0
 10
4.846575118
 20
3.5568942437
 30
0.0
  0
LINE
  5
318
100
AcDbEntity
  8
0
100
AcDbLine
 62
7
  6
CONTINUOUS
 10
4.846575118
 20
3.5568942437
 11
4.842338192
 21
3.5555112745
  0
LINE
  5
319
100
AcDbEntity
  8
0
100
AcDbLine
 62
7
  6
CONTINUOUS
 10
4.6583462733
 20
3.5555104942
 11
4.842338192
 21
3.5555112745
  0
SPLINE
  5
31A
100
AcDbEntity
  8
0
100
AcDbSpline
 62
7
  6
CONTINUOUS
 70
0
 71
3
 72
24
 73
20
 74
0
 42
0.0000001
 43
0.0000001
 44
0.0000000001
 40
0.0
 40
0.0
 40
0.0
 40
0.0
 40
0.0024378537
 40
0.0042785087
 40
0.0066332714
 40
0.0129865607
 40
0.0216031497
 40
0.0325067193
 40
0.0456987296
 40
0.0788886175
 40
0.1208764607
 40
0.1712583988
 40
0.2296108531
 40
0.2953684259
 40
0.3678575142
 40
0.4463990454
 40
0.6186636429
 40
0.8057903627
 40
1.0
 40
1.0
 40
1.0
 40
1.0
 10
4.8270962732
 20
4.4506150756
 30
0.0
 10
4.8270962732
 20
4.4506232318
 30
0.0
 10
4.8270860891
 20
4.4506362601
 30
0.0
 10
4.8270678551
 20
4.4506481231
 30
0.0
 10
4.8270359247
 20
4.4506638117
 30
0.0
 10
4.8269807547
 20
4.4506817451
 30
0.0
 10
4.8268965824
 20
4.4507022424
 30
0.0
 10
4.8267890211
 20
4.4507225924
 30
0.0
 10
4.8265995954
 20
4.4507519237
 30
0.0
 10
4.8263058378
 20
4.4507860771
 30
0.0
 10
4.825887422
 20
4.4508236272
 30
0.0
 10
4.8253844064
 20
4.4508594493
 30
0.0
 10
4.8248015778
 20
4.4508931307
 30
0.0
 10
4.8241445535
 20
4.4509242811
 30
0.0
 10
4.8234198017
 20
4.4509526097
 30
0.0
 10
4.8223387137
 20
4.4509871975
 30
0.0
 10
4.8208738843
 20
4.451020381
 30
0.0
 10
4.8190218585
 20
4.4510442457
 30
0.0
 10
4.8177460317
 20
4.4510496415
 30
0.0
 10
4.8170962734
 20
4.4510496415
 30
0.0
  0
SPLINE
  5
31B
100
AcDbEntity
  8
0
100
AcDbSpline
 62
7
  6
CONTINUOUS
 70
0
 71
3
 72
11
 73
7
 74
0
 42
0.0000001
 43
0.0000001
 44
0.0000000001
 40
0.0
 40
0.0
 40
0.0
 40
0.0
 40
0.2553826966
 40
0.5080744825
 40
0.7567193344
 40
1.0
 40
1.0
 40
1.0
 40
1.0
 10
4.4895738944
 20
3.8198524937
 30
0.0
 10
4.4894276129
 20
3.7971895948
 30
0.0
 10
4.4880192959
 20
3.752101219
 30
0.0
 10
4.4824836906
 20
3.6851465394
 30
0.0
 10
4.473528588
 20
3.6196450848
 30
0.0
 10
4.4651939927
 20
3.5767638952
 30
0.0
 10
4.4604402434
 20
3.5557043558
 30
0.0
  0
LINE
  5
31C
100
AcDbEntity
  8
0
100
AcDbLine
 62
7
  6
CONTINUOUS
 10
4.8270962508
 20
3.8245952701
 11
4.826334679
 21
3.8248129621
  0
SPLINE
  5
31D
100
AcDbEntity
  8
0
100
AcDbSpline
 62
7
  6
CONTINUOUS
 70
0
 71
3
 72
13
 73
9
 74
0
 42
0.0000001
 43
0.0000001
 44
0.0000000001
 40
0.0
 40
0.0
 40
0.0
 40
0.0
 40
0.0720466248
 40
0.1639243849
 40
0.2737092445
 40
0.3991756156
 40
0.6863822321
 40
1.0
 40
1.0
 40
1.0
 40
1.0
 10
4.826334679
 20
3.8248129621
 30
0.0
 10
4.8261145954
 20
3.8248429078
 30
0.0
 10
4.8256118275
 20
3.8248958217
 30
0.0
 10
4.8247704354
 20
3.8249601551
 30
0.0
 10
4.8237634613
 20
3.8250167931
 30
0.0
 10
4.8221541169
 20
3.8250832454
 30
0.0
 10
4.8199154608
 20
3.8251347875
 30
0.0
 10
4.8180631294
 20
3.8251453501
 30
0.0
 10
4.8170962848
 20
3.8251428966
 30
0.0
  0
LINE
  5
31E
100
AcDbEntity
  8
0
100
AcDbLine
 62
7
  6
CONTINUOUS
 10
4.8270980902
 20
3.8240202164
 11
4.8263358894
 21
3.8242478201
  0
SPLINE
  5
31F
100
AcDbEntity
  8
0
100
AcDbSpline
 62
7
  6
CONTINUOUS
 70
0
 71
3
 72
13
 73
9
 74
0
 42
0.0000001
 43
0.0000001
 44
0.0000000001
 40
0.0
 40
0.0
 40
0.0
 40
0.0
 40
0.072095783
 40
0.1640001289
 40
0.2737948546
 40
0.399258152
 40
0.6864315427
 40
1.0
 40
1.0
 40
1.0
 40
1.0
 10
4.8263358894
 20
3.8242478201
 30
0.0
 10
4.8261158296
 20
3.824279064
 30
0.0
 10
4.8256130442
 20
3.8243342396
 30
0.0
 10
4.8247715751
 20
3.8244012053
 30
0.0
 10
4.8237645989
 20
3.8244600049
 30
0.0
 10
4.8221554004
 20
3.8245287166
 30
0.0
 10
4.8199169763
 20
3.8245812968
 30
0.0
 10
4.8180648548
 20
3.8245910162
 30
0.0
 10
4.8170981486
 20
3.8245877329
 30
0.0
  0
SPLINE
  5
320
100
AcDbEntity
  8
0
100
AcDbSpline
 62
7
  6
CONTINUOUS
 70
0
 71
3
 72
24
 73
20
 74
0
 42
0.0000001
 43
0.0000001
 44
0.0000000001
 40
0.0
 40
0.0
 40
0.0
 40
0.0
 40
0.0024378537
 40
0.0042785087
 40
0.0066332714
 40
0.0129865607
 40
0.0216031497
 40
0.0325067193
 40
0.0456987296
 40
0.0788886175
 40
0.1208764607
 40
0.1712583988
 40
0.2296108531
 40
0.2953684259
 40
0.3678575142
 40
0.4463990454
 40
0.6186636429
 40
0.8057903627
 40
1.0
 40
1.0
 40
1.0
 40
1.0
 10
4.4895962734
 20
4.4506150756
 30
0.0
 10
4.4895962734
 20
4.4506232318
 30
0.0
 10
4.4896064575
 20
4.4506362601
 30
0.0
 10
4.4896246915
 20
4.4506481231
 30
0.0
 10
4.4896566219
 20
4.4506638117
 30
0.0
 10
4.4897117919
 20
4.4506817451
 30
0.0
 10
4.4897959642
 20
4.4507022424
 30
0.0
 10
4.4899035255
 20
4.4507225924
 30
0.0
 10
4.4900929512
 20
4.4507519237
 30
0.0
 10
4.4903867088
 20
4.4507860771
 30
0.0
 10
4.4908051246
 20
4.4508236272
 30
0.0
 10
4.4913081401
 20
4.4508594493
 30
0.0
 10
4.4918909688
 20
4.4508931307
 30
0.0
 10
4.4925479931
 20
4.4509242811
 30
0.0
 10
4.4932727449
 20
4.4509526097
 30
0.0
 10
4.4943538329
 20
4.4509871975
 30
0.0
 10
4.4958186623
 20
4.451020381
 30
0.0
 10
4.4976706881
 20
4.4510442457
 30
0.0
 10
4.4989465149
 20
4.4510496415
 30
0.0
 10
4.4995962731
 20
4.4510496415
 30
0.0
  0
LINE
  5
321
100
AcDbEntity
  8
0
100
AcDbLine
 62
7
  6
CONTINUOUS
 10
4.4895962958
 20
3.8245952701
 11
4.4903578676
 21
3.8248129621
  0
SPLINE
  5
322
100
AcDbEntity
  8
0
100
AcDbSpline
 62
7
  6
CONTINUOUS
 70
0
 71
3
 72
13
 73
9
 74
0
 42
0.0000001
 43
0.0000001
 44
0.0000000001
 40
0.0
 40
0.0
 40
0.0
 40
0.0
 40
0.0720466248
 40
0.1639243849
 40
0.2737092445
 40
0.3991756156
 40
0.6863822321
 40
1.0
 40
1.0
 40
1.0
 40
1.0
 10
4.4903578676
 20
3.8248129621
 30
0.0
 10
4.4905779512
 20
3.8248429078
 30
0.0
 10
4.4910807191
 20
3.8248958217
 30
0.0
 10
4.4919221112
 20
3.8249601551
 30
0.0
 10
4.4929290853
 20
3.8250167931
 30
0.0
 10
4.4945384297
 20
3.8250832454
 30
0.0
 10
4.4967770858
 20
3.8251347875
 30
0.0
 10
4.4986294172
 20
3.8251453501
 30
0.0
 10
4.4995962618
 20
3.8251428966
 30
0.0
  0
LINE
  5
323
100
AcDbEntity
  8
0
100
AcDbLine
 62
7
  6
CONTINUOUS
 10
4.4895944564
 20
3.8240202164
 11
4.4903566572
 21
3.8242478201
  0
SPLINE
  5
324
100
AcDbEntity
  8
0
100
AcDbSpline
 62
7
  6
CONTINUOUS
 70
0
 71
3
 72
13
 73
9
 74
0
 42
0.0000001
 43
0.0000001
 44
0.0000000001
 40
0.0
 40
0.0
 40
0.0
 40
0.0
 40
0.072095783
 40
0.1640001289
 40
0.2737948546
 40
0.399258152
 40
0.6864315427
 40
1.0
 40
1.0
 40
1.0
 40
1.0
 10
4.4903566572
 20
3.8242478201
 30
0.0
 10
4.490576717
 20
3.824279064
 30
0.0
 10
4.4910795024
 20
3.8243342396
 30
0.0
 10
4.4919209715
 20
3.8244012053
 30
0.0
 10
4.4929279477
 20
3.8244600049
 30
0.0
 10
4.4945371462
 20
3.8245287166
 30
0.0
 10
4.4967755703
 20
3.8245812968
 30
0.0
 10
4.4986276918
 20
3.8245910162
 30
0.0
 10
4.4995943979
 20
3.8245877329
 30
0.0
  0
SPLINE
  5
325
100
AcDbEntity
  8
0
100
AcDbSpline
 62
7
  6
CONTINUOUS
 70
0
 71
3
 72
11
 73
7
 74
0
 42
0.0000001
 43
0.0000001
 44
0.0000000001
 40
0.0
 40
0.0
 40
0.0
 40
0.0
 40
0.2219133775
 40
0.4565857281
 40
0.7136269046
 40
1.0
 40
1.0
 40
1.0
 40
1.0
 10
4.4603917434
 20
3.555489597
 30
0.0
 10
4.4604160206
 20
3.555593553
 30
0.0
 10
4.460494549
 20
3.5558016506
 30
0.0
 10
4.4606912343
 20
3.5560863897
 30
0.0
 10
4.4609642376
 20
3.5563456239
 30
0.0
 10
4.4611823747
 20
3.5564917304
 30
0.0
 10
4.4613014245
 20
3.556561052
 30
0.0
  0
LINE
  5
326
100
AcDbEntity
  8
0
100
AcDbLine
 62
7
  6
CONTINUOUS
 10
4.4613014245
 20
3.556561052
 11
4.4623008463
 21
3.556977737
  0
SPLINE
  5
327
100
AcDbEntity
  8
0
100
AcDbSpline
 62
7
  6
CONTINUOUS
 70
0
 71
3
 72
13
 73
9
 74
0
 42
0.0000001
 43
0.0000001
 44
0.0000000001
 40
0.0
 40
0.0
 40
0.0
 40
0.0
 40
0.0952390186
 40
0.2010760658
 40
0.3167427622
 40
0.4412421008
 40
0.7116719678
 40
1.0
 40
1.0
 40
1.0
 40
1.0
 10
4.4623008463
 20
3.556977737
 30
0.0
 10
4.4625405807
 20
3.5570492157
 30
0.0
 10
4.4630555538
 20
3.5571709931
 30
0.0
 10
4.4638793037
 20
3.5572928162
 30
0.0
 10
4.4647862184
 20
3.5573617321
 30
0.0
 10
4.466127907
 20
3.5573818109
 30
0.0
 10
4.4679217191
 20
3.5572631673
 30
0.0
 10
4.4693741468
 20
3.5570395327
 30
0.0
 10
4.4701174288
 20
3.5568942437
 30
0.0
  0
SPLINE
  5
328
100
AcDbEntity
  8
0
100
AcDbSpline
 62
7
  6
CONTINUOUS
 70
0
 71
3
 72
24
 73
20
 74
0
 42
0.0000001
 43
0.0000001
 44
0.0000000001
 40
0.0
 40
0.0
 40
0.0
 40
0.0
 40
0.0055201478
 40
0.012140806
 40
0.0205422668
 40
0.0310468831
 40
0.0438041447
 40
0.0588817832
 40
0.076281842
 40
0.095969608
 40
0.1420057258
 40
0.1965207079
 40
0.2587938684
 40
0.3279657447
 40
0.4031164178
 40
0.4831512486
 40
0.6532907781
 40
0.8290090931
 40
1.0
 40
1.0
 40
1.0
 40
1.0
 10
4.4670283333
 20
3.5437746313
 30
0.0
 10
4.4670043099
 20
3.5437820009
 30
0.0
 10
4.4669556909
 20
3.5438130013
 30
0.0
 10
4.4669029297
 20
3.5438920094
 30
0.0
 10
4.4668628521
 20
3.5440017272
 30
0.0
 10
4.4668344599
 20
3.5441434165
 30
0.0
 10
4.466817607
 20
3.5443173225
 30
0.0
 10
4.4668125984
 20
3.5445233077
 30
0.0
 10
4.4668194177
 20
3.5447607555
 30
0.0
 10
4.4668457265
 20
3.5451383101
 30
0.0
 10
4.4669110219
 20
3.545682051
 30
0.0
 10
4.4670310666
 20
3.5464135994
 30
0.0
 10
4.4671952024
 20
3.5472441736
 30
0.0
 10
4.467401206
 20
3.548161867
 30
0.0
 10
4.4676465255
 20
3.5491533409
 30
0.0
 10
4.4680289216
 20
3.5505841065
 30
0.0
 10
4.4685770838
 20
3.552444088
 30
0.0
 10
4.4693081001
 20
3.5546806965
 30
0.0
 10
4.4698418504
 20
3.5561662888
 30
0.0
 10
4.4701174288
 20
3.5568942437
 30
0.0
  0
SPLINE
  5
329
100
AcDbEntity
  8
0
100
AcDbSpline
 62
7
  6
CONTINUOUS
 70
0
 71
3
 72
24
 73
20
 74
0
 42
0.0000001
 43
0.0000001
 44
0.0000000001
 40
0.0
 40
0.0
 40
0.0
 40
0.0
 40
0.0055042943
 40
0.0121083885
 40
0.0204944916
 40
0.0309871441
 40
0.0437381272
 40
0.0588132587
 40
0.0762093177
 40
0.0958931471
 40
0.1419294211
 40
0.1964577449
 40
0.2587427061
 40
0.3279318741
 40
0.4031012346
 40
0.4831510132
 40
0.6533170995
 40
0.8290435942
 40
1.0
 40
1.0
 40
1.0
 40
1.0
 10
4.4712597013
 20
3.5423859205
 30
0.0
 10
4.4712357357
 20
3.542393271
 30
0.0
 10
4.471187226
 20
3.5424242163
 30
0.0
 10
4.4711346339
 20
3.5425031299
 30
0.0
 10
4.4710947384
 20
3.5426127568
 30
0.0
 10
4.4710665437
 20
3.5427543964
 30
0.0
 10
4.4710499207
 20
3.5429283088
 30
0.0
 10
4.4710451428
 20
3.5431343332
 30
0.0
 10
4.4710521507
 20
3.5433718347
 30
0.0
 10
4.4710787168
 20
3.5437495074
 30
0.0
 10
4.4711443409
 20
3.5442935015
 30
0.0
 10
4.471264818
 20
3.5450254357
 30
0.0
 10
4.4714293643
 20
3.545856516
 30
0.0
 10
4.4716358159
 20
3.5467747685
 30
0.0
 10
4.4718815647
 20
3.5477668515
 30
0.0
 10
4.4722644938
 20
3.5491984529
 30
0.0
 10
4.4728132525
 20
3.5510594091
 30
0.0
 10
4.4735447615
 20
3.553296978
 30
0.0
 10
4.4740787145
 20
3.5547831292
 30
0.0
 10
4.4743543485
 20
3.5555112722
 30
0.0
  0
SPLINE
  5
32A
100
AcDbEntity
  8
0
100
AcDbSpline
 62
7
  6
CONTINUOUS
 70
0
 71
3
 72
11
 73
7
 74
0
 42
0.0000001
 43
0.0000001
 44
0.0000000001
 40
0.0
 40
0.0
 40
0.0
 40
0.0
 40
0.2708780283
 40
0.5254663575
 40
0.7669124082
 40
1.0
 40
1.0
 40
1.0
 40
1.0
 10
4.5793604788
 20
3.508499085
 30
0.0
 10
4.5791271114
 20
3.508384275
 30
0.0
 10
4.5786591302
 20
3.5081905357
 30
0.0
 10
4.577940874
 20
3.5080145077
 30
0.0
 10
4.5772387886
 20
3.5079665378
 30
0.0
 10
4.5767831533
 20
3.508022099
 30
0.0
 10
4.5765648038
 20
3.5080711729
 30
0.0
  0
SPLINE
  5
32B
100
AcDbEntity
  8
0
100
AcDbSpline
 62
7
  6
CONTINUOUS
 70
0
 71
3
 72
11
 73
7
 74
0
 42
0.0000001
 43
0.0000001
 44
0.0000000001
 40
0.0
 40
0.0
 40
0.0
 40
0.0
 40
0.2331137413
 40
0.4735384724
 40
0.7276976508
 40
1.0
 40
1.0
 40
1.0
 40
1.0
 10
4.471259701
 20
3.5423859206
 30
0.0
 10
4.4714965191
 20
3.5423073971
 30
0.0
 10
4.4719973428
 20
3.5422021364
 30
0.0
 10
4.4727816119
 20
3.5422111721
 30
0.0
 10
4.4735888109
 20
3.5423839368
 30
0.0
 10
4.4741137017
 20
3.5425964931
 30
0.0
 10
4.4743752077
 20
3.5427251469
 30
0.0
  0
SPLINE
  5
32C
100
AcDbEntity
  8
0
100
AcDbSpline
 62
7
  6
CONTINUOUS
 70
0
 71
3
 72
11
 73
7
 74
0
 42
0.0000001
 43
0.0000001
 44
0.0000000001
 40
0.0
 40
0.0
 40
0.0
 40
0.0
 40
0.2219133775
 40
0.4565857281
 40
0.7136269046
 40
1.0
 40
1.0
 40
1.0
 40
1.0
 10
4.8563008032
 20
3.555489597
 30
0.0
 10
4.856276526
 20
3.555593553
 30
0.0
 10
4.8561979976
 20
3.5558016506
 30
0.0
 10
4.8560013123
 20
3.5560863897
 30
0.0
 10
4.855728309
 20
3.5563456239
 30
0.0
 10
4.8555101719
 20
3.5564917304
 30
0.0
 10
4.8553911221
 20
3.556561052
 30
0.0
  0
LINE
  5
32D
100
AcDbEntity
  8
0
100
AcDbLine
 62
7
  6
CONTINUOUS
 10
4.8553911221
 20
3.556561052
 11
4.8543917003
 21
3.556977737
  0
SPLINE
  5
32E
100
AcDbEntity
  8
0
100
AcDbSpline
 62
7
  6
CONTINUOUS
 70
0
 71
3
 72
13
 73
9
 74
0
 42
0.0000001
 43
0.0000001
 44
0.0000000001
 40
0.0
 40
0.0
 40
0.0
 40
0.0
 40
0.0952390186
 40
0.2010760658
 40
0.3167427622
 40
0.4412421008
 40
0.7116719678
 40
1.0
 40
1.0
 40
1.0
 40
1.0
 10
4.8543917003
 20
3.556977737
 30
0.0
 10
4.8541519659
 20
3.5570492157
 30
0.0
 10
4.8536369927
 20
3.5571709931
 30
0.0
 10
4.8528132429
 20
3.5572928162
 30
0.0
 10
4.8519063282
 20
3.5573617321
 30
0.0
 10
4.8505646396
 20
3.5573818109
 30
0.0
 10
4.8487708275
 20
3.5572631673
 30
0.0
 10
4.8473183998
 20
3.5570395327
 30
0.0
 10
4.8465751178
 20
3.5568942437
 30
0.0
  0
SPLINE
  5
32F
100
AcDbEntity
  8
0
100
AcDbSpline
 62
7
  6
CONTINUOUS
 70
0
 71
3
 72
24
 73
20
 74
0
 42
0.0000001
 43
0.0000001
 44
0.0000000001
 40
0.0
 40
0.0
 40
0.0
 40
0.0
 40
0.0055201478
 40
0.012140806
 40
0.0205422668
 40
0.0310468831
 40
0.0438041447
 40
0.0588817832
 40
0.076281842
 40
0.095969608
 40
0.1420057258
 40
0.1965207079
 40
0.2587938684
 40
0.3279657447
 40
0.4031164178
 40
0.4831512486
 40
0.6532907781
 40
0.8290090931
 40
1.0
 40
1.0
 40
1.0
 40
1.0
 10
4.8496642133
 20
3.5437746313
 30
0.0
 10
4.8496882367
 20
3.5437820009
 30
0.0
 10
4.8497368557
 20
3.5438130013
 30
0.0
 10
4.8497896168
 20
3.5438920094
 30
0.0
 10
4.8498296945
 20
3.5440017272
 30
0.0
 10
4.8498580867
 20
3.5441434165
 30
0.0
 10
4.8498749396
 20
3.5443173225
 30
0.0
 10
4.8498799482
 20
3.5445233077
 30
0.0
 10
4.8498731289
 20
3.5447607555
 30
0.0
 10
4.8498468201
 20
3.5451383101
 30
0.0
 10
4.8497815247
 20
3.545682051
 30
0.0
 10
4.84966148
 20
3.5464135994
 30
0.0
 10
4.8494973442
 20
3.5472441736
 30
0.0
 10
4.8492913406
 20
3.548161867
 30
0.0
 10
4.8490460211
 20
3.5491533409
 30
0.0
 10
4.8486636249
 20
3.5505841065
 30
0.0
 10
4.8481154627
 20
3.552444088
 30
0.0
 10
4.8473844465
 20
3.5546806965
 30
0.0
 10
4.8468506962
 20
3.5561662888
 30
0.0
 10
4.8465751178
 20
3.5568942437
 30
0.0
  0
SPLINE
  5
330
100
AcDbEntity
  8
0
100
AcDbSpline
 62
7
  6
CONTINUOUS
 70
0
 71
3
 72
8
 73
4
 74
0
 42
0.0000001
 43
0.0000001
 44
0.0000000001
 40
0.0
 40
0.0
 40
0.0
 40
0.0
 40
1.0
 40
1.0
 40
1.0
 40
1.0
 10
4.5859372183
 20
4.8369970142
 30
0.0
 10
4.5837544098
 20
4.8326313912
 30
0.0
 10
4.5801391288
 20
4.8281975566
 30
0.0
 10
4.5750249643
 20
4.8236252892
 30
0.0
  0
SPLINE
  5
331
100
AcDbEntity
  8
0
100
AcDbSpline
 62
7
  6
CONTINUOUS
 70
0
 71
3
 72
8
 73
4
 74
0
 42
0.0000001
 43
0.0000001
 44
0.0000000001
 40
0.0
 40
0.0
 40
0.0
 40
0.0
 40
1.0
 40
1.0
 40
1.0
 40
1.0
 10
4.5750249643
 20
4.8236252892
 30
0.0
 10
4.5698389932
 20
4.8189888238
 30
0.0
 10
4.5638362646
 20
4.8151006936
 30
0.0
 10
4.5570149824
 20
4.8118946909
 30
0.0
  0
SPLINE
  5
332
100
AcDbEntity
  8
0
100
AcDbSpline
 62
7
  6
CONTINUOUS
 70
0
 71
3
 72
8
 73
4
 74
0
 42
0.0000001
 43
0.0000001
 44
0.0000000001
 40
0.0
 40
0.0
 40
0.0
 40
0.0
 40
1.0
 40
1.0
 40
1.0
 40
1.0
 10
4.5570149824
 20
4.8000256597
 30
0.0
 10
4.560834901
 20
4.8013899146
 30
0.0
 10
4.565132308
 20
4.8035045146
 30
0.0
 10
4.5699221006
 20
4.8063441755
 30
0.0
  0
SPLINE
  5
333
100
AcDbEntity
  8
0
100
AcDbSpline
 62
7
  6
CONTINUOUS
 70
0
 71
3
 72
8
 73
4
 74
0
 42
0.0000001
 43
0.0000001
 44
0.0000000001
 40
0.0
 40
0.0
 40
0.0
 40
0.0
 40
1.0
 40
1.0
 40
1.0
 40
1.0
 10
4.5699221006
 20
4.8063441755
 30
0.0
 10
4.5746821031
 20
4.809166175
 30
0.0
 10
4.5785702332
 20
4.8119629024
 30
0.0
 10
4.5815715983
 20
4.8148278414
 30
0.0
  0
SPLINE
  5
334
100
AcDbEntity
  8
0
100
AcDbSpline
 62
7
  6
CONTINUOUS
 70
0
 71
3
 72
8
 73
4
 74
0
 42
0.0000001
 43
0.0000001
 44
0.0000000001
 40
0.0
 40
0.0
 40
0.0
 40
0.0
 40
1.0
 40
1.0
 40
1.0
 40
1.0
 10
4.6865013485
 20
4.8152080864
 30
0.0
 10
4.6852471394
 20
4.8186425709
 30
0.0
 10
4.6837443891
 20
4.8216824612
 30
0.0
 10
4.6820249779
 20
4.8243620651
 30
0.0
  0
SPLINE
  5
335
100
AcDbEntity
  8
0
100
AcDbSpline
 62
7
  6
CONTINUOUS
 70
0
 71
3
 72
8
 73
4
 74
0
 42
0.0000001
 43
0.0000001
 44
0.0000000001
 40
0.0
 40
0.0
 40
0.0
 40
0.0
 40
1.0
 40
1.0
 40
1.0
 40
1.0
 10
4.6820249779
 20
4.8243620651
 30
0.0
 10
4.6793887928
 20
4.8284704088
 30
0.0
 10
4.676046355
 20
4.8315399824
 30
0.0
 10
4.6720141748
 20
4.8337085532
 30
0.0
  0
SPLINE
  5
336
100
AcDbEntity
  8
0
100
AcDbSpline
 62
7
  6
CONTINUOUS
 70
0
 71
3
 72
8
 73
4
 74
0
 42
0.0000001
 43
0.0000001
 44
0.0000000001
 40
0.0
 40
0.0
 40
0.0
 40
0.0
 40
1.0
 40
1.0
 40
1.0
 40
1.0
 10
4.6720141748
 20
4.8337085532
 30
0.0
 10
4.6679290369
 20
4.8359056054
 30
0.0
 10
4.6632223442
 20
4.8369970142
 30
0.0
 10
4.6579017475
 20
4.8369970142
 30
0.0
  0
SPLINE
  5
337
100
AcDbEntity
  8
0
100
AcDbSpline
 62
7
  6
CONTINUOUS
 70
0
 71
3
 72
8
 73
4
 74
0
 42
0.0000001
 43
0.0000001
 44
0.0000000001
 40
0.0
 40
0.0
 40
0.0
 40
0.0
 40
1.0
 40
1.0
 40
1.0
 40
1.0
 10
4.6579017475
 20
4.8369970142
 30
0.0
 10
4.6506029799
 20
4.8369970142
 30
0.0
 10
4.6445320323
 20
4.8350188373
 30
0.0
 10
4.6397739102
 20
4.8311103794
 30
0.0
  0
SPLINE
  5
338
100
AcDbEntity
  8
0
100
AcDbSpline
 62
7
  6
CONTINUOUS
 70
0
 71
3
 72
8
 73
4
 74
0
 42
0.0000001
 43
0.0000001
 44
0.0000000001
 40
0.0
 40
0.0
 40
0.0
 40
0.0
 40
1.0
 40
1.0
 40
1.0
 40
1.0
 10
4.6397739102
 20
4.8311103794
 30
0.0
 10
4.6349822416
 20
4.8271743654
 30
0.0
 10
4.6313669577
 20
4.8216491221
 30
0.0
 10
4.6289112982
 20
4.8144185667
 30
0.0
  0
SPLINE
  5
339
100
AcDbEntity
  8
0
100
AcDbSpline
 62
7
  6
CONTINUOUS
 70
0
 71
3
 72
8
 73
4
 74
0
 42
0.0000001
 43
0.0000001
 44
0.0000000001
 40
0.0
 40
0.0
 40
0.0
 40
0.0
 40
1.0
 40
1.0
 40
1.0
 40
1.0
 10
4.6442793006
 20
4.819656934
 30
0.0
 10
4.6476016119
 20
4.8244458495
 30
0.0
 10
4.652103658
 20
4.8268333017
 30
0.0
 10
4.6577653244
 20
4.8268333017
 30
0.0
  0
SPLINE
  5
33A
100
AcDbEntity
  8
0
100
AcDbSpline
 62
7
  6
CONTINUOUS
 70
0
 71
3
 72
8
 73
4
 74
0
 42
0.0000001
 43
0.0000001
 44
0.0000000001
 40
0.0
 40
0.0
 40
0.0
 40
0.0
 40
1.0
 40
1.0
 40
1.0
 40
1.0
 10
4.6577653244
 20
4.8268333017
 30
0.0
 10
4.6634952023
 20
4.8268333017
 30
0.0
 10
4.6682700946
 20
4.8241047858
 30
0.0
 10
4.6720739396
 20
4.8187046847
 30
0.0
  0
LINE
  5
33B
100
AcDbEntity
  8
0
100
AcDbLine
 62
7
  6
CONTINUOUS
 10
4.6720739396
 20
4.8187046847
 11
4.6729218031
 21
4.8173585477
  0
LINE
  5
33C
100
AcDbEntity
  8
0
100
AcDbLine
 62
7
  6
CONTINUOUS
 10
4.6428541468
 20
4.8172546949
 11
4.6442793006
 21
4.819656934
  0
SPLINE
  5
33D
100
AcDbEntity
  8
0
100
AcDbSpline
 62
7
  6
CONTINUOUS
 70
0
 71
3
 72
8
 73
4
 74
0
 42
0.0000001
 43
0.0000001
 44
0.0000000001
 40
0.0
 40
0.0
 40
0.0
 40
0.0
 40
1.0
 40
1.0
 40
1.0
 40
1.0
 10
4.7219737048
 20
4.819656934
 30
0.0
 10
4.725296016
 20
4.8244458495
 30
0.0
 10
4.7297980621
 20
4.8268333017
 30
0.0
 10
4.7354597285
 20
4.8268333017
 30
0.0
  0
SPLINE
  5
33E
100
AcDbEntity
  8
0
100
AcDbSpline
 62
7
  6
CONTINUOUS
 70
0
 71
3
 72
8
 73
4
 74
0
 42
0.0000001
 43
0.0000001
 44
0.0000000001
 40
0.0
 40
0.0
 40
0.0
 40
0.0
 40
1.0
 40
1.0
 40
1.0
 40
1.0
 10
4.7354597285
 20
4.8268333017
 30
0.0
 10
4.7411896064
 20
4.8268333017
 30
0.0
 10
4.7459644988
 20
4.8241047858
 30
0.0
 10
4.7497683437
 20
4.8187046847
 30
0.0
  0
SPLINE
  5
33F
100
AcDbEntity
  8
0
100
AcDbSpline
 62
7
  6
CONTINUOUS
 70
0
 71
3
 72
8
 73
4
 74
0
 42
0.0000001
 43
0.0000001
 44
0.0000000001
 40
0.0
 40
0.0
 40
0.0
 40
0.0
 40
1.0
 40
1.0
 40
1.0
 40
1.0
 10
4.7497683437
 20
4.8187046847
 30
0.0
 10
4.753604336
 20
4.8132589458
 30
0.0
 10
4.7555825188
 20
4.8023448943
 30
0.0
 10
4.7555825188
 20
4.7859056054
 30
0.0
  0
SPLINE
  5
340
100
AcDbEntity
  8
0
100
AcDbSpline
 62
7
  6
CONTINUOUS
 70
0
 71
3
 72
8
 73
4
 74
0
 42
0.0000001
 43
0.0000001
 44
0.0000000001
 40
0.0
 40
0.0
 40
0.0
 40
0.0
 40
1.0
 40
1.0
 40
1.0
 40
1.0
 10
4.7555825188
 20
4.7859056054
 30
0.0
 10
4.7555825188
 20
4.7695345281
 30
0.0
 10
4.753604336
 20
4.7586204751
 30
0.0
 10
4.7497844174
 20
4.7531634494
 30
0.0
  0
SPLINE
  5
341
100
AcDbEntity
  8
0
100
AcDbSpline
 62
7
  6
CONTINUOUS
 70
0
 71
3
 72
8
 73
4
 74
0
 42
0.0000001
 43
0.0000001
 44
0.0000000001
 40
0.0
 40
0.0
 40
0.0
 40
0.0
 40
1.0
 40
1.0
 40
1.0
 40
1.0
 10
4.7497844174
 20
4.7531634494
 30
0.0
 10
4.7459644988
 20
4.7477064236
 30
0.0
 10
4.7411896064
 20
4.74497791
 30
0.0
 10
4.7355961516
 20
4.74497791
 30
0.0
  0
SPLINE
  5
342
100
AcDbEntity
  8
0
100
AcDbSpline
 62
7
  6
CONTINUOUS
 70
0
 71
3
 72
8
 73
4
 74
0
 42
0.0000001
 43
0.0000001
 44
0.0000000001
 40
0.0
 40
0.0
 40
0.0
 40
0.0
 40
1.0
 40
1.0
 40
1.0
 40
1.0
 10
4.7355961516
 20
4.74497791
 30
0.0
 10
4.7308778676
 20
4.74497791
 30
0.0
 10
4.7267754585
 20
4.74682552
 30
0.0
 10
4.7233283977
 20
4.7505997011
 30
0.0
  0
SPLINE
  5
343
100
AcDbEntity
  8
0
100
AcDbSpline
 62
7
  6
CONTINUOUS
 70
0
 71
3
 72
8
 73
4
 74
0
 42
0.0000001
 43
0.0000001
 44
0.0000000001
 40
0.0
 40
0.0
 40
0.0
 40
0.0
 40
1.0
 40
1.0
 40
1.0
 40
1.0
 10
4.7164237581
 20
4.8015204013
 30
0.0
 10
4.7173974321
 20
4.8096778412
 30
0.0
 10
4.7192456391
 20
4.8157245884
 30
0.0
 10
4.7219737048
 20
4.819656934
 30
0.0
  0
SPLINE
  5
344
100
AcDbEntity
  8
0
100
AcDbSpline
 62
7
  6
CONTINUOUS
 70
0
 71
3
 72
8
 73
4
 74
0
 42
0.0000001
 43
0.0000001
 44
0.0000000001
 40
0.0
 40
0.0
 40
0.0
 40
0.0
 40
1.0
 40
1.0
 40
1.0
 40
1.0
 10
4.7233396304
 20
4.7371537799
 30
0.0
 10
4.7269599623
 20
4.7356355015
 30
0.0
 10
4.7310445997
 20
4.7348824124
 30
0.0
 10
4.7355961516
 20
4.7348824124
 30
0.0
  0
SPLINE
  5
345
100
AcDbEntity
  8
0
100
AcDbSpline
 62
7
  6
CONTINUOUS
 70
0
 71
3
 72
8
 73
4
 74
0
 42
0.0000001
 43
0.0000001
 44
0.0000000001
 40
0.0
 40
0.0
 40
0.0
 40
0.0
 40
1.0
 40
1.0
 40
1.0
 40
1.0
 10
4.7355961516
 20
4.7348824124
 30
0.0
 10
4.7428949311
 20
4.7348824124
 30
0.0
 10
4.7489658787
 20
4.7367923714
 30
0.0
 10
4.753740764
 20
4.7407487095
 30
0.0
  0
SPLINE
  5
346
100
AcDbEntity
  8
0
100
AcDbSpline
 62
7
  6
CONTINUOUS
 70
0
 71
3
 72
8
 73
4
 74
0
 42
0.0000001
 43
0.0000001
 44
0.0000000001
 40
0.0
 40
0.0
 40
0.0
 40
0.0
 40
1.0
 40
1.0
 40
1.0
 40
1.0
 10
4.753740764
 20
4.7407487095
 30
0.0
 10
4.7585156634
 20
4.7447050593
 30
0.0
 10
4.7621309474
 20
4.7502302973
 30
0.0
 10
4.764555923
 20
4.7574710615
 30
0.0
  0
SPLINE
  5
347
100
AcDbEntity
  8
0
100
AcDbSpline
 62
7
  6
CONTINUOUS
 70
0
 71
3
 72
8
 73
4
 74
0
 42
0.0000001
 43
0.0000001
 44
0.0000000001
 40
0.0
 40
0.0
 40
0.0
 40
0.0
 40
1.0
 40
1.0
 40
1.0
 40
1.0
 10
4.764555923
 20
4.7574710615
 30
0.0
 10
4.7669740632
 20
4.7646914153
 30
0.0
 10
4.768201895
 20
4.7741730003
 30
0.0
 10
4.768201895
 20
4.7859056054
 30
0.0
  0
SPLINE
  5
348
100
AcDbEntity
  8
0
100
AcDbSpline
 62
7
  6
CONTINUOUS
 70
0
 71
3
 72
8
 73
4
 74
0
 42
0.0000001
 43
0.0000001
 44
0.0000000001
 40
0.0
 40
0.0
 40
0.0
 40
0.0
 40
1.0
 40
1.0
 40
1.0
 40
1.0
 10
4.768201895
 20
4.7859056054
 30
0.0
 10
4.768201895
 20
4.7957964658
 30
0.0
 10
4.7674515441
 20
4.8036409377
 30
0.0
 10
4.7659508653
 20
4.8095072445
 30
0.0
  0
SPLINE
  5
349
100
AcDbEntity
  8
0
100
AcDbSpline
 62
7
  6
CONTINUOUS
 70
0
 71
3
 72
8
 73
4
 74
0
 42
0.0000001
 43
0.0000001
 44
0.0000000001
 40
0.0
 40
0.0
 40
0.0
 40
0.0
 40
1.0
 40
1.0
 40
1.0
 40
1.0
 10
4.7659508653
 20
4.8095072445
 30
0.0
 10
4.7644501879
 20
4.8153735458
 30
0.0
 10
4.762335582
 20
4.8202848672
 30
0.0
 10
4.7597193821
 20
4.8243620651
 30
0.0
  0
SPLINE
  5
34A
100
AcDbEntity
  8
0
100
AcDbSpline
 62
7
  6
CONTINUOUS
 70
0
 71
3
 72
8
 73
4
 74
0
 42
0.0000001
 43
0.0000001
 44
0.0000000001
 40
0.0
 40
0.0
 40
0.0
 40
0.0
 40
1.0
 40
1.0
 40
1.0
 40
1.0
 10
4.7597193821
 20
4.8243620651
 30
0.0
 10
4.7570831969
 20
4.8284704088
 30
0.0
 10
4.7537407591
 20
4.8315399824
 30
0.0
 10
4.7497085789
 20
4.8337085532
 30
0.0
  0
SPLINE
  5
34B
100
AcDbEntity
  8
0
100
AcDbSpline
 62
7
  6
CONTINUOUS
 70
0
 71
3
 72
8
 73
4
 74
0
 42
0.0000001
 43
0.0000001
 44
0.0000000001
 40
0.0
 40
0.0
 40
0.0
 40
0.0
 40
1.0
 40
1.0
 40
1.0
 40
1.0
 10
4.7497085789
 20
4.8337085532
 30
0.0
 10
4.745623441
 20
4.8359056054
 30
0.0
 10
4.7409167602
 20
4.8369970142
 30
0.0
 10
4.7355961516
 20
4.8369970142
 30
0.0
  0
SPLINE
  5
34C
100
AcDbEntity
  8
0
100
AcDbSpline
 62
7
  6
CONTINUOUS
 70
0
 71
3
 72
8
 73
4
 74
0
 42
0.0000001
 43
0.0000001
 44
0.0000000001
 40
0.0
 40
0.0
 40
0.0
 40
0.0
 40
1.0
 40
1.0
 40
1.0
 40
1.0
 10
4.7355961516
 20
4.8369970142
 30
0.0
 10
4.728297384
 20
4.8369970142
 30
0.0
 10
4.7222264364
 20
4.8350188373
 30
0.0
 10
4.7174683155
 20
4.831110378
 30
0.0
  0
SPLINE
  5
34D
100
AcDbEntity
  8
0
100
AcDbSpline
 62
7
  6
CONTINUOUS
 70
0
 71
3
 72
8
 73
4
 74
0
 42
0.0000001
 43
0.0000001
 44
0.0000000001
 40
0.0
 40
0.0
 40
0.0
 40
0.0
 40
1.0
 40
1.0
 40
1.0
 40
1.0
 10
4.7174683155
 20
4.831110378
 30
0.0
 10
4.7126766517
 20
4.8271743654
 30
0.0
 10
4.7090613678
 20
4.8216491221
 30
0.0
 10
4.706605705
 20
4.8144185658
 30
0.0
  0
LINE
  5
34E
100
AcDbEntity
  8
0
100
AcDbLine
 62
7
  6
CONTINUOUS
 10
4.706605705
 20
4.8144185658
 11
4.7053000536
 21
4.8098651834
  0
SPLINE
  5
34F
100
AcDbEntity
  8
0
100
AcDbSpline
 62
7
  6
CONTINUOUS
 70
0
 71
3
 72
8
 73
4
 74
0
 42
0.0000001
 43
0.0000001
 44
0.0000000001
 40
0.0
 40
0.0
 40
0.0
 40
0.0
 40
1.0
 40
1.0
 40
1.0
 40
1.0
 10
5.2248521656
 20
4.3638945034
 30
0.0
 10
5.2221417878
 20
4.3590546637
 30
0.0
 10
5.217909801
 20
4.3558727531
 30
0.0
 10
5.2122433865
 20
4.3543544419
 30
0.0
  0
SPLINE
  5
350
100
AcDbEntity
  8
0
100
AcDbSpline
 62
7
  6
CONTINUOUS
 70
0
 71
3
 72
8
 73
4
 74
0
 42
0.0000001
 43
0.0000001
 44
0.0000000001
 40
0.0
 40
0.0
 40
0.0
 40
0.0
 40
1.0
 40
1.0
 40
1.0
 40
1.0
 10
5.2122433865
 20
4.3543544419
 30
0.0
 10
5.2065769748
 20
4.3528361315
 30
0.0
 10
5.2014704433
 20
4.3534451759
 30
0.0
 10
5.1968457465
 20
4.3561429682
 30
0.0
  0
SPLINE
  5
351
100
AcDbEntity
  8
0
100
AcDbSpline
 62
7
  6
CONTINUOUS
 70
0
 71
3
 72
8
 73
4
 74
0
 42
0.0000001
 43
0.0000001
 44
0.0000000001
 40
0.0
 40
0.0
 40
0.0
 40
0.0
 40
1.0
 40
1.0
 40
1.0
 40
1.0
 10
5.1968457465
 20
4.3561429682
 30
0.0
 10
5.1921794821
 20
4.3588650088
 30
0.0
 10
5.1891470019
 20
4.3630664175
 30
0.0
 10
5.1876286915
 20
4.3687328292
 30
0.0
  0
SPLINE
  5
352
100
AcDbEntity
  8
0
100
AcDbSpline
 62
7
  6
CONTINUOUS
 70
0
 71
3
 72
8
 73
4
 74
0
 42
0.0000001
 43
0.0000001
 44
0.0000000001
 40
0.0
 40
0.0
 40
0.0
 40
0.0
 40
1.0
 40
1.0
 40
1.0
 40
1.0
 10
5.1876286915
 20
4.3687328292
 30
0.0
 10
5.1866400238
 20
4.3724225873
 30
0.0
 10
5.1865961814
 20
4.3760124153
 30
0.0
 10
5.1874618536
 20
4.3796340877
 30
0.0
  0
SPLINE
  5
353
100
AcDbEntity
  8
0
100
AcDbSpline
 62
7
  6
CONTINUOUS
 70
0
 71
3
 72
8
 73
4
 74
0
 42
0.0000001
 43
0.0000001
 44
0.0000000001
 40
0.0
 40
0.0
 40
0.0
 40
0.0
 40
1.0
 40
1.0
 40
1.0
 40
1.0
 10
5.1874618536
 20
4.3796340877
 30
0.0
 10
5.1883275261
 20
4.3832557614
 30
0.0
 10
5.1901780627
 20
4.3863645191
 30
0.0
 10
5.1929169973
 20
4.388793273
 30
0.0
  0
SPLINE
  5
354
100
AcDbEntity
  8
0
100
AcDbSpline
 62
7
  6
CONTINUOUS
 70
0
 71
3
 72
8
 73
4
 74
0
 42
0.0000001
 43
0.0000001
 44
0.0000000001
 40
0.0
 40
0.0
 40
0.0
 40
0.0
 40
1.0
 40
1.0
 40
1.0
 40
1.0
 10
5.1929169973
 20
4.388793273
 30
0.0
 10
5.1956559324
 20
4.3912220274
 30
0.0
 10
5.1986726135
 20
4.3928777737
 30
0.0
 10
5.2020988166
 20
4.393795822
 30
0.0
  0
SPLINE
  5
355
100
AcDbEntity
  8
0
100
AcDbSpline
 62
7
  6
CONTINUOUS
 70
0
 71
3
 72
8
 73
4
 74
0
 42
0.0000001
 43
0.0000001
 44
0.0000000001
 40
0.0
 40
0.0
 40
0.0
 40
0.0
 40
1.0
 40
1.0
 40
1.0
 40
1.0
 10
5.2020988166
 20
4.393795822
 30
0.0
 10
5.2076334536
 20
4.3952788236
 30
0.0
 10
5.2127223302
 20
4.3947356679
 30
0.0
 10
5.2174007539
 20
4.3920345781
 30
0.0
  0
SPLINE
  5
356
100
AcDbEntity
  8
0
100
AcDbSpline
 62
7
  6
CONTINUOUS
 70
0
 71
3
 72
8
 73
4
 74
0
 42
0.0000001
 43
0.0000001
 44
0.0000000001
 40
0.0
 40
0.0
 40
0.0
 40
0.0
 40
1.0
 40
1.0
 40
1.0
 40
1.0
 10
5.2174007539
 20
4.3920345781
 30
0.0
 10
5.2220791785
 20
4.3893334878
 30
0.0
 10
5.2251598921
 20
4.3852156241
 30
0.0
 10
5.2266605481
 20
4.3796150997
 30
0.0
  0
SPLINE
  5
357
100
AcDbEntity
  8
0
100
AcDbSpline
 62
7
  6
CONTINUOUS
 70
0
 71
3
 72
8
 73
4
 74
0
 42
0.0000001
 43
0.0000001
 44
0.0000000001
 40
0.0
 40
0.0
 40
0.0
 40
0.0
 40
1.0
 40
1.0
 40
1.0
 40
1.0
 10
5.2266605481
 20
4.3796150997
 30
0.0
 10
5.2281788593
 20
4.3739486851
 30
0.0
 10
5.2275392365
 20
4.3686927246
 30
0.0
 10
5.2248521656
 20
4.3638945034
 30
0.0
  0
SPLINE
  5
358
100
AcDbEntity
  8
0
100
AcDbSpline
 62
7
  6
CONTINUOUS
 70
0
 71
3
 72
8
 73
4
 74
0
 42
0.0000001
 43
0.0000001
 44
0.0000000001
 40
0.0
 40
0.0
 40
0.0
 40
0.0
 40
1.0
 40
1.0
 40
1.0
 40
1.0
 10
5.2364344368
 20
4.3818809101
 30
0.0
 10
5.2351632933
 20
4.3866248823
 30
0.0
 10
5.2355888654
 20
4.3908348235
 30
0.0
 10
5.2376902804
 20
4.3945225433
 30
0.0
  0
SPLINE
  5
359
100
AcDbEntity
  8
0
100
AcDbSpline
 62
7
  6
CONTINUOUS
 70
0
 71
3
 72
8
 73
4
 74
0
 42
0.0000001
 43
0.0000001
 44
0.0000000001
 40
0.0
 40
0.0
 40
0.0
 40
0.0
 40
1.0
 40
1.0
 40
1.0
 40
1.0
 10
5.2376902804
 20
4.3945225433
 30
0.0
 10
5.2398157764
 20
4.3982525222
 30
0.0
 10
5.2431171296
 20
4.4006907364
 30
0.0
 10
5.2477293272
 20
4.401926571
 30
0.0
  0
SPLINE
  5
35A
100
AcDbEntity
  8
0
100
AcDbSpline
 62
7
  6
CONTINUOUS
 70
0
 71
3
 72
8
 73
4
 74
0
 42
0.0000001
 43
0.0000001
 44
0.0000000001
 40
0.0
 40
0.0
 40
0.0
 40
0.0
 40
1.0
 40
1.0
 40
1.0
 40
1.0
 10
5.2477293272
 20
4.401926571
 30
0.0
 10
5.2517485275
 20
4.4030035125
 30
0.0
 10
5.2556290227
 20
4.4024896688
 30
0.0
 10
5.2593523819
 20
4.4002559702
 30
0.0
  0
SPLINE
  5
35B
100
AcDbEntity
  8
0
100
AcDbSpline
 62
7
  6
CONTINUOUS
 70
0
 71
3
 72
8
 73
4
 74
0
 42
0.0000001
 43
0.0000001
 44
0.0000000001
 40
0.0
 40
0.0
 40
0.0
 40
0.0
 40
1.0
 40
1.0
 40
1.0
 40
1.0
 10
5.2593523819
 20
4.4002559702
 30
0.0
 10
5.2630337998
 20
4.3980474328
 30
0.0
 10
5.2654896714
 20
4.394680193
 30
0.0
 10
5.2667078508
 20
4.3901338856
 30
0.0
  0
SPLINE
  5
35C
100
AcDbEntity
  8
0
100
AcDbSpline
 62
7
  6
CONTINUOUS
 70
0
 71
3
 72
8
 73
4
 74
0
 42
0.0000001
 43
0.0000001
 44
0.0000000001
 40
0.0
 40
0.0
 40
0.0
 40
0.0
 40
1.0
 40
1.0
 40
1.0
 40
1.0
 10
5.2667078508
 20
4.3901338856
 30
0.0
 10
5.2679083757
 20
4.3856534655
 30
0.0
 10
5.2673816067
 20
4.3815576474
 30
0.0
 10
5.2652287426
 20
4.3777323096
 30
0.0
  0
SPLINE
  5
35D
100
AcDbEntity
  8
0
100
AcDbSpline
 62
7
  6
CONTINUOUS
 70
0
 71
3
 72
8
 73
4
 74
0
 42
0.0000001
 43
0.0000001
 44
0.0000000001
 40
0.0
 40
0.0
 40
0.0
 40
0.0
 40
1.0
 40
1.0
 40
1.0
 40
1.0
 10
5.2652287426
 20
4.3777323096
 30
0.0
 10
5.2630758795
 20
4.3739069735
 30
0.0
 10
5.2598580688
 20
4.3714205235
 30
0.0
 10
5.2555094261
 20
4.3702553082
 30
0.0
  0
SPLINE
  5
35E
100
AcDbEntity
  8
0
100
AcDbSpline
 62
7
  6
CONTINUOUS
 70
0
 71
3
 72
8
 73
4
 74
0
 42
0.0000001
 43
0.0000001
 44
0.0000000001
 40
0.0
 40
0.0
 40
0.0
 40
0.0
 40
1.0
 40
1.0
 40
1.0
 40
1.0
 10
5.2555094261
 20
4.3702553082
 30
0.0
 10
5.2512925581
 20
4.3691254018
 30
0.0
 10
5.2473944077
 20
4.3697051358
 30
0.0
 10
5.2437185043
 20
4.3718274184
 30
0.0
  0
SPLINE
  5
35F
100
AcDbEntity
  8
0
100
AcDbSpline
 62
7
  6
CONTINUOUS
 70
0
 71
3
 72
8
 73
4
 74
0
 42
0.0000001
 43
0.0000001
 44
0.0000000001
 40
0.0
 40
0.0
 40
0.0
 40
0.0
 40
1.0
 40
1.0
 40
1.0
 40
1.0
 10
5.2437185043
 20
4.3718274184
 30
0.0
 10
5.2400425955
 20
4.3739497041
 30
0.0
 10
5.237652617
 20
4.3773345999
 30
0.0
 10
5.2364344368
 20
4.3818809101
 30
0.0
  0
SPLINE
  5
360
100
AcDbEntity
  8
0
100
AcDbSpline
 62
7
  6
CONTINUOUS
 70
0
 71
3
 72
8
 73
4
 74
0
 42
0.0000001
 43
0.0000001
 44
0.0000000001
 40
0.0
 40
0.0
 40
0.0
 40
0.0
 40
1.0
 40
1.0
 40
1.0
 40
1.0
 10
5.19889857
 20
4.4060028539
 30
0.0
 10
5.1904648398
 20
4.4037430427
 30
0.0
 10
5.1841915775
 20
4.3989548865
 30
0.0
 10
5.1800757029
 20
4.3915841138
 30
0.0
  0
SPLINE
  5
361
100
AcDbEntity
  8
0
100
AcDbSpline
 62
7
  6
CONTINUOUS
 70
0
 71
3
 72
8
 73
4
 74
0
 42
0.0000001
 43
0.0000001
 44
0.0000000001
 40
0.0
 40
0.0
 40
0.0
 40
0.0
 40
1.0
 40
1.0
 40
1.0
 40
1.0
 10
5.1800757029
 20
4.3915841138
 30
0.0
 10
5.1759836464
 20
4.3842559947
 30
0.0
 10
5.175281937
 20
4.3758055371
 30
0.0
 10
5.17784188
 20
4.3662516996
 30
0.0
  0
SPLINE
  5
362
100
AcDbEntity
  8
0
100
AcDbSpline
 62
7
  6
CONTINUOUS
 70
0
 71
3
 72
8
 73
4
 74
0
 42
0.0000001
 43
0.0000001
 44
0.0000000001
 40
0.0
 40
0.0
 40
0.0
 40
0.0
 40
1.0
 40
1.0
 40
1.0
 40
1.0
 10
5.17784188
 20
4.3662516996
 30
0.0
 10
5.1803841678
 20
4.3567637524
 30
0.0
 10
5.1852170951
 20
4.3497962947
 30
0.0
 10
5.1924543553
 20
4.3454498131
 30
0.0
  0
SPLINE
  5
363
100
AcDbEntity
  8
0
100
AcDbSpline
 62
7
  6
CONTINUOUS
 70
0
 71
3
 72
8
 73
4
 74
0
 42
0.0000001
 43
0.0000001
 44
0.0000000001
 40
0.0
 40
0.0
 40
0.0
 40
0.0
 40
1.0
 40
1.0
 40
1.0
 40
1.0
 10
5.1924543553
 20
4.3454498131
 30
0.0
 10
5.1996089296
 20
4.3411529902
 30
0.0
 10
5.2073216887
 20
4.3400417613
 30
0.0
 10
5.2156236429
 20
4.3422662633
 30
0.0
  0
SPLINE
  5
364
100
AcDbEntity
  8
0
100
AcDbSpline
 62
7
  6
CONTINUOUS
 70
0
 71
3
 72
8
 73
4
 74
0
 42
0.0000001
 43
0.0000001
 44
0.0000000001
 40
0.0
 40
0.0
 40
0.0
 40
0.0
 40
1.0
 40
1.0
 40
1.0
 40
1.0
 10
5.2156236429
 20
4.3422662633
 30
0.0
 10
5.2215536124
 20
4.3438551938
 30
0.0
 10
5.2262692025
 20
4.3468135904
 30
0.0
 10
5.2297726694
 20
4.3510881427
 30
0.0
  0
SPLINE
  5
365
100
AcDbEntity
  8
0
100
AcDbSpline
 62
7
  6
CONTINUOUS
 70
0
 71
3
 72
8
 73
4
 74
0
 42
0.0000001
 43
0.0000001
 44
0.0000000001
 40
0.0
 40
0.0
 40
0.0
 40
0.0
 40
1.0
 40
1.0
 40
1.0
 40
1.0
 10
5.2297726694
 20
4.3510881427
 30
0.0
 10
5.2332410513
 20
4.3553198881
 30
0.0
 10
5.235137288
 20
4.3606300799
 30
0.0
 10
5.2355250118
 20
4.3670896893
 30
0.0
  0
SPLINE
  5
366
100
AcDbEntity
  8
0
100
AcDbSpline
 62
7
  6
CONTINUOUS
 70
0
 71
3
 72
8
 73
4
 74
0
 42
0.0000001
 43
0.0000001
 44
0.0000000001
 40
0.0
 40
0.0
 40
0.0
 40
0.0
 40
1.0
 40
1.0
 40
1.0
 40
1.0
 10
5.2355250118
 20
4.3670896893
 30
0.0
 10
5.2385751471
 20
4.3628223965
 30
0.0
 10
5.2420981552
 20
4.3599529547
 30
0.0
 10
5.2460281562
 20
4.3584637052
 30
0.0
  0
SPLINE
  5
367
100
AcDbEntity
  8
0
100
AcDbSpline
 62
7
  6
CONTINUOUS
 70
0
 71
3
 72
8
 73
4
 74
0
 42
0.0000001
 43
0.0000001
 44
0.0000000001
 40
0.0
 40
0.0
 40
0.0
 40
0.0
 40
1.0
 40
1.0
 40
1.0
 40
1.0
 10
5.2460281562
 20
4.3584637052
 30
0.0
 10
5.2499581572
 20
4.3569744557
 30
0.0
 10
5.2542292492
 20
4.3568477524
 30
0.0
 10
5.2587096722
 20
4.3580482782
 30
0.0
  0
SPLINE
  5
368
100
AcDbEntity
  8
0
100
AcDbSpline
 62
7
  6
CONTINUOUS
 70
0
 71
3
 72
8
 73
4
 74
0
 42
0.0000001
 43
0.0000001
 44
0.0000000001
 40
0.0
 40
0.0
 40
0.0
 40
0.0
 40
1.0
 40
1.0
 40
1.0
 40
1.0
 10
5.2587096722
 20
4.3580482782
 30
0.0
 10
5.265693853
 20
4.3599196838
 30
0.0
 10
5.2710011768
 20
4.3640959204
 30
0.0
 10
5.274499852
 20
4.3705416745
 30
0.0
  0
SPLINE
  5
369
100
AcDbEntity
  8
0
100
AcDbSpline
 62
7
  6
CONTINUOUS
 70
0
 71
3
 72
8
 73
4
 74
0
 42
0.0000001
 43
0.0000001
 44
0.0000000001
 40
0.0
 40
0.0
 40
0.0
 40
0.0
 40
1.0
 40
1.0
 40
1.0
 40
1.0
 10
5.274499852
 20
4.3705416745
 30
0.0
 10
5.2779985311
 20
4.3769874361
 30
0.0
 10
5.2786838582
 20
4.3844448379
 30
0.0
 10
5.276424047
 20
4.3928785682
 30
0.0
  0
SPLINE
  5
36A
100
AcDbEntity
  8
0
100
AcDbSpline
 62
7
  6
CONTINUOUS
 70
0
 71
3
 72
8
 73
4
 74
0
 42
0.0000001
 43
0.0000001
 44
0.0000000001
 40
0.0
 40
0.0
 40
0.0
 40
0.0
 40
1.0
 40
1.0
 40
1.0
 40
1.0
 10
5.276424047
 20
4.3928785682
 30
0.0
 10
5.274164235
 20
4.4013123013
 30
0.0
 10
5.2699255656
 20
4.4073797029
 30
0.0
 10
5.2638391541
 20
4.4111149841
 30
0.0
  0
SPLINE
  5
36B
100
AcDbEntity
  8
0
100
AcDbSpline
 62
7
  6
CONTINUOUS
 70
0
 71
3
 72
8
 73
4
 74
0
 42
0.0000001
 43
0.0000001
 44
0.0000000001
 40
0.0
 40
0.0
 40
0.0
 40
0.0
 40
1.0
 40
1.0
 40
1.0
 40
1.0
 10
5.2638391541
 20
4.4111149841
 30
0.0
 10
5.257670553
 20
4.4149007059
 30
0.0
 10
5.2510696991
 20
4.4158155382
 30
0.0
 10
5.2440855183
 20
4.4139441326
 30
0.0
  0
SPLINE
  5
36C
100
AcDbEntity
  8
0
100
AcDbSpline
 62
7
  6
CONTINUOUS
 70
0
 71
3
 72
8
 73
4
 74
0
 42
0.0000001
 43
0.0000001
 44
0.0000000001
 40
0.0
 40
0.0
 40
0.0
 40
0.0
 40
1.0
 40
1.0
 40
1.0
 40
1.0
 10
5.2440855183
 20
4.4139441326
 30
0.0
 10
5.2394074334
 20
4.4126906435
 30
0.0
 10
5.235706019
 20
4.410427709
 30
0.0
 10
5.2330319192
 20
4.4071856145
 30
0.0
  0
SPLINE
  5
36D
100
AcDbEntity
  8
0
100
AcDbSpline
 62
7
  6
CONTINUOUS
 70
0
 71
3
 72
8
 73
4
 74
0
 42
0.0000001
 43
0.0000001
 44
0.0000000001
 40
0.0
 40
0.0
 40
0.0
 40
0.0
 40
1.0
 40
1.0
 40
1.0
 40
1.0
 10
5.2330319192
 20
4.4071856145
 30
0.0
 10
5.230322419
 20
4.4039006005
 30
0.0
 10
5.2287237806
 20
4.3995881968
 30
0.0
 10
5.2282688973
 20
4.3941698775
 30
0.0
  0
SPLINE
  5
36E
100
AcDbEntity
  8
0
100
AcDbSpline
 62
7
  6
CONTINUOUS
 70
0
 71
3
 72
8
 73
4
 74
0
 42
0.0000001
 43
0.0000001
 44
0.0000000001
 40
0.0
 40
0.0
 40
0.0
 40
0.0
 40
1.0
 40
1.0
 40
1.0
 40
1.0
 10
5.2282688973
 20
4.3941698775
 30
0.0
 10
5.2250986434
 20
4.3996761297
 30
0.0
 10
5.2209813676
 20
4.4034456281
 30
0.0
 10
5.2159170731
 20
4.4054783721
 30
0.0
  0
SPLINE
  5
36F
100
AcDbEntity
  8
0
100
AcDbSpline
 62
7
  6
CONTINUOUS
 70
0
 71
3
 72
8
 73
4
 74
0
 42
0.0000001
 43
0.0000001
 44
0.0000000001
 40
0.0
 40
0.0
 40
0.0
 40
0.0
 40
1.0
 40
1.0
 40
1.0
 40
1.0
 10
5.2159170731
 20
4.4054783721
 30
0.0
 10
5.2108527786
 20
4.407511116
 30
0.0
 10
5.2051579818
 20
4.4076800582
 30
0.0
 10
5.19889857
 20
4.4060028539
 30
0.0
  0
SPLINE
  5
370
100
AcDbEntity
  8
0
100
AcDbSpline
 62
7
  6
CONTINUOUS
 70
0
 71
3
 72
8
 73
4
 74
0
 42
0.0000001
 43
0.0000001
 44
0.0000000001
 40
0.0
 40
0.0
 40
0.0
 40
0.0
 40
1.0
 40
1.0
 40
1.0
 40
1.0
 10
5.2510412095
 20
4.2904060469
 30
0.0
 10
5.2481323131
 20
4.2855130202
 30
0.0
 10
5.2433073291
 20
4.2821722165
 30
0.0
 10
5.2365867004
 20
4.2803714295
 30
0.0
  0
SPLINE
  5
371
100
AcDbEntity
  8
0
100
AcDbSpline
 62
7
  6
CONTINUOUS
 70
0
 71
3
 72
8
 73
4
 74
0
 42
0.0000001
 43
0.0000001
 44
0.0000000001
 40
0.0
 40
0.0
 40
0.0
 40
0.0
 40
1.0
 40
1.0
 40
1.0
 40
1.0
 10
5.2365867004
 20
4.2803714295
 30
0.0
 10
5.2294707392
 20
4.2784647134
 30
0.0
 10
5.2232087932
 20
4.278905401
 30
0.0
 10
5.2178561601
 20
4.281690695
 30
0.0
  0
SPLINE
  5
372
100
AcDbEntity
  8
0
100
AcDbSpline
 62
7
  6
CONTINUOUS
 70
0
 71
3
 72
8
 73
4
 74
0
 42
0.0000001
 43
0.0000001
 44
0.0000000001
 40
0.0
 40
0.0
 40
0.0
 40
0.0
 40
1.0
 40
1.0
 40
1.0
 40
1.0
 10
5.2178561601
 20
4.281690695
 30
0.0
 10
5.2124588226
 20
4.2844992514
 30
0.0
 10
5.2090439385
 20
4.2888100394
 30
0.0
 10
5.207525625
 20
4.2944764626
 30
0.0
  0
SPLINE
  5
373
100
AcDbEntity
  8
0
100
AcDbSpline
 62
7
  6
CONTINUOUS
 70
0
 71
3
 72
8
 73
4
 74
0
 42
0.0000001
 43
0.0000001
 44
0.0000000001
 40
0.0
 40
0.0
 40
0.0
 40
0.0
 40
1.0
 40
1.0
 40
1.0
 40
1.0
 10
5.207525625
 20
4.2944764626
 30
0.0
 10
5.206254483
 20
4.299220429
 30
0.0
 10
5.2066753223
 20
4.3037115825
 30
0.0
 10
5.2088058002
 20
4.3078840126
 30
0.0
  0
SPLINE
  5
374
100
AcDbEntity
  8
0
100
AcDbSpline
 62
7
  6
CONTINUOUS
 70
0
 71
3
 72
8
 73
4
 74
0
 42
0.0000001
 43
0.0000001
 44
0.0000000001
 40
0.0
 40
0.0
 40
0.0
 40
0.0
 40
1.0
 40
1.0
 40
1.0
 40
1.0
 10
5.2088058002
 20
4.3078840126
 30
0.0
 10
5.2109362809
 20
4.3120564479
 30
0.0
 10
5.2149835238
 20
4.3154007162
 30
0.0
 10
5.2207981011
 20
4.3179473951
 30
0.0
  0
SPLINE
  5
375
100
AcDbEntity
  8
0
100
AcDbSpline
 62
7
  6
CONTINUOUS
 70
0
 71
3
 72
8
 73
4
 74
0
 42
0.0000001
 43
0.0000001
 44
0.0000000001
 40
0.0
 40
0.0
 40
0.0
 40
0.0
 40
1.0
 40
1.0
 40
1.0
 40
1.0
 10
5.2164071298
 20
4.3301178549
 30
0.0
 10
5.2084488111
 20
4.3271379977
 30
0.0
 10
5.2027732762
 20
4.3222275267
 30
0.0
 10
5.1993577239
 20
4.3153978872
 30
0.0
  0
SPLINE
  5
376
100
AcDbEntity
  8
0
100
AcDbSpline
 62
7
  6
CONTINUOUS
 70
0
 71
3
 72
8
 73
4
 74
0
 42
0.0000001
 43
0.0000001
 44
0.0000000001
 40
0.0
 40
0.0
 40
0.0
 40
0.0
 40
1.0
 40
1.0
 40
1.0
 40
1.0
 10
5.1993577239
 20
4.3153978872
 30
0.0
 10
5.1959218886
 20
4.3085276906
 30
0.0
 10
5.1954083837
 20
4.3006926154
 30
0.0
 10
5.1977741231
 20
4.2918635556
 30
0.0
  0
SPLINE
  5
377
100
AcDbEntity
  8
0
100
AcDbSpline
 62
7
  6
CONTINUOUS
 70
0
 71
3
 72
8
 73
4
 74
0
 42
0.0000001
 43
0.0000001
 44
0.0000000001
 40
0.0
 40
0.0
 40
0.0
 40
0.0
 40
1.0
 40
1.0
 40
1.0
 40
1.0
 10
5.1977741231
 20
4.2918635556
 30
0.0
 10
5.2006341995
 20
4.2811896052
 30
0.0
 10
5.2067990868
 20
4.2737316253
 30
0.0
 10
5.2162855427
 20
4.269607394
 30
0.0
  0
SPLINE
  5
378
100
AcDbEntity
  8
0
100
AcDbSpline
 62
7
  6
CONTINUOUS
 70
0
 71
3
 72
8
 73
4
 74
0
 42
0.0000001
 43
0.0000001
 44
0.0000000001
 40
0.0
 40
0.0
 40
0.0
 40
0.0
 40
1.0
 40
1.0
 40
1.0
 40
1.0
 10
5.2162855427
 20
4.269607394
 30
0.0
 10
5.2239840899
 20
4.266260455
 30
0.0
 10
5.2322498067
 20
4.2657211036
 30
0.0
 10
5.2410129821
 20
4.2680691894
 30
0.0
  0
SPLINE
  5
379
100
AcDbEntity
  8
0
100
AcDbSpline
 62
7
  6
CONTINUOUS
 70
0
 71
3
 72
8
 73
4
 74
0
 42
0.0000001
 43
0.0000001
 44
0.0000000001
 40
0.0
 40
0.0
 40
0.0
 40
0.0
 40
1.0
 40
1.0
 40
1.0
 40
1.0
 10
5.2410129821
 20
4.2680691894
 30
0.0
 10
5.250171487
 20
4.2705232034
 30
0.0
 10
5.2569059694
 20
4.2754349473
 30
0.0
 10
5.2611956148
 20
4.2828164656
 30
0.0
  0
SPLINE
  5
37A
100
AcDbEntity
  8
0
100
AcDbSpline
 62
7
  6
CONTINUOUS
 70
0
 71
3
 72
8
 73
4
 74
0
 42
0.0000001
 43
0.0000001
 44
0.0000000001
 40
0.0
 40
0.0
 40
0.0
 40
0.0
 40
1.0
 40
1.0
 40
1.0
 40
1.0
 10
5.2611956148
 20
4.2828164656
 30
0.0
 10
5.2654609934
 20
4.2901562261
 30
0.0
 10
5.2665192651
 20
4.2980666472
 30
0.0
 10
5.2642594523
 20
4.3065003832
 30
0.0
  0
SPLINE
  5
37B
100
AcDbEntity
  8
0
100
AcDbSpline
 62
7
  6
CONTINUOUS
 70
0
 71
3
 72
8
 73
4
 74
0
 42
0.0000001
 43
0.0000001
 44
0.0000000001
 40
0.0
 40
0.0
 40
0.0
 40
0.0
 40
1.0
 40
1.0
 40
1.0
 40
1.0
 10
5.2642594523
 20
4.3065003832
 30
0.0
 10
5.2625469398
 20
4.3128915667
 30
0.0
 10
5.2588801529
 20
4.318406015
 30
0.0
 10
5.2533073317
 20
4.3231272656
 30
0.0
  0
SPLINE
  5
37C
100
AcDbEntity
  8
0
100
AcDbSpline
 62
7
  6
CONTINUOUS
 70
0
 71
3
 72
8
 73
4
 74
0
 42
0.0000001
 43
0.0000001
 44
0.0000000001
 40
0.0
 40
0.0
 40
0.0
 40
0.0
 40
1.0
 40
1.0
 40
1.0
 40
1.0
 10
5.2388657506
 20
4.3219411813
 30
0.0
 10
5.2420920912
 20
4.3209695769
 30
0.0
 10
5.2449855281
 20
4.3191319692
 30
0.0
 10
5.247540309
 20
4.3165058655
 30
0.0
  0
SPLINE
  5
37D
100
AcDbEntity
  8
0
100
AcDbSpline
 62
7
  6
CONTINUOUS
 70
0
 71
3
 72
8
 73
4
 74
0
 42
0.0000001
 43
0.0000001
 44
0.0000000001
 40
0.0
 40
0.0
 40
0.0
 40
0.0
 40
1.0
 40
1.0
 40
1.0
 40
1.0
 10
5.247540309
 20
4.3165058655
 30
0.0
 10
5.2500536259
 20
4.3139223833
 30
0.0
 10
5.2519117698
 20
4.310677454
 30
0.0
 10
5.2529357464
 20
4.3068559214
 30
0.0
  0
SPLINE
  5
37E
100
AcDbEntity
  8
0
100
AcDbSpline
 62
7
  6
CONTINUOUS
 70
0
 71
3
 72
8
 73
4
 74
0
 42
0.0000001
 43
0.0000001
 44
0.0000000001
 40
0.0
 40
0.0
 40
0.0
 40
0.0
 40
1.0
 40
1.0
 40
1.0
 40
1.0
 10
5.2529357464
 20
4.3068559214
 30
0.0
 10
5.254577641
 20
4.300728287
 30
0.0
 10
5.2539250958
 20
4.2952570044
 30
0.0
 10
5.2510412095
 20
4.2904060469
 30
0.0
  0
SPLINE
  5
37F
100
AcDbEntity
  8
0
100
AcDbSpline
 62
7
  6
CONTINUOUS
 70
0
 71
3
 72
8
 73
4
 74
0
 42
0.0000001
 43
0.0000001
 44
0.0000000001
 40
0.0
 40
0.0
 40
0.0
 40
0.0
 40
1.0
 40
1.0
 40
1.0
 40
1.0
 10
5.1742844635
 20
3.8562012119
 30
0.0
 10
5.1798637099
 20
3.844651244
 30
0.0
 10
5.1836399043
 20
3.8343460528
 30
0.0
 10
5.1855497951
 20
3.8251811195
 30
0.0
  0
SPLINE
  5
380
100
AcDbEntity
  8
0
100
AcDbSpline
 62
7
  6
CONTINUOUS
 70
0
 71
3
 72
8
 73
4
 74
0
 42
0.0000001
 43
0.0000001
 44
0.0000000001
 40
0.0
 40
0.0
 40
0.0
 40
0.0
 40
1.0
 40
1.0
 40
1.0
 40
1.0
 10
5.1927438048
 20
3.8393797691
 30
0.0
 10
5.1905321541
 20
3.8485894478
 30
0.0
 10
5.1867447147
 20
3.8584028763
 30
0.0
 10
5.1814206054
 20
3.86887593
 30
0.0
  0
SPLINE
  5
381
100
AcDbEntity
  8
0
100
AcDbSpline
 62
7
  6
CONTINUOUS
 70
0
 71
3
 72
8
 73
4
 74
0
 42
0.0000001
 43
0.0000001
 44
0.0000000001
 40
0.0
 40
0.0
 40
0.0
 40
0.0
 40
1.0
 40
1.0
 40
1.0
 40
1.0
 10
5.1814206054
 20
3.86887593
 30
0.0
 10
5.1760964979
 20
3.8793489803
 30
0.0
 10
5.1697496256
 20
3.8889560006
 30
0.0
 10
5.1623426345
 20
3.8977516788
 30
0.0
  0
SPLINE
  5
382
100
AcDbEntity
  8
0
100
AcDbSpline
 62
7
  6
CONTINUOUS
 70
0
 71
3
 72
8
 73
4
 74
0
 42
0.0000001
 43
0.0000001
 44
0.0000000001
 40
0.0
 40
0.0
 40
0.0
 40
0.0
 40
1.0
 40
1.0
 40
1.0
 40
1.0
 10
5.1623426345
 20
3.8977516788
 30
0.0
 10
5.1548818519
 20
3.9066112337
 30
0.0
 10
5.1479757507
 20
3.9132789329
 30
0.0
 10
5.1416281838
 20
3.9178900925
 30
0.0
  0
SPLINE
  5
383
100
AcDbEntity
  8
0
100
AcDbSpline
 62
7
  6
CONTINUOUS
 70
0
 71
3
 72
8
 73
4
 74
0
 42
0.0000001
 43
0.0000001
 44
0.0000000001
 40
0.0
 40
0.0
 40
0.0
 40
0.0
 40
1.0
 40
1.0
 40
1.0
 40
1.0
 10
5.1343900096
 20
3.9075529084
 30
0.0
 10
5.1421567503
 20
3.9012818505
 30
0.0
 10
5.1487443441
 20
3.8947539034
 30
0.0
 10
5.1542282366
 20
3.8879457292
 30
0.0
  0
SPLINE
  5
384
100
AcDbEntity
  8
0
100
AcDbSpline
 62
7
  6
CONTINUOUS
 70
0
 71
3
 72
8
 73
4
 74
0
 42
0.0000001
 43
0.0000001
 44
0.0000000001
 40
0.0
 40
0.0
 40
0.0
 40
0.0
 40
1.0
 40
1.0
 40
1.0
 40
1.0
 10
5.1195658465
 20
3.7866329819
 30
0.0
 10
5.1279301617
 20
3.7880834195
 30
0.0
 10
5.1346701397
 20
3.7923574569
 30
0.0
 10
5.1396781767
 20
3.7995096749
 30
0.0
  0
SPLINE
  5
385
100
AcDbEntity
  8
0
100
AcDbSpline
 62
7
  6
CONTINUOUS
 70
0
 71
3
 72
8
 73
4
 74
0
 42
0.0000001
 43
0.0000001
 44
0.0000000001
 40
0.0
 40
0.0
 40
0.0
 40
0.0
 40
1.0
 40
1.0
 40
1.0
 40
1.0
 10
5.1396781767
 20
3.7995096749
 30
0.0
 10
5.1434733256
 20
3.8049297092
 30
0.0
 10
5.1453406728
 20
3.81128325
 30
0.0
 10
5.1453752202
 20
3.8185870401
 30
0.0
  0
SPLINE
  5
386
100
AcDbEntity
  8
0
100
AcDbSpline
 62
7
  6
CONTINUOUS
 70
0
 71
3
 72
8
 73
4
 74
0
 42
0.0000001
 43
0.0000001
 44
0.0000000001
 40
0.0
 40
0.0
 40
0.0
 40
0.0
 40
1.0
 40
1.0
 40
1.0
 40
1.0
 10
5.1351837575
 20
3.8288875328
 30
0.0
 10
5.1365133171
 20
3.8257914772
 30
0.0
 10
5.1369654934
 20
3.8223937845
 30
0.0
 10
5.1365959627
 20
3.8187486819
 30
0.0
  0
SPLINE
  5
387
100
AcDbEntity
  8
0
100
AcDbSpline
 62
7
  6
CONTINUOUS
 70
0
 71
3
 72
8
 73
4
 74
0
 42
0.0000001
 43
0.0000001
 44
0.0000000001
 40
0.0
 40
0.0
 40
0.0
 40
0.0
 40
1.0
 40
1.0
 40
1.0
 40
1.0
 10
5.1365959627
 20
3.8187486819
 30
0.0
 10
5.1362324294
 20
3.815162739
 30
0.0
 10
5.1349410613
 20
3.8116535179
 30
0.0
 10
5.1326717969
 20
3.8084126725
 30
0.0
  0
SPLINE
  5
388
100
AcDbEntity
  8
0
100
AcDbSpline
 62
7
  6
CONTINUOUS
 70
0
 71
3
 72
8
 73
4
 74
0
 42
0.0000001
 43
0.0000001
 44
0.0000000001
 40
0.0
 40
0.0
 40
0.0
 40
0.0
 40
1.0
 40
1.0
 40
1.0
 40
1.0
 10
5.1326717969
 20
3.8084126725
 30
0.0
 10
5.1290331462
 20
3.8032161408
 30
0.0
 10
5.1244224526
 20
3.8001991468
 30
0.0
 10
5.1188526772
 20
3.7992901965
 30
0.0
  0
SPLINE
  5
389
100
AcDbEntity
  8
0
100
AcDbSpline
 62
7
  6
CONTINUOUS
 70
0
 71
3
 72
8
 73
4
 74
0
 42
0.0000001
 43
0.0000001
 44
0.0000000001
 40
0.0
 40
0.0
 40
0.0
 40
0.0
 40
1.0
 40
1.0
 40
1.0
 40
1.0
 10
5.1188526772
 20
3.7992901965
 30
0.0
 10
5.1132345987
 20
3.7983733635
 30
0.0
 10
5.1075739546
 20
3.7999220884
 30
0.0
 10
5.1018745348
 20
3.8039128651
 30
0.0
  0
SPLINE
  5
38A
100
AcDbEntity
  8
0
100
AcDbSpline
 62
7
  6
CONTINUOUS
 70
0
 71
3
 72
8
 73
4
 74
0
 42
0.0000001
 43
0.0000001
 44
0.0000000001
 40
0.0
 40
0.0
 40
0.0
 40
0.0
 40
1.0
 40
1.0
 40
1.0
 40
1.0
 10
5.1018745348
 20
3.8039128651
 30
0.0
 10
5.095839854
 20
3.8081383941
 30
0.0
 10
5.0921523389
 20
3.8132185916
 30
0.0
 10
5.0908453917
 20
3.8191092989
 30
0.0
  0
SPLINE
  5
38B
100
AcDbEntity
  8
0
100
AcDbSpline
 62
7
  6
CONTINUOUS
 70
0
 71
3
 72
8
 73
4
 74
0
 42
0.0000001
 43
0.0000001
 44
0.0000000001
 40
0.0
 40
0.0
 40
0.0
 40
0.0
 40
1.0
 40
1.0
 40
1.0
 40
1.0
 10
5.0908453917
 20
3.8191092989
 30
0.0
 10
5.089527529
 20
3.8250492045
 30
0.0
 10
5.090634739
 20
3.8304360787
 30
0.0
 10
5.0939995179
 20
3.835241481
 30
0.0
  0
SPLINE
  5
38C
100
AcDbEntity
  8
0
100
AcDbSpline
 62
7
  6
CONTINUOUS
 70
0
 71
3
 72
8
 73
4
 74
0
 42
0.0000001
 43
0.0000001
 44
0.0000000001
 40
0.0
 40
0.0
 40
0.0
 40
0.0
 40
1.0
 40
1.0
 40
1.0
 40
1.0
 10
5.0939995179
 20
3.835241481
 30
0.0
 10
5.0968165327
 20
3.839264595
 30
0.0
 10
5.1005274661
 20
3.8418290712
 30
0.0
 10
5.1050931778
 20
3.8428790168
 30
0.0
  0
SPLINE
  5
38D
100
AcDbEntity
  8
0
100
AcDbSpline
 62
7
  6
CONTINUOUS
 70
0
 71
3
 72
8
 73
4
 74
0
 42
0.0000001
 43
0.0000001
 44
0.0000000001
 40
0.0
 40
0.0
 40
0.0
 40
0.0
 40
1.0
 40
1.0
 40
1.0
 40
1.0
 10
5.1050931778
 20
3.8428790168
 30
0.0
 10
5.1096588953
 20
3.8439289637
 30
0.0
 10
5.1148222711
 20
3.8429782499
 30
0.0
 10
5.1205106785
 20
3.840160999
 30
0.0
  0
SPLINE
  5
38E
100
AcDbEntity
  8
0
100
AcDbSpline
 62
7
  6
CONTINUOUS
 70
0
 71
3
 72
8
 73
4
 74
0
 42
0.0000001
 43
0.0000001
 44
0.0000000001
 40
0.0
 40
0.0
 40
0.0
 40
0.0
 40
1.0
 40
1.0
 40
1.0
 40
1.0
 10
5.1270113297
 20
3.8513476989
 30
0.0
 10
5.119613118
 20
3.8555287094
 30
0.0
 10
5.1122033154
 20
3.8567200314
 30
0.0
 10
5.1047760334
 20
3.8549464887
 30
0.0
  0
SPLINE
  5
38F
100
AcDbEntity
  8
0
100
AcDbSpline
 62
7
  6
CONTINUOUS
 70
0
 71
3
 72
8
 73
4
 74
0
 42
0.0000001
 43
0.0000001
 44
0.0000000001
 40
0.0
 40
0.0
 40
0.0
 40
0.0
 40
1.0
 40
1.0
 40
1.0
 40
1.0
 10
5.1047760334
 20
3.8549464887
 30
0.0
 10
5.0973046451
 20
3.853162414
 30
0.0
 10
5.0909725546
 20
3.8485194923
 30
0.0
 10
5.0857297704
 20
3.8410320205
 30
0.0
  0
SPLINE
  5
390
100
AcDbEntity
  8
0
100
AcDbSpline
 62
7
  6
CONTINUOUS
 70
0
 71
3
 72
8
 73
4
 74
0
 42
0.0000001
 43
0.0000001
 44
0.0000000001
 40
0.0
 40
0.0
 40
0.0
 40
0.0
 40
1.0
 40
1.0
 40
1.0
 40
1.0
 10
5.0857297704
 20
3.8410320205
 30
0.0
 10
5.0793914717
 20
3.8319799918
 30
0.0
 10
5.0776410408
 20
3.8224635171
 30
0.0
 10
5.0805794726
 20
3.8125454655
 30
0.0
  0
SPLINE
  5
391
100
AcDbEntity
  8
0
100
AcDbSpline
 62
7
  6
CONTINUOUS
 70
0
 71
3
 72
8
 73
4
 74
0
 42
0.0000001
 43
0.0000001
 44
0.0000000001
 40
0.0
 40
0.0
 40
0.0
 40
0.0
 40
1.0
 40
1.0
 40
1.0
 40
1.0
 10
5.0805794726
 20
3.8125454655
 30
0.0
 10
5.0829640994
 20
3.8044966652
 30
0.0
 10
5.0878640326
 20
3.7978180705
 30
0.0
 10
5.0952956312
 20
3.7926144091
 30
0.0
  0
SPLINE
  5
392
100
AcDbEntity
  8
0
100
AcDbSpline
 62
7
  6
CONTINUOUS
 70
0
 71
3
 72
8
 73
4
 74
0
 42
0.0000001
 43
0.0000001
 44
0.0000000001
 40
0.0
 40
0.0
 40
0.0
 40
0.0
 40
1.0
 40
1.0
 40
1.0
 40
1.0
 10
5.0952956312
 20
3.7926144091
 30
0.0
 10
5.1030624885
 20
3.787175997
 30
0.0
 10
5.1111539445
 20
3.7851742924
 30
0.0
 10
5.1195658465
 20
3.7866329819
 30
0.0
  0
SPLINE
  5
393
100
AcDbEntity
  8
0
100
AcDbSpline
 62
7
  6
CONTINUOUS
 70
0
 71
3
 72
8
 73
4
 74
0
 42
0.0000001
 43
0.0000001
 44
0.0000000001
 40
0.0
 40
0.0
 40
0.0
 40
0.0
 40
1.0
 40
1.0
 40
1.0
 40
1.0
 10
4.1312798404
 20
3.7986750112
 30
0.0
 10
4.136151985
 20
3.7989674551
 30
0.0
 10
4.1417994389
 20
3.7980534472
 30
0.0
 10
4.1483162209
 20
3.7959105845
 30
0.0
  0
SPLINE
  5
394
100
AcDbEntity
  8
0
100
AcDbSpline
 62
7
  6
CONTINUOUS
 70
0
 71
3
 72
8
 73
4
 74
0
 42
0.0000001
 43
0.0000001
 44
0.0000000001
 40
0.0
 40
0.0
 40
0.0
 40
0.0
 40
1.0
 40
1.0
 40
1.0
 40
1.0
 10
4.1483162209
 20
3.7959105845
 30
0.0
 10
4.1549245033
 20
3.7937376345
 30
0.0
 10
4.1612930871
 20
3.7904831841
 30
0.0
 10
4.167480208
 20
3.7861787818
 30
0.0
  0
SPLINE
  5
395
100
AcDbEntity
  8
0
100
AcDbSpline
 62
7
  6
CONTINUOUS
 70
0
 71
3
 72
8
 73
4
 74
0
 42
0.0000001
 43
0.0000001
 44
0.0000000001
 40
0.0
 40
0.0
 40
0.0
 40
0.0
 40
1.0
 40
1.0
 40
1.0
 40
1.0
 10
4.1777590905
 20
3.7921132974
 30
0.0
 10
4.1746676518
 20
3.7947393165
 30
0.0
 10
4.170687651
 20
3.7974036801
 30
0.0
 10
4.1658335362
 20
3.8001319318
 30
0.0
  0
SPLINE
  5
396
100
AcDbEntity
  8
0
100
AcDbSpline
 62
7
  6
CONTINUOUS
 70
0
 71
3
 72
8
 73
4
 74
0
 42
0.0000001
 43
0.0000001
 44
0.0000000001
 40
0.0
 40
0.0
 40
0.0
 40
0.0
 40
1.0
 40
1.0
 40
1.0
 40
1.0
 10
4.1658335362
 20
3.8001319318
 30
0.0
 10
4.1610096117
 20
3.8028432151
 30
0.0
 10
4.1566435096
 20
3.8048120709
 30
0.0
 10
4.1526617172
 20
3.8059788598
 30
0.0
  0
SPLINE
  5
397
100
AcDbEntity
  8
0
100
AcDbSpline
 62
7
  6
CONTINUOUS
 70
0
 71
3
 72
8
 73
4
 74
0
 42
0.0000001
 43
0.0000001
 44
0.0000000001
 40
0.0
 40
0.0
 40
0.0
 40
0.0
 40
1.0
 40
1.0
 40
1.0
 40
1.0
 10
4.1545314079
 20
3.8852673527
 30
0.0
 10
4.1630090205
 20
3.8820540745
 30
0.0
 10
4.1700749078
 20
3.8799110997
 30
0.0
 10
4.1756973938
 20
3.8789039113
 30
0.0
  0
SPLINE
  5
398
100
AcDbEntity
  8
0
100
AcDbSpline
 62
7
  6
CONTINUOUS
 70
0
 71
3
 72
8
 73
4
 74
0
 42
0.0000001
 43
0.0000001
 44
0.0000000001
 40
0.0
 40
0.0
 40
0.0
 40
0.0
 40
1.0
 40
1.0
 40
1.0
 40
1.0
 10
4.1756973938
 20
3.8789039113
 30
0.0
 10
4.181319876
 20
3.8778967235
 30
0.0
 10
4.186523946
 20
3.877750676
 30
0.0
 10
4.1912501914
 20
3.8785267967
 30
0.0
  0
SPLINE
  5
399
100
AcDbEntity
  8
0
100
AcDbSpline
 62
7
  6
CONTINUOUS
 70
0
 71
3
 72
8
 73
4
 74
0
 42
0.0000001
 43
0.0000001
 44
0.0000000001
 40
0.0
 40
0.0
 40
0.0
 40
0.0
 40
1.0
 40
1.0
 40
1.0
 40
1.0
 10
4.1912501914
 20
3.8785267967
 30
0.0
 10
4.1941500497
 20
3.8790029972
 30
0.0
 10
4.1968699055
 20
3.8800219455
 30
0.0
 10
4.1993418747
 20
3.8816066722
 30
0.0
  0
SPLINE
  5
39A
100
AcDbEntity
  8
0
100
AcDbSpline
 62
7
  6
CONTINUOUS
 70
0
 71
3
 72
8
 73
4
 74
0
 42
0.0000001
 43
0.0000001
 44
0.0000000001
 40
0.0
 40
0.0
 40
0.0
 40
0.0
 40
1.0
 40
1.0
 40
1.0
 40
1.0
 10
4.1805954633
 20
3.8904747713
 30
0.0
 10
4.1780229633
 20
3.8905648506
 30
0.0
 10
4.1752208638
 20
3.8909161832
 30
0.0
 10
4.1722674821
 20
3.8916320572
 30
0.0
  0
SPLINE
  5
39B
100
AcDbEntity
  8
0
100
AcDbSpline
 62
7
  6
CONTINUOUS
 70
0
 71
3
 72
8
 73
4
 74
0
 42
0.0000001
 43
0.0000001
 44
0.0000000001
 40
0.0
 40
0.0
 40
0.0
 40
0.0
 40
1.0
 40
1.0
 40
1.0
 40
1.0
 10
4.1722674821
 20
3.8916320572
 30
0.0
 10
4.1693596318
 20
3.8923368948
 30
0.0
 10
4.163309595
 20
3.8943574751
 30
0.0
 10
4.1542478985
 20
3.8976269602
 30
0.0
  0
SPLINE
  5
39C
100
AcDbEntity
  8
0
100
AcDbSpline
 62
7
  6
CONTINUOUS
 70
0
 71
3
 72
8
 73
4
 74
0
 42
0.0000001
 43
0.0000001
 44
0.0000000001
 40
0.0
 40
0.0
 40
0.0
 40
0.0
 40
1.0
 40
1.0
 40
1.0
 40
1.0
 10
4.1542478985
 20
3.8976269602
 30
0.0
 10
4.1434115693
 20
3.9015367378
 30
0.0
 10
4.1351934098
 20
3.9040383995
 30
0.0
 10
4.1295665101
 20
3.9052201065
 30
0.0
  0
SPLINE
  5
39D
100
AcDbEntity
  8
0
100
AcDbSpline
 62
7
  6
CONTINUOUS
 70
0
 71
3
 72
8
 73
4
 74
0
 42
0.0000001
 43
0.0000001
 44
0.0000000001
 40
0.0
 40
0.0
 40
0.0
 40
0.0
 40
1.0
 40
1.0
 40
1.0
 40
1.0
 10
4.1295665101
 20
3.9052201065
 30
0.0
 10
4.1239892369
 20
3.9063913914
 30
0.0
 10
4.1190805384
 20
3.9067079649
 30
0.0
 10
4.1148931626
 20
3.9061949138
 30
0.0
  0
SPLINE
  5
39E
100
AcDbEntity
  8
0
100
AcDbSpline
 62
7
  6
CONTINUOUS
 70
0
 71
3
 72
8
 73
4
 74
0
 42
0.0000001
 43
0.0000001
 44
0.0000000001
 40
0.0
 40
0.0
 40
0.0
 40
0.0
 40
1.0
 40
1.0
 40
1.0
 40
1.0
 10
4.1148931626
 20
3.9061949138
 30
0.0
 10
4.1107680652
 20
3.9056894932
 30
0.0
 10
4.1069324915
 20
3.9044202183
 30
0.0
 10
4.1034471209
 20
3.9024079386
 30
0.0
  0
SPLINE
  5
39F
100
AcDbEntity
  8
0
100
AcDbSpline
 62
7
  6
CONTINUOUS
 70
0
 71
3
 72
8
 73
4
 74
0
 42
0.0000001
 43
0.0000001
 44
0.0000000001
 40
0.0
 40
0.0
 40
0.0
 40
0.0
 40
1.0
 40
1.0
 40
1.0
 40
1.0
 10
4.1034471209
 20
3.9024079386
 30
0.0
 10
4.096653609
 20
3.8984857027
 30
0.0
 10
4.0923217921
 20
3.8927553375
 30
0.0
 10
4.0905107435
 20
3.885250975
 30
0.0
  0
SPLINE
  5
3A0
100
AcDbEntity
  8
0
100
AcDbSpline
 62
7
  6
CONTINUOUS
 70
0
 71
3
 72
8
 73
4
 74
0
 42
0.0000001
 43
0.0000001
 44
0.0000000001
 40
0.0
 40
0.0
 40
0.0
 40
0.0
 40
1.0
 40
1.0
 40
1.0
 40
1.0
 10
4.0905107435
 20
3.885250975
 30
0.0
 10
4.088699692
 20
3.8777466002
 30
0.0
 10
4.0902157195
 20
3.8698001549
 30
0.0
 10
4.0949906178
 20
3.8615297884
 30
0.0
  0
SPLINE
  5
3A1
100
AcDbEntity
  8
0
100
AcDbSpline
 62
7
  6
CONTINUOUS
 70
0
 71
3
 72
8
 73
4
 74
0
 42
0.0000001
 43
0.0000001
 44
0.0000000001
 40
0.0
 40
0.0
 40
0.0
 40
0.0
 40
1.0
 40
1.0
 40
1.0
 40
1.0
 10
4.0949906178
 20
3.8615297884
 30
0.0
 10
4.0997655161
 20
3.853259422
 30
0.0
 10
4.1057370712
 20
3.8479641475
 30
0.0
 10
4.112779837
 20
3.8455545288
 30
0.0
  0
SPLINE
  5
3A2
100
AcDbEntity
  8
0
100
AcDbSpline
 62
7
  6
CONTINUOUS
 70
0
 71
3
 72
8
 73
4
 74
0
 42
0.0000001
 43
0.0000001
 44
0.0000000001
 40
0.0
 40
0.0
 40
0.0
 40
0.0
 40
1.0
 40
1.0
 40
1.0
 40
1.0
 10
4.112779837
 20
3.8455545288
 30
0.0
 10
4.119871287
 20
3.8431282532
 30
0.0
 10
4.1277111746
 20
3.8438738705
 30
0.0
 10
4.1362726653
 20
3.8478716687
 30
0.0
  0
SPLINE
  5
3A3
100
AcDbEntity
  8
0
100
AcDbSpline
 62
7
  6
CONTINUOUS
 70
0
 71
3
 72
8
 73
4
 74
0
 42
0.0000001
 43
0.0000001
 44
0.0000000001
 40
0.0
 40
0.0
 40
0.0
 40
0.0
 40
1.0
 40
1.0
 40
1.0
 40
1.0
 10
4.1310853867
 20
3.8594483855
 30
0.0
 10
4.125650573
 20
3.8563105944
 30
0.0
 10
4.12047637
 20
3.855449934
 30
0.0
 10
4.115630983
 20
3.8567482516
 30
0.0
  0
SPLINE
  5
3A4
100
AcDbEntity
  8
0
100
AcDbSpline
 62
7
  6
CONTINUOUS
 70
0
 71
3
 72
8
 73
4
 74
0
 42
0.0000001
 43
0.0000001
 44
0.0000000001
 40
0.0
 40
0.0
 40
0.0
 40
0.0
 40
1.0
 40
1.0
 40
1.0
 40
1.0
 10
4.115630983
 20
3.8567482516
 30
0.0
 10
4.1107856042
 20
3.8580465669
 30
0.0
 10
4.1068963364
 20
3.8612359039
 30
0.0
 10
4.1039290741
 20
3.8663753529
 30
0.0
  0
SPLINE
  5
3A5
100
AcDbEntity
  8
0
100
AcDbSpline
 62
7
  6
CONTINUOUS
 70
0
 71
3
 72
8
 73
4
 74
0
 42
0.0000001
 43
0.0000001
 44
0.0000000001
 40
0.0
 40
0.0
 40
0.0
 40
0.0
 40
1.0
 40
1.0
 40
1.0
 40
1.0
 10
4.1039290741
 20
3.8663753529
 30
0.0
 10
4.1011323527
 20
3.8712194166
 30
0.0
 10
4.1003581841
 20
3.8759709652
 30
0.0
 10
4.1015133854
 20
3.8806549585
 30
0.0
  0
SPLINE
  5
3A6
100
AcDbEntity
  8
0
100
AcDbSpline
 62
7
  6
CONTINUOUS
 70
0
 71
3
 72
8
 73
4
 74
0
 42
0.0000001
 43
0.0000001
 44
0.0000000001
 40
0.0
 40
0.0
 40
0.0
 40
0.0
 40
1.0
 40
1.0
 40
1.0
 40
1.0
 10
4.1015133854
 20
3.8806549585
 30
0.0
 10
4.1026685857
 20
3.8853389474
 30
0.0
 10
4.105326256
 20
3.8889212573
 30
0.0
 10
4.1095205121
 20
3.8913428122
 30
0.0
  0
SPLINE
  5
3A7
100
AcDbEntity
  8
0
100
AcDbSpline
 62
7
  6
CONTINUOUS
 70
0
 71
3
 72
8
 73
4
 74
0
 42
0.0000001
 43
0.0000001
 44
0.0000000001
 40
0.0
 40
0.0
 40
0.0
 40
0.0
 40
1.0
 40
1.0
 40
1.0
 40
1.0
 10
4.1095205121
 20
3.8913428122
 30
0.0
 10
4.1135375495
 20
3.8936620498
 30
0.0
 10
4.1188049312
 20
3.894497743
 30
0.0
 10
4.1252045215
 20
3.8937816844
 30
0.0
  0
SPLINE
  5
3A8
100
AcDbEntity
  8
0
100
AcDbSpline
 62
7
  6
CONTINUOUS
 70
0
 71
3
 72
8
 73
4
 74
0
 42
0.0000001
 43
0.0000001
 44
0.0000000001
 40
0.0
 40
0.0
 40
0.0
 40
0.0
 40
1.0
 40
1.0
 40
1.0
 40
1.0
 10
4.1252045215
 20
3.8937816844
 30
0.0
 10
4.131604107
 20
3.8930656264
 30
0.0
 10
4.1414312959
 20
3.8902327018
 30
0.0
 10
4.1545314079
 20
3.8852673527
 30
0.0
  0
SPLINE
  5
3A9
100
AcDbEntity
  8
0
100
AcDbSpline
 62
7
  6
CONTINUOUS
 70
0
 71
3
 72
8
 73
4
 74
0
 42
0.0000001
 43
0.0000001
 44
0.0000000001
 40
0.0
 40
0.0
 40
0.0
 40
0.0
 40
1.0
 40
1.0
 40
1.0
 40
1.0
 10
4.1472921226
 20
3.9544730408
 30
0.0
 10
4.1505594338
 20
3.9626896972
 30
0.0
 10
4.1497273228
 20
3.9709522379
 30
0.0
 10
4.144884213
 20
3.9793407503
 30
0.0
  0
SPLINE
  5
3AA
100
AcDbEntity
  8
0
100
AcDbSpline
 62
7
  6
CONTINUOUS
 70
0
 71
3
 72
8
 73
4
 74
0
 42
0.0000001
 43
0.0000001
 44
0.0000000001
 40
0.0
 40
0.0
 40
0.0
 40
0.0
 40
1.0
 40
1.0
 40
1.0
 40
1.0
 10
4.144884213
 20
3.9793407503
 30
0.0
 10
4.1412348232
 20
3.9856616787
 30
0.0
 10
4.1365452764
 20
3.9899642941
 30
0.0
 10
4.1307315445
 20
3.992121297
 30
0.0
  0
SPLINE
  5
3AB
100
AcDbEntity
  8
0
100
AcDbSpline
 62
7
  6
CONTINUOUS
 70
0
 71
3
 72
8
 73
4
 74
0
 42
0.0000001
 43
0.0000001
 44
0.0000000001
 40
0.0
 40
0.0
 40
0.0
 40
0.0
 40
1.0
 40
1.0
 40
1.0
 40
1.0
 10
4.1307315445
 20
3.992121297
 30
0.0
 10
4.1249177953
 20
3.9942783063
 30
0.0
 10
4.1183251568
 20
3.994646615
 30
0.0
 10
4.1108419833
 20
3.9931263234
 30
0.0
  0
SPLINE
  5
3AC
100
AcDbEntity
  8
0
100
AcDbSpline
 62
7
  6
CONTINUOUS
 70
0
 71
3
 72
8
 73
4
 74
0
 42
0.0000001
 43
0.0000001
 44
0.0000000001
 40
0.0
 40
0.0
 40
0.0
 40
0.0
 40
1.0
 40
1.0
 40
1.0
 40
1.0
 10
4.1108419833
 20
3.9931263234
 30
0.0
 10
4.1033799034
 20
3.9916103173
 30
0.0
 10
4.094554694
 20
3.9879328584
 30
0.0
 10
4.0843939599
 20
3.9820665558
 30
0.0
  0
SPLINE
  5
3AD
100
AcDbEntity
  8
0
100
AcDbSpline
 62
7
  6
CONTINUOUS
 70
0
 71
3
 72
8
 73
4
 74
0
 42
0.0000001
 43
0.0000001
 44
0.0000000001
 40
0.0
 40
0.0
 40
0.0
 40
0.0
 40
1.0
 40
1.0
 40
1.0
 40
1.0
 10
4.0843939599
 20
3.9820665558
 30
0.0
 10
4.0758282236
 20
3.9771211257
 30
0.0
 10
4.0694098871
 20
3.9725490667
 30
0.0
 10
4.0650798557
 20
3.9683162873
 30
0.0
  0
SPLINE
  5
3AE
100
AcDbEntity
  8
0
100
AcDbSpline
 62
7
  6
CONTINUOUS
 70
0
 71
3
 72
8
 73
4
 74
0
 42
0.0000001
 43
0.0000001
 44
0.0000000001
 40
0.0
 40
0.0
 40
0.0
 40
0.0
 40
1.0
 40
1.0
 40
1.0
 40
1.0
 10
4.0650798557
 20
3.9683162873
 30
0.0
 10
4.0607498285
 20
3.964083512
 30
0.0
 10
4.0575538024
 20
3.9597965489
 30
0.0
 10
4.0553309454
 20
3.9554922543
 30
0.0
  0
SPLINE
  5
3AF
100
AcDbEntity
  8
0
100
AcDbSpline
 62
7
  6
CONTINUOUS
 70
0
 71
3
 72
8
 73
4
 74
0
 42
0.0000001
 43
0.0000001
 44
0.0000000001
 40
0.0
 40
0.0
 40
0.0
 40
0.0
 40
1.0
 40
1.0
 40
1.0
 40
1.0
 10
4.0553309454
 20
3.9554922543
 30
0.0
 10
4.0530911079
 20
3.9511550791
 30
0.0
 10
4.052103998
 20
3.9467256563
 30
0.0
 10
4.0522420508
 20
3.9421494004
 30
0.0
  0
SPLINE
  5
3B0
100
AcDbEntity
  8
0
100
AcDbSpline
 62
7
  6
CONTINUOUS
 70
0
 71
3
 72
8
 73
4
 74
0
 42
0.0000001
 43
0.0000001
 44
0.0000000001
 40
0.0
 40
0.0
 40
0.0
 40
0.0
 40
1.0
 40
1.0
 40
1.0
 40
1.0
 10
4.0522420508
 20
3.9421494004
 30
0.0
 10
4.0523819167
 20
3.9375130411
 30
0.0
 10
4.0537900694
 20
3.9328912316
 30
0.0
 10
4.0564503737
 20
3.9282834494
 30
0.0
  0
SPLINE
  5
3B1
100
AcDbEntity
  8
0
100
AcDbSpline
 62
7
  6
CONTINUOUS
 70
0
 71
3
 72
8
 73
4
 74
0
 42
0.0000001
 43
0.0000001
 44
0.0000000001
 40
0.0
 40
0.0
 40
0.0
 40
0.0
 40
1.0
 40
1.0
 40
1.0
 40
1.0
 10
4.0564503737
 20
3.9282834494
 30
0.0
 10
4.0600997575
 20
3.9219625312
 30
0.0
 10
4.0648483827
 20
3.9176940248
 30
0.0
 10
4.0706122683
 20
3.9155276009
 30
0.0
  0
SPLINE
  5
3B2
100
AcDbEntity
  8
0
100
AcDbSpline
 62
7
  6
CONTINUOUS
 70
0
 71
3
 72
8
 73
4
 74
0
 42
0.0000001
 43
0.0000001
 44
0.0000000001
 40
0.0
 40
0.0
 40
0.0
 40
0.0
 40
1.0
 40
1.0
 40
1.0
 40
1.0
 10
4.0706122683
 20
3.9155276009
 30
0.0
 10
4.076416787
 20
3.9133459046
 30
0.0
 10
4.08300943
 20
3.9129775985
 30
0.0
 10
4.0904991069
 20
3.9144662103
 30
0.0
  0
SPLINE
  5
3B3
100
AcDbEntity
  8
0
100
AcDbSpline
 62
7
  6
CONTINUOUS
 70
0
 71
3
 72
8
 73
4
 74
0
 42
0.0000001
 43
0.0000001
 44
0.0000000001
 40
0.0
 40
0.0
 40
0.0
 40
0.0
 40
1.0
 40
1.0
 40
1.0
 40
1.0
 10
4.0904991069
 20
3.9144662103
 30
0.0
 10
4.0979887893
 20
3.9159548232
 30
0.0
 10
4.1067798877
 20
3.9196913521
 30
0.0
 10
4.1169996973
 20
3.9255917619
 30
0.0
  0
SPLINE
  5
3B4
100
AcDbEntity
  8
0
100
AcDbSpline
 62
7
  6
CONTINUOUS
 70
0
 71
3
 72
8
 73
4
 74
0
 42
0.0000001
 43
0.0000001
 44
0.0000000001
 40
0.0
 40
0.0
 40
0.0
 40
0.0
 40
1.0
 40
1.0
 40
1.0
 40
1.0
 10
4.1169996973
 20
3.9255917619
 30
0.0
 10
4.1333041333
 20
3.9350051324
 30
0.0
 10
4.1433636791
 20
3.9445937646
 30
0.0
 10
4.1472921226
 20
3.9544730408
 30
0.0
  0
SPLINE
  5
3B5
100
AcDbEntity
  8
0
100
AcDbSpline
 62
7
  6
CONTINUOUS
 70
0
 71
3
 72
8
 73
4
 74
0
 42
0.0000001
 43
0.0000001
 44
0.0000000001
 40
0.0
 40
0.0
 40
0.0
 40
0.0
 40
1.0
 40
1.0
 40
1.0
 40
1.0
 10
4.1106900092
 20
3.9365204623
 30
0.0
 10
4.0965122404
 20
3.9283349236
 30
0.0
 10
4.0857077277
 20
3.9245386581
 30
0.0
 10
4.0782785471
 20
3.9251561044
 30
0.0
  0
SPLINE
  5
3B6
100
AcDbEntity
  8
0
100
AcDbSpline
 62
7
  6
CONTINUOUS
 70
0
 71
3
 72
8
 73
4
 74
0
 42
0.0000001
 43
0.0000001
 44
0.0000000001
 40
0.0
 40
0.0
 40
0.0
 40
0.0
 40
1.0
 40
1.0
 40
1.0
 40
1.0
 10
4.0782785471
 20
3.9251561044
 30
0.0
 10
4.0724700689
 20
3.9256388526
 30
0.0
 10
4.0681514517
 20
3.9283440128
 30
0.0
 10
4.0653206185
 20
3.9332471597
 30
0.0
  0
SPLINE
  5
3B7
100
AcDbEntity
  8
0
100
AcDbSpline
 62
7
  6
CONTINUOUS
 70
0
 71
3
 72
8
 73
4
 74
0
 42
0.0000001
 43
0.0000001
 44
0.0000000001
 40
0.0
 40
0.0
 40
0.0
 40
0.0
 40
1.0
 40
1.0
 40
1.0
 40
1.0
 10
4.0653206185
 20
3.9332471597
 30
0.0
 10
4.0624556795
 20
3.9382093796
 30
0.0
 10
4.0624311974
 20
3.9437088156
 30
0.0
 10
4.0652058997
 20
3.9497030925
 30
0.0
  0
SPLINE
  5
3B8
100
AcDbEntity
  8
0
100
AcDbSpline
 62
7
  6
CONTINUOUS
 70
0
 71
3
 72
8
 73
4
 74
0
 42
0.0000001
 43
0.0000001
 44
0.0000000001
 40
0.0
 40
0.0
 40
0.0
 40
0.0
 40
1.0
 40
1.0
 40
1.0
 40
1.0
 10
4.0652058997
 20
3.9497030925
 30
0.0
 10
4.0680040517
 20
3.9557480287
 30
0.0
 10
4.0764668062
 20
3.962918211
 30
0.0
 10
4.090703648
 20
3.9711378555
 30
0.0
  0
SPLINE
  5
3B9
100
AcDbEntity
  8
0
100
AcDbSpline
 62
7
  6
CONTINUOUS
 70
0
 71
3
 72
8
 73
4
 74
0
 42
0.0000001
 43
0.0000001
 44
0.0000000001
 40
0.0
 40
0.0
 40
0.0
 40
0.0
 40
1.0
 40
1.0
 40
1.0
 40
1.0
 10
4.090703648
 20
3.9711378555
 30
0.0
 10
4.1048814168
 20
3.9793233941
 30
0.0
 10
4.1153223554
 20
3.9830672641
 30
0.0
 10
4.1219582376
 20
3.9824876304
 30
0.0
  0
SPLINE
  5
3BA
100
AcDbEntity
  8
0
100
AcDbSpline
 62
7
  6
CONTINUOUS
 70
0
 71
3
 72
8
 73
4
 74
0
 42
0.0000001
 43
0.0000001
 44
0.0000000001
 40
0.0
 40
0.0
 40
0.0
 40
0.0
 40
1.0
 40
1.0
 40
1.0
 40
1.0
 10
4.1219582376
 20
3.9824876304
 30
0.0
 10
4.1285941199
 20
3.9819079967
 30
0.0
 10
4.1333445282
 20
3.9791370754
 30
0.0
 10
4.1361412556
 20
3.9742930015
 30
0.0
  0
SPLINE
  5
3BB
100
AcDbEntity
  8
0
100
AcDbSpline
 62
7
  6
CONTINUOUS
 70
0
 71
3
 72
8
 73
4
 74
0
 42
0.0000001
 43
0.0000001
 44
0.0000000001
 40
0.0
 40
0.0
 40
0.0
 40
0.0
 40
1.0
 40
1.0
 40
1.0
 40
1.0
 10
4.1361412556
 20
3.9742930015
 30
0.0
 10
4.1389720888
 20
3.9693898545
 30
0.0
 10
4.1390556471
 20
3.9639245262
 30
0.0
 10
4.1362396834
 20
3.9578878667
 30
0.0
  0
SPLINE
  5
3BC
100
AcDbEntity
  8
0
100
AcDbSpline
 62
7
  6
CONTINUOUS
 70
0
 71
3
 72
8
 73
4
 74
0
 42
0.0000001
 43
0.0000001
 44
0.0000000001
 40
0.0
 40
0.0
 40
0.0
 40
0.0
 40
1.0
 40
1.0
 40
1.0
 40
1.0
 10
4.1362396834
 20
3.9578878667
 30
0.0
 10
4.1334237198
 20
3.9518512073
 30
0.0
 10
4.1249268536
 20
3.9447401082
 30
0.0
 10
4.1106900092
 20
3.9365204623
 30
0.0
  0
SPLINE
  5
3BD
100
AcDbEntity
  8
0
100
AcDbSpline
 62
7
  6
CONTINUOUS
 70
0
 71
3
 72
8
 73
4
 74
0
 42
0.0000001
 43
0.0000001
 44
0.0000000001
 40
0.0
 40
0.0
 40
0.0
 40
0.0
 40
1.0
 40
1.0
 40
1.0
 40
1.0
 10
4.0173946596
 20
4.3187101506
 30
0.0
 10
4.0208720888
 20
4.3152851246
 30
0.0
 10
4.0239717328
 20
4.3104766578
 30
0.0
 10
4.0267398538
 20
4.30419989
 30
0.0
  0
SPLINE
  5
3BE
100
AcDbEntity
  8
0
100
AcDbSpline
 62
7
  6
CONTINUOUS
 70
0
 71
3
 72
8
 73
4
 74
0
 42
0.0000001
 43
0.0000001
 44
0.0000000001
 40
0.0
 40
0.0
 40
0.0
 40
0.0
 40
1.0
 40
1.0
 40
1.0
 40
1.0
 10
4.0267398538
 20
4.30419989
 30
0.0
 10
4.0295468412
 20
4.2978349918
 30
0.0
 10
4.0313897276
 20
4.2909245593
 30
0.0
 10
4.0323309253
 20
4.2834464251
 30
0.0
  0
SPLINE
  5
3BF
100
AcDbEntity
  8
0
100
AcDbSpline
 62
7
  6
CONTINUOUS
 70
0
 71
3
 72
8
 73
4
 74
0
 42
0.0000001
 43
0.0000001
 44
0.0000000001
 40
0.0
 40
0.0
 40
0.0
 40
0.0
 40
1.0
 40
1.0
 40
1.0
 40
1.0
 10
4.0436190447
 20
4.2797786927
 30
0.0
 10
4.0435019809
 20
4.2838332292
 30
0.0
 10
4.0428188487
 20
4.2885737534
 30
0.0
 10
4.041598298
 20
4.2940066204
 30
0.0
  0
SPLINE
  5
3C0
100
AcDbEntity
  8
0
100
AcDbSpline
 62
7
  6
CONTINUOUS
 70
0
 71
3
 72
8
 73
4
 74
0
 42
0.0000001
 43
0.0000001
 44
0.0000000001
 40
0.0
 40
0.0
 40
0.0
 40
0.0
 40
1.0
 40
1.0
 40
1.0
 40
1.0
 10
4.041598298
 20
4.2940066204
 30
0.0
 10
4.0403853386
 20
4.2994056976
 30
0.0
 10
4.0389269911
 20
4.3039677654
 30
0.0
 10
4.037129745
 20
4.3077075481
 30
0.0
  0
SPLINE
  5
3C1
100
AcDbEntity
  8
0
100
AcDbSpline
 62
7
  6
CONTINUOUS
 70
0
 71
3
 72
8
 73
4
 74
0
 42
0.0000001
 43
0.0000001
 44
0.0000000001
 40
0.0
 40
0.0
 40
0.0
 40
0.0
 40
1.0
 40
1.0
 40
1.0
 40
1.0
 10
4.0414035517
 20
4.3926019227
 30
0.0
 10
4.0448809819
 20
4.3891768996
 30
0.0
 10
4.047980625
 20
4.38436843
 30
0.0
 10
4.050748746
 20
4.3780916622
 30
0.0
  0
SPLINE
  5
3C2
100
AcDbEntity
  8
0
100
AcDbSpline
 62
7
  6
CONTINUOUS
 70
0
 71
3
 72
8
 73
4
 74
0
 42
0.0000001
 43
0.0000001
 44
0.0000000001
 40
0.0
 40
0.0
 40
0.0
 40
0.0
 40
1.0
 40
1.0
 40
1.0
 40
1.0
 10
4.050748746
 20
4.3780916622
 30
0.0
 10
4.0535557334
 20
4.3717267639
 30
0.0
 10
4.0553986193
 20
4.36481633
 30
0.0
 10
4.0563398174
 20
4.3573381972
 30
0.0
  0
SPLINE
  5
3C3
100
AcDbEntity
  8
0
100
AcDbSpline
 62
7
  6
CONTINUOUS
 70
0
 71
3
 72
8
 73
4
 74
0
 42
0.0000001
 43
0.0000001
 44
0.0000000001
 40
0.0
 40
0.0
 40
0.0
 40
0.0
 40
1.0
 40
1.0
 40
1.0
 40
1.0
 10
4.0676279369
 20
4.3536704649
 30
0.0
 10
4.0675108731
 20
4.3577250014
 30
0.0
 10
4.0668277422
 20
4.3624655298
 30
0.0
 10
4.0656071898
 20
4.3678983925
 30
0.0
  0
SPLINE
  5
3C4
100
AcDbEntity
  8
0
100
AcDbSpline
 62
7
  6
CONTINUOUS
 70
0
 71
3
 72
8
 73
4
 74
0
 42
0.0000001
 43
0.0000001
 44
0.0000000001
 40
0.0
 40
0.0
 40
0.0
 40
0.0
 40
1.0
 40
1.0
 40
1.0
 40
1.0
 10
4.0656071898
 20
4.3678983925
 30
0.0
 10
4.0643942289
 20
4.3732974641
 30
0.0
 10
4.0629358851
 20
4.3778595433
 30
0.0
 10
4.0611386362
 20
4.3815993174
 30
0.0
  0
SPLINE
  5
3C5
100
AcDbEntity
  8
0
100
AcDbSpline
 62
7
  6
CONTINUOUS
 70
0
 71
3
 72
8
 73
4
 74
0
 42
0.0000001
 43
0.0000001
 44
0.0000000001
 40
0.0
 40
0.0
 40
0.0
 40
0.0
 40
1.0
 40
1.0
 40
1.0
 40
1.0
 10
4.1097672316
 20
4.4261898748
 30
0.0
 10
4.1075905684
 20
4.4287619219
 30
0.0
 10
4.1061647627
 20
4.4318789537
 30
0.0
 10
4.1054524189
 20
4.4354728224
 30
0.0
  0
SPLINE
  5
3C6
100
AcDbEntity
  8
0
100
AcDbSpline
 62
7
  6
CONTINUOUS
 70
0
 71
3
 72
8
 73
4
 74
0
 42
0.0000001
 43
0.0000001
 44
0.0000000001
 40
0.0
 40
0.0
 40
0.0
 40
0.0
 40
1.0
 40
1.0
 40
1.0
 40
1.0
 10
4.1054524189
 20
4.4354728224
 30
0.0
 10
4.1047516384
 20
4.4390083527
 30
0.0
 10
4.104960583
 20
4.442741797
 30
0.0
 10
4.1061831598
 20
4.4465045016
 30
0.0
  0
SPLINE
  5
3C7
100
AcDbEntity
  8
0
100
AcDbSpline
 62
7
  6
CONTINUOUS
 70
0
 71
3
 72
8
 73
4
 74
0
 42
0.0000001
 43
0.0000001
 44
0.0000000001
 40
0.0
 40
0.0
 40
0.0
 40
0.0
 40
1.0
 40
1.0
 40
1.0
 40
1.0
 10
4.1061831598
 20
4.4465045016
 30
0.0
 10
4.1081434999
 20
4.4525378081
 30
0.0
 10
4.1116706482
 20
4.4567710215
 30
0.0
 10
4.1167312995
 20
4.4592686997
 30
0.0
  0
SPLINE
  5
3C8
100
AcDbEntity
  8
0
100
AcDbSpline
 62
7
  6
CONTINUOUS
 70
0
 71
3
 72
8
 73
4
 74
0
 42
0.0000001
 43
0.0000001
 44
0.0000000001
 40
0.0
 40
0.0
 40
0.0
 40
0.0
 40
1.0
 40
1.0
 40
1.0
 40
1.0
 10
4.1167312995
 20
4.4592686997
 30
0.0
 10
4.1218358387
 20
4.4617880387
 30
0.0
 10
4.1277019392
 20
4.4619619865
 30
0.0
 10
4.1343191116
 20
4.4598119369
 30
0.0
  0
SPLINE
  5
3C9
100
AcDbEntity
  8
0
100
AcDbSpline
 62
7
  6
CONTINUOUS
 70
0
 71
3
 72
8
 73
4
 74
0
 42
0.0000001
 43
0.0000001
 44
0.0000000001
 40
0.0
 40
0.0
 40
0.0
 40
0.0
 40
1.0
 40
1.0
 40
1.0
 40
1.0
 10
4.1343191116
 20
4.4598119369
 30
0.0
 10
4.1413255308
 20
4.4575354133
 30
0.0
 10
4.1463372287
 20
4.4537553326
 30
0.0
 10
4.1493093487
 20
4.4485041195
 30
0.0
  0
SPLINE
  5
3CA
100
AcDbEntity
  8
0
100
AcDbSpline
 62
7
  6
CONTINUOUS
 70
0
 71
3
 72
8
 73
4
 74
0
 42
0.0000001
 43
0.0000001
 44
0.0000000001
 40
0.0
 40
0.0
 40
0.0
 40
0.0
 40
1.0
 40
1.0
 40
1.0
 40
1.0
 10
4.1493093487
 20
4.4485041195
 30
0.0
 10
4.1523062796
 20
4.4432090701
 30
0.0
 10
4.152822419
 20
4.4377338598
 30
0.0
 10
4.1510096323
 20
4.432154676
 30
0.0
  0
SPLINE
  5
3CB
100
AcDbEntity
  8
0
100
AcDbSpline
 62
7
  6
CONTINUOUS
 70
0
 71
3
 72
8
 73
4
 74
0
 42
0.0000001
 43
0.0000001
 44
0.0000000001
 40
0.0
 40
0.0
 40
0.0
 40
0.0
 40
1.0
 40
1.0
 40
1.0
 40
1.0
 10
4.1510096323
 20
4.432154676
 30
0.0
 10
4.1494919487
 20
4.4274837261
 30
0.0
 10
4.1466929457
 20
4.4239463334
 30
0.0
 10
4.1426337092
 20
4.4216073788
 30
0.0
  0
SPLINE
  5
3CC
100
AcDbEntity
  8
0
100
AcDbSpline
 62
7
  6
CONTINUOUS
 70
0
 71
3
 72
8
 73
4
 74
0
 42
0.0000001
 43
0.0000001
 44
0.0000000001
 40
0.0
 40
0.0
 40
0.0
 40
0.0
 40
1.0
 40
1.0
 40
1.0
 40
1.0
 10
4.1426337092
 20
4.4216073788
 30
0.0
 10
4.1385744638
 20
4.419268419
 30
0.0
 10
4.133358743
 20
4.4186679718
 30
0.0
 10
4.1270952093
 20
4.4196989985
 30
0.0
  0
SPLINE
  5
3CD
100
AcDbEntity
  8
0
100
AcDbSpline
 62
7
  6
CONTINUOUS
 70
0
 71
3
 72
8
 73
4
 74
0
 42
0.0000001
 43
0.0000001
 44
0.0000000001
 40
0.0
 40
0.0
 40
0.0
 40
0.0
 40
1.0
 40
1.0
 40
1.0
 40
1.0
 10
4.1241492784
 20
4.4071004922
 30
0.0
 10
4.1324466344
 20
4.4052652053
 30
0.0
 10
4.1398809727
 20
4.406292355
 30
0.0
 10
4.1464651841
 20
4.4101599295
 30
0.0
  0
SPLINE
  5
3CE
100
AcDbEntity
  8
0
100
AcDbSpline
 62
7
  6
CONTINUOUS
 70
0
 71
3
 72
8
 73
4
 74
0
 42
0.0000001
 43
0.0000001
 44
0.0000000001
 40
0.0
 40
0.0
 40
0.0
 40
0.0
 40
1.0
 40
1.0
 40
1.0
 40
1.0
 10
4.1464651841
 20
4.4101599295
 30
0.0
 10
4.1530884953
 20
4.4140504712
 30
0.0
 10
4.1577864428
 20
4.4203418376
 30
0.0
 10
4.1606110211
 20
4.4290349956
 30
0.0
  0
SPLINE
  5
3CF
100
AcDbEntity
  8
0
100
AcDbSpline
 62
7
  6
CONTINUOUS
 70
0
 71
3
 72
8
 73
4
 74
0
 42
0.0000001
 43
0.0000001
 44
0.0000000001
 40
0.0
 40
0.0
 40
0.0
 40
0.0
 40
1.0
 40
1.0
 40
1.0
 40
1.0
 10
4.1606110211
 20
4.4290349956
 30
0.0
 10
4.1640258018
 20
4.4395446102
 30
0.0
 10
4.1629174029
 20
4.4491570481
 30
0.0
 10
4.1572076047
 20
4.4577826108
 30
0.0
  0
SPLINE
  5
3D0
100
AcDbEntity
  8
0
100
AcDbSpline
 62
7
  6
CONTINUOUS
 70
0
 71
3
 72
8
 73
4
 74
0
 42
0.0000001
 43
0.0000001
 44
0.0000000001
 40
0.0
 40
0.0
 40
0.0
 40
0.0
 40
1.0
 40
1.0
 40
1.0
 40
1.0
 10
4.1572076047
 20
4.4577826108
 30
0.0
 10
4.152573934
 20
4.4647825109
 30
0.0
 10
4.1459354724
 20
4.469736681
 30
0.0
 10
4.1373071959
 20
4.472540178
 30
0.0
  0
SPLINE
  5
3D1
100
AcDbEntity
  8
0
100
AcDbSpline
 62
7
  6
CONTINUOUS
 70
0
 71
3
 72
8
 73
4
 74
0
 42
0.0000001
 43
0.0000001
 44
0.0000000001
 40
0.0
 40
0.0
 40
0.0
 40
0.0
 40
1.0
 40
1.0
 40
1.0
 40
1.0
 10
4.1373071959
 20
4.472540178
 30
0.0
 10
4.1282896755
 20
4.475470148
 30
0.0
 10
4.1199665396
 20
4.4750186862
 30
0.0
 10
4.1123486678
 20
4.4711643324
 30
0.0
  0
SPLINE
  5
3D2
100
AcDbEntity
  8
0
100
AcDbSpline
 62
7
  6
CONTINUOUS
 70
0
 71
3
 72
8
 73
4
 74
0
 42
0.0000001
 43
0.0000001
 44
0.0000000001
 40
0.0
 40
0.0
 40
0.0
 40
0.0
 40
1.0
 40
1.0
 40
1.0
 40
1.0
 10
4.1123486678
 20
4.4711643324
 30
0.0
 10
4.1047739134
 20
4.4673317943
 30
0.0
 10
4.0995780443
 20
4.4612739217
 30
0.0
 10
4.0968799409
 20
4.4529700133
 30
0.0
  0
SPLINE
  5
3D3
100
AcDbEntity
  8
0
100
AcDbSpline
 62
7
  6
CONTINUOUS
 70
0
 71
3
 72
8
 73
4
 74
0
 42
0.0000001
 43
0.0000001
 44
0.0000000001
 40
0.0
 40
0.0
 40
0.0
 40
0.0
 40
1.0
 40
1.0
 40
1.0
 40
1.0
 10
4.0968799409
 20
4.4529700133
 30
0.0
 10
4.0948352867
 20
4.4466772146
 30
0.0
 10
4.0949071291
 20
4.4400553339
 30
0.0
 10
4.0970095147
 20
4.4330605897
 30
0.0
  0
ENDSEC
  0
SECTION
  2
OBJECTS
  0
DICTIONARY
  5
C
100
AcDbDictionary
280
0
281
1
  3
ACAD_GROUP
350
D
  3
ACAD_MLINESTYLE
350
17
  3
ACAD_LAYOUT
350
1A
  3
ACAD_PLOTSETTINGS
350
19
  3
ACAD_PLOTSTYLENAME
350
E
  0
DICTIONARY
  5
D
102
{ACAD_REACTORS
330
C
102
}
100
AcDbDictionary
280
0
281
1
  0
ACDBDICTIONARYWDFLT
  5
E
102
{ACAD_REACTORS
330
C
102
}
100
AcDbDictionary
281
1
  3
Normal
350
F
100
AcDbDictionaryWithDefault
340
F
  0
DICTIONARY
  5
17
102
{ACAD_REACTORS
330
C
102
}
100
AcDbDictionary
280
0
281
1
  3
Standard
350
18
  0
DICTIONARY
  5
19
102
{ACAD_REACTORS
330
C
102
}
100
AcDbDictionary
281
1
  0
DICTIONARY
  5
1A
102
{ACAD_REACTORS
330
C
102
}
100
AcDbDictionary
281
1
  3
Model
350
3D4
  3
Layout1
350
3D5
  0
ACDBPLACEHOLDER
  5
F
102
{ACAD_REACTORS
330
E
102
}
  0
MLINESTYLE
  5
18
102
{ACAD_REACTORS
330
17
102
}
100
AcDbMlineStyle
  2
STANDARD
 70
0
  3

 62
256
 51
90.0
 52
90.0
 71
2
 49
0.5
 62
256
  6
BYLAYER
 49
-0.5
 62
256
  6
BYLAYER
  0
LAYOUT
  5
3D4
102
{ACAD_REACTORS
330
1A
102
}
100
AcDbPlotSettings
  1

  2
none_device
  4
ANSI_A_(11.00_x_8.50_Inches)
  6

 40
0.0
 41
0.0
 42
0.0
 43
0.0
 44
279.4
 45
215.9
 46
0.0
 47
0.0
 48
0.0
 49
0.0
140
0.0
141
0.0
142
1.0
143
1.0
 70
1024
 72
0
 73
0
 74
0
  7

 75
0
147
1.0
148
0.0
149
0.0
100
AcDbLayout
  1
Model
 70
0
 71
0
 10
0.0
 20
0.0
 11
11.0
 21
8.5
 12
0.0
 22
0.0
 32
0.0
 14
0.0
 24
0.0
 34
0.0
 15
0.0
 25
0.0
 35
0.0
146
0.0
 13
0.0
 23
0.0
 33
0.0
 16
1.0
 26
0.0
 36
0.0
 17
0.0
 27
1.0
 37
0.0
 76
0
330
222
345
0
346
0
  0
LAYOUT
  5
3D5
102
{ACAD_REACTORS
330
1A
102
}
100
AcDbPlotSettings
  1

  2
none_device
  4
ANSI_A_(11.00_x_8.50_Inches)
  6

 40
0.0
 41
0.0
 42
0.0
 43
0.0
 44
279.4
 45
215.9
 46
0.0
 47
0.0
 48
0.0
 49
0.0
140
0.0
141
0.0
142
1.0
143
1.0
 70
0
 72
0
 73
0
 74
0
  7

 75
0
147
1.0
148
0.0
149
0.0
100
AcDbLayout
  1
Layout1
 70
0
 71
1
 10
0.0
 20
0.0
 11
11.0
 21
8.5
 12
0.0
 22
0.0
 32
0.0
 14
0.0
 24
0.0
 34
0.0
 15
0.0
 25
0.0
 35
0.0
146
0.0
 13
0.0
 23
0.0
 33
0.0
 16
1.0
 26
0.0
 36
0.0
 17
0.0
 27
1.0
 37
0.0
 76
0
330
223
345
0
346
0
  0
ENDSEC
  0
EOF
