999
DXF file: E:\BT Custom\CADOUTPUT\_TOP.dxf
999
Pro/ENGINEER 2018400 by Parametric Technology Corporation
  0
SECTION
  2
HEADER
  9
$ACADVER
  1
AC1018
  9
$DWGCODEPAGE
  3
ANSI_1252
  9
$EXTMAX
 10
22.0
 20
17.0
 30
0.0
  9
$EXTMIN
 10
0.0
 20
0.0
 30
0.0
  9
$LIMMIN
 10
0.0
 20
0.0
  9
$LIMMAX
 10
22.0
 20
17.0
  9
$VIEWCTR
 10
11.0
 20
8.5
  9
$VIEWSIZE
 40
17.0
  9
$CLAYER
  8
0
  9
$LTSCALE
 40
1.21
  9
$CELTYPE
  6
BYLAYER
  9
$DIMSCALE
 40
1.0
  9
$DIMASZ
 40
0.1
  9
$DIMEXO
 40
0.0625
  9
$DIMDLI
 40
0.836
  9
$DIMEXE
 40
0.125
  9
$DIMCEN
 40
0.198
  9
$DIMLFAC
 40
1.0
  9
$DIMBLK
  1
_FILLED
  9
$DIMALT
 70
1
  9
$DIMALTD
 70
2
  9
$DIMALTTD
 70
2
  9
$DIMALTF
 40
25.4
  9
$DIMTXT
 40
0.08
  9
$DIMTOL
 70
1
  9
$DIMLIM
 70
0
  9
$DIMTFAC
 40
1.0
  9
$DIMTP
 40
0.001
  9
$DIMTM
 40
0.001
  9
$DIMGAP
 40
0.09
  9
$DIMDSEP
 70
46
  9
$AUNITS
 70
0
  9
$PDMODE
 70
3
  9
$PDSIZE
 40
0.06
  9
$HANDSEED
  5
3A6
  9
$TILEMODE
 70
1
  9
$MEASUREMENT
 70
0
  9
$INSUNITS
 70
1
  0
ENDSEC
  0
SECTION
  2
CLASSES
  0
CLASS
  1
ACDBDICTIONARYWDFLT
  2
AcDbDictionaryWithDefault
  3
AutoCAD 2000
 90
0
 91
1
280
0
281
0
  0
CLASS
  1
ACDBPLACEHOLDER
  2
AcDbPlaceHolder
  3
AutoCAD 2000
 90
0
 91
1
280
0
281
0
  0
CLASS
  1
LAYOUT
  2
AcDbLayout
  3
AutoCAD 2000
 90
0
 91
0
280
0
281
0
  0
ENDSEC
  0
SECTION
  2
TABLES
  0
TABLE
  2
VPORT
  5
8
100
AcDbSymbolTable
 70
2
  0
VPORT
  5
1F4
100
AcDbSymbolTableRecord
100
AcDbViewportTableRecord
  2
*ACTIVE
 70
0
 10
0.0
 20
0.0
 11
1.0
 21
1.0
 12
11.0
 22
8.5
 13
0.0
 23
0.0
 14
1.0
 24
1.0
 15
0.0
 25
0.0
 16
0.0
 26
0.0
 36
1.0
 17
0.0
 27
0.0
 37
0.0
 40
17.0
 41
1.2941176471
 42
50.0
 43
0.0
 44
0.0
 50
0.0
 51
0.0
 71
0
 72
100
 73
1
 74
1
 75
0
 76
0
 77
0
 78
0
  0
ENDTAB
  0
TABLE
  2
LTYPE
  5
5
100
AcDbSymbolTable
 70
6
  0
LTYPE
  5
14
100
AcDbSymbolTableRecord
100
AcDbLinetypeTableRecord
  2
BYBLOCK
 70
0
  3

 72
65
 73
0
 40
0.0
  0
LTYPE
  5
15
100
AcDbSymbolTableRecord
100
AcDbLinetypeTableRecord
  2
BYLAYER
 70
0
  3

 72
65
 73
0
 40
0.0
  0
LTYPE
  5
16
100
AcDbSymbolTableRecord
100
AcDbLinetypeTableRecord
  2
CONTINUOUS
 70
64
  3
Solid line
 72
65
 73
0
 40
0.0
  0
LTYPE
  5
1F5
100
AcDbSymbolTableRecord
100
AcDbLinetypeTableRecord
  2
CENTER
 70
64
  3
____ _ ____ _ ____ _ ____ _ ____ _ ____ _ ____
 72
65
 73
4
 40
0.6
 49
0.375
 74
0
 49
-0.075
 74
0
 49
0.075
 74
0
 49
-0.075
 74
0
  0
LTYPE
  5
1F6
100
AcDbSymbolTableRecord
100
AcDbLinetypeTableRecord
  2
HIDDEN
 70
64
  3
- - - - - - - - - - - - - - - - - - - -
 72
65
 73
2
 40
0.2
 49
0.1
 74
0
 49
-0.1
 74
0
  0
LTYPE
  5
1F7
100
AcDbSymbolTableRecord
100
AcDbLinetypeTableRecord
  2
PHANTOM
 70
64
  3
_____ _ _ _____ _ _ _____ _ _ _____
 72
65
 73
6
 40
0.8
 49
0.45
 74
0
 49
-0.05
 74
0
 49
0.1
 74
0
 49
-0.05
 74
0
 49
0.1
 74
0
 49
-0.05
 74
0
  0
LTYPE
  5
1F8
100
AcDbSymbolTableRecord
100
AcDbLinetypeTableRecord
  2
DOT
 70
64
  3
. . . . . . . . . . . . . . . . . . . .
 72
65
 73
2
 40
0.2
 49
0.1
 74
0
 49
-0.1
 74
0
  0
LTYPE
  5
1F9
100
AcDbSymbolTableRecord
100
AcDbLinetypeTableRecord
  2
DASHED
 70
64
  3
- - - - - - - - - - - - - - - - - - - -
 72
65
 73
2
 40
0.2
 49
0.1
 74
0
 49
-0.1
 74
0
  0
ENDTAB
  0
TABLE
  2
LAYER
  5
2
100
AcDbSymbolTable
 70
36
  0
LAYER
  5
10
100
AcDbSymbolTableRecord
100
AcDbLayerTableRecord
  2
0
 70
0
 62
7
  6
CONTINUOUS
370
-3
390
F
  0
LAYER
  5
1FA
100
AcDbSymbolTableRecord
100
AcDbLayerTableRecord
  2
DEFAULT_1
 70
0
 62
7
  6
CENTER
370
-3
390
F
  0
LAYER
  5
1FB
100
AcDbSymbolTableRecord
100
AcDbLayerTableRecord
  2
DEFAULT_2
 70
0
 62
8
  6
HIDDEN
370
-3
390
F
  0
LAYER
  5
1FC
100
AcDbSymbolTableRecord
100
AcDbLayerTableRecord
  2
DEFAULT_3
 70
0
 62
7
  6
PHANTOM
370
-3
390
F
  0
LAYER
  5
1FD
100
AcDbSymbolTableRecord
100
AcDbLayerTableRecord
  2
ALL_FEATURES
 70
0
 62
7
  6
CONTINUOUS
370
-3
390
F
  0
LAYER
  5
1FE
100
AcDbSymbolTableRecord
100
AcDbLayerTableRecord
  2
AXES_FEATURES
 70
0
 62
7
  6
CONTINUOUS
370
-3
390
F
  0
LAYER
  5
1FF
100
AcDbSymbolTableRecord
100
AcDbLayerTableRecord
  2
DIMENSIONS
 70
0
 62
7
  6
CONTINUOUS
370
-3
390
F
  0
ENDTAB
  0
TABLE
  2
STYLE
  5
3
100
AcDbSymbolTable
 70
1
  0
STYLE
  5
11
100
AcDbSymbolTableRecord
100
AcDbTextStyleTableRecord
  2
STANDARD
 70
0
 40
0.0
 41
0.8
 50
0.0
 71
0
 42
0.2
  3
txt
  4

  0
STYLE
  5
200
100
AcDbSymbolTableRecord
100
AcDbTextStyleTableRecord
  2
TEXTSTYLE_1
 70
0
 40
0.0
 41
0.8
 50
0.0
 71
0
 42
0.2
  3
gdt
  4

  0
ENDTAB
  0
TABLE
  2
VIEW
  5
6
100
AcDbSymbolTable
 70
0
  0
ENDTAB
  0
TABLE
  2
UCS
  5
7
100
AcDbSymbolTable
 70
0
  0
ENDTAB
  0
TABLE
  2
APPID
  5
9
100
AcDbSymbolTable
 70
1
  0
APPID
  5
201
100
AcDbSymbolTableRecord
100
AcDbRegAppTableRecord
  2
ACAD
 70
0
  0
ENDTAB
  0
TABLE
  2
BLOCK_RECORD
  5
1
100
AcDbSymbolTable
 70
0
  0
BLOCK_RECORD
  5
202
100
AcDbSymbolTableRecord
100
AcDbBlockTableRecord
  2
*Model_Space
  0
BLOCK_RECORD
  5
203
100
AcDbSymbolTableRecord
100
AcDbBlockTableRecord
  2
*Paper_Space
  0
BLOCK_RECORD
  5
204
100
AcDbSymbolTableRecord
100
AcDbBlockTableRecord
  2
_FILLED
  0
ENDTAB
  0
TABLE
  2
DIMSTYLE
  5
A
100
AcDbSymbolTable
 70
1
100
AcDbDimStyleTable
 71
0
  0
DIMSTYLE
105
205
100
AcDbSymbolTableRecord
100
AcDbDimStyleTableRecord
  2
STANDARD
 70
0
  3

  4

 40
1.0
 41
0.1
 42
0.0625
 43
0.38
 44
0.125
 45
0.0
 46
0.0
 47
0.001
 48
0.001
140
0.08
141
0.09
142
0.0
143
25.4
144
1.0
145
0.0
146
1.0
147
0.09
 71
1.0
 72
0.0
 73
1
 74
1
 75
0
 76
0
 77
0
 78
4
 79
1
170
1
171
2
172
0
173
0
174
0
175
0
176
0
177
0
178
0
270
2
179
3
271
3
272
3
273
2
274
2
275
0
280
0
281
0
282
0
283
1
284
4
285
0
286
0
287
3
288
0
340
11
278
46
341
204
342
204
343
204
344
204
  0
ENDTAB
  0
ENDSEC
  0
SECTION
  2
BLOCKS
  0
BLOCK
  5
20
100
AcDbEntity
  8
0
100
AcDbBlockBegin
  2
*Model_Space
 70
0
 10
0.0
 20
0.0
 30
0.0
  3
*Model_Space
  1

  0
ENDBLK
  5
21
100
AcDbEntity
  8
0
100
AcDbBlockEnd
  0
BLOCK
  5
1C
100
AcDbEntity
  8
0
100
AcDbBlockBegin
  2
*Paper_Space
 70
0
 10
0.0
 20
0.0
 30
0.0
  3
*Paper_Space
  1

  0
ENDBLK
  5
1D
100
AcDbEntity
  8
0
100
AcDbBlockEnd
  0
BLOCK
  5
206
100
AcDbEntity
  8
0
100
AcDbBlockBegin
  2
_FILLED
 70
64
 10
0.0
 20
0.0
  3
_FILLED
  1

  0
SOLID
  5
207
100
AcDbEntity
  8
0
  6
BYBLOCK
 62
0
100
AcDbTrace
 10
0.0
 20
0.0
 11
-1.0
 21
0.2
 12
-1.0
 22
-0.2
 13
-1.0
 23
-0.2
  0
ENDBLK
  5
208
100
AcDbEntity
  8
0
  6
BYBLOCK
 62
0
100
AcDbBlockEnd
  0
ENDSEC
  0
SECTION
  2
ENTITIES
  0
LINE
  5
209
100
AcDbEntity
  8
0
100
AcDbLine
 62
7
  6
CONTINUOUS
 10
9.4723814671
 20
6.5015295484
 11
9.4701640836
 21
6.5226265437
  0
LINE
  5
20A
100
AcDbEntity
  8
0
100
AcDbLine
 62
7
  6
CONTINUOUS
 10
9.2876128089
 20
8.2594859025
 11
9.2853954253
 21
8.2805828978
  0
LINE
  5
20B
100
AcDbEntity
  8
0
100
AcDbLine
 62
7
  6
CONTINUOUS
 10
9.4386240306
 20
6.529171926
 11
9.4371442723
 21
6.5503334551
  0
LINE
  5
20C
100
AcDbEntity
  8
0
100
AcDbLine
 62
7
  6
CONTINUOUS
 10
9.3153197204
 20
8.2925057138
 11
9.3138399621
 21
8.3136672429
  0
LINE
  5
20D
100
AcDbEntity
  8
0
100
AcDbLine
 62
7
  6
CONTINUOUS
 10
9.3434217982
 20
8.3457387339
 11
9.3441621284
 21
8.324538453
  0
LINE
  5
20E
100
AcDbEntity
  8
0
100
AcDbLine
 62
7
  6
CONTINUOUS
 10
9.405111533
 20
6.5791758631
 11
9.4058518632
 21
6.5579755822
  0
LINE
  5
20F
100
AcDbEntity
  8
0
100
AcDbLine
 62
7
  6
CONTINUOUS
 10
9.3741048928
 20
8.3767582967
 11
9.3741048928
 21
8.3555450933
  0
LINE
  5
210
100
AcDbEntity
  8
0
100
AcDbLine
 62
7
  6
CONTINUOUS
 10
9.3741048928
 20
6.6091186275
 11
9.3741048928
 21
6.5879054241
  0
LINE
  5
211
100
AcDbEntity
  8
0
100
AcDbLine
 62
7
  6
CONTINUOUS
 10
9.4058518632
 20
8.4066881386
 11
9.405111533
 21
8.3854878577
  0
LINE
  5
212
100
AcDbEntity
  8
0
100
AcDbLine
 62
7
  6
CONTINUOUS
 10
9.3441621284
 20
6.6401252678
 11
9.3434217982
 21
6.6189249869
  0
LINE
  5
213
100
AcDbEntity
  8
0
100
AcDbLine
 62
7
  6
CONTINUOUS
 10
9.3138399621
 20
6.6509964779
 11
9.3153197204
 21
6.672158007
  0
LINE
  5
214
100
AcDbEntity
  8
0
100
AcDbLine
 62
7
  6
CONTINUOUS
 10
9.4371442723
 20
8.4143302657
 11
9.4386240306
 21
8.4354917948
  0
LINE
  5
215
100
AcDbEntity
  8
0
100
AcDbLine
 62
7
  6
CONTINUOUS
 10
9.2853954253
 20
6.684080823
 11
9.2876128089
 21
6.7051778183
  0
LINE
  5
216
100
AcDbEntity
  8
0
100
AcDbLine
 62
7
  6
CONTINUOUS
 10
9.4701640836
 20
8.4420371771
 11
9.4723814671
 21
8.4631341724
  0
LINE
  5
217
100
AcDbEntity
  8
0
100
AcDbLine
 62
7
  6
CONTINUOUS
 10
9.2581228432
 20
6.7181377141
 11
9.2610751505
 21
6.7391444721
  0
LINE
  5
218
100
AcDbEntity
  8
0
100
AcDbLine
 62
7
  6
CONTINUOUS
 10
9.5041307374
 20
8.4685748355
 11
9.5070830447
 21
8.4895815935
  0
LINE
  5
219
100
AcDbEntity
  8
0
100
AcDbLine
 62
7
  6
CONTINUOUS
 10
9.2320554432
 20
6.753125658
 11
9.2357390773
 21
6.7740165852
  0
LINE
  5
21A
100
AcDbEntity
  8
0
100
AcDbLine
 62
7
  6
CONTINUOUS
 10
9.5390028505
 20
8.4939109088
 11
9.5426864846
 21
8.514801836
  0
LINE
  5
21B
100
AcDbEntity
  8
0
100
AcDbLine
 62
7
  6
CONTINUOUS
 10
9.2072249843
 20
6.7890020274
 11
9.2116354573
 21
6.8097516714
  0
LINE
  5
21C
100
AcDbEntity
  8
0
100
AcDbLine
 62
7
  6
CONTINUOUS
 10
9.5747379367
 20
8.5180145287
 11
9.5791484097
 21
8.5387641728
  0
LINE
  5
21D
100
AcDbEntity
  8
0
100
AcDbLine
 62
7
  6
CONTINUOUS
 10
9.1836617187
 20
6.8257231124
 11
9.1887936571
 21
6.846306193
  0
LINE
  5
21E
100
AcDbEntity
  8
0
100
AcDbLine
 62
7
  6
CONTINUOUS
 10
9.6112924582
 20
8.5408563289
 11
9.6164243966
 21
8.5614394096
  0
LINE
  5
21F
100
AcDbEntity
  8
0
100
AcDbLine
 62
7
  6
CONTINUOUS
 10
9.1613943546
 20
6.8632441739
 11
9.1672415059
 21
6.8836356138
  0
LINE
  5
220
100
AcDbEntity
  8
0
100
AcDbLine
 62
7
  6
CONTINUOUS
 10
9.6486218791
 20
8.5624084801
 11
9.6544690304
 21
8.58279992
  0
LINE
  5
221
100
AcDbEntity
  8
0
100
AcDbLine
 62
7
  6
CONTINUOUS
 10
9.1404500214
 20
6.9015194985
 11
9.1470052618
 21
6.9216944538
  0
LINE
  5
222
100
AcDbEntity
  8
0
100
AcDbLine
 62
7
  6
CONTINUOUS
 10
9.6866807191
 20
8.5826447243
 11
9.6932359595
 21
8.6028196797
  0
LINE
  5
223
100
AcDbEntity
  8
0
100
AcDbLine
 62
7
  6
CONTINUOUS
 10
9.1208542364
 20
6.9405024534
 11
9.1281095793
 21
6.9604363442
  0
LINE
  5
224
100
AcDbEntity
  8
0
100
AcDbLine
 62
7
  6
CONTINUOUS
 10
9.7254226094
 20
8.6015404068
 11
9.7326779523
 21
8.6214742975
  0
LINE
  5
225
100
AcDbEntity
  8
0
100
AcDbLine
 62
7
  6
CONTINUOUS
 10
9.1026308742
 20
6.9801455441
 11
9.1105774801
 21
6.9998140838
  0
LINE
  5
226
100
AcDbEntity
  8
0
100
AcDbLine
 62
7
  6
CONTINUOUS
 10
9.764800349
 20
8.619072506
 11
9.7727469549
 21
8.6387410457
  0
LINE
  5
227
100
AcDbEntity
  8
0
100
AcDbLine
 62
7
  6
CONTINUOUS
 10
9.085802137
 20
7.0204004714
 11
9.0944303242
 21
7.039779697
  0
LINE
  5
228
100
AcDbEntity
  8
0
100
AcDbLine
 62
7
  6
CONTINUOUS
 10
9.8047659622
 20
8.6352196619
 11
9.8133941494
 21
8.6545988875
  0
LINE
  5
229
100
AcDbEntity
  8
0
100
AcDbLine
 62
7
  6
CONTINUOUS
 10
9.0703885282
 20
7.0612181909
 11
9.0796877845
 21
7.0802844918
  0
LINE
  5
22A
100
AcDbEntity
  8
0
100
AcDbLine
 62
7
  6
CONTINUOUS
 10
9.8452707571
 20
8.6499622015
 11
9.8545700134
 21
8.6690285025
  0
LINE
  5
22B
100
AcDbEntity
  8
0
100
AcDbLine
 62
7
  6
CONTINUOUS
 10
9.0564088268
 20
7.1025489726
 11
9.0663678226
 21
7.1212791195
  0
LINE
  5
22C
100
AcDbEntity
  8
0
100
AcDbLine
 62
7
  6
CONTINUOUS
 10
9.8862653847
 20
8.6632821635
 11
9.8962243805
 21
8.6820123104
  0
LINE
  5
22D
100
AcDbEntity
  8
0
100
AcDbLine
 62
7
  6
CONTINUOUS
 10
9.8962243805
 20
6.2826514104
 11
9.8862653847
 21
6.3013815573
  0
LINE
  5
22E
100
AcDbEntity
  8
0
100
AcDbLine
 62
7
  6
CONTINUOUS
 10
9.0663678226
 20
7.8433846013
 11
9.0564088268
 21
7.8621147482
  0
LINE
  5
22F
100
AcDbEntity
  8
0
100
AcDbLine
 62
7
  6
CONTINUOUS
 10
9.8545700134
 20
6.2956352183
 11
9.8452707571
 21
6.3147015193
  0
LINE
  5
230
100
AcDbEntity
  8
0
100
AcDbLine
 62
7
  6
CONTINUOUS
 10
9.0796877845
 20
7.884379229
 11
9.0703885282
 21
7.9034455299
  0
LINE
  5
231
100
AcDbEntity
  8
0
100
AcDbLine
 62
7
  6
CONTINUOUS
 10
9.8133941494
 20
6.3100648333
 11
9.8047659622
 21
6.3294440589
  0
LINE
  5
232
100
AcDbEntity
  8
0
100
AcDbLine
 62
7
  6
CONTINUOUS
 10
9.0944303242
 20
7.9248840238
 11
9.085802137
 21
7.9442632495
  0
LINE
  5
233
100
AcDbEntity
  8
0
100
AcDbLine
 62
7
  6
CONTINUOUS
 10
9.7727469549
 20
6.3259226751
 11
9.764800349
 21
6.3455912148
  0
LINE
  5
234
100
AcDbEntity
  8
0
100
AcDbLine
 62
7
  6
CONTINUOUS
 10
9.1105774801
 20
7.964849637
 11
9.1026308742
 21
7.9845181768
  0
LINE
  5
235
100
AcDbEntity
  8
0
100
AcDbLine
 62
7
  6
CONTINUOUS
 10
9.7326779523
 20
6.3431894233
 11
9.7254226094
 21
6.3631233141
  0
LINE
  5
236
100
AcDbEntity
  8
0
100
AcDbLine
 62
7
  6
CONTINUOUS
 10
9.1281095793
 20
8.0042273766
 11
9.1208542364
 21
8.0241612674
  0
LINE
  5
237
100
AcDbEntity
  8
0
100
AcDbLine
 62
7
  6
CONTINUOUS
 10
9.6932359595
 20
6.3618440411
 11
9.6866807191
 21
6.3820189965
  0
LINE
  5
238
100
AcDbEntity
  8
0
100
AcDbLine
 62
7
  6
CONTINUOUS
 10
9.1470052618
 20
8.042969267
 11
9.1404500214
 21
8.0631442223
  0
LINE
  5
239
100
AcDbEntity
  8
0
100
AcDbLine
 62
7
  6
CONTINUOUS
 10
9.6544690304
 20
6.3818638008
 11
9.6486218791
 21
6.4022552407
  0
LINE
  5
23A
100
AcDbEntity
  8
0
100
AcDbLine
 62
7
  6
CONTINUOUS
 10
9.1672415059
 20
8.081028107
 11
9.1613943546
 21
8.1014195469
  0
LINE
  5
23B
100
AcDbEntity
  8
0
100
AcDbLine
 62
7
  6
CONTINUOUS
 10
9.6164243966
 20
6.4032243112
 11
9.6112924582
 21
6.4238073919
  0
LINE
  5
23C
100
AcDbEntity
  8
0
100
AcDbLine
 62
7
  6
CONTINUOUS
 10
9.1887936571
 20
8.1183575278
 11
9.1836617187
 21
8.1389406085
  0
LINE
  5
23D
100
AcDbEntity
  8
0
100
AcDbLine
 62
7
  6
CONTINUOUS
 10
9.5791484097
 20
6.425899548
 11
9.5747379367
 21
6.4466491921
  0
LINE
  5
23E
100
AcDbEntity
  8
0
100
AcDbLine
 62
7
  6
CONTINUOUS
 10
9.2116354573
 20
8.1549120494
 11
9.2072249843
 21
8.1756616934
  0
LINE
  5
23F
100
AcDbEntity
  8
0
100
AcDbLine
 62
7
  6
CONTINUOUS
 10
9.5426864846
 20
6.4498618848
 11
9.5390028505
 21
6.470752812
  0
LINE
  5
240
100
AcDbEntity
  8
0
100
AcDbLine
 62
7
  6
CONTINUOUS
 10
9.2357390773
 20
8.1906471356
 11
9.2320554432
 21
8.2115380628
  0
LINE
  5
241
100
AcDbEntity
  8
0
100
AcDbLine
 62
7
  6
CONTINUOUS
 10
9.5070830447
 20
6.4750821273
 11
9.5041307374
 21
6.4960888853
  0
LINE
  5
242
100
AcDbEntity
  8
0
100
AcDbLine
 62
7
  6
CONTINUOUS
 10
9.2610751505
 20
8.2255192487
 11
9.2581228432
 21
8.2465260067
  0
LINE
  5
243
100
AcDbEntity
  8
0
100
AcDbLine
 62
7
  6
CONTINUOUS
 10
9.0438800649
 20
7.1443424612
 11
9.0544866666
 21
7.1627136343
  0
LINE
  5
244
100
AcDbEntity
  8
0
100
AcDbLine
 62
7
  6
CONTINUOUS
 10
9.9276998995
 20
8.6751633194
 11
9.9383065012
 21
8.6935344925
  0
LINE
  5
245
100
AcDbEntity
  8
0
100
AcDbLine
 62
7
  6
CONTINUOUS
 10
9.0328175069
 20
7.1865477378
 11
9.0440587921
 21
7.2045375546
  0
LINE
  5
246
100
AcDbEntity
  8
0
100
AcDbLine
 62
7
  6
CONTINUOUS
 10
9.9695238199
 20
8.685591194
 11
9.980765105
 21
8.7035810107
  0
LINE
  5
247
100
AcDbEntity
  8
0
100
AcDbLine
 62
7
  6
CONTINUOUS
 10
9.0232346309
 20
7.2291133819
 11
9.0350969037
 21
7.2466999245
  0
LINE
  5
248
100
AcDbEntity
  8
0
100
AcDbLine
 62
7
  6
CONTINUOUS
 10
10.0116861898
 20
8.6945530823
 11
10.0235484626
 21
8.712139625
  0
LINE
  5
249
100
AcDbEntity
  8
0
100
AcDbLine
 62
7
  6
CONTINUOUS
 10
9.015143112
 20
7.2719875336
 11
9.0276119202
 21
7.2891493757
  0
LINE
  5
24A
100
AcDbEntity
  8
0
100
AcDbLine
 62
7
  6
CONTINUOUS
 10
10.0541356409
 20
8.7020380659
 11
10.0666044491
 21
8.719199908
  0
LINE
  5
24B
100
AcDbEntity
  8
0
100
AcDbLine
 62
7
  6
CONTINUOUS
 10
9.0085528086
 20
7.3151179575
 11
9.0216129607
 21
7.3318341899
  0
LINE
  5
24C
100
AcDbEntity
  8
0
100
AcDbLine
 62
7
  6
CONTINUOUS
 10
10.0968204552
 20
8.7080370253
 11
10.1098806073
 21
8.7247532577
  0
LINE
  5
24D
100
AcDbEntity
  8
0
100
AcDbLine
 62
7
  6
CONTINUOUS
 10
9.0034717499
 20
7.3584521058
 11
9.0171073343
 21
7.3747023624
  0
LINE
  5
24E
100
AcDbEntity
  8
0
100
AcDbLine
 62
7
  6
CONTINUOUS
 10
10.1396886277
 20
8.7125426518
 11
10.153324212
 21
8.7287929084
  0
LINE
  5
24F
100
AcDbEntity
  8
0
100
AcDbLine
 62
7
  6
CONTINUOUS
 10
8.9999061264
 20
7.4019371825
 11
9.0141005301
 21
7.4177016649
  0
LINE
  5
250
100
AcDbEntity
  8
0
100
AcDbLine
 62
7
  6
CONTINUOUS
 10
10.1826879301
 20
8.7155494559
 11
10.1968823338
 21
8.7313139383
  0
LINE
  5
251
100
AcDbEntity
  8
0
100
AcDbLine
 62
7
  6
CONTINUOUS
 10
8.9978602823
 20
7.4455202077
 11
9.0125962117
 21
7.4607797092
  0
LINE
  5
252
100
AcDbEntity
  8
0
100
AcDbLine
 62
7
  6
CONTINUOUS
 10
10.2257659745
 20
8.7170537744
 11
10.2405019038
 21
8.7323132759
  0
LINE
  5
253
100
AcDbEntity
  8
0
100
AcDbLine
 62
7
  6
CONTINUOUS
 10
8.9973367101
 20
7.4891480823
 11
9.0125962117
 21
7.5038840116
  0
LINE
  5
254
100
AcDbEntity
  8
0
100
AcDbLine
 62
7
  6
CONTINUOUS
 10
10.2688702768
 20
8.7170537744
 11
10.2841297783
 21
8.7317897037
  0
LINE
  5
255
100
AcDbEntity
  8
0
100
AcDbLine
 62
7
  6
CONTINUOUS
 10
10.2841297783
 20
6.2328740171
 11
10.2688702768
 21
6.2476099464
  0
LINE
  5
256
100
AcDbEntity
  8
0
100
AcDbLine
 62
7
  6
CONTINUOUS
 10
9.0125962117
 20
7.4607797092
 11
8.9973367101
 21
7.4755156386
  0
LINE
  5
257
100
AcDbEntity
  8
0
100
AcDbLine
 62
7
  6
CONTINUOUS
 10
10.2405019038
 20
6.2323504449
 11
10.2257659745
 21
6.2476099464
  0
LINE
  5
258
100
AcDbEntity
  8
0
100
AcDbLine
 62
7
  6
CONTINUOUS
 10
9.0125962117
 20
7.5038840116
 11
8.9978602823
 21
7.5191435131
  0
LINE
  5
259
100
AcDbEntity
  8
0
100
AcDbLine
 62
7
  6
CONTINUOUS
 10
10.1968823338
 20
6.2333497825
 11
10.1826879301
 21
6.2491142649
  0
LINE
  5
25A
100
AcDbEntity
  8
0
100
AcDbLine
 62
7
  6
CONTINUOUS
 10
9.0141005301
 20
7.546962056
 11
8.9999061264
 21
7.5627265383
  0
LINE
  5
25B
100
AcDbEntity
  8
0
100
AcDbLine
 62
7
  6
CONTINUOUS
 10
10.153324212
 20
6.2358708124
 11
10.1396886277
 21
6.252121069
  0
LINE
  5
25C
100
AcDbEntity
  8
0
100
AcDbLine
 62
7
  6
CONTINUOUS
 10
9.0171073343
 20
7.5899613584
 11
9.0034717499
 21
7.606211615
  0
LINE
  5
25D
100
AcDbEntity
  8
0
100
AcDbLine
 62
7
  6
CONTINUOUS
 10
10.1098806073
 20
6.2399104631
 11
10.0968204552
 21
6.2566266955
  0
LINE
  5
25E
100
AcDbEntity
  8
0
100
AcDbLine
 62
7
  6
CONTINUOUS
 10
9.0216129607
 20
7.6328295309
 11
9.0085528086
 21
7.6495457633
  0
LINE
  5
25F
100
AcDbEntity
  8
0
100
AcDbLine
 62
7
  6
CONTINUOUS
 10
10.0666044491
 20
6.2454638128
 11
10.0541356409
 21
6.2626256549
  0
LINE
  5
260
100
AcDbEntity
  8
0
100
AcDbLine
 62
7
  6
CONTINUOUS
 10
9.0276119202
 20
7.6755143451
 11
9.015143112
 21
7.6926761872
  0
LINE
  5
261
100
AcDbEntity
  8
0
100
AcDbLine
 62
7
  6
CONTINUOUS
 10
10.0235484626
 20
6.2525240958
 11
10.0116861898
 21
6.2701106385
  0
LINE
  5
262
100
AcDbEntity
  8
0
100
AcDbLine
 62
7
  6
CONTINUOUS
 10
9.0350969037
 20
7.7179637963
 11
9.0232346309
 21
7.7355503389
  0
LINE
  5
263
100
AcDbEntity
  8
0
100
AcDbLine
 62
7
  6
CONTINUOUS
 10
9.980765105
 20
6.2610827101
 11
9.9695238199
 21
6.2790725269
  0
LINE
  5
264
100
AcDbEntity
  8
0
100
AcDbLine
 62
7
  6
CONTINUOUS
 10
9.0440587921
 20
7.7601261662
 11
9.0328175069
 21
7.778115983
  0
LINE
  5
265
100
AcDbEntity
  8
0
100
AcDbLine
 62
7
  6
CONTINUOUS
 10
9.9383065012
 20
6.2711292283
 11
9.9276998995
 21
6.2895004014
  0
LINE
  5
266
100
AcDbEntity
  8
0
100
AcDbLine
 62
7
  6
CONTINUOUS
 10
9.0544866666
 20
7.8019500866
 11
9.0438800649
 21
7.8203212596
  0
LINE
  5
267
100
AcDbEntity
  8
0
100
AcDbLine
 62
7
  6
CONTINUOUS
 10
8.9983360478
 20
7.5327676523
 11
9.0141005301
 21
7.546962056
  0
LINE
  5
268
100
AcDbEntity
  8
0
100
AcDbLine
 62
7
  6
CONTINUOUS
 10
10.3119483212
 20
8.7155494559
 11
10.3277128036
 21
8.7297438596
  0
LINE
  5
269
100
AcDbEntity
  8
0
100
AcDbLine
 62
7
  6
CONTINUOUS
 10
9.0008570776
 20
7.5763257741
 11
9.0171073343
 21
7.5899613584
  0
LINE
  5
26A
100
AcDbEntity
  8
0
100
AcDbLine
 62
7
  6
CONTINUOUS
 10
10.3549476236
 20
8.7125426518
 11
10.3711978803
 21
8.7261782361
  0
LINE
  5
26B
100
AcDbEntity
  8
0
100
AcDbLine
 62
7
  6
CONTINUOUS
 10
9.0048967283
 20
7.6197693788
 11
9.0216129607
 21
7.6328295309
  0
LINE
  5
26C
100
AcDbEntity
  8
0
100
AcDbLine
 62
7
  6
CONTINUOUS
 10
10.3978157961
 20
8.7080370253
 11
10.4145320285
 21
8.7210971774
  0
LINE
  5
26D
100
AcDbEntity
  8
0
100
AcDbLine
 62
7
  6
CONTINUOUS
 10
9.0104500781
 20
7.663045537
 11
9.0276119202
 21
7.6755143451
  0
LINE
  5
26E
100
AcDbEntity
  8
0
100
AcDbLine
 62
7
  6
CONTINUOUS
 10
10.4405006104
 20
8.7020380659
 11
10.4576624524
 21
8.714506874
  0
LINE
  5
26F
100
AcDbEntity
  8
0
100
AcDbLine
 62
7
  6
CONTINUOUS
 10
9.017510361
 20
7.7061015234
 11
9.0350969037
 21
7.7179637963
  0
LINE
  5
270
100
AcDbEntity
  8
0
100
AcDbLine
 62
7
  6
CONTINUOUS
 10
10.4829500615
 20
8.6945530823
 11
10.5005366042
 21
8.7064153552
  0
LINE
  5
271
100
AcDbEntity
  8
0
100
AcDbLine
 62
7
  6
CONTINUOUS
 10
9.0260689753
 20
7.748884881
 11
9.0440587921
 21
7.7601261662
  0
LINE
  5
272
100
AcDbEntity
  8
0
100
AcDbLine
 62
7
  6
CONTINUOUS
 10
10.5251124314
 20
8.685591194
 11
10.5431022482
 21
8.6968324791
  0
LINE
  5
273
100
AcDbEntity
  8
0
100
AcDbLine
 62
7
  6
CONTINUOUS
 10
9.0361154936
 20
7.7913434848
 11
9.0544866666
 21
7.8019500866
  0
LINE
  5
274
100
AcDbEntity
  8
0
100
AcDbLine
 62
7
  6
CONTINUOUS
 10
10.5669363518
 20
8.6751633194
 11
10.5853075249
 21
8.6857699211
  0
LINE
  5
275
100
AcDbEntity
  8
0
100
AcDbLine
 62
7
  6
CONTINUOUS
 10
10.5853075249
 20
6.2788937997
 11
10.5669363518
 21
6.2895004014
  0
LINE
  5
276
100
AcDbEntity
  8
0
100
AcDbLine
 62
7
  6
CONTINUOUS
 10
9.0544866666
 20
7.1627136343
 11
9.0361154936
 21
7.173320236
  0
LINE
  5
277
100
AcDbEntity
  8
0
100
AcDbLine
 62
7
  6
CONTINUOUS
 10
10.5431022482
 20
6.2678312417
 11
10.5251124314
 21
6.2790725269
  0
LINE
  5
278
100
AcDbEntity
  8
0
100
AcDbLine
 62
7
  6
CONTINUOUS
 10
9.0440587921
 20
7.2045375546
 11
9.0260689753
 21
7.2157788398
  0
LINE
  5
279
100
AcDbEntity
  8
0
100
AcDbLine
 62
7
  6
CONTINUOUS
 10
10.5005366042
 20
6.2582483657
 11
10.4829500615
 21
6.2701106385
  0
LINE
  5
27A
100
AcDbEntity
  8
0
100
AcDbLine
 62
7
  6
CONTINUOUS
 10
9.0350969037
 20
7.2466999245
 11
9.017510361
 21
7.2585621974
  0
LINE
  5
27B
100
AcDbEntity
  8
0
100
AcDbLine
 62
7
  6
CONTINUOUS
 10
10.4576624524
 20
6.2501568468
 11
10.4405006104
 21
6.2626256549
  0
LINE
  5
27C
100
AcDbEntity
  8
0
100
AcDbLine
 62
7
  6
CONTINUOUS
 10
9.0276119202
 20
7.2891493757
 11
9.0104500781
 21
7.3016181838
  0
LINE
  5
27D
100
AcDbEntity
  8
0
100
AcDbLine
 62
7
  6
CONTINUOUS
 10
10.4145320285
 20
6.2435665434
 11
10.3978157961
 21
6.2566266955
  0
LINE
  5
27E
100
AcDbEntity
  8
0
100
AcDbLine
 62
7
  6
CONTINUOUS
 10
9.0216129607
 20
7.3318341899
 11
9.0048967283
 21
7.3448943421
  0
LINE
  5
27F
100
AcDbEntity
  8
0
100
AcDbLine
 62
7
  6
CONTINUOUS
 10
10.3711978803
 20
6.2384854847
 11
10.3549476236
 21
6.252121069
  0
LINE
  5
280
100
AcDbEntity
  8
0
100
AcDbLine
 62
7
  6
CONTINUOUS
 10
9.0171073343
 20
7.3747023624
 11
9.0008570776
 21
7.3883379467
  0
LINE
  5
281
100
AcDbEntity
  8
0
100
AcDbLine
 62
7
  6
CONTINUOUS
 10
10.3277128036
 20
6.2349198612
 11
10.3119483212
 21
6.2491142649
  0
LINE
  5
282
100
AcDbEntity
  8
0
100
AcDbLine
 62
7
  6
CONTINUOUS
 10
9.0141005301
 20
7.4177016649
 11
8.9983360478
 21
7.4318960685
  0
LINE
  5
283
100
AcDbEntity
  8
0
100
AcDbLine
 62
7
  6
CONTINUOUS
 10
9.0476376757
 20
7.8334256056
 11
9.0663678226
 21
7.8433846013
  0
LINE
  5
284
100
AcDbEntity
  8
0
100
AcDbLine
 62
7
  6
CONTINUOUS
 10
10.6083708666
 20
8.6632821635
 11
10.6271010135
 21
8.6732411593
  0
LINE
  5
285
100
AcDbEntity
  8
0
100
AcDbLine
 62
7
  6
CONTINUOUS
 10
9.0606214836
 20
7.8750799727
 11
9.0796877845
 21
7.884379229
  0
LINE
  5
286
100
AcDbEntity
  8
0
100
AcDbLine
 62
7
  6
CONTINUOUS
 10
10.6493654942
 20
8.6499622015
 11
10.6684317952
 21
8.6592614579
  0
LINE
  5
287
100
AcDbEntity
  8
0
100
AcDbLine
 62
7
  6
CONTINUOUS
 10
9.0750510985
 20
7.9162558367
 11
9.0944303242
 21
7.9248840238
  0
LINE
  5
288
100
AcDbEntity
  8
0
100
AcDbLine
 62
7
  6
CONTINUOUS
 10
10.6898702891
 20
8.6352196619
 11
10.7092495147
 21
8.643847849
  0
LINE
  5
289
100
AcDbEntity
  8
0
100
AcDbLine
 62
7
  6
CONTINUOUS
 10
9.0909089403
 20
7.9569030311
 11
9.1105774801
 21
7.964849637
  0
LINE
  5
28A
100
AcDbEntity
  8
0
100
AcDbLine
 62
7
  6
CONTINUOUS
 10
10.7298359023
 20
8.619072506
 11
10.749504442
 21
8.6270191119
  0
LINE
  5
28B
100
AcDbEntity
  8
0
100
AcDbLine
 62
7
  6
CONTINUOUS
 10
9.1081756886
 20
7.9969720338
 11
9.1281095793
 21
8.0042273766
  0
LINE
  5
28C
100
AcDbEntity
  8
0
100
AcDbLine
 62
7
  6
CONTINUOUS
 10
10.7692136419
 20
8.6015404068
 11
10.7891475326
 21
8.6087957496
  0
LINE
  5
28D
100
AcDbEntity
  8
0
100
AcDbLine
 62
7
  6
CONTINUOUS
 10
9.1268303064
 20
8.0364140266
 11
9.1470052618
 21
8.042969267
  0
LINE
  5
28E
100
AcDbEntity
  8
0
100
AcDbLine
 62
7
  6
CONTINUOUS
 10
10.8079555322
 20
8.5826447243
 11
10.8281304876
 21
8.5891999647
  0
LINE
  5
28F
100
AcDbEntity
  8
0
100
AcDbLine
 62
7
  6
CONTINUOUS
 10
10.8281304876
 20
6.3754637561
 11
10.8079555322
 21
6.3820189965
  0
LINE
  5
290
100
AcDbEntity
  8
0
100
AcDbLine
 62
7
  6
CONTINUOUS
 10
9.1470052618
 20
6.9216944538
 11
9.1268303064
 21
6.9282496942
  0
LINE
  5
291
100
AcDbEntity
  8
0
100
AcDbLine
 62
7
  6
CONTINUOUS
 10
10.7891475326
 20
6.3558679712
 11
10.7692136419
 21
6.3631233141
  0
LINE
  5
292
100
AcDbEntity
  8
0
100
AcDbLine
 62
7
  6
CONTINUOUS
 10
9.1281095793
 20
6.9604363442
 11
9.1081756886
 21
6.967691687
  0
LINE
  5
293
100
AcDbEntity
  8
0
100
AcDbLine
 62
7
  6
CONTINUOUS
 10
10.749504442
 20
6.3376446089
 11
10.7298359023
 21
6.3455912148
  0
LINE
  5
294
100
AcDbEntity
  8
0
100
AcDbLine
 62
7
  6
CONTINUOUS
 10
9.1105774801
 20
6.9998140838
 11
9.0909089403
 21
7.0077606897
  0
LINE
  5
295
100
AcDbEntity
  8
0
100
AcDbLine
 62
7
  6
CONTINUOUS
 10
10.7092495147
 20
6.3208158718
 11
10.6898702891
 21
6.3294440589
  0
LINE
  5
296
100
AcDbEntity
  8
0
100
AcDbLine
 62
7
  6
CONTINUOUS
 10
9.0944303242
 20
7.039779697
 11
9.0750510985
 21
7.0484078841
  0
LINE
  5
297
100
AcDbEntity
  8
0
100
AcDbLine
 62
7
  6
CONTINUOUS
 10
10.6684317952
 20
6.305402263
 11
10.6493654942
 21
6.3147015193
  0
LINE
  5
298
100
AcDbEntity
  8
0
100
AcDbLine
 62
7
  6
CONTINUOUS
 10
9.0796877845
 20
7.0802844918
 11
9.0606214836
 21
7.0895837482
  0
LINE
  5
299
100
AcDbEntity
  8
0
100
AcDbLine
 62
7
  6
CONTINUOUS
 10
10.6271010135
 20
6.2914225615
 11
10.6083708666
 21
6.3013815573
  0
LINE
  5
29A
100
AcDbEntity
  8
0
100
AcDbLine
 62
7
  6
CONTINUOUS
 10
9.0663678226
 20
7.1212791195
 11
9.0476376757
 21
7.1312381152
  0
LINE
  5
29B
100
AcDbEntity
  8
0
100
AcDbLine
 62
7
  6
CONTINUOUS
 10
9.146850066
 20
8.0751809557
 11
9.1672415059
 21
8.081028107
  0
LINE
  5
29C
100
AcDbEntity
  8
0
100
AcDbLine
 62
7
  6
CONTINUOUS
 10
10.8460143722
 20
8.5624084801
 11
10.8664058121
 21
8.5682556314
  0
LINE
  5
29D
100
AcDbEntity
  8
0
100
AcDbLine
 62
7
  6
CONTINUOUS
 10
11.045569163
 20
6.5204091601
 11
11.0244721677
 21
6.5226265437
  0
LINE
  5
29E
100
AcDbEntity
  8
0
100
AcDbLine
 62
7
  6
CONTINUOUS
 10
9.2876128089
 20
6.7051778183
 11
9.2665158136
 21
6.7073952019
  0
LINE
  5
29F
100
AcDbEntity
  8
0
100
AcDbLine
 62
7
  6
CONTINUOUS
 10
11.0115122719
 20
6.493136578
 11
10.9905055139
 21
6.4960888853
  0
LINE
  5
2A0
100
AcDbEntity
  8
0
100
AcDbLine
 62
7
  6
CONTINUOUS
 10
9.2610751505
 20
6.7391444721
 11
9.2400683925
 21
6.7420967794
  0
LINE
  5
2A1
100
AcDbEntity
  8
0
100
AcDbLine
 62
7
  6
CONTINUOUS
 10
10.976524328
 20
6.4670691779
 11
10.9556334008
 21
6.470752812
  0
LINE
  5
2A2
100
AcDbEntity
  8
0
100
AcDbLine
 62
7
  6
CONTINUOUS
 10
9.2357390773
 20
6.7740165852
 11
9.2148481501
 21
6.7777002194
  0
LINE
  5
2A3
100
AcDbEntity
  8
0
100
AcDbLine
 62
7
  6
CONTINUOUS
 10
10.9406479587
 20
6.4422387191
 11
10.9198983146
 21
6.4466491921
  0
LINE
  5
2A4
100
AcDbEntity
  8
0
100
AcDbLine
 62
7
  6
CONTINUOUS
 10
9.2116354573
 20
6.8097516714
 11
9.1908858133
 21
6.8141621444
  0
LINE
  5
2A5
100
AcDbEntity
  8
0
100
AcDbLine
 62
7
  6
CONTINUOUS
 10
10.9039268737
 20
6.4186754535
 11
10.8833437931
 21
6.4238073919
  0
LINE
  5
2A6
100
AcDbEntity
  8
0
100
AcDbLine
 62
7
  6
CONTINUOUS
 10
9.1887936571
 20
6.846306193
 11
9.1682105765
 21
6.8514381314
  0
LINE
  5
2A7
100
AcDbEntity
  8
0
100
AcDbLine
 62
7
  6
CONTINUOUS
 10
10.8664058121
 20
6.3964080894
 11
10.8460143722
 21
6.4022552407
  0
LINE
  5
2A8
100
AcDbEntity
  8
0
100
AcDbLine
 62
7
  6
CONTINUOUS
 10
9.1672415059
 20
6.8836356138
 11
9.146850066
 21
6.8894827651
  0
LINE
  5
2A9
100
AcDbEntity
  8
0
100
AcDbLine
 62
7
  6
CONTINUOUS
 10
11.2281204377
 20
6.7073952019
 11
11.2070234424
 21
6.7051778183
  0
LINE
  5
2AA
100
AcDbEntity
  8
0
100
AcDbLine
 62
7
  6
CONTINUOUS
 10
9.4701640836
 20
6.5226265437
 11
9.4490670883
 21
6.5204091601
  0
LINE
  5
2AB
100
AcDbEntity
  8
0
100
AcDbLine
 62
7
  6
CONTINUOUS
 10
11.2004780601
 20
6.6736377653
 11
11.1793165309
 21
6.672158007
  0
LINE
  5
2AC
100
AcDbEntity
  8
0
100
AcDbLine
 62
7
  6
CONTINUOUS
 10
9.4371442723
 20
6.5503334551
 11
9.4159827431
 21
6.5488536969
  0
LINE
  5
2AD
100
AcDbEntity
  8
0
100
AcDbLine
 62
7
  6
CONTINUOUS
 10
9.3839112521
 20
6.578435533
 11
9.405111533
 21
6.5791758631
  0
LINE
  5
2AE
100
AcDbEntity
  8
0
100
AcDbLine
 62
7
  6
CONTINUOUS
 10
11.1504741229
 20
6.6401252678
 11
11.1716744039
 21
6.6408655979
  0
LINE
  5
2AF
100
AcDbEntity
  8
0
100
AcDbLine
 62
7
  6
CONTINUOUS
 10
9.3528916893
 20
6.6091186275
 11
9.3741048928
 21
6.6091186275
  0
LINE
  5
2B0
100
AcDbEntity
  8
0
100
AcDbLine
 62
7
  6
CONTINUOUS
 10
11.1205313585
 20
6.6091186275
 11
11.1417445619
 21
6.6091186275
  0
LINE
  5
2B1
100
AcDbEntity
  8
0
100
AcDbLine
 62
7
  6
CONTINUOUS
 10
9.3229618474
 20
6.6408655979
 11
9.3441621284
 21
6.6401252678
  0
LINE
  5
2B2
100
AcDbEntity
  8
0
100
AcDbLine
 62
7
  6
CONTINUOUS
 10
11.0895247183
 20
6.5791758631
 11
11.1107249992
 21
6.578435533
  0
LINE
  5
2B3
100
AcDbEntity
  8
0
100
AcDbLine
 62
7
  6
CONTINUOUS
 10
11.0786535082
 20
6.5488536969
 11
11.057491979
 21
6.5503334551
  0
LINE
  5
2B4
100
AcDbEntity
  8
0
100
AcDbLine
 62
7
  6
CONTINUOUS
 10
9.3153197204
 20
6.672158007
 11
9.2941581912
 21
6.6736377653
  0
LINE
  5
2B5
100
AcDbEntity
  8
0
100
AcDbLine
 62
7
  6
CONTINUOUS
 10
11.3264256748
 20
6.8514381314
 11
11.3058425942
 21
6.846306193
  0
LINE
  5
2B6
100
AcDbEntity
  8
0
100
AcDbLine
 62
7
  6
CONTINUOUS
 10
9.6112924582
 20
6.4238073919
 11
9.5907093776
 21
6.4186754535
  0
LINE
  5
2B7
100
AcDbEntity
  8
0
100
AcDbLine
 62
7
  6
CONTINUOUS
 10
11.303750438
 20
6.8141621444
 11
11.283000794
 21
6.8097516714
  0
LINE
  5
2B8
100
AcDbEntity
  8
0
100
AcDbLine
 62
7
  6
CONTINUOUS
 10
9.5747379367
 20
6.4466491921
 11
9.5539882926
 21
6.4422387191
  0
LINE
  5
2B9
100
AcDbEntity
  8
0
100
AcDbLine
 62
7
  6
CONTINUOUS
 10
11.2797881012
 20
6.7777002194
 11
11.258897174
 21
6.7740165852
  0
LINE
  5
2BA
100
AcDbEntity
  8
0
100
AcDbLine
 62
7
  6
CONTINUOUS
 10
9.5390028505
 20
6.470752812
 11
9.5181119233
 21
6.4670691779
  0
LINE
  5
2BB
100
AcDbEntity
  8
0
100
AcDbLine
 62
7
  6
CONTINUOUS
 10
11.2545678588
 20
6.7420967794
 11
11.2335611008
 21
6.7391444721
  0
LINE
  5
2BC
100
AcDbEntity
  8
0
100
AcDbLine
 62
7
  6
CONTINUOUS
 10
9.5041307374
 20
6.4960888853
 11
9.4831239794
 21
6.493136578
  0
LINE
  5
2BD
100
AcDbEntity
  8
0
100
AcDbLine
 62
7
  6
CONTINUOUS
 10
13.0559155724
 20
7.1837845816
 11
10.6169894868
 21
7.2693609355
  0
LINE
  5
2BE
100
AcDbEntity
  8
0
100
AcDbLine
 62
9
  6
CONTINUOUS
 10
10.7039566116
 20
7.4823318587
 11
10.6473177549
 21
7.4823318538
  0
LINE
  5
2BF
100
AcDbEntity
  8
0
100
AcDbLine
 62
7
  6
CONTINUOUS
 10
11.0222547842
 20
8.4631341724
 11
11.0244721677
 21
8.4420371771
  0
LINE
  5
2C0
100
AcDbEntity
  8
0
100
AcDbLine
 62
7
  6
CONTINUOUS
 10
11.2070234424
 20
6.7051778183
 11
11.2092408259
 21
6.684080823
  0
LINE
  5
2C1
100
AcDbEntity
  8
0
100
AcDbLine
 62
7
  6
CONTINUOUS
 10
11.0560122207
 20
8.4354917948
 11
11.057491979
 21
8.4143302657
  0
LINE
  5
2C2
100
AcDbEntity
  8
0
100
AcDbLine
 62
7
  6
CONTINUOUS
 10
11.1793165309
 20
6.672158007
 11
11.1807962892
 21
6.6509964779
  0
LINE
  5
2C3
100
AcDbEntity
  8
0
100
AcDbLine
 62
7
  6
CONTINUOUS
 10
11.1512144531
 20
6.6189249869
 11
11.1504741229
 21
6.6401252678
  0
LINE
  5
2C4
100
AcDbEntity
  8
0
100
AcDbLine
 62
7
  6
CONTINUOUS
 10
11.0895247183
 20
8.3854878577
 11
11.0887843881
 21
8.4066881386
  0
LINE
  5
2C5
100
AcDbEntity
  8
0
100
AcDbLine
 62
7
  6
CONTINUOUS
 10
11.1205313585
 20
6.5879054241
 11
11.1205313585
 21
6.6091186275
  0
LINE
  5
2C6
100
AcDbEntity
  8
0
100
AcDbLine
 62
7
  6
CONTINUOUS
 10
11.1205313585
 20
8.3555450933
 11
11.1205313585
 21
8.3767582967
  0
LINE
  5
2C7
100
AcDbEntity
  8
0
100
AcDbLine
 62
7
  6
CONTINUOUS
 10
11.0887843881
 20
6.5579755822
 11
11.0895247183
 21
6.5791758631
  0
LINE
  5
2C8
100
AcDbEntity
  8
0
100
AcDbLine
 62
7
  6
CONTINUOUS
 10
11.1504741229
 20
8.324538453
 11
11.1512144531
 21
8.3457387339
  0
LINE
  5
2C9
100
AcDbEntity
  8
0
100
AcDbLine
 62
7
  6
CONTINUOUS
 10
11.1807962892
 20
8.3136672429
 11
11.1793165309
 21
8.2925057138
  0
LINE
  5
2CA
100
AcDbEntity
  8
0
100
AcDbLine
 62
7
  6
CONTINUOUS
 10
11.057491979
 20
6.5503334551
 11
11.0560122207
 21
6.529171926
  0
LINE
  5
2CB
100
AcDbEntity
  8
0
100
AcDbLine
 62
7
  6
CONTINUOUS
 10
11.2092408259
 20
8.2805828978
 11
11.2070234424
 21
8.2594859025
  0
LINE
  5
2CC
100
AcDbEntity
  8
0
100
AcDbLine
 62
7
  6
CONTINUOUS
 10
11.0244721677
 20
6.5226265437
 11
11.0222547842
 21
6.5015295484
  0
LINE
  5
2CD
100
AcDbEntity
  8
0
100
AcDbLine
 62
7
  6
CONTINUOUS
 10
11.2365134081
 20
8.2465260067
 11
11.2335611008
 21
8.2255192487
  0
LINE
  5
2CE
100
AcDbEntity
  8
0
100
AcDbLine
 62
7
  6
CONTINUOUS
 10
10.9905055139
 20
6.4960888853
 11
10.9875532066
 21
6.4750821273
  0
LINE
  5
2CF
100
AcDbEntity
  8
0
100
AcDbLine
 62
7
  6
CONTINUOUS
 10
11.2625808081
 20
8.2115380628
 11
11.258897174
 21
8.1906471356
  0
LINE
  5
2D0
100
AcDbEntity
  8
0
100
AcDbLine
 62
7
  6
CONTINUOUS
 10
10.9556334008
 20
6.470752812
 11
10.9519497667
 21
6.4498618848
  0
LINE
  5
2D1
100
AcDbEntity
  8
0
100
AcDbLine
 62
7
  6
CONTINUOUS
 10
11.287411267
 20
8.1756616934
 11
11.283000794
 21
8.1549120494
  0
LINE
  5
2D2
100
AcDbEntity
  8
0
100
AcDbLine
 62
7
  6
CONTINUOUS
 10
10.9198983146
 20
6.4466491921
 11
10.9154878416
 21
6.425899548
  0
LINE
  5
2D3
100
AcDbEntity
  8
0
100
AcDbLine
 62
7
  6
CONTINUOUS
 10
11.3109745326
 20
8.1389406085
 11
11.3058425942
 21
8.1183575278
  0
LINE
  5
2D4
100
AcDbEntity
  8
0
100
AcDbLine
 62
7
  6
CONTINUOUS
 10
10.8833437931
 20
6.4238073919
 11
10.8782118547
 21
6.4032243112
  0
LINE
  5
2D5
100
AcDbEntity
  8
0
100
AcDbLine
 62
7
  6
CONTINUOUS
 10
11.3332418967
 20
8.1014195469
 11
11.3273947454
 21
8.081028107
  0
LINE
  5
2D6
100
AcDbEntity
  8
0
100
AcDbLine
 62
7
  6
CONTINUOUS
 10
10.8460143722
 20
6.4022552407
 11
10.8401672209
 21
6.3818638008
  0
LINE
  5
2D7
100
AcDbEntity
  8
0
100
AcDbLine
 62
7
  6
CONTINUOUS
 10
11.3541862299
 20
8.0631442223
 11
11.3476309895
 21
8.042969267
  0
LINE
  5
2D8
100
AcDbEntity
  8
0
100
AcDbLine
 62
7
  6
CONTINUOUS
 10
10.8079555322
 20
6.3820189965
 11
10.8014002918
 21
6.3618440411
  0
LINE
  5
2D9
100
AcDbEntity
  8
0
100
AcDbLine
 62
7
  6
CONTINUOUS
 10
11.3737820149
 20
8.0241612674
 11
11.366526672
 21
8.0042273766
  0
LINE
  5
2DA
100
AcDbEntity
  8
0
100
AcDbLine
 62
7
  6
CONTINUOUS
 10
10.7692136419
 20
6.3631233141
 11
10.761958299
 21
6.3431894233
  0
LINE
  5
2DB
100
AcDbEntity
  8
0
100
AcDbLine
 62
7
  6
CONTINUOUS
 10
11.3920053771
 20
7.9845181767
 11
11.3840587712
 21
7.964849637
  0
LINE
  5
2DC
100
AcDbEntity
  8
0
100
AcDbLine
 62
7
  6
CONTINUOUS
 10
10.7298359023
 20
6.3455912148
 11
10.7218892964
 21
6.3259226751
  0
LINE
  5
2DD
100
AcDbEntity
  8
0
100
AcDbLine
 62
7
  6
CONTINUOUS
 10
11.4088341143
 20
7.9442632495
 11
11.4002059271
 21
7.9248840238
  0
LINE
  5
2DE
100
AcDbEntity
  8
0
100
AcDbLine
 62
7
  6
CONTINUOUS
 10
10.6898702891
 20
6.3294440589
 11
10.6812421019
 21
6.3100648333
  0
LINE
  5
2DF
100
AcDbEntity
  8
0
100
AcDbLine
 62
7
  6
CONTINUOUS
 10
11.4242477231
 20
7.9034455299
 11
11.4149484668
 21
7.884379229
  0
LINE
  5
2E0
100
AcDbEntity
  8
0
100
AcDbLine
 62
7
  6
CONTINUOUS
 10
10.6493654942
 20
6.3147015193
 11
10.6400662379
 21
6.2956352183
  0
LINE
  5
2E1
100
AcDbEntity
  8
0
100
AcDbLine
 62
7
  6
CONTINUOUS
 10
11.4382274245
 20
7.8621147482
 11
11.4282684287
 21
7.8433846013
  0
LINE
  5
2E2
100
AcDbEntity
  8
0
100
AcDbLine
 62
7
  6
CONTINUOUS
 10
10.6083708666
 20
6.3013815573
 11
10.5984118708
 21
6.2826514104
  0
LINE
  5
2E3
100
AcDbEntity
  8
0
100
AcDbLine
 62
7
  6
CONTINUOUS
 10
11.4507561864
 20
7.8203212596
 11
11.4401495847
 21
7.8019500866
  0
LINE
  5
2E4
100
AcDbEntity
  8
0
100
AcDbLine
 62
7
  6
CONTINUOUS
 10
10.5669363518
 20
6.2895004014
 11
10.5563297501
 21
6.2711292283
  0
LINE
  5
2E5
100
AcDbEntity
  8
0
100
AcDbLine
 62
7
  6
CONTINUOUS
 10
10.5563297501
 20
8.6935344925
 11
10.5669363518
 21
8.6751633194
  0
LINE
  5
2E6
100
AcDbEntity
  8
0
100
AcDbLine
 62
7
  6
CONTINUOUS
 10
11.4401495847
 20
7.1627136343
 11
11.4507561864
 21
7.1443424612
  0
LINE
  5
2E7
100
AcDbEntity
  8
0
100
AcDbLine
 62
7
  6
CONTINUOUS
 10
10.5984118708
 20
8.6820123104
 11
10.6083708666
 21
8.6632821635
  0
LINE
  5
2E8
100
AcDbEntity
  8
0
100
AcDbLine
 62
7
  6
CONTINUOUS
 10
11.4282684287
 20
7.1212791195
 11
11.4382274245
 21
7.1025489726
  0
LINE
  5
2E9
100
AcDbEntity
  8
0
100
AcDbLine
 62
7
  6
CONTINUOUS
 10
10.6400662379
 20
8.6690285025
 11
10.6493654942
 21
8.6499622015
  0
LINE
  5
2EA
100
AcDbEntity
  8
0
100
AcDbLine
 62
7
  6
CONTINUOUS
 10
11.4149484668
 20
7.0802844918
 11
11.4242477231
 21
7.0612181909
  0
LINE
  5
2EB
100
AcDbEntity
  8
0
100
AcDbLine
 62
7
  6
CONTINUOUS
 10
10.6812421019
 20
8.6545988875
 11
10.6898702891
 21
8.6352196619
  0
LINE
  5
2EC
100
AcDbEntity
  8
0
100
AcDbLine
 62
7
  6
CONTINUOUS
 10
11.4002059271
 20
7.039779697
 11
11.4088341143
 21
7.0204004714
  0
LINE
  5
2ED
100
AcDbEntity
  8
0
100
AcDbLine
 62
7
  6
CONTINUOUS
 10
10.7218892964
 20
8.6387410457
 11
10.7298359023
 21
8.619072506
  0
LINE
  5
2EE
100
AcDbEntity
  8
0
100
AcDbLine
 62
7
  6
CONTINUOUS
 10
11.3840587712
 20
6.9998140838
 11
11.3920053771
 21
6.9801455441
  0
LINE
  5
2EF
100
AcDbEntity
  8
0
100
AcDbLine
 62
7
  6
CONTINUOUS
 10
10.761958299
 20
8.6214742975
 11
10.7692136419
 21
8.6015404068
  0
LINE
  5
2F0
100
AcDbEntity
  8
0
100
AcDbLine
 62
7
  6
CONTINUOUS
 10
11.366526672
 20
6.9604363442
 11
11.3737820149
 21
6.9405024534
  0
LINE
  5
2F1
100
AcDbEntity
  8
0
100
AcDbLine
 62
7
  6
CONTINUOUS
 10
10.8014002918
 20
8.6028196797
 11
10.8079555322
 21
8.5826447243
  0
LINE
  5
2F2
100
AcDbEntity
  8
0
100
AcDbLine
 62
7
  6
CONTINUOUS
 10
11.3476309895
 20
6.9216944538
 11
11.3541862299
 21
6.9015194985
  0
LINE
  5
2F3
100
AcDbEntity
  8
0
100
AcDbLine
 62
7
  6
CONTINUOUS
 10
10.8401672209
 20
8.58279992
 11
10.8460143722
 21
8.5624084801
  0
LINE
  5
2F4
100
AcDbEntity
  8
0
100
AcDbLine
 62
7
  6
CONTINUOUS
 10
11.3273947454
 20
6.8836356138
 11
11.3332418967
 21
6.8632441739
  0
LINE
  5
2F5
100
AcDbEntity
  8
0
100
AcDbLine
 62
7
  6
CONTINUOUS
 10
10.8782118547
 20
8.5614394096
 11
10.8833437931
 21
8.5408563289
  0
LINE
  5
2F6
100
AcDbEntity
  8
0
100
AcDbLine
 62
7
  6
CONTINUOUS
 10
11.3058425942
 20
6.846306193
 11
11.3109745326
 21
6.8257231124
  0
LINE
  5
2F7
100
AcDbEntity
  8
0
100
AcDbLine
 62
7
  6
CONTINUOUS
 10
10.9154878416
 20
8.5387641728
 11
10.9198983146
 21
8.5180145287
  0
LINE
  5
2F8
100
AcDbEntity
  8
0
100
AcDbLine
 62
7
  6
CONTINUOUS
 10
11.283000794
 20
6.8097516714
 11
11.287411267
 21
6.7890020274
  0
LINE
  5
2F9
100
AcDbEntity
  8
0
100
AcDbLine
 62
7
  6
CONTINUOUS
 10
10.9519497667
 20
8.514801836
 11
10.9556334008
 21
8.4939109088
  0
LINE
  5
2FA
100
AcDbEntity
  8
0
100
AcDbLine
 62
7
  6
CONTINUOUS
 10
11.258897174
 20
6.7740165852
 11
11.2625808081
 21
6.753125658
  0
LINE
  5
2FB
100
AcDbEntity
  8
0
100
AcDbLine
 62
7
  6
CONTINUOUS
 10
10.9875532066
 20
8.4895815935
 11
10.9905055139
 21
8.4685748355
  0
LINE
  5
2FC
100
AcDbEntity
  8
0
100
AcDbLine
 62
7
  6
CONTINUOUS
 10
11.2335611008
 20
6.7391444721
 11
11.2365134081
 21
6.7181377141
  0
LINE
  5
2FD
100
AcDbEntity
  8
0
100
AcDbLine
 62
7
  6
CONTINUOUS
 10
11.4618187444
 20
7.778115983
 11
11.4505774592
 21
7.7601261662
  0
LINE
  5
2FE
100
AcDbEntity
  8
0
100
AcDbLine
 62
7
  6
CONTINUOUS
 10
10.5251124314
 20
6.2790725269
 11
10.5138711463
 21
6.2610827101
  0
LINE
  5
2FF
100
AcDbEntity
  8
0
100
AcDbLine
 62
7
  6
CONTINUOUS
 10
11.4714016204
 20
7.7355503389
 11
11.4643077549
 21
7.7250332509
  0
LINE
  5
300
100
AcDbEntity
  8
0
100
AcDbLine
 62
7
  6
CONTINUOUS
 10
10.4829500615
 20
6.2701106385
 11
10.4710877887
 21
6.2525240958
  0
LINE
  5
301
100
AcDbEntity
  8
0
100
AcDbLine
 62
7
  6
CONTINUOUS
 10
10.4405006104
 20
6.2626256549
 11
10.4280318022
 21
6.2454638128
  0
LINE
  5
302
100
AcDbEntity
  8
0
100
AcDbLine
 62
7
  6
CONTINUOUS
 10
10.3978157961
 20
6.2566266955
 11
10.384755644
 21
6.2399104631
  0
LINE
  5
303
100
AcDbEntity
  8
0
100
AcDbLine
 62
7
  6
CONTINUOUS
 10
10.3549476236
 20
6.252121069
 11
10.3413120393
 21
6.2358708124
  0
LINE
  5
304
100
AcDbEntity
  8
0
100
AcDbLine
 62
7
  6
CONTINUOUS
 10
10.3119483212
 20
6.2491142649
 11
10.2977539175
 21
6.2333497825
  0
LINE
  5
305
100
AcDbEntity
  8
0
100
AcDbLine
 62
7
  6
CONTINUOUS
 10
10.2688702768
 20
6.2476099464
 11
10.2541343475
 21
6.2323504449
  0
LINE
  5
306
100
AcDbEntity
  8
0
100
AcDbLine
 62
7
  6
CONTINUOUS
 10
10.2257659745
 20
6.2476099464
 11
10.2105064729
 21
6.2328740171
  0
LINE
  5
307
100
AcDbEntity
  8
0
100
AcDbLine
 62
7
  6
CONTINUOUS
 10
10.1826879301
 20
6.2491142649
 11
10.1669234477
 21
6.2349198612
  0
LINE
  5
308
100
AcDbEntity
  8
0
100
AcDbLine
 62
7
  6
CONTINUOUS
 10
13.0559154807
 20
7.780879136
 11
10.6169894868
 21
7.6953027854
  0
LINE
  5
309
100
AcDbEntity
  8
0
100
AcDbLine
 62
7
  6
CONTINUOUS
 10
10.1669234477
 20
8.7297438596
 11
10.1826879301
 21
8.7155494559
  0
LINE
  5
30A
100
AcDbEntity
  8
0
100
AcDbLine
 62
7
  6
CONTINUOUS
 10
10.2105064729
 20
8.7317897037
 11
10.2257659745
 21
8.7170537744
  0
LINE
  5
30B
100
AcDbEntity
  8
0
100
AcDbLine
 62
7
  6
CONTINUOUS
 10
10.2541343475
 20
8.7323132759
 11
10.2688702768
 21
8.7170537744
  0
LINE
  5
30C
100
AcDbEntity
  8
0
100
AcDbLine
 62
7
  6
CONTINUOUS
 10
10.2977539175
 20
8.7313139383
 11
10.3119483212
 21
8.7155494559
  0
LINE
  5
30D
100
AcDbEntity
  8
0
100
AcDbLine
 62
7
  6
CONTINUOUS
 10
10.3413120393
 20
8.7287929084
 11
10.3549476236
 21
8.7125426518
  0
LINE
  5
30E
100
AcDbEntity
  8
0
100
AcDbLine
 62
7
  6
CONTINUOUS
 10
10.384755644
 20
8.7247532577
 11
10.3978157961
 21
8.7080370253
  0
LINE
  5
30F
100
AcDbEntity
  8
0
100
AcDbLine
 62
7
  6
CONTINUOUS
 10
10.4280318022
 20
8.719199908
 11
10.4405006104
 21
8.7020380659
  0
LINE
  5
310
100
AcDbEntity
  8
0
100
AcDbLine
 62
7
  6
CONTINUOUS
 10
10.4710877887
 20
8.712139625
 11
10.4829500615
 21
8.6945530823
  0
LINE
  5
311
100
AcDbEntity
  8
0
100
AcDbLine
 62
7
  6
CONTINUOUS
 10
11.4643077549
 20
7.2396304699
 11
11.4714016204
 21
7.2291133819
  0
LINE
  5
312
100
AcDbEntity
  8
0
100
AcDbLine
 62
7
  6
CONTINUOUS
 10
10.5138711463
 20
8.7035810107
 11
10.5251124314
 21
8.685591194
  0
LINE
  5
313
100
AcDbEntity
  8
0
100
AcDbLine
 62
7
  6
CONTINUOUS
 10
11.4505774592
 20
7.2045375546
 11
11.4618187444
 21
7.1865477378
  0
LINE
  5
314
100
AcDbEntity
  8
0
100
AcDbLine
 62
7
  6
CONTINUOUS
 10
10.1396886277
 20
6.252121069
 11
10.123438371
 21
6.2384854847
  0
LINE
  5
315
100
AcDbEntity
  8
0
100
AcDbLine
 62
7
  6
CONTINUOUS
 10
10.0968204552
 20
6.2566266955
 11
10.0801042228
 21
6.2435665434
  0
LINE
  5
316
100
AcDbEntity
  8
0
100
AcDbLine
 62
7
  6
CONTINUOUS
 10
10.0541356409
 20
6.2626256549
 11
10.0369737988
 21
6.2501568468
  0
LINE
  5
317
100
AcDbEntity
  8
0
100
AcDbLine
 62
7
  6
CONTINUOUS
 10
10.0116861898
 20
6.2701106385
 11
9.9940996471
 21
6.2582483657
  0
LINE
  5
318
100
AcDbEntity
  8
0
100
AcDbLine
 62
7
  6
CONTINUOUS
 10
11.468567276
 20
7.2157788398
 11
11.4505774592
 21
7.2045375546
  0
LINE
  5
319
100
AcDbEntity
  8
0
100
AcDbLine
 62
7
  6
CONTINUOUS
 10
9.9695238199
 20
6.2790725269
 11
9.9515340031
 21
6.2678312417
  0
LINE
  5
31A
100
AcDbEntity
  8
0
100
AcDbLine
 62
7
  6
CONTINUOUS
 10
11.4585207577
 20
7.173320236
 11
11.4401495847
 21
7.1627136343
  0
LINE
  5
31B
100
AcDbEntity
  8
0
100
AcDbLine
 62
7
  6
CONTINUOUS
 10
9.9276998995
 20
6.2895004014
 11
9.9093287264
 21
6.2788937997
  0
LINE
  5
31C
100
AcDbEntity
  8
0
100
AcDbLine
 62
7
  6
CONTINUOUS
 10
11.4469985756
 20
7.1312381152
 11
11.4282684287
 21
7.1212791195
  0
LINE
  5
31D
100
AcDbEntity
  8
0
100
AcDbLine
 62
7
  6
CONTINUOUS
 10
9.8862653847
 20
6.3013815573
 11
9.8675352378
 21
6.2914225615
  0
LINE
  5
31E
100
AcDbEntity
  8
0
100
AcDbLine
 62
7
  6
CONTINUOUS
 10
9.8675352378
 20
8.6732411593
 11
9.8862653847
 21
8.6632821635
  0
LINE
  5
31F
100
AcDbEntity
  8
0
100
AcDbLine
 62
7
  6
CONTINUOUS
 10
11.4282684287
 20
7.8433846013
 11
11.4469985756
 21
7.8334256056
  0
LINE
  5
320
100
AcDbEntity
  8
0
100
AcDbLine
 62
7
  6
CONTINUOUS
 10
9.9093287264
 20
8.6857699211
 11
9.9276998995
 21
8.6751633194
  0
LINE
  5
321
100
AcDbEntity
  8
0
100
AcDbLine
 62
7
  6
CONTINUOUS
 10
11.4401495847
 20
7.8019500866
 11
11.4585207577
 21
7.7913434848
  0
LINE
  5
322
100
AcDbEntity
  8
0
100
AcDbLine
 62
7
  6
CONTINUOUS
 10
9.9515340031
 20
8.6968324791
 11
9.9695238199
 21
8.685591194
  0
LINE
  5
323
100
AcDbEntity
  8
0
100
AcDbLine
 62
7
  6
CONTINUOUS
 10
11.4505774592
 20
7.7601261662
 11
11.468567276
 21
7.748884881
  0
LINE
  5
324
100
AcDbEntity
  8
0
100
AcDbLine
 62
7
  6
CONTINUOUS
 10
9.9940996471
 20
8.7064153552
 11
10.0116861898
 21
8.6945530823
  0
LINE
  5
325
100
AcDbEntity
  8
0
100
AcDbLine
 62
7
  6
CONTINUOUS
 10
10.0369737988
 20
8.714506874
 11
10.0541356409
 21
8.7020380659
  0
LINE
  5
326
100
AcDbEntity
  8
0
100
AcDbLine
 62
7
  6
CONTINUOUS
 10
10.0801042228
 20
8.7210971774
 11
10.0968204552
 21
8.7080370253
  0
LINE
  5
327
100
AcDbEntity
  8
0
100
AcDbLine
 62
7
  6
CONTINUOUS
 10
10.123438371
 20
8.7261782361
 11
10.1396886277
 21
8.7125426518
  0
LINE
  5
328
100
AcDbEntity
  8
0
100
AcDbLine
 62
7
  6
CONTINUOUS
 10
11.4340147677
 20
7.0895837482
 11
11.4149484668
 21
7.0802844918
  0
LINE
  5
329
100
AcDbEntity
  8
0
100
AcDbLine
 62
7
  6
CONTINUOUS
 10
9.8452707571
 20
6.3147015193
 11
9.8262044561
 21
6.305402263
  0
LINE
  5
32A
100
AcDbEntity
  8
0
100
AcDbLine
 62
7
  6
CONTINUOUS
 10
11.4195851528
 20
7.0484078841
 11
11.4002059271
 21
7.039779697
  0
LINE
  5
32B
100
AcDbEntity
  8
0
100
AcDbLine
 62
7
  6
CONTINUOUS
 10
9.8047659622
 20
6.3294440589
 11
9.7853867366
 21
6.3208158718
  0
LINE
  5
32C
100
AcDbEntity
  8
0
100
AcDbLine
 62
7
  6
CONTINUOUS
 10
11.403727311
 20
7.0077606897
 11
11.3840587712
 21
6.9998140838
  0
LINE
  5
32D
100
AcDbEntity
  8
0
100
AcDbLine
 62
7
  6
CONTINUOUS
 10
9.764800349
 20
6.3455912148
 11
9.7451318093
 21
6.3376446089
  0
LINE
  5
32E
100
AcDbEntity
  8
0
100
AcDbLine
 62
7
  6
CONTINUOUS
 10
11.3864605627
 20
6.967691687
 11
11.366526672
 21
6.9604363442
  0
LINE
  5
32F
100
AcDbEntity
  8
0
100
AcDbLine
 62
7
  6
CONTINUOUS
 10
9.7254226094
 20
6.3631233141
 11
9.7054887187
 21
6.3558679712
  0
LINE
  5
330
100
AcDbEntity
  8
0
100
AcDbLine
 62
7
  6
CONTINUOUS
 10
11.3678059449
 20
6.9282496942
 11
11.3476309895
 21
6.9216944538
  0
LINE
  5
331
100
AcDbEntity
  8
0
100
AcDbLine
 62
7
  6
CONTINUOUS
 10
9.6866807191
 20
6.3820189965
 11
9.6665057637
 21
6.3754637561
  0
LINE
  5
332
100
AcDbEntity
  8
0
100
AcDbLine
 62
7
  6
CONTINUOUS
 10
11.3477861853
 20
6.8894827651
 11
11.3273947454
 21
6.8836356138
  0
LINE
  5
333
100
AcDbEntity
  8
0
100
AcDbLine
 62
7
  6
CONTINUOUS
 10
9.6486218791
 20
6.4022552407
 11
9.6282304392
 21
6.3964080894
  0
LINE
  5
334
100
AcDbEntity
  8
0
100
AcDbLine
 62
7
  6
CONTINUOUS
 10
9.6282304392
 20
8.5682556314
 11
9.6486218791
 21
8.5624084801
  0
LINE
  5
335
100
AcDbEntity
  8
0
100
AcDbLine
 62
7
  6
CONTINUOUS
 10
11.3273947454
 20
8.081028107
 11
11.3477861853
 21
8.0751809557
  0
LINE
  5
336
100
AcDbEntity
  8
0
100
AcDbLine
 62
7
  6
CONTINUOUS
 10
9.6665057637
 20
8.5891999647
 11
9.6866807191
 21
8.5826447243
  0
LINE
  5
337
100
AcDbEntity
  8
0
100
AcDbLine
 62
7
  6
CONTINUOUS
 10
11.3476309895
 20
8.042969267
 11
11.3678059449
 21
8.0364140266
  0
LINE
  5
338
100
AcDbEntity
  8
0
100
AcDbLine
 62
7
  6
CONTINUOUS
 10
9.7054887187
 20
8.6087957496
 11
9.7254226094
 21
8.6015404068
  0
LINE
  5
339
100
AcDbEntity
  8
0
100
AcDbLine
 62
7
  6
CONTINUOUS
 10
11.366526672
 20
8.0042273766
 11
11.3864605627
 21
7.9969720338
  0
LINE
  5
33A
100
AcDbEntity
  8
0
100
AcDbLine
 62
7
  6
CONTINUOUS
 10
9.7451318093
 20
8.6270191119
 11
9.764800349
 21
8.619072506
  0
LINE
  5
33B
100
AcDbEntity
  8
0
100
AcDbLine
 62
7
  6
CONTINUOUS
 10
11.3840587712
 20
7.964849637
 11
11.403727311
 21
7.9569030311
  0
LINE
  5
33C
100
AcDbEntity
  8
0
100
AcDbLine
 62
7
  6
CONTINUOUS
 10
9.7853867366
 20
8.643847849
 11
9.8047659622
 21
8.6352196619
  0
LINE
  5
33D
100
AcDbEntity
  8
0
100
AcDbLine
 62
7
  6
CONTINUOUS
 10
11.4002059271
 20
7.9248840238
 11
11.4195851528
 21
7.9162558367
  0
LINE
  5
33E
100
AcDbEntity
  8
0
100
AcDbLine
 62
7
  6
CONTINUOUS
 10
9.8262044561
 20
8.6592614579
 11
9.8452707571
 21
8.6499622015
  0
LINE
  5
33F
100
AcDbEntity
  8
0
100
AcDbLine
 62
7
  6
CONTINUOUS
 10
11.4149484668
 20
7.884379229
 11
11.4340147677
 21
7.8750799727
  0
LINE
  5
340
100
AcDbEntity
  8
0
100
AcDbLine
 62
7
  6
CONTINUOUS
 10
9.4159827431
 20
8.4158100239
 11
9.4371442723
 21
8.4143302657
  0
LINE
  5
341
100
AcDbEntity
  8
0
100
AcDbLine
 62
7
  6
CONTINUOUS
 10
11.1793165309
 20
8.2925057138
 11
11.2004780601
 21
8.2910259555
  0
LINE
  5
342
100
AcDbEntity
  8
0
100
AcDbLine
 62
7
  6
CONTINUOUS
 10
9.4490670883
 20
8.4442545607
 11
9.4701640836
 21
8.4420371771
  0
LINE
  5
343
100
AcDbEntity
  8
0
100
AcDbLine
 62
7
  6
CONTINUOUS
 10
11.2070234424
 20
8.2594859025
 11
11.2281204377
 21
8.2572685189
  0
LINE
  5
344
100
AcDbEntity
  8
0
100
AcDbLine
 62
7
  6
CONTINUOUS
 10
9.4831239794
 20
8.4715271428
 11
9.5041307374
 21
8.4685748355
  0
LINE
  5
345
100
AcDbEntity
  8
0
100
AcDbLine
 62
7
  6
CONTINUOUS
 10
11.2335611008
 20
8.2255192487
 11
11.2545678588
 21
8.2225669414
  0
LINE
  5
346
100
AcDbEntity
  8
0
100
AcDbLine
 62
7
  6
CONTINUOUS
 10
9.5181119233
 20
8.4975945429
 11
9.5390028505
 21
8.4939109088
  0
LINE
  5
347
100
AcDbEntity
  8
0
100
AcDbLine
 62
7
  6
CONTINUOUS
 10
11.258897174
 20
8.1906471356
 11
11.2797881012
 21
8.1869635014
  0
LINE
  5
348
100
AcDbEntity
  8
0
100
AcDbLine
 62
7
  6
CONTINUOUS
 10
9.5539882926
 20
8.5224250017
 11
9.5747379367
 21
8.5180145287
  0
LINE
  5
349
100
AcDbEntity
  8
0
100
AcDbLine
 62
7
  6
CONTINUOUS
 10
11.283000794
 20
8.1549120494
 11
11.303750438
 21
8.1505015764
  0
LINE
  5
34A
100
AcDbEntity
  8
0
100
AcDbLine
 62
7
  6
CONTINUOUS
 10
9.5907093776
 20
8.5459882673
 11
9.6112924582
 21
8.5408563289
  0
LINE
  5
34B
100
AcDbEntity
  8
0
100
AcDbLine
 62
7
  6
CONTINUOUS
 10
11.3058425942
 20
8.1183575278
 11
11.3264256748
 21
8.1132255894
  0
LINE
  5
34C
100
AcDbEntity
  8
0
100
AcDbLine
 62
7
  6
CONTINUOUS
 10
9.2665158136
 20
8.2572685189
 11
9.2876128089
 21
8.2594859025
  0
LINE
  5
34D
100
AcDbEntity
  8
0
100
AcDbLine
 62
7
  6
CONTINUOUS
 10
11.0244721677
 20
8.4420371771
 11
11.045569163
 21
8.4442545607
  0
LINE
  5
34E
100
AcDbEntity
  8
0
100
AcDbLine
 62
7
  6
CONTINUOUS
 10
9.2941581912
 20
8.2910259555
 11
9.3153197204
 21
8.2925057138
  0
LINE
  5
34F
100
AcDbEntity
  8
0
100
AcDbLine
 62
7
  6
CONTINUOUS
 10
11.057491979
 20
8.4143302657
 11
11.0786535082
 21
8.4158100239
  0
LINE
  5
350
100
AcDbEntity
  8
0
100
AcDbLine
 62
7
  6
CONTINUOUS
 10
11.1107249992
 20
8.3862281878
 11
11.0895247183
 21
8.3854878577
  0
LINE
  5
351
100
AcDbEntity
  8
0
100
AcDbLine
 62
7
  6
CONTINUOUS
 10
9.3441621284
 20
8.324538453
 11
9.3229618474
 21
8.3237981229
  0
LINE
  5
352
100
AcDbEntity
  8
0
100
AcDbLine
 62
7
  6
CONTINUOUS
 10
11.1417445619
 20
8.3555450933
 11
11.1205313585
 21
8.3555450933
  0
LINE
  5
353
100
AcDbEntity
  8
0
100
AcDbLine
 62
7
  6
CONTINUOUS
 10
9.3741048928
 20
8.3555450933
 11
9.3528916893
 21
8.3555450933
  0
LINE
  5
354
100
AcDbEntity
  8
0
100
AcDbLine
 62
7
  6
CONTINUOUS
 10
11.1716744039
 20
8.3237981229
 11
11.1504741229
 21
8.324538453
  0
LINE
  5
355
100
AcDbEntity
  8
0
100
AcDbLine
 62
7
  6
CONTINUOUS
 10
9.405111533
 20
8.3854878577
 11
9.3839112521
 21
8.3862281878
  0
LINE
  5
356
100
AcDbEntity
  8
0
100
AcDbLine
 62
7
  6
CONTINUOUS
 10
9.1682105765
 20
8.1132255894
 11
9.1887936571
 21
8.1183575278
  0
LINE
  5
357
100
AcDbEntity
  8
0
100
AcDbLine
 62
7
  6
CONTINUOUS
 10
10.8833437931
 20
8.5408563289
 11
10.9039268737
 21
8.5459882673
  0
LINE
  5
358
100
AcDbEntity
  8
0
100
AcDbLine
 62
7
  6
CONTINUOUS
 10
9.1908858133
 20
8.1505015764
 11
9.2116354573
 21
8.1549120494
  0
LINE
  5
359
100
AcDbEntity
  8
0
100
AcDbLine
 62
7
  6
CONTINUOUS
 10
10.9198983146
 20
8.5180145287
 11
10.9406479587
 21
8.5224250017
  0
LINE
  5
35A
100
AcDbEntity
  8
0
100
AcDbLine
 62
7
  6
CONTINUOUS
 10
9.2148481501
 20
8.1869635014
 11
9.2357390773
 21
8.1906471356
  0
LINE
  5
35B
100
AcDbEntity
  8
0
100
AcDbLine
 62
7
  6
CONTINUOUS
 10
10.9556334008
 20
8.4939109088
 11
10.976524328
 21
8.4975945429
  0
LINE
  5
35C
100
AcDbEntity
  8
0
100
AcDbLine
 62
7
  6
CONTINUOUS
 10
9.2400683925
 20
8.2225669414
 11
9.2610751505
 21
8.2255192487
  0
LINE
  5
35D
100
AcDbEntity
  8
0
100
AcDbLine
 62
7
  6
CONTINUOUS
 10
10.9905055139
 20
8.4685748355
 11
11.0115122719
 21
8.4715271428
  0
LINE
  5
35E
100
AcDbEntity
  8
0
100
AcDbLine
 62
9
  6
CONTINUOUS
 10
13.0561100717
 20
7.218441358
 11
13.0561100654
 21
7.7462223821
  0
LINE
  5
35F
100
AcDbEntity
  8
0
100
AcDbLine
 62
7
  6
CONTINUOUS
 10
13.0973181256
 20
7.2237599986
 11
13.0973181256
 21
7.7409037223
  0
ARC
  5
360
100
AcDbEntity
  8
0
100
AcDbCircle
 62
9
  6
CONTINUOUS
 10
10.2696519176
 20
7.4821154502
 40
0.4343095893
100
AcDbArc
 50
0.0285499852
 51
24.2277850475
  0
ARC
  5
361
100
AcDbEntity
  8
0
100
AcDbCircle
 62
7
  6
CONTINUOUS
 10
10.6150608491
 20
7.2143947608
 40
0.055
100
AcDbArc
 50
87.990446187
 51
143.9232694451
  0
ARC
  5
362
100
AcDbEntity
  8
0
100
AcDbCircle
 62
7
  6
CONTINUOUS
 10
10.2473181256
 20
7.4823318604
 40
1.25
100
AcDbArc
 50
343.6875658564
 51
348.7643792631
  0
ARC
  5
363
100
AcDbEntity
  8
0
100
AcDbCircle
 62
7
  6
CONTINUOUS
 10
10.2473181256
 20
7.4823318604
 40
1.25
100
AcDbArc
 50
342.3459382251
 51
343.6379098778
  0
ARC
  5
364
100
AcDbEntity
  8
0
100
AcDbCircle
 62
7
  6
CONTINUOUS
 10
10.2473181256
 20
7.4823318604
 40
1.25
100
AcDbArc
 50
333.6875658564
 51
342.3124341436
  0
ARC
  5
365
100
AcDbEntity
  8
0
100
AcDbCircle
 62
7
  6
CONTINUOUS
 10
10.2473181256
 20
7.4823318604
 40
1.25
100
AcDbArc
 50
326.3577692371
 51
333.6422307629
  0
ARC
  5
366
100
AcDbEntity
  8
0
100
AcDbCircle
 62
7
  6
CONTINUOUS
 10
10.2473181256
 20
7.4823318604
 40
1.25
100
AcDbArc
 50
317.6875658564
 51
326.3124341436
  0
ARC
  5
367
100
AcDbEntity
  8
0
100
AcDbCircle
 62
7
  6
CONTINUOUS
 10
10.2473181256
 20
7.4823318604
 40
1.25
100
AcDbArc
 50
316.3620901222
 51
317.6540617749
  0
ARC
  5
368
100
AcDbEntity
  8
0
100
AcDbCircle
 62
7
  6
CONTINUOUS
 10
10.2473181256
 20
7.4823318604
 40
1.25
100
AcDbArc
 50
283.6875658564
 51
316.3124341436
  0
ARC
  5
369
100
AcDbEntity
  8
0
100
AcDbCircle
 62
7
  6
CONTINUOUS
 10
10.2473181256
 20
7.4823318604
 40
1.25
100
AcDbArc
 50
282.3459382251
 51
283.6379098778
  0
ARC
  5
36A
100
AcDbEntity
  8
0
100
AcDbCircle
 62
7
  6
CONTINUOUS
 10
10.2473181256
 20
7.4823318604
 40
1.25
100
AcDbArc
 50
273.6875658564
 51
282.3124341436
  0
ARC
  5
36B
100
AcDbEntity
  8
0
100
AcDbCircle
 62
7
  6
CONTINUOUS
 10
10.2473181256
 20
7.4823318604
 40
1.25
100
AcDbArc
 50
266.3577692371
 51
273.6422307629
  0
ARC
  5
36C
100
AcDbEntity
  8
0
100
AcDbCircle
 62
7
  6
CONTINUOUS
 10
10.2473181256
 20
7.4823318604
 40
1.25
100
AcDbArc
 50
257.6875658564
 51
266.3124341436
  0
ARC
  5
36D
100
AcDbEntity
  8
0
100
AcDbCircle
 62
7
  6
CONTINUOUS
 10
10.2473181256
 20
7.4823318604
 40
1.25
100
AcDbArc
 50
256.3620901222
 51
257.6540617749
  0
ARC
  5
36E
100
AcDbEntity
  8
0
100
AcDbCircle
 62
7
  6
CONTINUOUS
 10
10.2473181256
 20
7.4823318604
 40
1.25
100
AcDbArc
 50
223.6875658564
 51
256.3124341436
  0
ARC
  5
36F
100
AcDbEntity
  8
0
100
AcDbCircle
 62
7
  6
CONTINUOUS
 10
10.2473181256
 20
7.4823318604
 40
1.25
100
AcDbArc
 50
222.3459382251
 51
223.6379098778
  0
ARC
  5
370
100
AcDbEntity
  8
0
100
AcDbCircle
 62
7
  6
CONTINUOUS
 10
10.2473181256
 20
7.4823318604
 40
1.25
100
AcDbArc
 50
213.6875658564
 51
222.3124341436
  0
ARC
  5
371
100
AcDbEntity
  8
0
100
AcDbCircle
 62
7
  6
CONTINUOUS
 10
10.2473181256
 20
7.4823318604
 40
1.25
100
AcDbArc
 50
206.3577692371
 51
213.6422307629
  0
ARC
  5
372
100
AcDbEntity
  8
0
100
AcDbCircle
 62
7
  6
CONTINUOUS
 10
10.2473181256
 20
7.4823318604
 40
1.25
100
AcDbArc
 50
197.6875658564
 51
206.3124341436
  0
ARC
  5
373
100
AcDbEntity
  8
0
100
AcDbCircle
 62
7
  6
CONTINUOUS
 10
10.2473181256
 20
7.4823318604
 40
1.25
100
AcDbArc
 50
196.3620901222
 51
197.6540617749
  0
ARC
  5
374
100
AcDbEntity
  8
0
100
AcDbCircle
 62
7
  6
CONTINUOUS
 10
10.2473181256
 20
7.4823318604
 40
1.25
100
AcDbArc
 50
163.6875658564
 51
196.3124341436
  0
ARC
  5
375
100
AcDbEntity
  8
0
100
AcDbCircle
 62
7
  6
CONTINUOUS
 10
10.2473181256
 20
7.4823318604
 40
1.25
100
AcDbArc
 50
162.3459382251
 51
163.6379098778
  0
ARC
  5
376
100
AcDbEntity
  8
0
100
AcDbCircle
 62
7
  6
CONTINUOUS
 10
10.2473181256
 20
7.4823318604
 40
1.25
100
AcDbArc
 50
153.6875658564
 51
162.3124341436
  0
ARC
  5
377
100
AcDbEntity
  8
0
100
AcDbCircle
 62
7
  6
CONTINUOUS
 10
10.2473181256
 20
7.4823318604
 40
1.25
100
AcDbArc
 50
146.3577692371
 51
153.6422307629
  0
ARC
  5
378
100
AcDbEntity
  8
0
100
AcDbCircle
 62
7
  6
CONTINUOUS
 10
10.2473181256
 20
7.4823318604
 40
1.25
100
AcDbArc
 50
137.6875658564
 51
146.3124341436
  0
ARC
  5
379
100
AcDbEntity
  8
0
100
AcDbCircle
 62
7
  6
CONTINUOUS
 10
10.2473181256
 20
7.4823318604
 40
1.25
100
AcDbArc
 50
136.3620901222
 51
137.6540617749
  0
ARC
  5
37A
100
AcDbEntity
  8
0
100
AcDbCircle
 62
7
  6
CONTINUOUS
 10
10.2473181256
 20
7.4823318604
 40
1.25
100
AcDbArc
 50
103.6875658564
 51
136.3124341436
  0
ARC
  5
37B
100
AcDbEntity
  8
0
100
AcDbCircle
 62
7
  6
CONTINUOUS
 10
10.2473181256
 20
7.4823318604
 40
1.25
100
AcDbArc
 50
102.3459382251
 51
103.6379098778
  0
ARC
  5
37C
100
AcDbEntity
  8
0
100
AcDbCircle
 62
7
  6
CONTINUOUS
 10
10.2473181256
 20
7.4823318604
 40
1.25
100
AcDbArc
 50
93.6875658564
 51
102.3124341436
  0
ARC
  5
37D
100
AcDbEntity
  8
0
100
AcDbCircle
 62
7
  6
CONTINUOUS
 10
10.2473181256
 20
7.4823318604
 40
1.25
100
AcDbArc
 50
86.3577692371
 51
93.6422307629
  0
ARC
  5
37E
100
AcDbEntity
  8
0
100
AcDbCircle
 62
7
  6
CONTINUOUS
 10
10.2473181256
 20
7.4823318604
 40
1.25
100
AcDbArc
 50
77.6875658564
 51
86.3124341436
  0
ARC
  5
37F
100
AcDbEntity
  8
0
100
AcDbCircle
 62
7
  6
CONTINUOUS
 10
10.2473181256
 20
7.4823318604
 40
1.25
100
AcDbArc
 50
76.3620901222
 51
77.6540617749
  0
ARC
  5
380
100
AcDbEntity
  8
0
100
AcDbCircle
 62
7
  6
CONTINUOUS
 10
10.2473181256
 20
7.4823318604
 40
1.25
100
AcDbArc
 50
43.6875658564
 51
76.3124341436
  0
ARC
  5
381
100
AcDbEntity
  8
0
100
AcDbCircle
 62
7
  6
CONTINUOUS
 10
10.2473181256
 20
7.4823318604
 40
1.25
100
AcDbArc
 50
42.3459382251
 51
43.6379098778
  0
ARC
  5
382
100
AcDbEntity
  8
0
100
AcDbCircle
 62
7
  6
CONTINUOUS
 10
10.2473181256
 20
7.4823318604
 40
1.25
100
AcDbArc
 50
33.6875658564
 51
42.3124341436
  0
ARC
  5
383
100
AcDbEntity
  8
0
100
AcDbCircle
 62
7
  6
CONTINUOUS
 10
10.2473181256
 20
7.4823318604
 40
1.25
100
AcDbArc
 50
26.3577692371
 51
33.6422307629
  0
ARC
  5
384
100
AcDbEntity
  8
0
100
AcDbCircle
 62
7
  6
CONTINUOUS
 10
10.2473181256
 20
7.4823318604
 40
1.25
100
AcDbArc
 50
17.6875658564
 51
26.3124341436
  0
ARC
  5
385
100
AcDbEntity
  8
0
100
AcDbCircle
 62
7
  6
CONTINUOUS
 10
10.2473181256
 20
7.4823318604
 40
1.25
100
AcDbArc
 50
16.3620901222
 51
17.6540617749
  0
ARC
  5
386
100
AcDbEntity
  8
0
100
AcDbCircle
 62
7
  6
CONTINUOUS
 10
10.2473181256
 20
7.4823318604
 40
1.25
100
AcDbArc
 50
11.2356207369
 51
16.3124341436
  0
ARC
  5
387
100
AcDbEntity
  8
0
100
AcDbCircle
 62
9
  6
CONTINUOUS
 10
10.2473181256
 20
7.4823318604
 40
1.175
100
AcDbArc
 50
11.8286451913
 51
348.1673655567
  0
ARC
  5
388
100
AcDbEntity
  8
0
100
AcDbCircle
 62
7
  6
CONTINUOUS
 10
10.2473181256
 20
7.4823318604
 40
1.075
100
AcDbArc
 50
12.7606441101
 51
347.2436249481
  0
ARC
  5
389
100
AcDbEntity
  8
0
100
AcDbCircle
 62
7
  6
CONTINUOUS
 10
10.2473181256
 20
7.4823318604
 40
1.025
100
AcDbArc
 50
13.2925804512
 51
346.7117119993
  0
ARC
  5
38A
100
AcDbEntity
  8
0
100
AcDbCircle
 62
7
  6
CONTINUOUS
 10
10.2473181256
 20
7.4823318604
 40
0.95
100
AcDbArc
 50
14.197456337
 51
345.802543663
  0
ARC
  5
38B
100
AcDbEntity
  8
0
100
AcDbCircle
 62
7
  6
CONTINUOUS
 10
10.2473181256
 20
7.4823318604
 40
0.85
100
AcDbArc
 50
15.6565256206
 51
344.3475602876
  0
ARC
  5
38C
100
AcDbEntity
  8
0
100
AcDbCircle
 62
7
  6
CONTINUOUS
 10
10.2473181256
 20
7.4823318604
 40
0.75
100
AcDbArc
 50
17.5154694399
 51
342.4885153742
  0
CIRCLE
  5
38D
100
AcDbEntity
  8
0
100
AcDbCircle
 62
7
  6
CONTINUOUS
 10
10.2473181256
 20
7.4823318604
 40
0.4
  0
CIRCLE
  5
38E
100
AcDbEntity
  8
0
100
AcDbCircle
 62
9
  6
CONTINUOUS
 10
10.2473181256
 20
7.4823318604
 40
0.3875
  0
CIRCLE
  5
38F
100
AcDbEntity
  8
0
100
AcDbCircle
 62
7
  6
CONTINUOUS
 10
10.2473181256
 20
7.4823318604
 40
0.3125
  0
CIRCLE
  5
390
100
AcDbEntity
  8
0
100
AcDbCircle
 62
9
  6
CONTINUOUS
 10
10.2473181256
 20
7.4823318604
 40
0.2825
  0
CIRCLE
  5
391
100
AcDbEntity
  8
0
100
AcDbCircle
 62
7
  6
CONTINUOUS
 10
10.2473181256
 20
7.4823318604
 40
0.2625
  0
ARC
  5
392
100
AcDbEntity
  8
0
100
AcDbCircle
 62
7
  6
CONTINUOUS
 10
10.6150608491
 20
7.75026896
 40
0.055
100
AcDbArc
 50
216.0763715987
 51
272.009553813
  0
ARC
  5
393
100
AcDbEntity
  8
0
100
AcDbCircle
 62
7
  6
CONTINUOUS
 10
13.0573181256
 20
7.2237599846
 40
0.04
100
AcDbArc
 50
267.9905128562
 51
360.0
  0
ARC
  5
394
100
AcDbEntity
  8
0
100
AcDbCircle
 62
7
  6
CONTINUOUS
 10
13.0573181256
 20
7.7409037362
 40
0.04
100
AcDbArc
 50
0.0
 51
92.0094879445
  0
SPLINE
  5
395
100
AcDbEntity
  8
0
100
AcDbSpline
 62
9
  6
CONTINUOUS
 70
0
 71
3
 72
24
 73
20
 74
0
 42
0.0000001
 43
0.0000001
 44
0.0000000001
 40
0.0
 40
0.0
 40
0.0
 40
0.0
 40
0.0016014645
 40
0.0049190212
 40
0.0102639231
 40
0.0177504569
 40
0.0274596602
 40
0.0394627765
 40
0.0706176895
 40
0.1115681276
 40
0.1619752946
 40
0.2213257691
 40
0.289104074
 40
0.3646489308
 40
0.4467189193
 40
0.5339271149
 40
0.6248862248
 40
0.8126970042
 40
1.0
 40
1.0
 40
1.0
 40
1.0
 10
10.6654918604
 20
7.2676591042
 30
0.0
 10
10.6654722763
 20
7.2676597892
 30
0.0
 10
10.6654298156
 20
7.2677186869
 30
0.0
 10
10.66539825
 20
7.2678331561
 30
0.0
 10
10.6653574354
 20
7.2680304325
 30
0.0
 10
10.6653228129
 20
7.2683026159
 30
0.0
 10
10.6652882682
 20
7.2686588629
 30
0.0
 10
10.6652426946
 20
7.2693039237
 30
0.0
 10
10.6651973086
 20
7.2703324315
 30
0.0
 10
10.6651596746
 20
7.2718310179
 30
0.0
 10
10.6651361716
 20
7.2736750575
 30
0.0
 10
10.6651279369
 20
7.2758474459
 30
0.0
 10
10.6651359472
 20
7.2783274428
 30
0.0
 10
10.665160851
 20
7.2810853345
 30
0.0
 10
10.6652015539
 20
7.2840808113
 30
0.0
 10
10.6652570296
 20
7.2872646938
 30
0.0
 10
10.6653502656
 20
7.2917419727
 30
0.0
 10
10.6654958732
 20
7.2974431848
 30
0.0
 10
10.6656357453
 20
7.3020311013
 30
0.0
 10
10.6657109585
 20
7.304321775
 30
0.0
  0
SPLINE
  5
396
100
AcDbEntity
  8
0
100
AcDbSpline
 62
9
  6
CONTINUOUS
 70
0
 71
3
 72
22
 73
18
 74
0
 42
0.0000001
 43
0.0000001
 44
0.0000000001
 40
0.0
 40
0.0
 40
0.0
 40
0.0
 40
0.1886873659
 40
0.3714833371
 40
0.5406300333
 40
0.6180675991
 40
0.6897597036
 40
0.7550504225
 40
0.8133057062
 40
0.8640083208
 40
0.906804806
 40
0.9414184216
 40
0.9678054261
 40
0.9780843679
 40
0.9866196864
 40
0.9937350998
 40
1.0
 40
1.0
 40
1.0
 40
1.0
 10
13.0561100766
 20
7.2184413798
 30
0.0
 10
13.0587653629
 20
7.2184305048
 30
0.0
 10
13.0639936238
 20
7.2184792472
 30
0.0
 10
13.0715973577
 20
7.2187635005
 30
0.0
 10
13.0776269331
 20
7.2191759625
 30
0.0
 10
13.0820861893
 20
7.2195978138
 30
0.0
 10
13.085084239
 20
7.2199415002
 30
0.0
 10
13.0878057302
 20
7.2203209658
 30
0.0
 10
13.0902230635
 20
7.2207359631
 30
0.0
 10
13.0923117569
 20
7.2211838817
 30
0.0
 10
13.0940535703
 20
7.2216549538
 30
0.0
 10
13.0954318634
 20
7.2221413161
 30
0.0
 10
13.096338948
 20
7.2225825016
 30
0.0
 10
13.0968559162
 20
7.2229562331
 30
0.0
 10
13.0971151292
 20
7.2232161644
 30
0.0
 10
13.0972785574
 20
7.2234823827
 30
0.0
 10
13.0973181532
 20
7.2236718357
 30
0.0
 10
13.0973181256
 20
7.2237599986
 30
0.0
  0
SPLINE
  5
397
100
AcDbEntity
  8
0
100
AcDbSpline
 62
9
  6
CONTINUOUS
 70
0
 71
3
 72
24
 73
20
 74
0
 42
0.0000001
 43
0.0000001
 44
0.0000000001
 40
0.0
 40
0.0
 40
0.0
 40
0.0
 40
0.0016116834
 40
0.0049733687
 40
0.0103864678
 40
0.017956032
 40
0.0277543651
 40
0.039844152
 40
0.0711311496
 40
0.1121122383
 40
0.1624336493
 40
0.2215784665
 40
0.2890277477
 40
0.3641316802
 40
0.4457218526
 40
0.5325002148
 40
0.6231683633
 40
0.8111338815
 40
1.0
 40
1.0
 40
1.0
 40
1.0
 10
13.0559172544
 20
7.1837845243
 30
0.0
 10
13.0558986245
 20
7.1837851815
 30
0.0
 10
13.0558586659
 20
7.183842221
 30
0.0
 10
13.0558291255
 20
7.1839515458
 30
0.0
 10
13.0557908181
 20
7.184140603
 30
0.0
 10
13.0557584451
 20
7.1844006344
 30
0.0
 10
13.0557261872
 20
7.1847404588
 30
0.0
 10
13.0556837823
 20
7.1853538046
 30
0.0
 10
13.055641664
 20
7.1863289338
 30
0.0
 10
13.0556068522
 20
7.1877463843
 30
0.0
 10
13.0555852125
 20
7.1894864629
 30
0.0
 10
13.0555776808
 20
7.1915327473
 30
0.0
 10
13.0555850465
 20
7.1938656924
 30
0.0
 10
13.0556078152
 20
7.1964581537
 30
0.0
 10
13.0556450106
 20
7.1992740372
 30
0.0
 10
13.0556957117
 20
7.2022697588
 30
0.0
 10
13.0557810757
 20
7.206495437
 30
0.0
 10
13.0559146789
 20
7.2119011449
 30
0.0
 10
13.0560428368
 20
7.2162578944
 30
0.0
 10
13.05611184
 20
7.218441322
 30
0.0
  0
SPLINE
  5
398
100
AcDbEntity
  8
0
100
AcDbSpline
 62
9
  6
CONTINUOUS
 70
0
 71
3
 72
21
 73
17
 74
0
 42
0.0000001
 43
0.0000001
 44
0.0000000001
 40
0.0
 40
0.0
 40
0.0
 40
0.0
 40
0.371450965
 40
0.5405958394
 40
0.6180333277
 40
0.6897270274
 40
0.7550194413
 40
0.8132750194
 40
0.8639791146
 40
0.90677711
 40
0.941390707
 40
0.9677807411
 40
0.9780633528
 40
0.986603877
 40
0.9937262662
 40
1.0
 40
1.0
 40
1.0
 40
1.0
 10
13.0561100654
 20
7.7462223821
 30
0.0
 10
13.0613372066
 20
7.7462427666
 30
0.0
 10
13.0689484785
 20
7.7460807687
 30
0.0
 10
13.0776267778
 20
7.7454879432
 30
0.0
 10
13.0820859857
 20
7.7450659563
 30
0.0
 10
13.0850840211
 20
7.7447221721
 30
0.0
 10
13.0878055176
 20
7.7443426501
 30
0.0
 10
13.0902228679
 20
7.7439276892
 30
0.0
 10
13.0923116552
 20
7.7434801571
 30
0.0
 10
13.0940536161
 20
7.743009574
 30
0.0
 10
13.0954320731
 20
7.7425235324
 30
0.0
 10
13.0963392433
 20
7.7420822992
 30
0.0
 10
13.0968562597
 20
7.7417083564
 30
0.0
 10
13.0971155336
 20
7.7414481709
 30
0.0
 10
13.0972789886
 20
7.7411816221
 30
0.0
 10
13.0973185682
 20
7.7409919439
 30
0.0
 10
13.0973185365
 20
7.7409036578
 30
0.0
  0
SPLINE
  5
399
100
AcDbEntity
  8
0
100
AcDbSpline
 62
9
  6
CONTINUOUS
 70
0
 71
3
 72
24
 73
20
 74
0
 42
0.0000001
 43
0.0000001
 44
0.0000000001
 40
0.0
 40
0.0
 40
0.0
 40
0.0
 40
0.1888642922
 40
0.3768280776
 40
0.4674954885
 40
0.5542732527
 40
0.6358630056
 40
0.7109667364
 40
0.7784160422
 40
0.8375611006
 40
0.8878829811
 40
0.9288647794
 40
0.9601526838
 40
0.9722429751
 40
0.9820418429
 40
0.989611968
 40
0.995025647
 40
0.9983879084
 40
1.0
 40
1.0
 40
1.0
 40
1.0
 10
13.0561111525
 20
7.7462223938
 30
0.0
 10
13.05604215
 20
7.7484057983
 30
0.0
 10
13.0559139934
 20
7.7527625027
 30
0.0
 10
13.0557803912
 20
7.758168156
 30
0.0
 10
13.0556950274
 20
7.7623937949
 30
0.0
 10
13.0556443262
 20
7.7653894935
 30
0.0
 10
13.0556071303
 20
7.7682053604
 30
0.0
 10
13.0555843608
 20
7.7707978124
 30
0.0
 10
13.055576994
 20
7.7731307562
 30
0.0
 10
13.0555845242
 20
7.7751770472
 30
0.0
 10
13.0556061623
 20
7.7769171407
 30
0.0
 10
13.0556409723
 20
7.7783346141
 30
0.0
 10
13.0556830886
 20
7.7793097671
 30
0.0
 10
13.0557254923
 20
7.7799231349
 30
0.0
 10
13.0557577483
 20
7.7802629778
 30
0.0
 10
13.0557901228
 20
7.7805230283
 30
0.0
 10
13.0558284245
 20
7.7807121064
 30
0.0
 10
13.0558579737
 20
7.7808214479
 30
0.0
 10
13.0558979193
 20
7.7808785044
 30
0.0
 10
13.0559165536
 20
7.7808791716
 30
0.0
  0
SPLINE
  5
39A
100
AcDbEntity
  8
0
100
AcDbSpline
 62
9
  6
CONTINUOUS
 70
0
 71
3
 72
12
 73
8
 74
0
 42
0.0000001
 43
0.0000001
 44
0.0000000001
 40
0.0
 40
0.0
 40
0.0
 40
0.0
 40
0.2495318033
 40
0.3745047894
 40
0.4995310801
 40
0.749717087
 40
1.0
 40
1.0
 40
1.0
 40
1.0
 10
10.6657109624
 20
7.3043213858
 30
0.0
 10
10.6719507163
 20
7.3182383271
 30
0.0
 10
10.6802533545
 20
7.3396277358
 30
0.0
 10
10.68903363
 20
7.3688808625
 30
0.0
 10
10.696258675
 20
7.3986006654
 30
0.0
 10
10.7023264578
 20
7.4364216849
 30
0.0
 10
10.7039584133
 20
7.4670342046
 30
0.0
 10
10.7039566096
 20
7.4823318604
 30
0.0
  0
SPLINE
  5
39B
100
AcDbEntity
  8
0
100
AcDbSpline
 62
9
  6
CONTINUOUS
 70
0
 71
3
 72
9
 73
5
 74
0
 42
0.0000001
 43
0.0000001
 44
0.0000000001
 40
0.0
 40
0.0
 40
0.0
 40
0.0
 40
0.500015616
 40
1.0
 40
1.0
 40
1.0
 40
1.0
 10
13.0561100437
 20
7.2184403179
 30
0.0
 10
12.6576795233
 20
7.2322380898
 30
0.0
 10
11.8608781827
 20
7.2608325427
 30
0.0
 10
11.0641017678
 20
7.2901027494
 30
0.0
 10
10.665710976
 20
7.3043217743
 30
0.0
  0
SPLINE
  5
39C
100
AcDbEntity
  8
0
100
AcDbSpline
 62
9
  6
CONTINUOUS
 70
0
 71
3
 72
9
 73
5
 74
0
 42
0.0000001
 43
0.0000001
 44
0.0000000001
 40
0.0
 40
0.0
 40
0.0
 40
0.0
 40
0.4999843841
 40
1.0
 40
1.0
 40
1.0
 40
1.0
 10
10.6657109575
 20
7.6603419482
 30
0.0
 10
11.0641017535
 20
7.6745609194
 30
0.0
 10
11.8608781701
 20
7.7038312037
 30
0.0
 10
12.6576795159
 20
7.7324256399
 30
0.0
 10
13.0561100386
 20
7.746223409
 30
0.0
  0
SPLINE
  5
39D
100
AcDbEntity
  8
0
100
AcDbSpline
 62
9
  6
CONTINUOUS
 70
0
 71
3
 72
24
 73
20
 74
0
 42
0.0000001
 43
0.0000001
 44
0.0000000001
 40
0.0
 40
0.0
 40
0.0
 40
0.0
 40
0.187302988
 40
0.3751137575
 40
0.4660728625
 40
0.5532810536
 40
0.6353510384
 40
0.7108958929
 40
0.7786741968
 40
0.8380246722
 40
0.8884318416
 40
0.9293822837
 40
0.9605372023
 40
0.9725403219
 40
0.9822495288
 40
0.9897360663
 40
0.9950809721
 40
0.9983985327
 40
1.0
 40
1.0
 40
1.0
 40
1.0
 10
10.6657109483
 20
7.6603419479
 30
0.0
 10
10.6656357351
 20
7.6626326213
 30
0.0
 10
10.665495863
 20
7.6672205371
 30
0.0
 10
10.6653502554
 20
7.6729217484
 30
0.0
 10
10.6652570195
 20
7.6773990267
 30
0.0
 10
10.6652015438
 20
7.6805829087
 30
0.0
 10
10.665160841
 20
7.6835783851
 30
0.0
 10
10.6651359371
 20
7.6863362765
 30
0.0
 10
10.6651279268
 20
7.6888162732
 30
0.0
 10
10.6651361615
 20
7.6909886614
 30
0.0
 10
10.6651596646
 20
7.6928327009
 30
0.0
 10
10.6651972985
 20
7.6943312873
 30
0.0
 10
10.6652426845
 20
7.6953597952
 30
0.0
 10
10.6652882581
 20
7.696004856
 30
0.0
 10
10.6653228028
 20
7.6963611031
 30
0.0
 10
10.6653574253
 20
7.6966332867
 30
0.0
 10
10.6653982399
 20
7.6968305632
 30
0.0
 10
10.6654298055
 20
7.6969450325
 30
0.0
 10
10.6654722661
 20
7.6970039303
 30
0.0
 10
10.6654918503
 20
7.6970046154
 30
0.0
  0
SPLINE
  5
39E
100
AcDbEntity
  8
0
100
AcDbSpline
 62
9
  6
CONTINUOUS
 70
0
 71
3
 72
17
 73
13
 74
0
 42
0.0000001
 43
0.0000001
 44
0.0000000001
 40
0.0
 40
0.0
 40
0.0
 40
0.0
 40
0.1602628451
 40
0.3189856609
 40
0.4706837946
 40
0.6098452004
 40
0.7321258877
 40
0.7864800524
 40
0.8362702717
 40
0.9234295151
 40
0.9626197521
 40
1.0
 40
1.0
 40
1.0
 40
1.0
 10
10.6341974539
 20
7.6667633381
 30
0.0
 10
10.6339070863
 20
7.6686415261
 30
0.0
 10
10.6332050332
 20
7.6723620533
 30
0.0
 10
10.6317692896
 20
7.6777620569
 30
0.0
 10
10.6299394153
 20
7.6827787489
 30
0.0
 10
10.6277755484
 20
7.68718686
 30
0.0
 10
10.625647845
 20
7.6902926623
 30
0.0
 10
10.6238166228
 20
7.6922640422
 30
0.0
 10
10.6220939742
 20
7.693743686
 30
0.0
 10
10.6202378548
 20
7.6947868867
 30
0.0
 10
10.6183458135
 20
7.6952617528
 30
0.0
 10
10.6174331094
 20
7.6953180728
 30
0.0
 10
10.6169901039
 20
7.6953024959
 30
0.0
  0
LINE
  5
39F
100
AcDbEntity
  8
0
100
AcDbLine
 62
9
  6
CONTINUOUS
 10
10.6341970532
 20
7.6667629985
 11
10.6657108562
 21
7.6603420668
  0
SPLINE
  5
3A0
100
AcDbEntity
  8
0
100
AcDbSpline
 62
9
  6
CONTINUOUS
 70
0
 71
3
 72
14
 73
10
 74
0
 42
0.0000001
 43
0.0000001
 44
0.0000000001
 40
0.0
 40
0.0
 40
0.0
 40
0.0
 40
0.257210566
 40
0.3847772037
 40
0.5112597868
 40
0.6364192176
 40
0.7597824087
 40
0.8811139123
 40
1.0
 40
1.0
 40
1.0
 40
1.0
 10
10.5706073561
 20
7.7178820925
 30
0.0
 10
10.5748067959
 20
7.7121190035
 30
0.0
 10
10.5814825589
 20
7.7037677793
 30
0.0
 10
10.5912348458
 20
7.6934727114
 30
0.0
 10
10.5989338744
 20
7.6863027884
 30
0.0
 10
10.6070247146
 20
7.6797569384
 30
0.0
 10
10.6155744435
 20
7.6740622283
 30
0.0
 10
10.6245843448
 20
7.6694822845
 30
0.0
 10
10.6309703553
 20
7.6674361248
 30
0.0
 10
10.6341973149
 20
7.6667652666
 30
0.0
  0
LINE
  5
3A1
100
AcDbEntity
  8
0
100
AcDbLine
 62
9
  6
CONTINUOUS
 10
10.6657109327
 20
7.3043214185
 11
10.6341970208
 21
7.2979004966
  0
SPLINE
  5
3A2
100
AcDbEntity
  8
0
100
AcDbSpline
 62
9
  6
CONTINUOUS
 70
0
 71
3
 72
14
 73
10
 74
0
 42
0.0000001
 43
0.0000001
 44
0.0000000001
 40
0.0
 40
0.0
 40
0.0
 40
0.0
 40
0.1188827091
 40
0.2402210331
 40
0.3635853518
 40
0.4887436152
 40
0.615228007
 40
0.7427971946
 40
1.0
 40
1.0
 40
1.0
 40
1.0
 10
10.634197289
 20
7.2978985198
 30
0.0
 10
10.6309704345
 20
7.2972276116
 30
0.0
 10
10.6245843927
 20
7.2951812917
 30
0.0
 10
10.6155742445
 20
7.2906015583
 30
0.0
 10
10.6070243531
 20
7.2849067185
 30
0.0
 10
10.5989336216
 20
7.2783606537
 30
0.0
 10
10.5912345729
 20
7.2711906232
 30
0.0
 10
10.5814822912
 20
7.2608956809
 30
0.0
 10
10.5748065272
 20
7.2525446223
 30
0.0
 10
10.5706073544
 20
7.2467816022
 30
0.0
  0
SPLINE
  5
3A3
100
AcDbEntity
  8
0
100
AcDbSpline
 62
9
  6
CONTINUOUS
 70
0
 71
3
 72
17
 73
13
 74
0
 42
0.0000001
 43
0.0000001
 44
0.0000000001
 40
0.0
 40
0.0
 40
0.0
 40
0.0
 40
0.0373804733
 40
0.0765709823
 40
0.1637308029
 40
0.2135212649
 40
0.267875617
 40
0.390156476
 40
0.5293177551
 40
0.6810155123
 40
0.8397377807
 40
1.0
 40
1.0
 40
1.0
 40
1.0
 10
10.6169899816
 20
7.269361177
 30
0.0
 10
10.6174329903
 20
7.2693456067
 30
0.0
 10
10.6183456999
 20
7.2694019399
 30
0.0
 10
10.620237749
 20
7.2698768309
 30
0.0
 10
10.6220938725
 20
7.2709200511
 30
0.0
 10
10.6238165249
 20
7.2723997107
 30
0.0
 10
10.6256477473
 20
7.2743711022
 30
0.0
 10
10.6277754491
 20
7.2774769111
 30
0.0
 10
10.6299393129
 20
7.2818850225
 30
0.0
 10
10.6317691818
 20
7.2869017064
 30
0.0
 10
10.6332049193
 20
7.2923016959
 30
0.0
 10
10.6339069683
 20
7.296022212
 30
0.0
 10
10.6341973337
 20
7.2979003939
 30
0.0
  0
ENDSEC
  0
SECTION
  2
OBJECTS
  0
DICTIONARY
  5
C
100
AcDbDictionary
280
0
281
1
  3
ACAD_GROUP
350
D
  3
ACAD_MLINESTYLE
350
17
  3
ACAD_LAYOUT
350
1A
  3
ACAD_PLOTSETTINGS
350
19
  3
ACAD_PLOTSTYLENAME
350
E
  0
DICTIONARY
  5
D
102
{ACAD_REACTORS
330
C
102
}
100
AcDbDictionary
280
0
281
1
  0
ACDBDICTIONARYWDFLT
  5
E
102
{ACAD_REACTORS
330
C
102
}
100
AcDbDictionary
281
1
  3
Normal
350
F
100
AcDbDictionaryWithDefault
340
F
  0
DICTIONARY
  5
17
102
{ACAD_REACTORS
330
C
102
}
100
AcDbDictionary
280
0
281
1
  3
Standard
350
18
  0
DICTIONARY
  5
19
102
{ACAD_REACTORS
330
C
102
}
100
AcDbDictionary
281
1
  0
DICTIONARY
  5
1A
102
{ACAD_REACTORS
330
C
102
}
100
AcDbDictionary
281
1
  3
Model
350
3A4
  3
Layout1
350
3A5
  0
ACDBPLACEHOLDER
  5
F
102
{ACAD_REACTORS
330
E
102
}
  0
MLINESTYLE
  5
18
102
{ACAD_REACTORS
330
17
102
}
100
AcDbMlineStyle
  2
STANDARD
 70
0
  3

 62
256
 51
90.0
 52
90.0
 71
2
 49
0.5
 62
256
  6
BYLAYER
 49
-0.5
 62
256
  6
BYLAYER
  0
LAYOUT
  5
3A4
102
{ACAD_REACTORS
330
1A
102
}
100
AcDbPlotSettings
  1

  2
none_device
  4
ANSI_C_(22.00_x_17.00_Inches)
  6

 40
0.0
 41
0.0
 42
0.0
 43
0.0
 44
558.8
 45
431.8
 46
0.0
 47
0.0
 48
0.0
 49
0.0
140
0.0
141
0.0
142
1.0
143
1.0
 70
1024
 72
0
 73
0
 74
0
  7

 75
0
147
1.0
148
0.0
149
0.0
100
AcDbLayout
  1
Model
 70
0
 71
0
 10
0.0
 20
0.0
 11
22.0
 21
17.0
 12
0.0
 22
0.0
 32
0.0
 14
0.0
 24
0.0
 34
0.0
 15
0.0
 25
0.0
 35
0.0
146
0.0
 13
0.0
 23
0.0
 33
0.0
 16
1.0
 26
0.0
 36
0.0
 17
0.0
 27
1.0
 37
0.0
 76
0
330
202
345
0
346
0
  0
LAYOUT
  5
3A5
102
{ACAD_REACTORS
330
1A
102
}
100
AcDbPlotSettings
  1

  2
none_device
  4
ANSI_C_(22.00_x_17.00_Inches)
  6

 40
0.0
 41
0.0
 42
0.0
 43
0.0
 44
558.8
 45
431.8
 46
0.0
 47
0.0
 48
0.0
 49
0.0
140
0.0
141
0.0
142
1.0
143
1.0
 70
0
 72
0
 73
0
 74
0
  7

 75
0
147
1.0
148
0.0
149
0.0
100
AcDbLayout
  1
Layout1
 70
0
 71
1
 10
0.0
 20
0.0
 11
22.0
 21
17.0
 12
0.0
 22
0.0
 32
0.0
 14
0.0
 24
0.0
 34
0.0
 15
0.0
 25
0.0
 35
0.0
146
0.0
 13
0.0
 23
0.0
 33
0.0
 16
1.0
 26
0.0
 36
0.0
 17
0.0
 27
1.0
 37
0.0
 76
0
330
203
345
0
346
0
  0
ENDSEC
  0
EOF
