999
DXF file: E:\BT Custom\CADOUTPUT\_RIGHT.dxf
999
Pro/ENGINEER 2018400 by Parametric Technology Corporation
  0
SECTION
  2
HEADER
  9
$ACADVER
  1
AC1018
  9
$DWGCODEPAGE
  3
ANSI_1252
  9
$EXTMAX
 10
22.0
 20
17.0
 30
0.0
  9
$EXTMIN
 10
0.0
 20
0.0
 30
0.0
  9
$LIMMIN
 10
0.0
 20
0.0
  9
$LIMMAX
 10
22.0
 20
17.0
  9
$VIEWCTR
 10
11.0
 20
8.5
  9
$VIEWSIZE
 40
17.0
  9
$CLAYER
  8
0
  9
$LTSCALE
 40
1.21
  9
$CELTYPE
  6
BYLAYER
  9
$DIMSCALE
 40
1.0
  9
$DIMASZ
 40
0.1
  9
$DIMEXO
 40
0.0625
  9
$DIMDLI
 40
0.836
  9
$DIMEXE
 40
0.125
  9
$DIMCEN
 40
0.198
  9
$DIMLFAC
 40
1.0
  9
$DIMBLK
  1
_FILLED
  9
$DIMALT
 70
1
  9
$DIMALTD
 70
2
  9
$DIMALTTD
 70
2
  9
$DIMALTF
 40
25.4
  9
$DIMTXT
 40
0.08
  9
$DIMTOL
 70
1
  9
$DIMLIM
 70
0
  9
$DIMTFAC
 40
1.0
  9
$DIMTP
 40
0.001
  9
$DIMTM
 40
0.001
  9
$DIMGAP
 40
0.09
  9
$DIMDSEP
 70
46
  9
$AUNITS
 70
0
  9
$PDMODE
 70
3
  9
$PDSIZE
 40
0.06
  9
$HANDSEED
  5
39B
  9
$TILEMODE
 70
1
  9
$MEASUREMENT
 70
0
  9
$INSUNITS
 70
1
  0
ENDSEC
  0
SECTION
  2
CLASSES
  0
CLASS
  1
ACDBDICTIONARYWDFLT
  2
AcDbDictionaryWithDefault
  3
AutoCAD 2000
 90
0
 91
1
280
0
281
0
  0
CLASS
  1
ACDBPLACEHOLDER
  2
AcDbPlaceHolder
  3
AutoCAD 2000
 90
0
 91
1
280
0
281
0
  0
CLASS
  1
LAYOUT
  2
AcDbLayout
  3
AutoCAD 2000
 90
0
 91
0
280
0
281
0
  0
ENDSEC
  0
SECTION
  2
TABLES
  0
TABLE
  2
VPORT
  5
8
100
AcDbSymbolTable
 70
2
  0
VPORT
  5
1F4
100
AcDbSymbolTableRecord
100
AcDbViewportTableRecord
  2
*ACTIVE
 70
0
 10
0.0
 20
0.0
 11
1.0
 21
1.0
 12
11.0
 22
8.5
 13
0.0
 23
0.0
 14
1.0
 24
1.0
 15
0.0
 25
0.0
 16
0.0
 26
0.0
 36
1.0
 17
0.0
 27
0.0
 37
0.0
 40
17.0
 41
1.2941176471
 42
50.0
 43
0.0
 44
0.0
 50
0.0
 51
0.0
 71
0
 72
100
 73
1
 74
1
 75
0
 76
0
 77
0
 78
0
  0
ENDTAB
  0
TABLE
  2
LTYPE
  5
5
100
AcDbSymbolTable
 70
6
  0
LTYPE
  5
14
100
AcDbSymbolTableRecord
100
AcDbLinetypeTableRecord
  2
BYBLOCK
 70
0
  3

 72
65
 73
0
 40
0.0
  0
LTYPE
  5
15
100
AcDbSymbolTableRecord
100
AcDbLinetypeTableRecord
  2
BYLAYER
 70
0
  3

 72
65
 73
0
 40
0.0
  0
LTYPE
  5
16
100
AcDbSymbolTableRecord
100
AcDbLinetypeTableRecord
  2
CONTINUOUS
 70
64
  3
Solid line
 72
65
 73
0
 40
0.0
  0
LTYPE
  5
1F5
100
AcDbSymbolTableRecord
100
AcDbLinetypeTableRecord
  2
CENTER
 70
64
  3
____ _ ____ _ ____ _ ____ _ ____ _ ____ _ ____
 72
65
 73
4
 40
0.6
 49
0.375
 74
0
 49
-0.075
 74
0
 49
0.075
 74
0
 49
-0.075
 74
0
  0
LTYPE
  5
1F6
100
AcDbSymbolTableRecord
100
AcDbLinetypeTableRecord
  2
HIDDEN
 70
64
  3
- - - - - - - - - - - - - - - - - - - -
 72
65
 73
2
 40
0.2
 49
0.1
 74
0
 49
-0.1
 74
0
  0
LTYPE
  5
1F7
100
AcDbSymbolTableRecord
100
AcDbLinetypeTableRecord
  2
PHANTOM
 70
64
  3
_____ _ _ _____ _ _ _____ _ _ _____
 72
65
 73
6
 40
0.8
 49
0.45
 74
0
 49
-0.05
 74
0
 49
0.1
 74
0
 49
-0.05
 74
0
 49
0.1
 74
0
 49
-0.05
 74
0
  0
LTYPE
  5
1F8
100
AcDbSymbolTableRecord
100
AcDbLinetypeTableRecord
  2
DOT
 70
64
  3
. . . . . . . . . . . . . . . . . . . .
 72
65
 73
2
 40
0.2
 49
0.1
 74
0
 49
-0.1
 74
0
  0
LTYPE
  5
1F9
100
AcDbSymbolTableRecord
100
AcDbLinetypeTableRecord
  2
DASHED
 70
64
  3
- - - - - - - - - - - - - - - - - - - -
 72
65
 73
2
 40
0.2
 49
0.1
 74
0
 49
-0.1
 74
0
  0
ENDTAB
  0
TABLE
  2
LAYER
  5
2
100
AcDbSymbolTable
 70
36
  0
LAYER
  5
10
100
AcDbSymbolTableRecord
100
AcDbLayerTableRecord
  2
0
 70
0
 62
7
  6
CONTINUOUS
370
-3
390
F
  0
LAYER
  5
1FA
100
AcDbSymbolTableRecord
100
AcDbLayerTableRecord
  2
DEFAULT_1
 70
0
 62
7
  6
CENTER
370
-3
390
F
  0
LAYER
  5
1FB
100
AcDbSymbolTableRecord
100
AcDbLayerTableRecord
  2
DEFAULT_2
 70
0
 62
8
  6
HIDDEN
370
-3
390
F
  0
LAYER
  5
1FC
100
AcDbSymbolTableRecord
100
AcDbLayerTableRecord
  2
DEFAULT_3
 70
0
 62
7
  6
PHANTOM
370
-3
390
F
  0
LAYER
  5
1FD
100
AcDbSymbolTableRecord
100
AcDbLayerTableRecord
  2
ALL_FEATURES
 70
0
 62
7
  6
CONTINUOUS
370
-3
390
F
  0
LAYER
  5
1FE
100
AcDbSymbolTableRecord
100
AcDbLayerTableRecord
  2
AXES_FEATURES
 70
0
 62
7
  6
CONTINUOUS
370
-3
390
F
  0
LAYER
  5
1FF
100
AcDbSymbolTableRecord
100
AcDbLayerTableRecord
  2
DIMENSIONS
 70
0
 62
7
  6
CONTINUOUS
370
-3
390
F
  0
ENDTAB
  0
TABLE
  2
STYLE
  5
3
100
AcDbSymbolTable
 70
1
  0
STYLE
  5
11
100
AcDbSymbolTableRecord
100
AcDbTextStyleTableRecord
  2
STANDARD
 70
0
 40
0.0
 41
0.8
 50
0.0
 71
0
 42
0.2
  3
txt
  4

  0
STYLE
  5
200
100
AcDbSymbolTableRecord
100
AcDbTextStyleTableRecord
  2
TEXTSTYLE_1
 70
0
 40
0.0
 41
0.8
 50
0.0
 71
0
 42
0.2
  3
gdt
  4

  0
ENDTAB
  0
TABLE
  2
VIEW
  5
6
100
AcDbSymbolTable
 70
0
  0
ENDTAB
  0
TABLE
  2
UCS
  5
7
100
AcDbSymbolTable
 70
0
  0
ENDTAB
  0
TABLE
  2
APPID
  5
9
100
AcDbSymbolTable
 70
1
  0
APPID
  5
201
100
AcDbSymbolTableRecord
100
AcDbRegAppTableRecord
  2
ACAD
 70
0
  0
ENDTAB
  0
TABLE
  2
BLOCK_RECORD
  5
1
100
AcDbSymbolTable
 70
0
  0
BLOCK_RECORD
  5
202
100
AcDbSymbolTableRecord
100
AcDbBlockTableRecord
  2
*Model_Space
  0
BLOCK_RECORD
  5
203
100
AcDbSymbolTableRecord
100
AcDbBlockTableRecord
  2
*Paper_Space
  0
BLOCK_RECORD
  5
204
100
AcDbSymbolTableRecord
100
AcDbBlockTableRecord
  2
_FILLED
  0
ENDTAB
  0
TABLE
  2
DIMSTYLE
  5
A
100
AcDbSymbolTable
 70
1
100
AcDbDimStyleTable
 71
0
  0
DIMSTYLE
105
205
100
AcDbSymbolTableRecord
100
AcDbDimStyleTableRecord
  2
STANDARD
 70
0
  3

  4

 40
1.0
 41
0.1
 42
0.0625
 43
0.38
 44
0.125
 45
0.0
 46
0.0
 47
0.001
 48
0.001
140
0.08
141
0.09
142
0.0
143
25.4
144
1.0
145
0.0
146
1.0
147
0.09
 71
1.0
 72
0.0
 73
1
 74
1
 75
0
 76
0
 77
0
 78
4
 79
1
170
1
171
2
172
0
173
0
174
0
175
0
176
0
177
0
178
0
270
2
179
3
271
3
272
3
273
2
274
2
275
0
280
0
281
0
282
0
283
1
284
4
285
0
286
0
287
3
288
0
340
11
278
46
341
204
342
204
343
204
344
204
  0
ENDTAB
  0
ENDSEC
  0
SECTION
  2
BLOCKS
  0
BLOCK
  5
20
100
AcDbEntity
  8
0
100
AcDbBlockBegin
  2
*Model_Space
 70
0
 10
0.0
 20
0.0
 30
0.0
  3
*Model_Space
  1

  0
ENDBLK
  5
21
100
AcDbEntity
  8
0
100
AcDbBlockEnd
  0
BLOCK
  5
1C
100
AcDbEntity
  8
0
100
AcDbBlockBegin
  2
*Paper_Space
 70
0
 10
0.0
 20
0.0
 30
0.0
  3
*Paper_Space
  1

  0
ENDBLK
  5
1D
100
AcDbEntity
  8
0
100
AcDbBlockEnd
  0
BLOCK
  5
206
100
AcDbEntity
  8
0
100
AcDbBlockBegin
  2
_FILLED
 70
64
 10
0.0
 20
0.0
  3
_FILLED
  1

  0
SOLID
  5
207
100
AcDbEntity
  8
0
  6
BYBLOCK
 62
0
100
AcDbTrace
 10
0.0
 20
0.0
 11
-1.0
 21
0.2
 12
-1.0
 22
-0.2
 13
-1.0
 23
-0.2
  0
ENDBLK
  5
208
100
AcDbEntity
  8
0
  6
BYBLOCK
 62
0
100
AcDbBlockEnd
  0
ENDSEC
  0
SECTION
  2
ENTITIES
  0
LINE
  5
209
100
AcDbEntity
  8
0
100
AcDbLine
 62
9
  6
CONTINUOUS
 10
9.3763274749
 20
10.2735081531
 11
9.3766245127
 21
10.2591685667
  0
LINE
  5
20A
100
AcDbEntity
  8
0
100
AcDbLine
 62
7
  6
CONTINUOUS
 10
9.334983668
 20
9.9149531743
 11
9.334983668
 21
10.2335276088
  0
LINE
  5
20B
100
AcDbEntity
  8
0
100
AcDbLine
 62
9
  6
CONTINUOUS
 10
9.3783054881
 20
9.928995727
 11
9.3783053846
 21
10.2194753796
  0
LINE
  5
20C
100
AcDbEntity
  8
0
100
AcDbLine
 62
9
  6
CONTINUOUS
 10
9.3753473051
 20
9.8892703434
 11
9.3750391749
 21
9.8749501759
  0
LINE
  5
20D
100
AcDbEntity
  8
0
100
AcDbLine
 62
7
  6
CONTINUOUS
 10
9.5849843605
 20
7.600891804
 11
12.0849829755
 21
7.600891804
  0
LINE
  5
20E
100
AcDbEntity
  8
0
100
AcDbLine
 62
7
  6
CONTINUOUS
 10
12.084983668
 20
7.750891804
 11
9.584983668
 21
7.750891804
  0
LINE
  5
20F
100
AcDbEntity
  8
0
100
AcDbLine
 62
7
  6
CONTINUOUS
 10
9.634983668
 20
7.800891804
 11
12.034983668
 21
7.800891804
  0
LINE
  5
210
100
AcDbEntity
  8
0
100
AcDbLine
 62
7
  6
CONTINUOUS
 10
9.584983668
 20
7.600891804
 11
9.584983668
 21
7.750891804
  0
LINE
  5
211
100
AcDbEntity
  8
0
100
AcDbLine
 62
7
  6
CONTINUOUS
 10
9.5850022525
 20
8.075891804
 11
9.5850022525
 21
8.000891804
  0
LINE
  5
212
100
AcDbEntity
  8
0
100
AcDbLine
 62
7
  6
CONTINUOUS
 10
9.5855258247
 20
8.000891804
 11
9.5855258247
 21
8.075891804
  0
LINE
  5
213
100
AcDbEntity
  8
0
100
AcDbLine
 62
7
  6
CONTINUOUS
 10
9.5860015901
 20
8.075891804
 11
9.5860015901
 21
8.000891804
  0
LINE
  5
214
100
AcDbEntity
  8
0
100
AcDbLine
 62
7
  6
CONTINUOUS
 10
9.5875716688
 20
8.000891804
 11
9.5875716688
 21
8.075891804
  0
LINE
  5
215
100
AcDbEntity
  8
0
100
AcDbLine
 62
7
  6
CONTINUOUS
 10
9.58852262
 20
8.075891804
 11
9.58852262
 21
8.000891804
  0
LINE
  5
216
100
AcDbEntity
  8
0
100
AcDbLine
 62
7
  6
CONTINUOUS
 10
9.5911372923
 20
8.000891804
 11
9.5911372923
 21
8.075891804
  0
LINE
  5
217
100
AcDbEntity
  8
0
100
AcDbLine
 62
7
  6
CONTINUOUS
 10
9.5925622706
 20
8.075891804
 11
9.5925622706
 21
8.000891804
  0
LINE
  5
218
100
AcDbEntity
  8
0
100
AcDbLine
 62
7
  6
CONTINUOUS
 10
9.5962183509
 20
8.000891804
 11
9.5962183509
 21
8.075891804
  0
LINE
  5
219
100
AcDbEntity
  8
0
100
AcDbLine
 62
7
  6
CONTINUOUS
 10
9.5981156204
 20
8.075891804
 11
9.5981156204
 21
8.000891804
  0
LINE
  5
21A
100
AcDbEntity
  8
0
100
AcDbLine
 62
7
  6
CONTINUOUS
 10
9.6028086544
 20
8.000891804
 11
9.6028086544
 21
8.075891804
  0
LINE
  5
21B
100
AcDbEntity
  8
0
100
AcDbLine
 62
7
  6
CONTINUOUS
 10
9.6051759034
 20
8.075891804
 11
9.6051759034
 21
8.000891804
  0
LINE
  5
21C
100
AcDbEntity
  8
0
100
AcDbLine
 62
7
  6
CONTINUOUS
 10
9.6109001732
 20
8.000891804
 11
9.6109001732
 21
8.075891804
  0
LINE
  5
21D
100
AcDbEntity
  8
0
100
AcDbLine
 62
7
  6
CONTINUOUS
 10
9.6137345176
 20
8.075891804
 11
9.6137345176
 21
8.000891804
  0
LINE
  5
21E
100
AcDbEntity
  8
0
100
AcDbLine
 62
7
  6
CONTINUOUS
 10
9.6204830493
 20
8.000891804
 11
9.6204830493
 21
8.075891804
  0
LINE
  5
21F
100
AcDbEntity
  8
0
100
AcDbLine
 62
7
  6
CONTINUOUS
 10
9.6237810359
 20
8.075891804
 11
9.6237810359
 21
8.000891804
  0
LINE
  5
220
100
AcDbEntity
  8
0
100
AcDbLine
 62
7
  6
CONTINUOUS
 10
9.6315456072
 20
8.000891804
 11
9.6315456072
 21
8.075891804
  0
LINE
  5
221
100
AcDbEntity
  8
0
100
AcDbLine
 62
7
  6
CONTINUOUS
 10
9.634983668
 20
7.800891804
 11
9.634983668
 21
8.000891804
  0
LINE
  5
222
100
AcDbEntity
  8
0
100
AcDbLine
 62
7
  6
CONTINUOUS
 10
9.635303218
 20
8.075891804
 11
9.635303218
 21
8.000891804
  0
LINE
  5
223
100
AcDbEntity
  8
0
100
AcDbLine
 62
7
  6
CONTINUOUS
 10
9.6440743691
 20
8.000891804
 11
9.6440743691
 21
8.075891804
  0
LINE
  5
224
100
AcDbEntity
  8
0
100
AcDbLine
 62
7
  6
CONTINUOUS
 10
9.6482870259
 20
8.075891804
 11
9.6482870259
 21
8.000891804
  0
LINE
  5
225
100
AcDbEntity
  8
0
100
AcDbLine
 62
7
  6
CONTINUOUS
 10
9.6580540705
 20
8.000891804
 11
9.6580540705
 21
8.075891804
  0
LINE
  5
226
100
AcDbEntity
  8
0
100
AcDbLine
 62
7
  6
CONTINUOUS
 10
9.6627166409
 20
8.075891804
 11
9.6627166409
 21
8.000891804
  0
LINE
  5
227
100
AcDbEntity
  8
0
100
AcDbLine
 62
7
  6
CONTINUOUS
 10
9.6734676794
 20
8.000891804
 11
9.6734676794
 21
8.075891804
  0
LINE
  5
228
100
AcDbEntity
  8
0
100
AcDbLine
 62
7
  6
CONTINUOUS
 10
9.6785744827
 20
8.075891804
 11
9.6785744827
 21
8.000891804
  0
LINE
  5
229
100
AcDbEntity
  8
0
100
AcDbLine
 62
7
  6
CONTINUOUS
 10
9.6902964165
 20
8.000891804
 11
9.6902964165
 21
8.075891804
  0
LINE
  5
22A
100
AcDbEntity
  8
0
100
AcDbLine
 62
7
  6
CONTINUOUS
 10
9.6958412309
 20
8.075891804
 11
9.6958412309
 21
8.000891804
  0
LINE
  5
22B
100
AcDbEntity
  8
0
100
AcDbLine
 62
7
  6
CONTINUOUS
 10
9.7085197787
 20
8.000891804
 11
9.7085197787
 21
8.075891804
  0
LINE
  5
22C
100
AcDbEntity
  8
0
100
AcDbLine
 62
7
  6
CONTINUOUS
 10
9.7144958487
 20
8.075891804
 11
9.7144958487
 21
8.000891804
  0
LINE
  5
22D
100
AcDbEntity
  8
0
100
AcDbLine
 62
7
  6
CONTINUOUS
 10
9.7281155637
 20
8.000891804
 11
9.7281155637
 21
8.075891804
  0
LINE
  5
22E
100
AcDbEntity
  8
0
100
AcDbLine
 62
7
  6
CONTINUOUS
 10
9.7345156084
 20
8.075891804
 11
9.7345156084
 21
8.000891804
  0
LINE
  5
22F
100
AcDbEntity
  8
0
100
AcDbLine
 62
7
  6
CONTINUOUS
 10
9.749059897
 20
8.000891804
 11
9.749059897
 21
8.075891804
  0
LINE
  5
230
100
AcDbEntity
  8
0
100
AcDbLine
 62
7
  6
CONTINUOUS
 10
9.7558761188
 20
8.075891804
 11
9.7558761188
 21
8.000891804
  0
LINE
  5
231
100
AcDbEntity
  8
0
100
AcDbLine
 62
7
  6
CONTINUOUS
 10
9.7713272611
 20
8.000891804
 11
9.7713272611
 21
8.075891804
  0
LINE
  5
232
100
AcDbEntity
  8
0
100
AcDbLine
 62
7
  6
CONTINUOUS
 10
9.7785513556
 20
8.075891804
 11
9.7785513556
 21
8.000891804
  0
LINE
  5
233
100
AcDbEntity
  8
0
100
AcDbLine
 62
7
  6
CONTINUOUS
 10
9.7948905266
 20
8.000891804
 11
9.7948905266
 21
8.075891804
  0
LINE
  5
234
100
AcDbEntity
  8
0
100
AcDbLine
 62
7
  6
CONTINUOUS
 10
9.8025136924
 20
8.075891804
 11
9.8025136924
 21
8.000891804
  0
LINE
  5
235
100
AcDbEntity
  8
0
100
AcDbLine
 62
7
  6
CONTINUOUS
 10
12.0844415113
 20
8.000891804
 11
12.0849650835
 21
8.000891804
  0
LINE
  5
236
100
AcDbEntity
  8
0
100
AcDbLine
 62
7
  6
CONTINUOUS
 10
12.0820951635
 20
8.000891804
 11
12.0839657459
 21
8.000891804
  0
LINE
  5
237
100
AcDbEntity
  8
0
100
AcDbLine
 62
7
  6
CONTINUOUS
 10
9.5850022525
 20
8.000891804
 11
12.081444716
 21
8.000891804
  0
LINE
  5
238
100
AcDbEntity
  8
0
100
AcDbLine
 62
7
  6
CONTINUOUS
 10
12.0849650835
 20
8.075891804
 11
12.0844415113
 21
8.075891804
  0
LINE
  5
239
100
AcDbEntity
  8
0
100
AcDbLine
 62
7
  6
CONTINUOUS
 10
9.5878721725
 20
8.075891804
 11
9.5860015901
 21
8.075891804
  0
LINE
  5
23A
100
AcDbEntity
  8
0
100
AcDbLine
 62
7
  6
CONTINUOUS
 10
9.5856679033
 20
8.075891804
 11
9.5850022525
 21
8.075891804
  0
LINE
  5
23B
100
AcDbEntity
  8
0
100
AcDbLine
 62
7
  6
CONTINUOUS
 10
9.58852262
 20
8.075891804
 11
12.0839657459
 21
8.075891804
  0
LINE
  5
23C
100
AcDbEntity
  8
0
100
AcDbLine
 62
7
  6
CONTINUOUS
 10
9.809983668
 20
8.975891804
 11
9.809983668
 21
9.175891804
  0
LINE
  5
23D
100
AcDbEntity
  8
0
100
AcDbLine
 62
7
  6
CONTINUOUS
 10
9.8197209855
 20
8.000891804
 11
9.8197209855
 21
8.075891804
  0
LINE
  5
23E
100
AcDbEntity
  8
0
100
AcDbLine
 62
7
  6
CONTINUOUS
 10
9.8277339349
 20
8.075891804
 11
9.8277339349
 21
8.000891804
  0
LINE
  5
23F
100
AcDbEntity
  8
0
100
AcDbLine
 62
7
  6
CONTINUOUS
 10
9.8457883855
 20
8.000891804
 11
9.8457883855
 21
8.075891804
  0
LINE
  5
240
100
AcDbEntity
  8
0
100
AcDbLine
 62
7
  6
CONTINUOUS
 10
9.8541813559
 20
8.075891804
 11
9.8541813559
 21
8.000891804
  0
LINE
  5
241
100
AcDbEntity
  8
0
100
AcDbLine
 62
7
  6
CONTINUOUS
 10
9.8730609677
 20
8.000891804
 11
9.8730609677
 21
8.075891804
  0
LINE
  5
242
100
AcDbEntity
  8
0
100
AcDbLine
 62
7
  6
CONTINUOUS
 10
9.8818237336
 20
8.075891804
 11
9.8818237336
 21
8.000891804
  0
LINE
  5
243
100
AcDbEntity
  8
0
100
AcDbLine
 62
7
  6
CONTINUOUS
 10
9.884983668
 20
8.875891804
 11
9.884983668
 21
8.975891804
  0
LINE
  5
244
100
AcDbEntity
  8
0
100
AcDbLine
 62
7
  6
CONTINUOUS
 10
9.884983668
 20
9.175891804
 11
9.884983668
 21
9.225891804
  0
LINE
  5
245
100
AcDbEntity
  8
0
100
AcDbLine
 62
7
  6
CONTINUOUS
 10
9.9015055044
 20
8.000891804
 11
9.9015055044
 21
8.075891804
  0
LINE
  5
246
100
AcDbEntity
  8
0
100
AcDbLine
 62
7
  6
CONTINUOUS
 10
9.9106273898
 20
8.075891804
 11
9.9106273898
 21
8.000891804
  0
LINE
  5
247
100
AcDbEntity
  8
0
100
AcDbLine
 62
7
  6
CONTINUOUS
 10
9.9310873406
 20
8.000891804
 11
9.9310873406
 21
8.075891804
  0
LINE
  5
248
100
AcDbEntity
  8
0
100
AcDbLine
 62
7
  6
CONTINUOUS
 10
11.9099695066
 20
8.175891804
 11
9.7599978293
 21
8.175891804
  0
LINE
  5
249
100
AcDbEntity
  8
0
100
AcDbLine
 62
7
  6
CONTINUOUS
 10
9.9405572317
 20
8.075891804
 11
9.9405572317
 21
8.000891804
  0
LINE
  5
24A
100
AcDbEntity
  8
0
100
AcDbLine
 62
7
  6
CONTINUOUS
 10
9.959983668
 20
8.275891804
 11
9.959983668
 21
8.800891804
  0
LINE
  5
24B
100
AcDbEntity
  8
0
100
AcDbLine
 62
7
  6
CONTINUOUS
 10
9.9617704351
 20
8.000891804
 11
9.9617704351
 21
8.075891804
  0
LINE
  5
24C
100
AcDbEntity
  8
0
100
AcDbLine
 62
7
  6
CONTINUOUS
 10
9.9715767944
 20
8.075891804
 11
9.9715767944
 21
8.000891804
  0
LINE
  5
24D
100
AcDbEntity
  8
0
100
AcDbLine
 62
7
  6
CONTINUOUS
 10
9.9927770754
 20
8.000891804
 11
9.9927770754
 21
8.075891804
  0
LINE
  5
24E
100
AcDbEntity
  8
0
100
AcDbLine
 62
7
  6
CONTINUOUS
 10
9.9935174055
 20
8.000891804
 11
9.9935174055
 21
8.075891804
  0
LINE
  5
24F
100
AcDbEntity
  8
0
100
AcDbLine
 62
7
  6
CONTINUOUS
 10
10.0036482855
 20
8.075891804
 11
10.0036482855
 21
8.000891804
  0
LINE
  5
250
100
AcDbEntity
  8
0
100
AcDbLine
 62
7
  6
CONTINUOUS
 10
10.0248098146
 20
8.000891804
 11
10.0248098146
 21
8.075891804
  0
LINE
  5
251
100
AcDbEntity
  8
0
100
AcDbLine
 62
7
  6
CONTINUOUS
 10
10.0262895729
 20
8.000891804
 11
10.0262895729
 21
8.075891804
  0
LINE
  5
252
100
AcDbEntity
  8
0
100
AcDbLine
 62
7
  6
CONTINUOUS
 10
10.0367326306
 20
8.075891804
 11
10.0367326306
 21
8.000891804
  0
LINE
  5
253
100
AcDbEntity
  8
0
100
AcDbLine
 62
7
  6
CONTINUOUS
 10
10.0578296259
 20
8.000891804
 11
10.0578296259
 21
8.075891804
  0
LINE
  5
254
100
AcDbEntity
  8
0
100
AcDbLine
 62
7
  6
CONTINUOUS
 10
10.0600470095
 20
8.000891804
 11
10.0600470095
 21
8.075891804
  0
LINE
  5
255
100
AcDbEntity
  8
0
100
AcDbLine
 62
7
  6
CONTINUOUS
 10
10.0707895217
 20
8.075891804
 11
10.0707895217
 21
8.000891804
  0
LINE
  5
256
100
AcDbEntity
  8
0
100
AcDbLine
 62
7
  6
CONTINUOUS
 10
11.7599826762
 20
8.275891804
 11
9.9099846597
 21
8.275891804
  0
LINE
  5
257
100
AcDbEntity
  8
0
100
AcDbLine
 62
7
  6
CONTINUOUS
 10
9.959983668
 20
8.800891804
 11
9.884983668
 21
8.875891804
  0
LINE
  5
258
100
AcDbEntity
  8
0
100
AcDbLine
 62
7
  6
CONTINUOUS
 10
10.084983668
 20
9.325891804
 11
10.084983668
 21
9.375891804
  0
LINE
  5
259
100
AcDbEntity
  8
0
100
AcDbLine
 62
7
  6
CONTINUOUS
 10
10.0917962797
 20
8.000891804
 11
10.0917962797
 21
8.075891804
  0
LINE
  5
25A
100
AcDbEntity
  8
0
100
AcDbLine
 62
7
  6
CONTINUOUS
 10
10.094748587
 20
8.000891804
 11
10.094748587
 21
8.075891804
  0
LINE
  5
25B
100
AcDbEntity
  8
0
100
AcDbLine
 62
7
  6
CONTINUOUS
 10
10.1057774656
 20
8.075891804
 11
10.1057774656
 21
8.000891804
  0
LINE
  5
25C
100
AcDbEntity
  8
0
100
AcDbLine
 62
7
  6
CONTINUOUS
 10
10.1266683928
 20
8.000891804
 11
10.1266683928
 21
8.075891804
  0
LINE
  5
25D
100
AcDbEntity
  8
0
100
AcDbLine
 62
7
  6
CONTINUOUS
 10
10.1303520269
 20
8.000891804
 11
10.1303520269
 21
8.075891804
  0
LINE
  5
25E
100
AcDbEntity
  8
0
100
AcDbLine
 62
7
  6
CONTINUOUS
 10
10.141653835
 20
8.075891804
 11
10.141653835
 21
8.000891804
  0
LINE
  5
25F
100
AcDbEntity
  8
0
100
AcDbLine
 62
7
  6
CONTINUOUS
 10
10.162403479
 20
8.000891804
 11
10.162403479
 21
8.075891804
  0
LINE
  5
260
100
AcDbEntity
  8
0
100
AcDbLine
 62
7
  6
CONTINUOUS
 10
10.166813952
 20
8.000891804
 11
10.166813952
 21
8.075891804
  0
LINE
  5
261
100
AcDbEntity
  8
0
100
AcDbLine
 62
7
  6
CONTINUOUS
 10
10.1783749199
 20
8.075891804
 11
10.1783749199
 21
8.000891804
  0
LINE
  5
262
100
AcDbEntity
  8
0
100
AcDbLine
 62
7
  6
CONTINUOUS
 10
10.1989580006
 20
8.000891804
 11
10.1989580006
 21
8.075891804
  0
LINE
  5
263
100
AcDbEntity
  8
0
100
AcDbLine
 62
7
  6
CONTINUOUS
 10
10.2040899389
 20
8.000891804
 11
10.2040899389
 21
8.075891804
  0
LINE
  5
264
100
AcDbEntity
  8
0
100
AcDbLine
 62
7
  6
CONTINUOUS
 10
10.2158959815
 20
8.075891804
 11
10.2158959815
 21
8.000891804
  0
LINE
  5
265
100
AcDbEntity
  8
0
100
AcDbLine
 62
7
  6
CONTINUOUS
 10
10.2362874214
 20
8.000891804
 11
10.2362874214
 21
8.075891804
  0
LINE
  5
266
100
AcDbEntity
  8
0
100
AcDbLine
 62
7
  6
CONTINUOUS
 10
10.2421345727
 20
8.000891804
 11
10.2421345727
 21
8.075891804
  0
LINE
  5
267
100
AcDbEntity
  8
0
100
AcDbLine
 62
7
  6
CONTINUOUS
 10
10.2541713061
 20
8.075891804
 11
10.2541713061
 21
8.000891804
  0
LINE
  5
268
100
AcDbEntity
  8
0
100
AcDbLine
 62
7
  6
CONTINUOUS
 10
10.2743462614
 20
8.000891804
 11
10.2743462614
 21
8.075891804
  0
LINE
  5
269
100
AcDbEntity
  8
0
100
AcDbLine
 62
7
  6
CONTINUOUS
 10
10.2809015018
 20
8.000891804
 11
10.2809015018
 21
8.075891804
  0
LINE
  5
26A
100
AcDbEntity
  8
0
100
AcDbLine
 62
7
  6
CONTINUOUS
 10
10.293154261
 20
8.075891804
 11
10.293154261
 21
8.000891804
  0
LINE
  5
26B
100
AcDbEntity
  8
0
100
AcDbLine
 62
7
  6
CONTINUOUS
 10
10.3130881517
 20
8.000891804
 11
10.3130881517
 21
8.075891804
  0
LINE
  5
26C
100
AcDbEntity
  8
0
100
AcDbLine
 62
7
  6
CONTINUOUS
 10
10.3203434946
 20
8.000891804
 11
10.3203434946
 21
8.075891804
  0
LINE
  5
26D
100
AcDbEntity
  8
0
100
AcDbLine
 62
7
  6
CONTINUOUS
 10
10.3327973516
 20
8.075891804
 11
10.3327973516
 21
8.000891804
  0
LINE
  5
26E
100
AcDbEntity
  8
0
100
AcDbLine
 62
7
  6
CONTINUOUS
 10
10.3524658914
 20
8.000891804
 11
10.3524658914
 21
8.075891804
  0
LINE
  5
26F
100
AcDbEntity
  8
0
100
AcDbLine
 62
7
  6
CONTINUOUS
 10
10.3604124972
 20
8.000891804
 11
10.3604124972
 21
8.075891804
  0
LINE
  5
270
100
AcDbEntity
  8
0
100
AcDbLine
 62
7
  6
CONTINUOUS
 10
10.3730522789
 20
8.075891804
 11
10.3730522789
 21
8.000891804
  0
LINE
  5
271
100
AcDbEntity
  8
0
100
AcDbLine
 62
7
  6
CONTINUOUS
 10
10.3924315046
 20
8.000891804
 11
10.3924315046
 21
8.075891804
  0
LINE
  5
272
100
AcDbEntity
  8
0
100
AcDbLine
 62
7
  6
CONTINUOUS
 10
10.4010596917
 20
8.000891804
 11
10.4010596917
 21
8.075891804
  0
LINE
  5
273
100
AcDbEntity
  8
0
100
AcDbLine
 62
7
  6
CONTINUOUS
 10
10.4138699985
 20
8.075891804
 11
10.4138699985
 21
8.000891804
  0
LINE
  5
274
100
AcDbEntity
  8
0
100
AcDbLine
 62
9
  6
CONTINUOUS
 10
10.4155827886
 20
10.1842239032
 11
10.4155827886
 21
9.9308661887
  0
LINE
  5
275
100
AcDbEntity
  8
0
100
AcDbLine
 62
7
  6
CONTINUOUS
 10
10.4329362994
 20
8.000891804
 11
10.4329362994
 21
8.075891804
  0
LINE
  5
276
100
AcDbEntity
  8
0
100
AcDbLine
 62
7
  6
CONTINUOUS
 10
10.434983668
 20
10.293891804
 11
10.434983668
 21
10.2702229635
  0
LINE
  5
277
100
AcDbEntity
  8
0
100
AcDbLine
 62
7
  6
CONTINUOUS
 10
10.434983668
 20
9.8454897906
 11
10.434983668
 21
9.818891804
  0
LINE
  5
278
100
AcDbEntity
  8
0
100
AcDbLine
 62
7
  6
CONTINUOUS
 10
10.434983668
 20
9.375891804
 11
10.434983668
 21
9.475891804
  0
LINE
  5
279
100
AcDbEntity
  8
0
100
AcDbLine
 62
7
  6
CONTINUOUS
 10
10.4422355557
 20
8.000891804
 11
10.4422355557
 21
8.075891804
  0
LINE
  5
27A
100
AcDbEntity
  8
0
100
AcDbLine
 62
7
  6
CONTINUOUS
 10
10.4552007801
 20
8.075891804
 11
10.4552007801
 21
8.000891804
  0
LWPOLYLINE
  5
27B
100
AcDbEntity
  8
0
100
AcDbPolyline
 62
7
  6
CONTINUOUS
 90
7
 70
0
 10
10.4349836746
 20
10.2702229635
 10
10.4344693458
 20
10.2638290786
 10
10.4306949845
 20
10.2522034644
 10
10.423578494
 20
10.2422526876
 10
10.4137888386
 20
10.234919056
 10
10.4022499025
 20
10.2308884739
 10
10.39325242
 20
10.2302604443
  0
LINE
  5
27C
100
AcDbEntity
  8
0
100
AcDbLine
 62
7
  6
CONTINUOUS
 10
10.473930927
 20
8.000891804
 11
10.473930927
 21
8.075891804
  0
LINE
  5
27D
100
AcDbEntity
  8
0
100
AcDbLine
 62
7
  6
CONTINUOUS
 10
10.4838899228
 20
8.000891804
 11
10.4838899228
 21
8.075891804
  0
LINE
  5
27E
100
AcDbEntity
  8
0
100
AcDbLine
 62
7
  6
CONTINUOUS
 10
10.4969942688
 20
8.075891804
 11
10.4969942688
 21
8.000891804
  0
LINE
  5
27F
100
AcDbEntity
  8
0
100
AcDbLine
 62
9
  6
CONTINUOUS
 10
10.5061065072
 20
9.860730779
 11
10.5061065072
 21
10.2524557287
  0
LINE
  5
280
100
AcDbEntity
  8
0
100
AcDbLine
 62
7
  6
CONTINUOUS
 10
10.5153654418
 20
8.000891804
 11
10.5153654418
 21
8.075891804
  0
LINE
  5
281
100
AcDbEntity
  8
0
100
AcDbLine
 62
7
  6
CONTINUOUS
 10
10.522483668
 20
9.798891804
 11
10.522483668
 21
9.505891804
  0
LINE
  5
282
100
AcDbEntity
  8
0
100
AcDbLine
 62
7
  6
CONTINUOUS
 10
10.5259720435
 20
8.000891804
 11
10.5259720435
 21
8.075891804
  0
LINE
  5
283
100
AcDbEntity
  8
0
100
AcDbLine
 62
7
  6
CONTINUOUS
 10
10.5391995454
 20
8.075891804
 11
10.5391995454
 21
8.000891804
  0
LINE
  5
284
100
AcDbEntity
  8
0
100
AcDbLine
 62
7
  6
CONTINUOUS
 10
10.5571893622
 20
8.000891804
 11
10.5571893622
 21
8.075891804
  0
LINE
  5
285
100
AcDbEntity
  8
0
100
AcDbLine
 62
7
  6
CONTINUOUS
 10
10.5684306473
 20
8.000891804
 11
10.5684306473
 21
8.075891804
  0
LINE
  5
286
100
AcDbEntity
  8
0
100
AcDbLine
 62
7
  6
CONTINUOUS
 10
10.572483668
 20
10.418891804
 11
10.572483668
 21
10.388891804
  0
LINE
  5
287
100
AcDbEntity
  8
0
100
AcDbLine
 62
7
  6
CONTINUOUS
 10
10.5817651894
 20
8.075891804
 11
10.5817651894
 21
8.000891804
  0
LINE
  5
288
100
AcDbEntity
  8
0
100
AcDbLine
 62
7
  6
CONTINUOUS
 10
11.709983668
 20
8.800891804
 11
9.959983668
 21
8.800891804
  0
LINE
  5
289
100
AcDbEntity
  8
0
100
AcDbLine
 62
7
  6
CONTINUOUS
 10
9.884983668
 20
8.875891804
 11
11.784983668
 21
8.875891804
  0
LINE
  5
28A
100
AcDbEntity
  8
0
100
AcDbLine
 62
7
  6
CONTINUOUS
 10
10.5993517321
 20
8.000891804
 11
10.5993517321
 21
8.075891804
  0
LINE
  5
28B
100
AcDbEntity
  8
0
100
AcDbLine
 62
7
  6
CONTINUOUS
 10
10.6112140049
 20
8.000891804
 11
10.6112140049
 21
8.075891804
  0
LINE
  5
28C
100
AcDbEntity
  8
0
100
AcDbLine
 62
7
  6
CONTINUOUS
 10
10.6246393412
 20
8.075891804
 11
10.6246393412
 21
8.000891804
  0
LINE
  5
28D
100
AcDbEntity
  8
0
100
AcDbLine
 62
7
  6
CONTINUOUS
 10
10.634983668
 20
9.505891804
 11
10.634983668
 21
9.475891804
  0
LINE
  5
28E
100
AcDbEntity
  8
0
100
AcDbLine
 62
7
  6
CONTINUOUS
 10
10.6418011833
 20
8.000891804
 11
10.6418011833
 21
8.075891804
  0
LINE
  5
28F
100
AcDbEntity
  8
0
100
AcDbLine
 62
7
  6
CONTINUOUS
 10
10.6542699914
 20
8.000891804
 11
10.6542699914
 21
8.075891804
  0
LINE
  5
290
100
AcDbEntity
  8
0
100
AcDbLine
 62
7
  6
CONTINUOUS
 10
10.6677697651
 20
8.075891804
 11
10.6677697651
 21
8.000891804
  0
LINE
  5
291
100
AcDbEntity
  8
0
100
AcDbLine
 62
7
  6
CONTINUOUS
 10
10.6844859975
 20
8.000891804
 11
10.6844859975
 21
8.075891804
  0
LINE
  5
292
100
AcDbEntity
  8
0
100
AcDbLine
 62
7
  6
CONTINUOUS
 10
10.6975461496
 20
8.000891804
 11
10.6975461496
 21
8.075891804
  0
LINE
  5
293
100
AcDbEntity
  8
0
100
AcDbLine
 62
7
  6
CONTINUOUS
 10
10.7111039134
 20
8.075891804
 11
10.7111039134
 21
8.000891804
  0
LINE
  5
294
100
AcDbEntity
  8
0
100
AcDbLine
 62
7
  6
CONTINUOUS
 10
10.72735417
 20
8.000891804
 11
10.72735417
 21
8.075891804
  0
LINE
  5
295
100
AcDbEntity
  8
0
100
AcDbLine
 62
7
  6
CONTINUOUS
 10
9.8099846609
 20
8.975891804
 11
11.8599826751
 21
8.975891804
  0
LINE
  5
296
100
AcDbEntity
  8
0
100
AcDbLine
 62
7
  6
CONTINUOUS
 10
10.7409897543
 20
8.000891804
 11
10.7409897543
 21
8.075891804
  0
LINE
  5
297
100
AcDbEntity
  8
0
100
AcDbLine
 62
7
  6
CONTINUOUS
 10
10.7545889901
 20
8.075891804
 11
10.7545889901
 21
8.000891804
  0
LINE
  5
298
100
AcDbEntity
  8
0
100
AcDbLine
 62
7
  6
CONTINUOUS
 10
10.7703534724
 20
8.000891804
 11
10.7703534724
 21
8.075891804
  0
LINE
  5
299
100
AcDbEntity
  8
0
100
AcDbLine
 62
7
  6
CONTINUOUS
 10
10.7845478761
 20
8.000891804
 11
10.7845478761
 21
8.075891804
  0
LINE
  5
29A
100
AcDbEntity
  8
0
100
AcDbLine
 62
7
  6
CONTINUOUS
 10
10.7981720153
 20
8.075891804
 11
10.7981720153
 21
8.000891804
  0
LINE
  5
29B
100
AcDbEntity
  8
0
100
AcDbLine
 62
9
  6
CONTINUOUS
 10
10.8022410105
 20
10.25245446
 11
10.8022410105
 21
9.8607316242
  0
LINE
  5
29C
100
AcDbEntity
  8
0
100
AcDbLine
 62
7
  6
CONTINUOUS
 10
10.8134315168
 20
8.000891804
 11
10.8134315168
 21
8.075891804
  0
LINE
  5
29D
100
AcDbEntity
  8
0
100
AcDbLine
 62
7
  6
CONTINUOUS
 10
10.8281674461
 20
8.000891804
 11
10.8281674461
 21
8.075891804
  0
LINE
  5
29E
100
AcDbEntity
  8
0
100
AcDbLine
 62
7
  6
CONTINUOUS
 10
10.8417998898
 20
8.075891804
 11
10.8417998898
 21
8.000891804
  0
LINE
  5
29F
100
AcDbEntity
  8
0
100
AcDbLine
 62
7
  6
CONTINUOUS
 10
10.8565358192
 20
8.000891804
 11
10.8565358192
 21
8.075891804
  0
LINE
  5
2A0
100
AcDbEntity
  8
0
100
AcDbLine
 62
9
  6
CONTINUOUS
 10
10.8349830645
 20
9.8573039127
 11
10.8362827668
 21
9.8715160108
  0
LINE
  5
2A1
100
AcDbEntity
  8
0
100
AcDbLine
 62
7
  6
CONTINUOUS
 10
9.634983668
 20
7.800891804
 11
9.584983668
 21
7.750891804
  0
LINE
  5
2A2
100
AcDbEntity
  8
0
100
AcDbLine
 62
7
  6
CONTINUOUS
 10
12.034983668
 20
7.800891804
 11
12.084983668
 21
7.750891804
  0
LINE
  5
2A3
100
AcDbEntity
  8
0
100
AcDbLine
 62
9
  6
CONTINUOUS
 10
10.834982938
 20
10.2565050828
 11
10.8365324461
 21
10.2421030527
  0
LINE
  5
2A4
100
AcDbEntity
  8
0
100
AcDbLine
 62
7
  6
CONTINUOUS
 10
10.8717953207
 20
8.000891804
 11
10.8717953207
 21
8.075891804
  0
LINE
  5
2A5
100
AcDbEntity
  8
0
100
AcDbLine
 62
9
  6
CONTINUOUS
 10
10.8845126458
 20
9.9308661768
 11
10.8845126458
 21
10.1842238919
  0
LINE
  5
2A6
100
AcDbEntity
  8
0
100
AcDbLine
 62
7
  6
CONTINUOUS
 10
10.8854194599
 20
8.075891804
 11
10.8854194599
 21
8.000891804
  0
LINE
  5
2A7
100
AcDbEntity
  8
0
100
AcDbLine
 62
7
  6
CONTINUOUS
 10
10.8996138635
 20
8.000891804
 11
10.8996138635
 21
8.075891804
  0
LINE
  5
2A8
100
AcDbEntity
  8
0
100
AcDbLine
 62
7
  6
CONTINUOUS
 10
10.9153783459
 20
8.000891804
 11
10.9153783459
 21
8.075891804
  0
LINE
  5
2A9
100
AcDbEntity
  8
0
100
AcDbLine
 62
7
  6
CONTINUOUS
 10
10.9289775816
 20
8.075891804
 11
10.9289775816
 21
8.000891804
  0
LINE
  5
2AA
100
AcDbEntity
  8
0
100
AcDbLine
 62
7
  6
CONTINUOUS
 10
10.942613166
 20
8.000891804
 11
10.942613166
 21
8.075891804
  0
LINE
  5
2AB
100
AcDbEntity
  8
0
100
AcDbLine
 62
7
  6
CONTINUOUS
 10
10.9588634226
 20
8.000891804
 11
10.9588634226
 21
8.075891804
  0
LINE
  5
2AC
100
AcDbEntity
  8
0
100
AcDbLine
 62
7
  6
CONTINUOUS
 10
10.9724211863
 20
8.075891804
 11
10.9724211863
 21
8.000891804
  0
LINE
  5
2AD
100
AcDbEntity
  8
0
100
AcDbLine
 62
7
  6
CONTINUOUS
 10
10.9854813384
 20
8.000891804
 11
10.9854813384
 21
8.075891804
  0
LINE
  5
2AE
100
AcDbEntity
  8
0
100
AcDbLine
 62
7
  6
CONTINUOUS
 10
11.8599826751
 20
9.175891804
 11
9.8099846609
 21
9.175891804
  0
LINE
  5
2AF
100
AcDbEntity
  8
0
100
AcDbLine
 62
7
  6
CONTINUOUS
 10
11.784983668
 20
9.225891804
 11
9.884983668
 21
9.225891804
  0
LINE
  5
2B0
100
AcDbEntity
  8
0
100
AcDbLine
 62
7
  6
CONTINUOUS
 10
11.0021975709
 20
8.000891804
 11
11.0021975709
 21
8.075891804
  0
LINE
  5
2B1
100
AcDbEntity
  8
0
100
AcDbLine
 62
7
  6
CONTINUOUS
 10
11.0156973446
 20
8.075891804
 11
11.0156973446
 21
8.000891804
  0
LINE
  5
2B2
100
AcDbEntity
  8
0
100
AcDbLine
 62
7
  6
CONTINUOUS
 10
11.0281661527
 20
8.000891804
 11
11.0281661527
 21
8.075891804
  0
LINE
  5
2B3
100
AcDbEntity
  8
0
100
AcDbLine
 62
7
  6
CONTINUOUS
 10
11.034983668
 20
9.505891804
 11
11.034983668
 21
9.475891804
  0
LINE
  5
2B4
100
AcDbEntity
  8
0
100
AcDbLine
 62
7
  6
CONTINUOUS
 10
11.0453279948
 20
8.000891804
 11
11.0453279948
 21
8.075891804
  0
LINE
  5
2B5
100
AcDbEntity
  8
0
100
AcDbLine
 62
7
  6
CONTINUOUS
 10
11.058753331
 20
8.075891804
 11
11.058753331
 21
8.000891804
  0
LINE
  5
2B6
100
AcDbEntity
  8
0
100
AcDbLine
 62
7
  6
CONTINUOUS
 10
11.0706156038
 20
8.000891804
 11
11.0706156038
 21
8.075891804
  0
LINE
  5
2B7
100
AcDbEntity
  8
0
100
AcDbLine
 62
7
  6
CONTINUOUS
 10
11.0882021465
 20
8.000891804
 11
11.0882021465
 21
8.075891804
  0
LINE
  5
2B8
100
AcDbEntity
  8
0
100
AcDbLine
 62
7
  6
CONTINUOUS
 10
11.097483668
 20
10.418891804
 11
11.097483668
 21
10.388891804
  0
LINE
  5
2B9
100
AcDbEntity
  8
0
100
AcDbLine
 62
7
  6
CONTINUOUS
 10
11.1015366886
 20
8.075891804
 11
11.1015366886
 21
8.000891804
  0
LINE
  5
2BA
100
AcDbEntity
  8
0
100
AcDbLine
 62
7
  6
CONTINUOUS
 10
11.1127779738
 20
8.000891804
 11
11.1127779738
 21
8.075891804
  0
LINE
  5
2BB
100
AcDbEntity
  8
0
100
AcDbLine
 62
7
  6
CONTINUOUS
 10
11.6849827808
 20
9.325891804
 11
9.9849845552
 21
9.325891804
  0
LINE
  5
2BC
100
AcDbEntity
  8
0
100
AcDbLine
 62
7
  6
CONTINUOUS
 10
11.58497143
 20
9.375891804
 11
10.0849959059
 21
9.375891804
  0
LINE
  5
2BD
100
AcDbEntity
  8
0
100
AcDbLine
 62
7
  6
CONTINUOUS
 10
11.1307677906
 20
8.000891804
 11
11.1307677906
 21
8.075891804
  0
LINE
  5
2BE
100
AcDbEntity
  8
0
100
AcDbLine
 62
7
  6
CONTINUOUS
 10
11.1439952924
 20
8.075891804
 11
11.1439952924
 21
8.000891804
  0
LINE
  5
2BF
100
AcDbEntity
  8
0
100
AcDbLine
 62
7
  6
CONTINUOUS
 10
11.147483668
 20
9.798891804
 11
11.147483668
 21
9.505891804
  0
LINE
  5
2C0
100
AcDbEntity
  8
0
100
AcDbLine
 62
7
  6
CONTINUOUS
 10
11.1546018941
 20
8.000891804
 11
11.1546018941
 21
8.075891804
  0
LINE
  5
2C1
100
AcDbEntity
  8
0
100
AcDbLine
 62
7
  6
CONTINUOUS
 10
11.1729730672
 20
8.000891804
 11
11.1729730672
 21
8.075891804
  0
LINE
  5
2C2
100
AcDbEntity
  8
0
100
AcDbLine
 62
7
  6
CONTINUOUS
 10
11.1860774131
 20
8.075891804
 11
11.1860774131
 21
8.000891804
  0
LINE
  5
2C3
100
AcDbEntity
  8
0
100
AcDbLine
 62
7
  6
CONTINUOUS
 10
11.1960364089
 20
8.000891804
 11
11.1960364089
 21
8.075891804
  0
LINE
  5
2C4
100
AcDbEntity
  8
0
100
AcDbLine
 62
9
  6
CONTINUOUS
 10
11.1966024086
 20
9.860731595
 11
11.1966024086
 21
9.8814806514
  0
LINE
  5
2C5
100
AcDbEntity
  8
0
100
AcDbLine
 62
9
  6
CONTINUOUS
 10
11.1966024086
 20
10.2482142961
 11
11.1966024086
 21
10.2524549064
  0
LINE
  5
2C6
100
AcDbEntity
  8
0
100
AcDbLine
 62
7
  6
CONTINUOUS
 10
11.2147665558
 20
8.000891804
 11
11.2147665558
 21
8.075891804
  0
LINE
  5
2C7
100
AcDbEntity
  8
0
100
AcDbLine
 62
7
  6
CONTINUOUS
 10
11.2277317802
 20
8.075891804
 11
11.2277317802
 21
8.000891804
  0
LINE
  5
2C8
100
AcDbEntity
  8
0
100
AcDbLine
 62
7
  6
CONTINUOUS
 10
11.234983668
 20
10.293891804
 11
11.234983668
 21
10.2515865658
  0
LINE
  5
2C9
100
AcDbEntity
  8
0
100
AcDbLine
 62
7
  6
CONTINUOUS
 10
11.234983668
 20
9.8805602902
 11
11.234983668
 21
9.818891804
  0
LINE
  5
2CA
100
AcDbEntity
  8
0
100
AcDbLine
 62
7
  6
CONTINUOUS
 10
11.234983668
 20
9.375891804
 11
11.234983668
 21
9.475891804
  0
LINE
  5
2CB
100
AcDbEntity
  8
0
100
AcDbLine
 62
7
  6
CONTINUOUS
 10
11.2370310365
 20
8.000891804
 11
11.2370310365
 21
8.075891804
  0
LINE
  5
2CC
100
AcDbEntity
  8
0
100
AcDbLine
 62
7
  6
CONTINUOUS
 10
11.2349828963
 20
9.475891804
 11
10.4349844396
 21
9.475891804
  0
LINE
  5
2CD
100
AcDbEntity
  8
0
100
AcDbLine
 62
7
  6
CONTINUOUS
 10
10.5224957551
 20
9.505891804
 11
11.1474715808
 21
9.505891804
  0
LINE
  5
2CE
100
AcDbEntity
  8
0
100
AcDbLine
 62
7
  6
CONTINUOUS
 10
11.2560973375
 20
8.000891804
 11
11.2560973375
 21
8.075891804
  0
LINE
  5
2CF
100
AcDbEntity
  8
0
100
AcDbLine
 62
7
  6
CONTINUOUS
 10
11.2689076442
 20
8.075891804
 11
11.2689076442
 21
8.000891804
  0
LINE
  5
2D0
100
AcDbEntity
  8
0
100
AcDbLine
 62
7
  6
CONTINUOUS
 10
11.2775358314
 20
8.000891804
 11
11.2775358314
 21
8.075891804
  0
LINE
  5
2D1
100
AcDbEntity
  8
0
100
AcDbLine
 62
7
  6
CONTINUOUS
 10
11.296915057
 20
8.000891804
 11
11.296915057
 21
8.075891804
  0
LINE
  5
2D2
100
AcDbEntity
  8
0
100
AcDbLine
 62
7
  6
CONTINUOUS
 10
11.3095548387
 20
8.075891804
 11
11.3095548387
 21
8.000891804
  0
LINE
  5
2D3
100
AcDbEntity
  8
0
100
AcDbLine
 62
7
  6
CONTINUOUS
 10
11.3175014446
 20
8.000891804
 11
11.3175014446
 21
8.075891804
  0
LINE
  5
2D4
100
AcDbEntity
  8
0
100
AcDbLine
 62
9
  6
CONTINUOUS
 10
11.3282923018
 20
10.2194752942
 11
11.3282922549
 21
9.9289956409
  0
LINE
  5
2D5
100
AcDbEntity
  8
0
100
AcDbLine
 62
7
  6
CONTINUOUS
 10
11.3371699843
 20
8.000891804
 11
11.3371699843
 21
8.075891804
  0
LINE
  5
2D6
100
AcDbEntity
  8
0
100
AcDbLine
 62
7
  6
CONTINUOUS
 10
11.3496238413
 20
8.075891804
 11
11.3496238413
 21
8.000891804
  0
LINE
  5
2D7
100
AcDbEntity
  8
0
100
AcDbLine
 62
7
  6
CONTINUOUS
 10
11.3568791842
 20
8.000891804
 11
11.3568791842
 21
8.075891804
  0
LINE
  5
2D8
100
AcDbEntity
  8
0
100
AcDbLine
 62
7
  6
CONTINUOUS
 10
11.3768130749
 20
8.000891804
 11
11.3768130749
 21
8.075891804
  0
LINE
  5
2D9
100
AcDbEntity
  8
0
100
AcDbLine
 62
9
  6
CONTINUOUS
 10
11.3844745306
 20
10.2194955491
 11
11.3844745314
 21
9.9289754649
  0
LINE
  5
2DA
100
AcDbEntity
  8
0
100
AcDbLine
 62
7
  6
CONTINUOUS
 10
11.3890658342
 20
8.075891804
 11
11.3890658342
 21
8.000891804
  0
LINE
  5
2DB
100
AcDbEntity
  8
0
100
AcDbLine
 62
7
  6
CONTINUOUS
 10
11.3956210745
 20
8.000891804
 11
11.3956210745
 21
8.075891804
  0
LINE
  5
2DC
100
AcDbEntity
  8
0
100
AcDbLine
 62
7
  6
CONTINUOUS
 10
11.4157960299
 20
8.000891804
 11
11.4157960299
 21
8.075891804
  0
LINE
  5
2DD
100
AcDbEntity
  8
0
100
AcDbLine
 62
7
  6
CONTINUOUS
 10
11.4278327632
 20
8.075891804
 11
11.4278327632
 21
8.000891804
  0
LINE
  5
2DE
100
AcDbEntity
  8
0
100
AcDbLine
 62
7
  6
CONTINUOUS
 10
11.4336799145
 20
8.000891804
 11
11.4336799145
 21
8.075891804
  0
LINE
  5
2DF
100
AcDbEntity
  8
0
100
AcDbLine
 62
7
  6
CONTINUOUS
 10
11.4540713545
 20
8.000891804
 11
11.4540713545
 21
8.075891804
  0
LINE
  5
2E0
100
AcDbEntity
  8
0
100
AcDbLine
 62
7
  6
CONTINUOUS
 10
11.465877397
 20
8.075891804
 11
11.465877397
 21
8.000891804
  0
LINE
  5
2E1
100
AcDbEntity
  8
0
100
AcDbLine
 62
7
  6
CONTINUOUS
 10
11.4710093354
 20
8.000891804
 11
11.4710093354
 21
8.075891804
  0
LINE
  5
2E2
100
AcDbEntity
  8
0
100
AcDbLine
 62
7
  6
CONTINUOUS
 10
11.491592416
 20
8.000891804
 11
11.491592416
 21
8.075891804
  0
LINE
  5
2E3
100
AcDbEntity
  8
0
100
AcDbLine
 62
7
  6
CONTINUOUS
 10
11.5031533839
 20
8.075891804
 11
11.5031533839
 21
8.000891804
  0
LINE
  5
2E4
100
AcDbEntity
  8
0
100
AcDbLine
 62
7
  6
CONTINUOUS
 10
11.5075638569
 20
8.000891804
 11
11.5075638569
 21
8.075891804
  0
LINE
  5
2E5
100
AcDbEntity
  8
0
100
AcDbLine
 62
9
  6
CONTINUOUS
 10
11.147483668
 20
9.798891804
 11
10.522483668
 21
9.798891804
  0
LINE
  5
2E6
100
AcDbEntity
  8
0
100
AcDbLine
 62
7
  6
CONTINUOUS
 10
11.528313501
 20
8.000891804
 11
11.528313501
 21
8.075891804
  0
LINE
  5
2E7
100
AcDbEntity
  8
0
100
AcDbLine
 62
7
  6
CONTINUOUS
 10
11.539615309
 20
8.075891804
 11
11.539615309
 21
8.000891804
  0
LINE
  5
2E8
100
AcDbEntity
  8
0
100
AcDbLine
 62
7
  6
CONTINUOUS
 10
11.5432989431
 20
8.000891804
 11
11.5432989431
 21
8.075891804
  0
LINE
  5
2E9
100
AcDbEntity
  8
0
100
AcDbLine
 62
7
  6
CONTINUOUS
 10
11.5641898703
 20
8.000891804
 11
11.5641898703
 21
8.075891804
  0
LINE
  5
2EA
100
AcDbEntity
  8
0
100
AcDbLine
 62
7
  6
CONTINUOUS
 10
11.575218749
 20
8.075891804
 11
11.575218749
 21
8.000891804
  0
LINE
  5
2EB
100
AcDbEntity
  8
0
100
AcDbLine
 62
7
  6
CONTINUOUS
 10
11.5781710563
 20
8.000891804
 11
11.5781710563
 21
8.075891804
  0
LINE
  5
2EC
100
AcDbEntity
  8
0
100
AcDbLine
 62
7
  6
CONTINUOUS
 10
11.584983668
 20
9.325891804
 11
11.584983668
 21
9.375891804
  0
LINE
  5
2ED
100
AcDbEntity
  8
0
100
AcDbLine
 62
7
  6
CONTINUOUS
 10
11.5991778143
 20
8.000891804
 11
11.5991778143
 21
8.075891804
  0
LINE
  5
2EE
100
AcDbEntity
  8
0
100
AcDbLine
 62
7
  6
CONTINUOUS
 10
11.6099203265
 20
8.075891804
 11
11.6099203265
 21
8.000891804
  0
LINE
  5
2EF
100
AcDbEntity
  8
0
100
AcDbLine
 62
7
  6
CONTINUOUS
 10
11.6121377101
 20
8.000891804
 11
11.6121377101
 21
8.075891804
  0
LINE
  5
2F0
100
AcDbEntity
  8
0
100
AcDbLine
 62
7
  6
CONTINUOUS
 10
11.6332347053
 20
8.000891804
 11
11.6332347053
 21
8.075891804
  0
LINE
  5
2F1
100
AcDbEntity
  8
0
100
AcDbLine
 62
7
  6
CONTINUOUS
 10
11.6436777631
 20
8.075891804
 11
11.6436777631
 21
8.000891804
  0
LINE
  5
2F2
100
AcDbEntity
  8
0
100
AcDbLine
 62
7
  6
CONTINUOUS
 10
11.6451575213
 20
8.000891804
 11
11.6451575213
 21
8.075891804
  0
LINE
  5
2F3
100
AcDbEntity
  8
0
100
AcDbLine
 62
7
  6
CONTINUOUS
 10
11.709983668
 20
8.800891804
 11
11.784983668
 21
8.875891804
  0
LWPOLYLINE
  5
2F4
100
AcDbEntity
  8
0
100
AcDbPolyline
 62
7
  6
CONTINUOUS
 90
4
 70
0
 10
9.3750391756
 20
9.8749534884
 10
9.6878427167
 20
9.8767922144
 10
10.0415272343
 20
9.8810146035
 10
10.3945389055
 20
9.8854873146
  0
LINE
  5
2F5
100
AcDbEntity
  8
0
100
AcDbLine
 62
7
  6
CONTINUOUS
 10
10.4349844396
 20
9.818891804
 11
11.2349828963
 21
9.818891804
  0
LINE
  5
2F6
100
AcDbEntity
  8
0
100
AcDbLine
 62
9
  6
CONTINUOUS
 10
11.8054928133
 20
9.9289753968
 11
11.7854928133
 21
9.9289753968
  0
LINE
  5
2F7
100
AcDbEntity
  8
0
100
AcDbLine
 62
9
  6
CONTINUOUS
 10
9.3783054363
 20
9.9289753968
 11
9.334983668
 21
9.9289753968
  0
LINE
  5
2F8
100
AcDbEntity
  8
0
100
AcDbLine
 62
9
  6
CONTINUOUS
 10
11.3282922784
 20
9.9289753968
 11
11.3844745226
 21
9.9289753968
  0
LINE
  5
2F9
100
AcDbEntity
  8
0
100
AcDbLine
 62
7
  6
CONTINUOUS
 10
11.5609094419
 20
9.8749557511
 11
11.56090348
 21
9.8749557675
  0
LINE
  5
2FA
100
AcDbEntity
  8
0
100
AcDbLine
 62
7
  6
CONTINUOUS
 10
11.3771349308
 20
9.8771515822
 11
11.5609095105
 21
9.8749590549
  0
LINE
  5
2FB
100
AcDbEntity
  8
0
100
AcDbLine
 62
7
  6
CONTINUOUS
 10
11.1901196866
 20
9.8816361035
 11
11.3771349547
 21
9.8771515819
  0
LINE
  5
2FC
100
AcDbEntity
  8
0
100
AcDbLine
 62
7
  6
CONTINUOUS
 10
11.0204387536
 20
9.8858754563
 11
11.1901196866
 21
9.8816361035
  0
LWPOLYLINE
  5
2FD
100
AcDbEntity
  8
0
100
AcDbPolyline
 62
7
  6
CONTINUOUS
 90
7
 70
0
 10
10.3945389057
 20
9.8854873199
 10
10.4032892724
 20
9.8846180051
 10
10.4145407929
 20
9.8803827582
 10
10.4240315862
 20
9.8729892242
 10
10.4308953781
 20
9.8631065309
 10
10.4345080962
 20
9.8516395936
 10
10.4349836743
 20
9.8454897905
  0
LINE
  5
2FE
100
AcDbEntity
  8
0
100
AcDbLine
 62
7
  6
CONTINUOUS
 10
11.6663190505
 20
8.000891804
 11
11.6663190505
 21
8.075891804
  0
LINE
  5
2FF
100
AcDbEntity
  8
0
100
AcDbLine
 62
7
  6
CONTINUOUS
 10
11.6764499305
 20
8.075891804
 11
11.6764499305
 21
8.000891804
  0
LINE
  5
300
100
AcDbEntity
  8
0
100
AcDbLine
 62
7
  6
CONTINUOUS
 10
11.6771902606
 20
8.000891804
 11
11.6771902606
 21
8.075891804
  0
LINE
  5
301
100
AcDbEntity
  8
0
100
AcDbLine
 62
7
  6
CONTINUOUS
 10
11.6983905415
 20
8.000891804
 11
11.6983905415
 21
8.075891804
  0
LINE
  5
302
100
AcDbEntity
  8
0
100
AcDbLine
 62
7
  6
CONTINUOUS
 10
11.7081969008
 20
8.075891804
 11
11.7081969008
 21
8.000891804
  0
LINE
  5
303
100
AcDbEntity
  8
0
100
AcDbLine
 62
7
  6
CONTINUOUS
 10
11.709983668
 20
8.275891804
 11
11.709983668
 21
8.800891804
  0
LINE
  5
304
100
AcDbEntity
  8
0
100
AcDbLine
 62
7
  6
CONTINUOUS
 10
11.7294101043
 20
8.000891804
 11
11.7294101043
 21
8.075891804
  0
LINE
  5
305
100
AcDbEntity
  8
0
100
AcDbLine
 62
7
  6
CONTINUOUS
 10
11.7388799954
 20
8.075891804
 11
11.7388799954
 21
8.000891804
  0
LINE
  5
306
100
AcDbEntity
  8
0
100
AcDbLine
 62
7
  6
CONTINUOUS
 10
11.7593399462
 20
8.000891804
 11
11.7593399462
 21
8.075891804
  0
LINE
  5
307
100
AcDbEntity
  8
0
100
AcDbLine
 62
7
  6
CONTINUOUS
 10
11.7684618315
 20
8.075891804
 11
11.7684618315
 21
8.000891804
  0
LINE
  5
308
100
AcDbEntity
  8
0
100
AcDbLine
 62
7
  6
CONTINUOUS
 10
11.784983668
 20
8.875891804
 11
11.784983668
 21
8.975891804
  0
LINE
  5
309
100
AcDbEntity
  8
0
100
AcDbLine
 62
7
  6
CONTINUOUS
 10
11.784983668
 20
9.175891804
 11
11.784983668
 21
9.225891804
  0
LINE
  5
30A
100
AcDbEntity
  8
0
100
AcDbLine
 62
9
  6
CONTINUOUS
 10
11.7854928052
 20
9.9289753294
 11
11.7854928047
 21
10.2194958438
  0
LINE
  5
30B
100
AcDbEntity
  8
0
100
AcDbLine
 62
7
  6
CONTINUOUS
 10
11.7881436024
 20
8.000891804
 11
11.7881436024
 21
8.075891804
  0
LINE
  5
30C
100
AcDbEntity
  8
0
100
AcDbLine
 62
7
  6
CONTINUOUS
 10
11.7969063683
 20
8.075891804
 11
11.7969063683
 21
8.000891804
  0
LINE
  5
30D
100
AcDbEntity
  8
0
100
AcDbLine
 62
7
  6
CONTINUOUS
 10
11.8054928133
 20
9.9289753968
 11
11.8054928133
 21
10.219495732
  0
LINE
  5
30E
100
AcDbEntity
  8
0
100
AcDbLine
 62
7
  6
CONTINUOUS
 10
11.81578598
 20
8.000891804
 11
11.81578598
 21
8.075891804
  0
LINE
  5
30F
100
AcDbEntity
  8
0
100
AcDbLine
 62
7
  6
CONTINUOUS
 10
11.8241789504
 20
8.075891804
 11
11.8241789504
 21
8.000891804
  0
LINE
  5
310
100
AcDbEntity
  8
0
100
AcDbLine
 62
7
  6
CONTINUOUS
 10
11.8422334011
 20
8.000891804
 11
11.8422334011
 21
8.075891804
  0
LINE
  5
311
100
AcDbEntity
  8
0
100
AcDbLine
 62
7
  6
CONTINUOUS
 10
11.8502463505
 20
8.075891804
 11
11.8502463505
 21
8.000891804
  0
LINE
  5
312
100
AcDbEntity
  8
0
100
AcDbLine
 62
7
  6
CONTINUOUS
 10
11.859983668
 20
8.975891804
 11
11.859983668
 21
9.175891804
  0
LINE
  5
313
100
AcDbEntity
  8
0
100
AcDbLine
 62
7
  6
CONTINUOUS
 10
11.8674536435
 20
8.000891804
 11
11.8674536435
 21
8.075891804
  0
LINE
  5
314
100
AcDbEntity
  8
0
100
AcDbLine
 62
7
  6
CONTINUOUS
 10
11.8750768093
 20
8.075891804
 11
11.8750768093
 21
8.000891804
  0
LINE
  5
315
100
AcDbEntity
  8
0
100
AcDbLine
 62
7
  6
CONTINUOUS
 10
11.8914159804
 20
8.000891804
 11
11.8914159804
 21
8.075891804
  0
LINE
  5
316
100
AcDbEntity
  8
0
100
AcDbLine
 62
7
  6
CONTINUOUS
 10
11.8986400749
 20
8.075891804
 11
11.8986400749
 21
8.000891804
  0
LINE
  5
317
100
AcDbEntity
  8
0
100
AcDbLine
 62
9
  6
CONTINUOUS
 10
11.3594663577
 20
10.2591685895
 11
11.4599121337
 21
10.2697912332
  0
LWPOLYLINE
  5
318
100
AcDbEntity
  8
0
100
AcDbPolyline
 62
7
  6
CONTINUOUS
 90
3
 70
0
 10
11.2666442223
 20
10.254368338
 10
11.0824391185
 20
10.2381836351
 10
10.917701804
 20
10.224166052
  0
LINE
  5
319
100
AcDbEntity
  8
0
100
AcDbLine
 62
7
  6
CONTINUOUS
 10
11.4599112282
 20
10.2697921366
 11
11.2666442059
 21
10.2543683367
  0
LINE
  5
31A
100
AcDbEntity
  8
0
100
AcDbLine
 62
7
  6
CONTINUOUS
 10
11.9140912171
 20
8.000891804
 11
11.9140912171
 21
8.075891804
  0
LINE
  5
31B
100
AcDbEntity
  8
0
100
AcDbLine
 62
7
  6
CONTINUOUS
 10
11.920907439
 20
8.075891804
 11
11.920907439
 21
8.000891804
  0
LINE
  5
31C
100
AcDbEntity
  8
0
100
AcDbLine
 62
7
  6
CONTINUOUS
 10
11.9354517276
 20
8.000891804
 11
11.9354517276
 21
8.075891804
  0
LINE
  5
31D
100
AcDbEntity
  8
0
100
AcDbLine
 62
7
  6
CONTINUOUS
 10
11.9418517722
 20
8.075891804
 11
11.9418517722
 21
8.000891804
  0
LINE
  5
31E
100
AcDbEntity
  8
0
100
AcDbLine
 62
7
  6
CONTINUOUS
 10
11.9554714872
 20
8.000891804
 11
11.9554714872
 21
8.075891804
  0
LINE
  5
31F
100
AcDbEntity
  8
0
100
AcDbLine
 62
7
  6
CONTINUOUS
 10
11.9614475572
 20
8.075891804
 11
11.9614475572
 21
8.000891804
  0
LINE
  5
320
100
AcDbEntity
  8
0
100
AcDbLine
 62
7
  6
CONTINUOUS
 10
11.9741261051
 20
8.000891804
 11
11.9741261051
 21
8.075891804
  0
LINE
  5
321
100
AcDbEntity
  8
0
100
AcDbLine
 62
7
  6
CONTINUOUS
 10
11.9796709194
 20
8.075891804
 11
11.9796709194
 21
8.000891804
  0
LINE
  5
322
100
AcDbEntity
  8
0
100
AcDbLine
 62
7
  6
CONTINUOUS
 10
11.9913928533
 20
8.000891804
 11
11.9913928533
 21
8.075891804
  0
LINE
  5
323
100
AcDbEntity
  8
0
100
AcDbLine
 62
7
  6
CONTINUOUS
 10
11.9964996566
 20
8.075891804
 11
11.9964996566
 21
8.000891804
  0
LINE
  5
324
100
AcDbEntity
  8
0
100
AcDbLine
 62
7
  6
CONTINUOUS
 10
12.0072506951
 20
8.000891804
 11
12.0072506951
 21
8.075891804
  0
LINE
  5
325
100
AcDbEntity
  8
0
100
AcDbLine
 62
7
  6
CONTINUOUS
 10
12.0119132654
 20
8.075891804
 11
12.0119132654
 21
8.000891804
  0
LINE
  5
326
100
AcDbEntity
  8
0
100
AcDbLine
 62
7
  6
CONTINUOUS
 10
12.0216803101
 20
8.000891804
 11
12.0216803101
 21
8.075891804
  0
LINE
  5
327
100
AcDbEntity
  8
0
100
AcDbLine
 62
7
  6
CONTINUOUS
 10
12.0258929668
 20
8.075891804
 11
12.0258929668
 21
8.000891804
  0
LINE
  5
328
100
AcDbEntity
  8
0
100
AcDbLine
 62
7
  6
CONTINUOUS
 10
12.034664118
 20
8.000891804
 11
12.034664118
 21
8.075891804
  0
LINE
  5
329
100
AcDbEntity
  8
0
100
AcDbLine
 62
7
  6
CONTINUOUS
 10
12.034983668
 20
7.800891804
 11
12.034983668
 21
8.000891804
  0
LINE
  5
32A
100
AcDbEntity
  8
0
100
AcDbLine
 62
7
  6
CONTINUOUS
 10
12.0384217287
 20
8.075891804
 11
12.0384217287
 21
8.000891804
  0
LINE
  5
32B
100
AcDbEntity
  8
0
100
AcDbLine
 62
9
  6
CONTINUOUS
 10
11.8054928133
 20
10.219495732
 11
11.7854928133
 21
10.219495732
  0
LINE
  5
32C
100
AcDbEntity
  8
0
100
AcDbLine
 62
9
  6
CONTINUOUS
 10
9.3783054363
 20
10.219495732
 11
9.334983668
 21
10.219495732
  0
LINE
  5
32D
100
AcDbEntity
  8
0
100
AcDbLine
 62
9
  6
CONTINUOUS
 10
11.3282922784
 20
10.219495732
 11
11.3844745226
 21
10.219495732
  0
LINE
  5
32E
100
AcDbEntity
  8
0
100
AcDbLine
 62
7
  6
CONTINUOUS
 10
11.2349828963
 20
10.293891804
 11
10.4349844396
 21
10.293891804
  0
LWPOLYLINE
  5
32F
100
AcDbEntity
  8
0
100
AcDbPolyline
 62
7
  6
CONTINUOUS
 90
4
 70
0
 10
10.3932524199
 20
10.2302604497
 10
10.0412263393
 20
10.2460518012
 10
9.6884125264
 20
10.2616189579
 10
9.3763274386
 20
10.2735048494
  0
LINE
  5
330
100
AcDbEntity
  8
0
100
AcDbLine
 62
7
  6
CONTINUOUS
 10
12.0461863001
 20
8.000891804
 11
12.0461863001
 21
8.075891804
  0
LINE
  5
331
100
AcDbEntity
  8
0
100
AcDbLine
 62
7
  6
CONTINUOUS
 10
12.0494842867
 20
8.075891804
 11
12.0494842867
 21
8.000891804
  0
LINE
  5
332
100
AcDbEntity
  8
0
100
AcDbLine
 62
7
  6
CONTINUOUS
 10
12.0562328183
 20
8.000891804
 11
12.0562328183
 21
8.075891804
  0
LINE
  5
333
100
AcDbEntity
  8
0
100
AcDbLine
 62
7
  6
CONTINUOUS
 10
12.0590671627
 20
8.075891804
 11
12.0590671627
 21
8.000891804
  0
LINE
  5
334
100
AcDbEntity
  8
0
100
AcDbLine
 62
7
  6
CONTINUOUS
 10
12.0647914326
 20
8.000891804
 11
12.0647914326
 21
8.075891804
  0
LINE
  5
335
100
AcDbEntity
  8
0
100
AcDbLine
 62
7
  6
CONTINUOUS
 10
12.0671586816
 20
8.075891804
 11
12.0671586816
 21
8.000891804
  0
LINE
  5
336
100
AcDbEntity
  8
0
100
AcDbLine
 62
7
  6
CONTINUOUS
 10
12.0718517155
 20
8.000891804
 11
12.0718517155
 21
8.075891804
  0
LINE
  5
337
100
AcDbEntity
  8
0
100
AcDbLine
 62
7
  6
CONTINUOUS
 10
12.073748985
 20
8.075891804
 11
12.073748985
 21
8.000891804
  0
LINE
  5
338
100
AcDbEntity
  8
0
100
AcDbLine
 62
7
  6
CONTINUOUS
 10
12.0774050653
 20
8.000891804
 11
12.0774050653
 21
8.075891804
  0
LINE
  5
339
100
AcDbEntity
  8
0
100
AcDbLine
 62
7
  6
CONTINUOUS
 10
12.0788300437
 20
8.075891804
 11
12.0788300437
 21
8.000891804
  0
LINE
  5
33A
100
AcDbEntity
  8
0
100
AcDbLine
 62
7
  6
CONTINUOUS
 10
12.081444716
 20
8.000891804
 11
12.081444716
 21
8.075891804
  0
LINE
  5
33B
100
AcDbEntity
  8
0
100
AcDbLine
 62
7
  6
CONTINUOUS
 10
12.0823956672
 20
8.075891804
 11
12.0823956672
 21
8.000891804
  0
LINE
  5
33C
100
AcDbEntity
  8
0
100
AcDbLine
 62
7
  6
CONTINUOUS
 10
12.0839657459
 20
8.000891804
 11
12.0839657459
 21
8.075891804
  0
LINE
  5
33D
100
AcDbEntity
  8
0
100
AcDbLine
 62
7
  6
CONTINUOUS
 10
12.0844415113
 20
8.075891804
 11
12.0844415113
 21
8.000891804
  0
LINE
  5
33E
100
AcDbEntity
  8
0
100
AcDbLine
 62
7
  6
CONTINUOUS
 10
12.0849650835
 20
8.000891804
 11
12.0849650835
 21
8.075891804
  0
LINE
  5
33F
100
AcDbEntity
  8
0
100
AcDbLine
 62
7
  6
CONTINUOUS
 10
12.084983668
 20
7.600891804
 11
12.084983668
 21
7.750891804
  0
LINE
  5
340
100
AcDbEntity
  8
0
100
AcDbLine
 62
7
  6
CONTINUOUS
 10
11.1474715808
 20
10.368891804
 11
10.5224957551
 21
10.368891804
  0
LINE
  5
341
100
AcDbEntity
  8
0
100
AcDbLine
 62
9
  6
CONTINUOUS
 10
10.572483668
 20
10.388891804
 11
11.097483668
 21
10.388891804
  0
LINE
  5
342
100
AcDbEntity
  8
0
100
AcDbLine
 62
7
  6
CONTINUOUS
 10
11.0974727125
 20
10.418891804
 11
10.5724946235
 21
10.418891804
  0
LINE
  5
343
100
AcDbEntity
  8
0
100
AcDbLine
 62
7
  6
CONTINUOUS
 10
11.7710634224
 20
10.2591060818
 11
11.7710658926
 21
10.2591057344
  0
ARC
  5
344
100
AcDbEntity
  8
0
100
AcDbCircle
 62
9
  6
CONTINUOUS
 10
0.4526362428
 20
-269.4058159563
 40
279.8073287799
100
AcDbArc
 50
87.959816286
 51
88.1723367366
  0
ARC
  5
345
100
AcDbEntity
  8
0
100
AcDbCircle
 62
9
  6
CONTINUOUS
 10
2.277238778
 20
-214.0085651444
 40
224.3404540072
100
AcDbArc
 50
87.9210388047
 51
88.1861090579
  0
ARC
  5
346
100
AcDbEntity
  8
0
100
AcDbCircle
 62
9
  6
CONTINUOUS
 10
14.3817135408
 20
-31.0307452273
 40
41.3630764803
100
AcDbArc
 50
94.2334238745
 51
94.8500829748
  0
ARC
  5
347
100
AcDbEntity
  8
0
100
AcDbCircle
 62
9
  6
CONTINUOUS
 10
11.2260243049
 20
6.9552985865
 40
3.3242791755
100
AcDbArc
 50
96.7554272944
 51
97.3240668499
  0
ARC
  5
348
100
AcDbEntity
  8
0
100
AcDbCircle
 62
9
  6
CONTINUOUS
 10
12.5991603704
 20
8.2366062336
 40
2.4221291452
100
AcDbArc
 50
137.0893184546
 51
137.8914913479
  0
ARC
  5
349
100
AcDbEntity
  8
0
100
AcDbCircle
 62
9
  6
CONTINUOUS
 10
10.3460008618
 20
8.2680505245
 40
1.957271518
100
AcDbArc
 50
87.8379972444
 51
88.012326388
  0
ARC
  5
34A
100
AcDbEntity
  8
0
100
AcDbCircle
 62
7
  6
CONTINUOUS
 10
11.5649951834
 20
8.7944000425
 40
1.4791290131
100
AcDbArc
 50
81.9916672568
 51
94.0739413031
  0
ARC
  5
34B
100
AcDbEntity
  8
0
100
AcDbCircle
 62
9
  6
CONTINUOUS
 10
11.5849847151
 20
8.7941414096
 40
1.4393868979
100
AcDbArc
 50
81.9926056209
 51
98.0074785883
  0
ARC
  5
34C
100
AcDbEntity
  8
0
100
AcDbCircle
 62
7
  6
CONTINUOUS
 10
9.809983668
 20
8.275891804
 40
0.1
100
AcDbArc
 50
270.0
 51
360.0
  0
ARC
  5
34D
100
AcDbEntity
  8
0
100
AcDbCircle
 62
7
  6
CONTINUOUS
 10
11.859983668
 20
8.275891804
 40
0.1
100
AcDbArc
 50
180.0
 51
270.0
  0
ARC
  5
34E
100
AcDbEntity
  8
0
100
AcDbCircle
 62
7
  6
CONTINUOUS
 10
9.659983668
 20
8.175891804
 40
0.1
100
AcDbArc
 50
274.1983587504
 51
360.0
  0
ARC
  5
34F
100
AcDbEntity
  8
0
100
AcDbCircle
 62
7
  6
CONTINUOUS
 10
12.009983668
 20
8.175891804
 40
0.1
100
AcDbArc
 50
180.0
 51
265.8016412497
  0
ARC
  5
350
100
AcDbEntity
  8
0
100
AcDbCircle
 62
9
  6
CONTINUOUS
 10
9.4537758899
 20
287.6164729879
 40
277.7272138706
100
AcDbArc
 50
269.9838199589
 51
270.1978093518
  0
ARC
  5
351
100
AcDbEntity
  8
0
100
AcDbCircle
 62
9
  6
CONTINUOUS
 10
9.4953031274
 20
232.6403220225
 40
222.7113572382
100
AcDbArc
 50
269.9699006313
 51
270.2367561819
  0
ARC
  5
352
100
AcDbEntity
  8
0
100
AcDbCircle
 62
9
  6
CONTINUOUS
 10
11.2783190828
 20
50.7166892476
 40
40.7877242203
100
AcDbArc
 50
269.4467993057
 51
270.0701988803
  0
ARC
  5
353
100
AcDbEntity
  8
0
100
AcDbCircle
 62
9
  6
CONTINUOUS
 10
11.3067861136
 20
48.9596597183
 40
39.0704243636
100
AcDbArc
 50
269.5805592029
 51
270.0781931915
  0
ARC
  5
354
100
AcDbEntity
  8
0
100
AcDbCircle
 62
9
  6
CONTINUOUS
 10
11.300106984
 20
14.4676843769
 40
4.6337770836
100
AcDbArc
 50
263.832074784
 51
264.239144097
  0
ARC
  5
355
100
AcDbEntity
  8
0
100
AcDbCircle
 62
9
  6
CONTINUOUS
 10
10.4076322441
 20
11.8477824733
 40
1.9568745699
100
AcDbArc
 50
270.1456328594
 51
270.3941185229
  0
ARC
  5
356
100
AcDbEntity
  8
0
100
AcDbCircle
 62
7
  6
CONTINUOUS
 10
11.5648855762
 20
11.3566612068
 40
1.4817109618
100
AcDbArc
 50
269.8460180318
 51
277.9982582842
  0
ARC
  5
357
100
AcDbEntity
  8
0
100
AcDbCircle
 62
9
  6
CONTINUOUS
 10
11.565151999
 20
11.3500451907
 40
1.4750957707
100
AcDbArc
 50
262.0096583129
 51
269.8349786461
  0
ARC
  5
358
100
AcDbEntity
  8
0
100
AcDbCircle
 62
9
  6
CONTINUOUS
 10
11.5849841502
 20
11.3553429843
 40
1.4403903402
100
AcDbArc
 50
261.9981589911
 51
278.0018022956
  0
ARC
  5
359
100
AcDbEntity
  8
0
100
AcDbCircle
 62
9
  6
CONTINUOUS
 10
10.4116333179
 20
10.9555274162
 40
1.0247222948
100
AcDbArc
 50
270.2208293797
 51
270.5599349032
  0
ARC
  5
35A
100
AcDbEntity
  8
0
100
AcDbCircle
 62
9
  6
CONTINUOUS
 10
10.3657756754
 20
9.1651944657
 40
1.0202992687
100
AcDbArc
 50
86.9628101825
 51
87.2019266126
  0
ARC
  5
35B
100
AcDbEntity
  8
0
100
AcDbCircle
 62
9
  6
CONTINUOUS
 10
10.9211238819
 20
10.3683977492
 40
0.4774932624
100
AcDbArc
 50
269.1734915083
 51
269.6341711066
  0
ARC
  5
35C
100
AcDbEntity
  8
0
100
AcDbCircle
 62
9
  6
CONTINUOUS
 10
11.3350586992
 20
10.0552814169
 40
0.2409308384
100
AcDbArc
 50
125.0768680866
 51
127.0206483803
  0
ARC
  5
35D
100
AcDbEntity
  8
0
100
AcDbCircle
 62
9
  6
CONTINUOUS
 10
10.8866681873
 20
10.1663713067
 40
0.2355684312
100
AcDbArc
 50
268.8055903657
 51
269.4756990277
  0
ARC
  5
35E
100
AcDbEntity
  8
0
100
AcDbCircle
 62
9
  6
CONTINUOUS
 10
11.3394352344
 20
10.1948645291
 40
0.1540060547
100
AcDbArc
 50
158.0406534082
 51
159.7884230352
  0
ARC
  5
35F
100
AcDbEntity
  8
0
100
AcDbCircle
 62
7
  6
CONTINUOUS
 10
11.784983668
 20
9.325891804
 40
0.1
100
AcDbArc
 50
180.0
 51
270.0
  0
ARC
  5
360
100
AcDbEntity
  8
0
100
AcDbCircle
 62
7
  6
CONTINUOUS
 10
9.884983668
 20
9.325891804
 40
0.1
100
AcDbArc
 50
270.0
 51
360.0
  0
ARC
  5
361
100
AcDbEntity
  8
0
100
AcDbCircle
 62
7
  6
CONTINUOUS
 10
11.222483668
 20
10.368891804
 40
0.075
100
AcDbArc
 50
180.0
 51
270.0
  0
ARC
  5
362
100
AcDbEntity
  8
0
100
AcDbCircle
 62
7
  6
CONTINUOUS
 10
10.447483668
 20
10.368891804
 40
0.075
100
AcDbArc
 50
270.0
 51
360.0
  0
ARC
  5
363
100
AcDbEntity
  8
0
100
AcDbCircle
 62
7
  6
CONTINUOUS
 10
9.374984054
 20
9.9149501546
 40
0.0400000166
100
AcDbArc
 50
180.0
 51
270.0789547915
  0
ARC
  5
364
100
AcDbEntity
  8
0
100
AcDbCircle
 62
7
  6
CONTINUOUS
 10
9.3749840314
 20
10.2335307047
 40
0.0400000152
100
AcDbArc
 50
88.0752977745
 51
180.0
  0
ARC
  5
365
100
AcDbEntity
  8
0
100
AcDbCircle
 62
7
  6
CONTINUOUS
 10
11.7654931594
 20
10.2194960554
 40
0.0399991576
100
AcDbArc
 50
359.9995627698
 51
81.9910037484
  0
ARC
  5
366
100
AcDbEntity
  8
0
100
AcDbCircle
 62
7
  6
CONTINUOUS
 10
11.7654947237
 20
9.9289744428
 40
0.0399978009
100
AcDbArc
 50
277.9388133686
 51
0.0013666445
  0
ARC
  5
367
100
AcDbEntity
  8
0
100
AcDbCircle
 62
9
  6
CONTINUOUS
 10
9.3746299378
 20
10.219462036
 40
0.0396466213
100
AcDbArc
 50
161.4168107014
 51
179.9514465809
  0
ARC
  5
368
100
AcDbEntity
  8
0
100
AcDbCircle
 62
9
  6
CONTINUOUS
 10
9.3746091582
 20
9.9290037091
 40
0.0396255003
100
AcDbArc
 50
180.0407137106
 51
197.8539873191
  0
ARC
  5
369
100
AcDbEntity
  8
0
100
AcDbCircle
 62
7
  6
CONTINUOUS
 10
10.552483668
 20
10.388891804
 40
0.02
100
AcDbArc
 50
270.0
 51
360.0
  0
ARC
  5
36A
100
AcDbEntity
  8
0
100
AcDbCircle
 62
7
  6
CONTINUOUS
 10
11.117483668
 20
10.388891804
 40
0.02
100
AcDbArc
 50
180.0
 51
270.0
  0
ARC
  5
36B
100
AcDbEntity
  8
0
100
AcDbCircle
 62
7
  6
CONTINUOUS
 10
10.502483668
 20
9.798891804
 40
0.02
100
AcDbArc
 50
0.0
 51
90.0
  0
ARC
  5
36C
100
AcDbEntity
  8
0
100
AcDbCircle
 62
7
  6
CONTINUOUS
 10
11.167483668
 20
9.798891804
 40
0.02
100
AcDbArc
 50
90.0
 51
180.0
  0
LINE
  5
36D
100
AcDbEntity
  8
0
100
AcDbLine
 62
7
  6
CONTINUOUS
 10
10.9174379684
 20
10.224144503
 11
10.9147931366
 21
10.2239288018
  0
SPLINE
  5
36E
100
AcDbEntity
  8
0
100
AcDbSpline
 62
9
  6
CONTINUOUS
 70
0
 71
3
 72
20
 73
16
 74
0
 42
0.0000001
 43
0.0000001
 44
0.0000000001
 40
0.0
 40
0.0
 40
0.0
 40
0.0
 40
0.1741048255
 40
0.3516096506
 40
0.5232340074
 40
0.6785299073
 40
0.746835875
 40
0.8078087211
 40
0.8608786676
 40
0.9054862807
 40
0.9412561922
 40
0.9684995461
 40
0.9877783625
 40
0.9946890259
 40
1.0
 40
1.0
 40
1.0
 40
1.0
 10
10.4155826403
 20
9.9308661882
 30
0.0
 10
10.4155892462
 20
9.9285305268
 30
0.0
 10
10.4155680088
 20
9.9238134361
 30
0.0
 10
10.4154314048
 20
9.9167950885
 30
0.0
 10
10.4151774532
 20
9.910032487
 30
0.0
 10
10.4148695553
 20
9.9047386866
 30
0.0
 10
10.4145580236
 20
9.9009335781
 30
0.0
 10
10.414313906
 20
9.8984993789
 30
0.0
 10
10.4140544868
 20
9.8963866253
 30
0.0
 10
10.4137845783
 20
9.8946166651
 30
0.0
 10
10.4135071449
 20
9.8931987344
 30
0.0
 10
10.4132268651
 20
9.8921309451
 30
0.0
 10
10.4129776267
 20
9.8914547125
 30
0.0
 10
10.4127660488
 20
9.8910880021
 30
0.0
 10
10.4126597341
 20
9.8909607492
 30
0.0
 10
10.4126057405
 20
9.8909142624
 30
0.0
  0
SPLINE
  5
36F
100
AcDbEntity
  8
0
100
AcDbSpline
 62
9
  6
CONTINUOUS
 70
0
 71
3
 72
20
 73
16
 74
0
 42
0.0000001
 43
0.0000001
 44
0.0000000001
 40
0.0
 40
0.0
 40
0.0
 40
0.0
 40
0.1754962768
 40
0.3543232776
 40
0.5270730613
 40
0.683165055
 40
0.7516955455
 40
0.8127556171
 40
0.8657574628
 40
0.9101140715
 40
0.945404467
 40
0.9718680612
 40
0.9899164723
 40
0.9959220457
 40
1.0
 40
1.0
 40
1.0
 40
1.0
 10
10.4216474724
 20
9.9308540546
 30
0.0
 10
10.421663757
 20
9.9285189473
 30
0.0
 10
10.4216873159
 20
9.9238043457
 30
0.0
 10
10.4216940572
 20
9.916791059
 30
0.0
 10
10.4216675732
 20
9.910036014
 30
0.0
 10
10.4216174385
 20
9.9047487443
 30
0.0
 10
10.4215570463
 20
9.9009479002
 30
0.0
 10
10.4215063539
 20
9.8985188355
 30
0.0
 10
10.4214496022
 20
9.896411645
 30
0.0
 10
10.4213878467
 20
9.8946476994
 30
0.0
 10
10.4213222922
 20
9.8932371753
 30
0.0
 10
10.4212534169
 20
9.8921776731
 30
0.0
 10
10.4211920618
 20
9.8915077803
 30
0.0
 10
10.4211366702
 20
9.8911376513
 30
0.0
 10
10.4211089232
 20
9.8910060065
 30
0.0
 10
10.4210928313
 20
9.890954186
 30
0.0
  0
SPLINE
  5
370
100
AcDbEntity
  8
0
100
AcDbSpline
 62
9
  6
CONTINUOUS
 70
0
 71
3
 72
20
 73
16
 74
0
 42
0.0000001
 43
0.0000001
 44
0.0000000001
 40
0.0
 40
0.0
 40
0.0
 40
0.0
 40
0.1552166349
 40
0.3075040051
 40
0.4536979518
 40
0.5235862404
 40
0.5908544986
 40
0.6551615477
 40
0.7162178309
 40
0.7737460343
 40
0.8274699422
 40
0.8771337605
 40
0.9225539132
 40
0.9635641078
 40
1.0
 40
1.0
 40
1.0
 40
1.0
 10
10.834984346
 20
9.8573105782
 30
0.0
 10
10.8536775293
 20
9.8554304311
 30
0.0
 10
10.8907396214
 20
9.8519775051
 30
0.0
 10
10.9455177729
 20
9.8480191237
 30
0.0
 10
10.9900714238
 20
9.8460764236
 30
0.0
 10
11.0243644015
 20
9.8454623442
 30
0.0
 10
11.0487513287
 20
9.8454843333
 30
0.0
 10
11.0720636954
 20
9.8459991997
 30
0.0
 10
11.0941812887
 20
9.8469765208
 30
0.0
 10
11.1149920332
 20
9.8483845444
 30
0.0
 10
11.1343877406
 20
9.8501914045
 30
0.0
 10
11.1522701149
 20
9.8523677827
 30
0.0
 10
11.1685573758
 20
9.8548527457
 30
0.0
 10
11.1831789117
 20
9.8575847041
 30
0.0
 10
11.1923250142
 20
9.8596544839
 30
0.0
 10
11.1966017589
 20
9.8607312751
 30
0.0
  0
SPLINE
  5
371
100
AcDbEntity
  8
0
100
AcDbSpline
 62
9
  6
CONTINUOUS
 70
0
 71
3
 72
19
 73
15
 74
0
 42
0.0000001
 43
0.0000001
 44
0.0000000001
 40
0.0
 40
0.0
 40
0.0
 40
0.0
 40
0.0408940657
 40
0.0830287737
 40
0.1272313606
 40
0.1742190814
 40
0.2245289498
 40
0.2785158754
 40
0.3363709999
 40
0.3980926396
 40
0.5325053876
 40
0.6799053541
 40
0.8372387023
 40
1.0
 40
1.0
 40
1.0
 40
1.0
 10
11.7710496388
 20
9.8893644451
 30
0.0
 10
11.7716642268
 20
9.8894514048
 30
0.0
 10
11.7728979008
 20
9.8897486745
 30
0.0
 10
11.7746699399
 20
9.8905404498
 30
0.0
 10
11.7763568351
 20
9.8916748473
 30
0.0
 10
11.7779393966
 20
9.8931376562
 30
0.0
 10
11.779407292
 20
9.8949111397
 30
0.0
 10
11.7807484192
 20
9.896980644
 30
0.0
 10
11.781951115
 20
9.8993289486
 30
0.0
 10
11.7834036148
 20
9.9029043384
 30
0.0
 10
11.7847906703
 20
9.9079501708
 30
0.0
 10
11.7857612828
 20
9.9145579957
 30
0.0
 10
11.7860458575
 20
9.9216598858
 30
0.0
 10
11.7857616199
 20
9.9265195979
 30
0.0
 10
11.7854927975
 20
9.9289753968
 30
0.0
  0
SPLINE
  5
372
100
AcDbEntity
  8
0
100
AcDbSpline
 62
9
  6
CONTINUOUS
 70
0
 71
3
 72
20
 73
16
 74
0
 42
0.0000001
 43
0.0000001
 44
0.0000000001
 40
0.0
 40
0.0
 40
0.0
 40
0.0
 40
0.0366931802
 40
0.0778631514
 40
0.1233688948
 40
0.1730641589
 40
0.2267826068
 40
0.2842803601
 40
0.3452904795
 40
0.4095438383
 40
0.4767576171
 40
0.5465930815
 40
0.6926848154
 40
0.8448736735
 40
1.0
 40
1.0
 40
1.0
 40
1.0
 10
11.1966017945
 20
10.2524552399
 30
0.0
 10
11.192340222
 20
10.2537295812
 30
0.0
 10
11.1832175598
 20
10.256170379
 30
0.0
 10
11.1686056954
 20
10.2593745666
 30
0.0
 10
11.1523263103
 20
10.2622718633
 30
0.0
 10
11.1344479931
 20
10.2647976886
 30
0.0
 10
11.1150510847
 20
10.266888128
 30
0.0
 10
11.094233978
 20
10.2685125327
 30
0.0
 10
11.0721053014
 20
10.2696373016
 30
0.0
 10
11.0487778773
 20
10.2702289167
 30
0.0
 10
11.0243733337
 20
10.2702553322
 30
0.0
 10
10.9900554936
 20
10.2695505436
 30
0.0
 10
10.9454765945
 20
10.2673135761
 30
0.0
 10
10.8906972511
 20
10.2627373625
 30
0.0
 10
10.8536590042
 20
10.2587080696
 30
0.0
 10
10.8349845359
 20
10.256498342
 30
0.0
  0
SPLINE
  5
373
100
AcDbEntity
  8
0
100
AcDbSpline
 62
9
  6
CONTINUOUS
 70
0
 71
3
 72
9
 73
5
 74
0
 42
0.0000001
 43
0.0000001
 44
0.0000000001
 40
0.0
 40
0.0
 40
0.0
 40
0.0
 40
0.5169725871
 40
1.0
 40
1.0
 40
1.0
 40
1.0
 10
10.8255004374
 20
10.227709604
 30
0.0
 10
10.8272521592
 20
10.2302991067
 30
0.0
 10
10.8308018621
 20
10.2352001545
 30
0.0
 10
10.8346185691
 20
10.2398957089
 30
0.0
 10
10.8365316378
 20
10.2421031518
 30
0.0
  0
SPLINE
  5
374
100
AcDbEntity
  8
0
100
AcDbSpline
 62
9
  6
CONTINUOUS
 70
0
 71
3
 72
19
 73
15
 74
0
 42
0.0000001
 43
0.0000001
 44
0.0000000001
 40
0.0
 40
0.0
 40
0.0
 40
0.0
 40
0.0379085317
 40
0.0802893011
 40
0.1275768096
 40
0.1795799048
 40
0.235781394
 40
0.2955994627
 40
0.3584471484
 40
0.4238434219
 40
0.5605995749
 40
0.7032867232
 40
0.8501709511
 40
1.0
 40
1.0
 40
1.0
 40
1.0
 10
10.8826144307
 20
10.1840604798
 30
0.0
 10
10.8816946134
 20
10.1839556095
 30
0.0
 10
10.8797123487
 20
10.1840092261
 30
0.0
 10
10.8766662919
 20
10.1847240122
 30
0.0
 10
10.8734383742
 20
10.1859938244
 30
0.0
 10
10.8700638145
 20
10.1877453419
 30
0.0
 10
10.8665733243
 20
10.1899082182
 30
0.0
 10
10.8629968963
 20
10.1924193221
 30
0.0
 10
10.8593562101
 20
10.1952209308
 30
0.0
 10
10.8543666137
 20
10.1993438962
 30
0.0
 10
10.8480982869
 20
10.2049726333
 30
0.0
 10
10.8405996579
 20
10.2121971215
 30
0.0
 10
10.8330493398
 20
10.2198231495
 30
0.0
 10
10.8280307684
 20
10.225050272
 30
0.0
 10
10.8255086052
 20
10.227701147
 30
0.0
  0
SPLINE
  5
375
100
AcDbEntity
  8
0
100
AcDbSpline
 62
9
  6
CONTINUOUS
 70
0
 71
3
 72
15
 73
11
 74
0
 42
0.0000001
 43
0.0000001
 44
0.0000000001
 40
0.0
 40
0.0
 40
0.0
 40
0.0
 40
0.133483415
 40
0.2005620527
 40
0.2672029628
 40
0.3976172022
 40
0.524522592
 40
0.6481489832
 40
0.768637821
 40
1.0
 40
1.0
 40
1.0
 40
1.0
 10
10.4210928243
 20
9.8909541834
 30
0.0
 10
10.4251472135
 20
9.8910625616
 30
0.0
 10
10.4312630021
 20
9.8906151466
 30
0.0
 10
10.4392555033
 20
9.8891821447
 30
0.0
 10
10.4470647363
 20
9.8873124535
 30
0.0
 10
10.4564645352
 20
9.8843496166
 30
0.0
 10
10.4672356666
 20
9.8800964914
 30
0.0
 10
10.4775324767
 20
9.8755005658
 30
0.0
 10
10.4905184225
 20
9.8691653406
 30
0.0
 10
10.4999607042
 20
9.8641434199
 30
0.0
 10
10.5061067828
 20
9.8607310298
 30
0.0
  0
LINE
  5
376
100
AcDbEntity
  8
0
100
AcDbLine
 62
9
  6
CONTINUOUS
 10
10.8365324461
 20
10.2421030527
 11
10.8022412666
 21
10.2524544766
  0
SPLINE
  5
377
100
AcDbEntity
  8
0
100
AcDbSpline
 62
9
  6
CONTINUOUS
 70
0
 71
3
 72
31
 73
27
 74
0
 42
0.0000001
 43
0.0000001
 44
0.0000000001
 40
0.0
 40
0.0
 40
0.0
 40
0.0
 40
0.2266546605
 40
0.4267123257
 40
0.5163420384
 40
0.5988101992
 40
0.6739443703
 40
0.7415713996
 40
0.801534254
 40
0.8537425253
 40
0.8981223802
 40
0.9173535375
 40
0.934599829
 40
0.94985198
 40
0.9631007061
 40
0.9743367133
 40
0.9835506977
 40
0.9873965215
 40
0.9907333463
 40
0.9935600065
 40
0.9958753359
 40
0.9976781676
 40
0.9989673343
 40
0.9994189283
 40
0.9997416679
 40
1.0
 40
1.0
 40
1.0
 40
1.0
 10
10.5061071119
 20
10.252455487
 30
0.0
 10
10.5007025547
 20
10.2536691416
 30
0.0
 10
10.4905395249
 20
10.256007353
 30
0.0
 10
10.4782712078
 20
10.2589613418
 30
0.0
 10
10.4694441081
 20
10.2611526713
 30
0.0
 10
10.4635862052
 20
10.2626330018
 30
0.0
 10
10.458254788
 20
10.264001813
 30
0.0
 10
10.4534601924
 20
10.2652496859
 30
0.0
 10
10.4492107305
 20
10.2663675786
 30
0.0
 10
10.4455132206
 20
10.2673504383
 30
0.0
 10
10.4427795947
 20
10.2680845373
 30
0.0
 10
10.4408721815
 20
10.2686008211
 30
0.0
 10
10.439652305
 20
10.2689326599
 30
0.0
 10
10.4385738721
 20
10.2692274742
 30
0.0
 10
10.4376374483
 20
10.2694847206
 30
0.0
 10
10.4368435758
 20
10.2697038666
 30
0.0
 10
10.4362714413
 20
10.2698625527
 30
0.0
 10
10.435885372
 20
10.2699700468
 30
0.0
 10
10.4356498507
 20
10.2700357583
 30
0.0
 10
10.4354500347
 20
10.2700917016
 30
0.0
 10
10.4352873482
 20
10.2701371831
 30
0.0
 10
10.4351582438
 20
10.2701738073
 30
0.0
 10
10.4350787977
 20
10.270195479
 30
0.0
 10
10.4350250024
 20
10.2702116067
 30
0.0
 10
10.4350099491
 20
10.2702142007
 30
0.0
 10
10.4349784286
 20
10.2702263181
 30
0.0
 10
10.4349836746
 20
10.2702228057
 30
0.0
  0
SPLINE
  5
378
100
AcDbEntity
  8
0
100
AcDbSpline
 62
9
  6
CONTINUOUS
 70
0
 71
3
 72
9
 73
5
 74
0
 42
0.0000001
 43
0.0000001
 44
0.0000000001
 40
0.0
 40
0.0
 40
0.0
 40
0.0
 40
0.5010346482
 40
1.0
 40
1.0
 40
1.0
 40
1.0
 10
11.3594684871
 20
10.259168759
 30
0.0
 10
11.2856095878
 20
10.2537711223
 30
0.0
 10
11.1382430338
 20
10.2423625069
 30
0.0
 10
10.9909432567
 20
10.2301411925
 30
0.0
 10
10.9174374504
 20
10.224144453
 30
0.0
  0
SPLINE
  5
379
100
AcDbEntity
  8
0
100
AcDbSpline
 62
9
  6
CONTINUOUS
 70
0
 71
3
 72
17
 73
13
 74
0
 42
0.0000001
 43
0.0000001
 44
0.0000000001
 40
0.0
 40
0.0
 40
0.0
 40
0.0
 40
0.0676378535
 40
0.135014702
 40
0.2018390002
 40
0.2679359017
 40
0.397617155
 40
0.5241491455
 40
0.6476687898
 40
0.7682367135
 40
0.8857667615
 40
1.0
 40
1.0
 40
1.0
 40
1.0
 10
10.4216474702
 20
9.9308540557
 30
0.0
 10
10.4242362841
 20
9.9308792691
 30
0.0
 10
10.4294157633
 20
9.9305061102
 30
0.0
 10
10.4369795802
 20
9.928826295
 30
0.0
 10
10.4442105093
 20
9.9262239965
 30
0.0
 10
10.4532570344
 20
9.9218076864
 30
0.0
 10
10.4635453126
 20
9.9148923873
 30
0.0
 10
10.4744131962
 20
9.9051941164
 30
0.0
 10
10.4839551504
 20
9.8946675762
 30
0.0
 10
10.4923465428
 20
9.8836422655
 30
0.0
 10
10.4997210786
 20
9.8723394342
 30
0.0
 10
10.5040815069
 20
9.8646060071
 30
0.0
 10
10.5061065072
 20
9.8607307487
 30
0.0
  0
SPLINE
  5
37A
100
AcDbEntity
  8
0
100
AcDbSpline
 62
9
  6
CONTINUOUS
 70
0
 71
3
 72
17
 73
13
 74
0
 42
0.0000001
 43
0.0000001
 44
0.0000000001
 40
0.0
 40
0.0
 40
0.0
 40
0.0
 40
0.0676812438
 40
0.1351827023
 40
0.2021791435
 40
0.2684601868
 40
0.3984502734
 40
0.5251608413
 40
0.648701034
 40
0.7691205585
 40
0.8863190124
 40
1.0
 40
1.0
 40
1.0
 40
1.0
 10
10.4198353559
 20
10.1840605836
 30
0.0
 10
10.4224371286
 20
10.183921484
 30
0.0
 10
10.4276653772
 20
10.1840781742
 30
0.0
 10
10.4353448485
 20
10.1854846916
 30
0.0
 10
10.4427203221
 20
10.1878610973
 30
0.0
 10
10.451971123
 20
10.1920419716
 30
0.0
 10
10.4625133318
 20
10.1987543959
 30
0.0
 10
10.4736556211
 20
10.2082987382
 30
0.0
 10
10.4834359132
 20
10.2187208265
 30
0.0
 10
10.492030683
 20
10.2296681024
 30
0.0
 10
10.4995759796
 20
10.2409037957
 30
0.0
 10
10.5040364192
 20
10.2485999399
 30
0.0
 10
10.5061065072
 20
10.2524556987
 30
0.0
  0
SPLINE
  5
37B
100
AcDbEntity
  8
0
100
AcDbSpline
 62
9
  6
CONTINUOUS
 70
0
 71
3
 72
15
 73
11
 74
0
 42
0.0000001
 43
0.0000001
 44
0.0000000001
 40
0.0
 40
0.0
 40
0.0
 40
0.0
 40
0.124449989
 40
0.2542156549
 40
0.3868371223
 40
0.5190337709
 40
0.6480804326
 40
0.7720746787
 40
0.8894453779
 40
1.0
 40
1.0
 40
1.0
 40
1.0
 10
10.8826144554
 20
10.1840604817
 30
0.0
 10
10.8825733766
 20
10.1863960472
 30
0.0
 10
10.8828653963
 20
10.1911809414
 30
0.0
 10
10.8844577786
 20
10.1982997347
 30
0.0
 10
10.8873399665
 20
10.2051648582
 30
0.0
 10
10.8913949443
 20
10.2114011593
 30
0.0
 10
10.8965114193
 20
10.2165796247
 30
0.0
 10
10.9023143809
 20
10.2204981266
 30
0.0
 10
10.9084854315
 20
10.222980478
 30
0.0
 10
10.9127248174
 20
10.2237605717
 30
0.0
 10
10.9147930972
 20
10.2239288065
 30
0.0
  0
LINE
  5
37C
100
AcDbEntity
  8
0
100
AcDbLine
 62
9
  6
CONTINUOUS
 10
10.8022396779
 20
10.2524534203
 11
10.8255079631
 21
10.2277004656
  0
SPLINE
  5
37D
100
AcDbEntity
  8
0
100
AcDbSpline
 62
9
  6
CONTINUOUS
 70
0
 71
3
 72
15
 73
11
 74
0
 42
0.0000001
 43
0.0000001
 44
0.0000000001
 40
0.0
 40
0.0
 40
0.0
 40
0.0
 40
0.1096857441
 40
0.2265484401
 40
0.3504349254
 40
0.4797064556
 40
0.6123270833
 40
0.7453947248
 40
0.8754710621
 40
1.0
 40
1.0
 40
1.0
 40
1.0
 10
10.9142360992
 20
9.8909541512
 30
0.0
 10
10.9121802492
 20
9.8911195415
 30
0.0
 10
10.9079586417
 20
9.8918971197
 30
0.0
 10
10.9018044626
 20
9.8943775644
 30
0.0
 10
10.8959965027
 20
9.8982964939
 30
0.0
 10
10.8908512876
 20
9.90347738
 30
0.0
 10
10.8867433973
 20
9.9097179947
 30
0.0
 10
10.8837883308
 20
9.91658949
 30
0.0
 10
10.8821080552
 20
9.9237166744
 30
0.0
 10
10.8817499594
 20
9.9285125873
 30
0.0
 10
10.8817578134
 20
9.9308541723
 30
0.0
  0
SPLINE
  5
37E
100
AcDbEntity
  8
0
100
AcDbSpline
 62
9
  6
CONTINUOUS
 70
0
 71
3
 72
18
 73
14
 74
0
 42
0.0000001
 43
0.0000001
 44
0.0000000001
 40
0.0
 40
0.0
 40
0.0
 40
0.0
 40
0.038769738
 40
0.0822178936
 40
0.1305049099
 40
0.1833028675
 40
0.2400532447
 40
0.3001778484
 40
0.4284029217
 40
0.5645372448
 40
0.7061755499
 40
0.85171559
 40
1.0
 40
1.0
 40
1.0
 40
1.0
 10
10.88175778
 20
9.9308541727
 30
0.0
 10
10.8808071446
 20
9.9308734601
 30
0.0
 10
10.8787840344
 20
9.9306508848
 30
0.0
 10
10.8757081624
 20
9.929728589
 30
0.0
 10
10.8724652128
 20
9.9282792162
 30
0.0
 10
10.8690907018
 20
9.9263747733
 30
0.0
 10
10.8656141197
 20
9.9240834394
 30
0.0
 10
10.8607747129
 20
9.9205144265
 30
0.0
 10
10.8546655166
 20
9.9154045559
 30
0.0
 10
10.8473551178
 20
9.9086411235
 30
0.0
 10
10.8399746839
 20
9.9013376643
 30
0.0
 10
10.8325558527
 20
9.8936545854
 30
0.0
 10
10.8276287916
 20
9.8883958499
 30
0.0
 10
10.8251542745
 20
9.8857308431
 30
0.0
  0
LINE
  5
37F
100
AcDbEntity
  8
0
100
AcDbLine
 62
9
  6
CONTINUOUS
 10
10.9180746451
 20
9.8909142596
 11
11.0207687441
 21
9.8902713681
  0
SPLINE
  5
380
100
AcDbEntity
  8
0
100
AcDbSpline
 62
9
  6
CONTINUOUS
 70
0
 71
3
 72
22
 73
18
 74
0
 42
0.0000001
 43
0.0000001
 44
0.0000000001
 40
0.0
 40
0.0
 40
0.0
 40
0.0
 40
0.0043256014
 40
0.0105027012
 40
0.0186297465
 40
0.0287778313
 40
0.0553741297
 40
0.0907369226
 40
0.1351189334
 40
0.1881090492
 40
0.249127149
 40
0.3175905333
 40
0.3927875382
 40
0.4734944798
 40
0.6460271932
 40
0.8246546311
 40
1.0
 40
1.0
 40
1.0
 40
1.0
 10
10.41983915
 20
10.2239287677
 30
0.0
 10
10.4198659183
 20
10.2238778199
 30
0.0
 10
10.4199130816
 20
10.2237452841
 30
0.0
 10
10.4199718018
 20
10.2235045354
 30
0.0
 10
10.4200287103
 20
10.2231839545
 30
0.0
 10
10.4201089715
 20
10.2225923156
 30
0.0
 10
10.4201950696
 20
10.2216363879
 30
0.0
 10
10.4202787179
 20
10.2202239418
 30
0.0
 10
10.420345454
 20
10.2184590495
 30
0.0
 10
10.4203949194
 20
10.2163522175
 30
0.0
 10
10.4204251696
 20
10.2139245871
 30
0.0
 10
10.420434814
 20
10.2112013384
 30
0.0
 10
10.4204226517
 20
10.2082161429
 30
0.0
 10
10.420377947
 20
10.2038465187
 30
0.0
 10
10.4202734596
 20
10.1981013977
 30
0.0
 10
10.4200848178
 20
10.1910987429
 30
0.0
 10
10.4199235613
 20
10.1863918678
 30
0.0
 10
10.4198353703
 20
10.1840605742
 30
0.0
  0
SPLINE
  5
381
100
AcDbEntity
  8
0
100
AcDbSpline
 62
9
  6
CONTINUOUS
 70
0
 71
3
 72
9
 73
5
 74
0
 42
0.0000001
 43
0.0000001
 44
0.0000000001
 40
0.0
 40
0.0
 40
0.0
 40
0.0
 40
0.5100437084
 40
1.0
 40
1.0
 40
1.0
 40
1.0
 10
10.9142361983
 20
9.8909544146
 30
0.0
 10
10.9322701975
 20
9.8896940701
 30
0.0
 10
10.967652025
 20
9.8875497507
 30
0.0
 10
11.0030772409
 20
9.886252323
 30
0.0
 10
11.0204391666
 20
9.885875791
 30
0.0
  0
LINE
  5
382
100
AcDbEntity
  8
0
100
AcDbLine
 62
9
  6
CONTINUOUS
 10
10.8826144357
 20
10.1840605762
 11
10.8845126161
 21
10.1842773081
  0
SPLINE
  5
383
100
AcDbEntity
  8
0
100
AcDbSpline
 62
9
  6
CONTINUOUS
 70
0
 71
3
 72
16
 73
12
 74
0
 42
0.0000001
 43
0.0000001
 44
0.0000000001
 40
0.0
 40
0.0
 40
0.0
 40
0.0
 40
0.2870970837
 40
0.4258610335
 40
0.5598569693
 40
0.6875411089
 40
0.8058894644
 40
0.8605193773
 40
0.9114202386
 40
0.9580581807
 40
1.0
 40
1.0
 40
1.0
 40
1.0
 10
10.8362830443
 20
9.8715153004
 30
0.0
 10
10.8436369763
 20
9.8738327705
 30
0.0
 10
10.8545488521
 20
9.8772601429
 30
0.0
 10
10.8689522379
 20
9.8815761449
 30
0.0
 10
10.8792951287
 20
9.8845249175
 30
0.0
 10
10.889161293
 20
9.8871403675
 30
0.0
 10
10.897034724
 20
9.8889469867
 30
0.0
 10
10.9029492704
 20
9.8900342825
 30
0.0
 10
10.9069958625
 20
9.8906162676
 30
0.0
 10
10.9107284993
 20
9.8909537873
 30
0.0
 10
10.9131108571
 20
9.8909959122
 30
0.0
 10
10.9142365043
 20
9.8909543599
 30
0.0
  0
LINE
  5
384
100
AcDbEntity
  8
0
100
AcDbLine
 62
9
  6
CONTINUOUS
 10
10.4198391545
 20
10.2239287697
 11
10.3932524197
 21
10.2302604443
  0
SPLINE
  5
385
100
AcDbEntity
  8
0
100
AcDbSpline
 62
9
  6
CONTINUOUS
 70
0
 71
3
 72
9
 73
5
 74
0
 42
0.0000001
 43
0.0000001
 44
0.0000000001
 40
0.0
 40
0.0
 40
0.0
 40
0.0
 40
0.4919680382
 40
1.0
 40
1.0
 40
1.0
 40
1.0
 10
11.190031386
 20
9.8816767636
 30
0.0
 10
11.1908517949
 20
9.8781692632
 30
0.0
 10
11.1927993447
 20
9.8711031498
 30
0.0
 10
11.1952438112
 20
9.8641943798
 30
0.0
 10
11.1966024086
 20
9.8607315705
 30
0.0
  0
SPLINE
  5
386
100
AcDbEntity
  8
0
100
AcDbSpline
 62
9
  6
CONTINUOUS
 70
0
 71
3
 72
15
 73
11
 74
0
 42
0.0000001
 43
0.0000001
 44
0.0000000001
 40
0.0
 40
0.0
 40
0.0
 40
0.0
 40
0.2301297076
 40
0.3503996501
 40
0.4740801415
 40
0.6012644407
 40
0.7321218397
 40
0.7990271343
 40
0.866342421
 40
1.0
 40
1.0
 40
1.0
 40
1.0
 10
10.5061068512
 20
10.2524552683
 30
0.0
 10
10.4998764521
 20
10.2491689645
 30
0.0
 10
10.4903040349
 20
10.2443234809
 30
0.0
 10
10.4771349028
 20
10.2382248125
 30
0.0
 10
10.4666677339
 20
10.2338036421
 30
0.0
 10
10.455710687
 20
10.2297302294
 30
0.0
 10
10.4461504735
 20
10.2269396833
 30
0.0
 10
10.4382138688
 20
10.2252315494
 30
0.0
 10
10.4301092922
 20
10.2239812415
 30
0.0
 10
10.4239234917
 20
10.2236951717
 30
0.0
 10
10.4198390793
 20
10.2239288278
 30
0.0
  0
LINE
  5
387
100
AcDbEntity
  8
0
100
AcDbLine
 62
9
  6
CONTINUOUS
 10
10.8362822091
 20
9.8715156691
 11
10.8022408702
 21
9.8607320936
  0
SPLINE
  5
388
100
AcDbEntity
  8
0
100
AcDbSpline
 62
9
  6
CONTINUOUS
 70
0
 71
3
 72
9
 73
5
 74
0
 42
0.0000001
 43
0.0000001
 44
0.0000000001
 40
0.0
 40
0.0
 40
0.0
 40
0.0
 40
0.4831442349
 40
1.0
 40
1.0
 40
1.0
 40
1.0
 10
10.8362822245
 20
9.8715158651
 30
0.0
 10
10.8343566654
 20
9.8736952109
 30
0.0
 10
10.8305094425
 20
9.8783289396
 30
0.0
 10
10.8269192748
 20
9.8831650789
 30
0.0
 10
10.8251439187
 20
9.8857198464
 30
0.0
  0
SPLINE
  5
389
100
AcDbEntity
  8
0
100
AcDbSpline
 62
9
  6
CONTINUOUS
 70
0
 71
3
 72
17
 73
13
 74
0
 42
0.0000001
 43
0.0000001
 44
0.0000000001
 40
0.0
 40
0.0
 40
0.0
 40
0.0
 40
0.0398753158
 40
0.0813946487
 40
0.1725228238
 40
0.2235493942
 40
0.2785004164
 40
0.4002074296
 40
0.5366109605
 40
0.6848476368
 40
0.840996386
 40
1.0
 40
1.0
 40
1.0
 40
1.0
 10
11.3594663747
 20
10.2591684546
 30
0.0
 10
11.3601357502
 20
10.2592235057
 30
0.0
 10
11.3615173775
 20
10.2591927728
 30
0.0
 10
11.3643702886
 20
10.2585682328
 30
0.0
 10
11.3671602682
 20
10.2571001011
 30
0.0
 10
11.3697532586
 20
10.2550225077
 30
0.0
 10
11.3724640242
 20
10.2522979423
 30
0.0
 10
11.3755886498
 20
10.2480142398
 30
0.0
 10
11.3787780548
 20
10.2419387002
 30
0.0
 10
11.3814222759
 20
10.2349833605
 30
0.0
 10
11.3833892559
 20
10.2274162736
 30
0.0
 10
11.3842002209
 20
10.2221596237
 30
0.0
 10
11.3844745306
 20
10.2194955491
 30
0.0
  0
LINE
  5
38A
100
AcDbEntity
  8
0
100
AcDbLine
 62
9
  6
CONTINUOUS
 10
10.3945389054
 20
9.8854873199
 11
10.4210928285
 21
9.8909541887
  0
SPLINE
  5
38B
100
AcDbEntity
  8
0
100
AcDbSpline
 62
9
  6
CONTINUOUS
 70
0
 71
3
 72
12
 73
8
 74
0
 42
0.0000001
 43
0.0000001
 44
0.0000000001
 40
0.0
 40
0.0
 40
0.0
 40
0.0
 40
0.1019900716
 40
0.2127113193
 40
0.4554577871
 40
0.7196404712
 40
1.0
 40
1.0
 40
1.0
 40
1.0
 10
11.1720134339
 20
9.8820988498
 30
0.0
 10
11.172747704
 20
9.8812676018
 30
0.0
 10
11.1743275974
 20
9.8795766566
 30
0.0
 10
11.1778464757
 20
9.8760899423
 30
0.0
 10
11.1828410737
 20
9.8715935113
 30
0.0
 10
11.1894458387
 20
9.8661431571
 30
0.0
 10
11.1941504316
 20
9.8625443425
 30
0.0
 10
11.1966017186
 20
9.8607314685
 30
0.0
  0
SPLINE
  5
38C
100
AcDbEntity
  8
0
100
AcDbSpline
 62
9
  6
CONTINUOUS
 70
0
 71
3
 72
15
 73
11
 74
0
 42
0.0000001
 43
0.0000001
 44
0.0000000001
 40
0.0
 40
0.0
 40
0.0
 40
0.0
 40
0.1308356642
 40
0.2608743664
 40
0.3892000456
 40
0.5153131482
 40
0.639156211
 40
0.7610404975
 40
0.8812060276
 40
1.0
 40
1.0
 40
1.0
 40
1.0
 10
11.3282922479
 20
10.219495732
 30
0.0
 10
11.3282598421
 20
10.2218958354
 30
0.0
 10
11.3285842245
 20
10.2266961005
 30
0.0
 10
11.3302404758
 20
10.233674965
 30
0.0
 10
11.333022207
 20
10.240194587
 30
0.0
 10
11.3368119907
 20
10.2460503744
 30
0.0
 10
11.3415091072
 20
10.2510510271
 30
0.0
 10
11.3469755386
 20
10.2550180973
 30
0.0
 10
11.3530140728
 20
10.2578267747
 30
0.0
 10
11.3573074791
 20
10.2588701711
 30
0.0
 10
11.3594663747
 20
10.2591684546
 30
0.0
  0
SPLINE
  5
38D
100
AcDbEntity
  8
0
100
AcDbSpline
 62
9
  6
CONTINUOUS
 70
0
 71
3
 72
20
 73
16
 74
0
 42
0.0000001
 43
0.0000001
 44
0.0000000001
 40
0.0
 40
0.0
 40
0.0
 40
0.0
 40
0.0053121543
 40
0.0122229586
 40
0.0314984774
 40
0.0587327056
 40
0.0944861231
 40
0.1390689376
 40
0.1921077007
 40
0.2530456084
 40
0.3213154982
 40
0.4765495729
 40
0.6481588159
 40
0.8257308791
 40
1.0
 40
1.0
 40
1.0
 40
1.0
 10
10.4138878752
 20
10.2241443563
 30
0.0
 10
10.4139402365
 20
10.2240962941
 30
0.0
 10
10.4140421977
 20
10.2239660629
 30
0.0
 10
10.4142414679
 20
10.2235938241
 30
0.0
 10
10.414468383
 20
10.222911964
 30
0.0
 10
10.414713709
 20
10.2218390074
 30
0.0
 10
10.4149449923
 20
10.2204173897
 30
0.0
 10
10.4151575205
 20
10.2186453883
 30
0.0
 10
10.4153486403
 20
10.216532258
 30
0.0
 10
10.4155142512
 20
10.2140993382
 30
0.0
 10
10.4157033273
 20
10.2102981066
 30
0.0
 10
10.4158413446
 20
10.2050127461
 30
0.0
 10
10.4158787926
 20
10.198263571
 30
0.0
 10
10.4157911796
 20
10.1912601754
 30
0.0
 10
10.4156619743
 20
10.186554231
 30
0.0
 10
10.4155809356
 20
10.184223969
 30
0.0
  0
SPLINE
  5
38E
100
AcDbEntity
  8
0
100
AcDbSpline
 62
9
  6
CONTINUOUS
 70
0
 71
3
 72
14
 73
10
 74
0
 42
0.0000001
 43
0.0000001
 44
0.0000000001
 40
0.0
 40
0.0
 40
0.0
 40
0.0
 40
0.2512385239
 40
0.3832054061
 40
0.5152280661
 40
0.6446594397
 40
0.7695290779
 40
0.8881115694
 40
1.0
 40
1.0
 40
1.0
 40
1.0
 10
10.8845134704
 20
10.1842239577
 30
0.0
 10
10.8844371584
 20
10.1889818204
 30
0.0
 10
10.8855057058
 20
10.1963392912
 30
0.0
 10
10.8893808619
 20
10.20533741
 30
0.0
 10
10.8935353926
 20
10.2115826697
 30
0.0
 10
10.8987681954
 20
10.2167660522
 30
0.0
 10
10.9046978897
 20
10.2206920139
 30
0.0
 10
10.9109985682
 20
10.2231835581
 30
0.0
 10
10.9153241596
 20
10.2239716484
 30
0.0
 10
10.9174362846
 20
10.2241443579
 30
0.0
  0
SPLINE
  5
38F
100
AcDbEntity
  8
0
100
AcDbSpline
 62
9
  6
CONTINUOUS
 70
0
 71
3
 72
19
 73
15
 74
0
 42
0.0000001
 43
0.0000001
 44
0.0000000001
 40
0.0
 40
0.0
 40
0.0
 40
0.0
 40
0.0075101707
 40
0.0168451566
 40
0.0411028905
 40
0.072828563
 40
0.1119049268
 40
0.1580841012
 40
0.2110419795
 40
0.3357317706
 40
0.4818770824
 40
0.6448351817
 40
0.8196018422
 40
1.0
 40
1.0
 40
1.0
 40
1.0
 10
9.3766244563
 20
10.2591685473
 30
0.0
 10
9.3766779097
 20
10.2590843364
 30
0.0
 10
9.376780779
 20
10.258884758
 30
0.0
 10
9.3769808205
 20
10.2583763751
 30
0.0
 10
9.3772090841
 20
10.2575372707
 30
0.0
 10
9.3774481317
 20
10.2562971748
 30
0.0
 10
9.3776578113
 20
10.2547570857
 30
0.0
 10
9.3778434552
 20
10.2529307167
 30
0.0
 10
9.3780779979
 20
10.2499671648
 30
0.0
 10
9.3783302997
 20
10.2456737486
 30
0.0
 10
9.3785119302
 20
10.2399145213
 30
0.0
 10
9.3785336273
 20
10.2334877496
 30
0.0
 10
9.3784778133
 20
10.226606712
 30
0.0
 10
9.3783798268
 20
10.2218904656
 30
0.0
 10
9.3783054935
 20
10.219495732
 30
0.0
  0
SPLINE
  5
390
100
AcDbEntity
  8
0
100
AcDbSpline
 62
9
  6
CONTINUOUS
 70
0
 71
3
 72
19
 73
15
 74
0
 42
0.0000001
 43
0.0000001
 44
0.0000000001
 40
0.0
 40
0.0
 40
0.0
 40
0.0
 40
0.0410168833
 40
0.0831099149
 40
0.12719159
 40
0.1740568982
 40
0.2242931274
 40
0.2782919003
 40
0.3362277844
 40
0.3980395964
 40
0.5325224477
 40
0.6798794259
 40
0.8371921507
 40
1.0
 40
1.0
 40
1.0
 40
1.0
 10
11.7710659413
 20
10.2591036994
 30
0.0
 10
11.7716821407
 20
10.2590163514
 30
0.0
 10
11.7729167657
 20
10.2587197245
 30
0.0
 10
11.7746875935
 20
10.2579278013
 30
0.0
 10
11.7763677592
 20
10.2567922228
 30
0.0
 10
11.7779426559
 20
10.2553293934
 30
0.0
 10
11.7794046039
 20
10.2535557518
 30
0.0
 10
11.7807439608
 20
10.2514859838
 30
0.0
 10
11.7819509518
 20
10.2491379365
 30
0.0
 10
11.7834123072
 20
10.2455636148
 30
0.0
 10
11.7848020167
 20
10.2405176489
 30
0.0
 10
11.7857545339
 20
10.233908989
 30
0.0
 10
11.7860220454
 20
10.2268095796
 30
0.0
 10
11.7857463793
 20
10.221951922
 30
0.0
 10
11.7854928465
 20
10.2194946423
 30
0.0
  0
SPLINE
  5
391
100
AcDbEntity
  8
0
100
AcDbSpline
 62
9
  6
CONTINUOUS
 70
0
 71
3
 72
13
 73
9
 74
0
 42
0.0000001
 43
0.0000001
 44
0.0000000001
 40
0.0
 40
0.0
 40
0.0
 40
0.0
 40
0.2502366563
 40
0.5001565362
 40
0.6253221354
 40
0.7503432035
 40
0.8751911214
 40
1.0
 40
1.0
 40
1.0
 40
1.0
 10
9.3766245127
 20
10.2591685667
 30
0.0
 10
9.3723505893
 20
10.2593427697
 30
0.0
 10
9.3636926518
 20
10.2583155904
 30
0.0
 10
9.3538458935
 20
10.253681684
 30
0.0
 10
9.3471806894
 20
10.2482789806
 30
0.0
 10
9.342885256
 20
10.2434809814
 30
0.0
 10
9.3394268466
 20
10.2380589384
 30
0.0
 10
9.3377310168
 20
10.2341186422
 30
0.0
 10
9.3370504139
 20
10.2320966695
 30
0.0
  0
SPLINE
  5
392
100
AcDbEntity
  8
0
100
AcDbSpline
 62
9
  6
CONTINUOUS
 70
0
 71
3
 72
20
 73
16
 74
0
 42
0.0000001
 43
0.0000001
 44
0.0000000001
 40
0.0
 40
0.0
 40
0.0
 40
0.0
 40
0.1802710093
 40
0.3549801925
 40
0.5180114393
 40
0.5935099544
 40
0.6641861312
 40
0.7888838969
 40
0.8419156028
 40
0.8881947765
 40
0.9273407782
 40
0.9590530212
 40
0.9832287487
 40
0.9925163603
 40
1.0
 40
1.0
 40
1.0
 40
1.0
 10
9.3783054145
 20
9.9289753968
 30
0.0
 10
9.3783031776
 20
9.926574967
 30
0.0
 10
9.378275691
 20
9.9218480774
 30
0.0
 10
9.3781113097
 20
9.9149518385
 30
0.0
 10
9.3778631289
 20
9.9094545856
 30
0.0
 10
9.3776351877
 20
9.9053435608
 30
0.0
 10
9.3774052101
 20
9.9017441165
 30
0.0
 10
9.3771350079
 20
9.8984464878
 30
0.0
 10
9.3767789304
 20
9.8954846341
 30
0.0
 10
9.3765105935
 20
9.893660435
 30
0.0
 10
9.3762364287
 20
9.8921244846
 30
0.0
 10
9.3759632674
 20
9.8908888102
 30
0.0
 10
9.375720086
 20
9.890053635
 30
0.0
 10
9.3755110025
 20
9.8895496011
 30
0.0
 10
9.3754033977
 20
9.8893528425
 30
0.0
 10
9.3753473038
 20
9.8892704802
 30
0.0
  0
SPLINE
  5
393
100
AcDbEntity
  8
0
100
AcDbSpline
 62
9
  6
CONTINUOUS
 70
0
 71
3
 72
13
 73
9
 74
0
 42
0.0000001
 43
0.0000001
 44
0.0000000001
 40
0.0
 40
0.0
 40
0.0
 40
0.0
 40
0.250263161
 40
0.5001851578
 40
0.625351024
 40
0.7503760407
 40
0.875214484
 40
1.0
 40
1.0
 40
1.0
 40
1.0
 10
9.3753473038
 20
9.8892704802
 30
0.0
 10
9.3711334627
 20
9.8892323274
 30
0.0
 10
9.3626430152
 20
9.8904950337
 30
0.0
 10
9.353062209
 20
9.8952925958
 30
0.0
 10
9.3466113771
 20
9.9007521501
 30
0.0
 10
9.3424708383
 20
9.9055568623
 30
0.0
 10
9.3391525709
 20
9.9109518045
 30
0.0
 10
9.3375368829
 20
9.9148550692
 30
0.0
 10
9.3368919853
 20
9.9168548351
 30
0.0
  0
SPLINE
  5
394
100
AcDbEntity
  8
0
100
AcDbSpline
 62
9
  6
CONTINUOUS
 70
0
 71
3
 72
16
 73
12
 74
0
 42
0.0000001
 43
0.0000001
 44
0.0000000001
 40
0.0
 40
0.0
 40
0.0
 40
0.0
 40
0.040935635
 40
0.0867001323
 40
0.1369005034
 40
0.1910230031
 40
0.3089283733
 40
0.4367657436
 40
0.5712905723
 40
0.7108490276
 40
1.0
 40
1.0
 40
1.0
 40
1.0
 10
10.9147934931
 20
10.2239286308
 30
0.0
 10
10.9136971899
 20
10.2238393892
 30
0.0
 10
10.9113634695
 20
10.2237923142
 30
0.0
 10
10.9076893947
 20
10.2240134299
 30
0.0
 10
10.90368287
 20
10.224488477
 30
0.0
 10
10.8977873715
 20
10.2254440315
 30
0.0
 10
10.8899007815
 20
10.2271125292
 30
0.0
 10
10.8799860677
 20
10.2295852835
 30
0.0
 10
10.8695602121
 20
10.2324034623
 30
0.0
 10
10.8550068505
 20
10.2365562403
 30
0.0
 10
10.8439731347
 20
10.239866637
 30
0.0
 10
10.8365328151
 20
10.2421039008
 30
0.0
  0
SPLINE
  5
395
100
AcDbEntity
  8
0
100
AcDbSpline
 62
9
  6
CONTINUOUS
 70
0
 71
3
 72
14
 73
10
 74
0
 42
0.0000001
 43
0.0000001
 44
0.0000000001
 40
0.0
 40
0.0
 40
0.0
 40
0.0
 40
0.1115924965
 40
0.2301505696
 40
0.3552212675
 40
0.4849603831
 40
0.6172540675
 40
0.7493258489
 40
1.0
 40
1.0
 40
1.0
 40
1.0
 10
10.9180740813
 20
9.8909142629
 30
0.0
 10
10.9159533771
 20
9.8910815156
 30
0.0
 10
10.911603706
 20
9.8918614968
 30
0.0
 10
10.9052555261
 20
9.8943443042
 30
0.0
 10
10.8992582661
 20
9.8982666357
 30
0.0
 10
10.8939405192
 20
9.9034514607
 30
0.0
 10
10.88968797
 20
9.9097040588
 30
0.0
 10
10.8856801776
 20
9.9187084665
 30
0.0
 10
10.8845014096
 20
9.926087585
 30
0.0
 10
10.8845127402
 20
9.9308661763
 30
0.0
  0
SPLINE
  5
396
100
AcDbEntity
  8
0
100
AcDbSpline
 62
9
  6
CONTINUOUS
 70
0
 71
3
 72
15
 73
11
 74
0
 42
0.0000001
 43
0.0000001
 44
0.0000000001
 40
0.0
 40
0.0
 40
0.0
 40
0.0
 40
0.1185811372
 40
0.238778898
 40
0.3608607148
 40
0.4849832342
 40
0.611326751
 40
0.7397088702
 40
0.8695878249
 40
1.0
 40
1.0
 40
1.0
 40
1.0
 10
11.3601045975
 20
9.8892704761
 30
0.0
 10
11.3579343127
 20
9.8895634354
 30
0.0
 10
11.3536126054
 20
9.8905995113
 30
0.0
 10
11.3475220008
 20
9.893400059
 30
0.0
 10
11.3419867895
 20
9.8973632412
 30
0.0
 10
11.3372081095
 20
9.9023663699
 30
0.0
 10
11.3333255469
 20
9.9082283858
 30
0.0
 10
11.33044357
 20
9.9147578763
 30
0.0
 10
11.3286851937
 20
9.921750534
 30
0.0
 10
11.3282926872
 20
9.9265668996
 30
0.0
 10
11.328292255
 20
9.9289753647
 30
0.0
  0
SPLINE
  5
397
100
AcDbEntity
  8
0
100
AcDbSpline
 62
9
  6
CONTINUOUS
 70
0
 71
3
 72
18
 73
14
 74
0
 42
0.0000001
 43
0.0000001
 44
0.0000000001
 40
0.0
 40
0.0
 40
0.0
 40
0.0
 40
0.0399254994
 40
0.0817484111
 40
0.1262757477
 40
0.174112034
 40
0.2256263556
 40
0.2809870984
 40
0.4031543238
 40
0.5394423443
 40
0.6870356222
 40
0.8421738868
 40
1.0
 40
1.0
 40
1.0
 40
1.0
 10
11.3601045853
 20
9.8892703652
 30
0.0
 10
11.3607686885
 20
9.889258286
 30
0.0
 10
11.3621339711
 20
9.8893722912
 30
0.0
 10
11.3641692831
 20
9.8899316718
 30
0.0
 10
11.366204227
 20
9.890871383
 30
0.0
 10
11.3682152473
 20
9.8921826526
 30
0.0
 10
11.3701846689
 20
9.8938486056
 30
0.0
 10
11.3728176767
 20
9.8966114584
 30
0.0
 10
11.3758504312
 20
9.9008943702
 30
0.0
 10
11.3789439902
 20
9.9069176686
 30
0.0
 10
11.3815063182
 20
9.9137737676
 30
0.0
 10
11.3834141708
 20
9.9212074815
 30
0.0
 10
11.3842052747
 20
9.9263636813
 30
0.0
 10
11.3844747102
 20
9.9289754649
 30
0.0
  0
SPLINE
  5
398
100
AcDbEntity
  8
0
100
AcDbSpline
 62
9
  6
CONTINUOUS
 70
0
 71
3
 72
31
 73
27
 74
0
 42
0.0000001
 43
0.0000001
 44
0.0000000001
 40
0.0
 40
0.0
 40
0.0
 40
0.0
 40
0.0002575278
 40
0.0005792768
 40
0.0010294996
 40
0.0023148184
 40
0.0041123878
 40
0.0064211121
 40
0.0092398962
 40
0.0125676455
 40
0.0164032662
 40
0.0255937482
 40
0.0368026034
 40
0.0500211024
 40
0.0652405257
 40
0.0824521637
 40
0.1016473172
 40
0.1459534146
 40
0.1980894359
 40
0.2579861585
 40
0.325558168
 40
0.4006549478
 40
0.483110262
 40
0.5727586131
 40
0.7729758803
 40
1.0
 40
1.0
 40
1.0
 40
1.0
 10
10.4349836744
 20
9.8454899463
 30
0.0
 10
10.4349783421
 20
9.8454866963
 30
0.0
 10
10.4350099498
 20
9.8454975615
 30
0.0
 10
10.435024892
 20
9.8454996721
 30
0.0
 10
10.4350786227
 20
9.8455138268
 30
0.0
 10
10.4351578753
 20
9.8455326604
 30
0.0
 10
10.4352867411
 20
9.8455646209
 30
0.0
 10
10.435449107
 20
9.8456042476
 30
0.0
 10
10.4356485487
 20
9.8456529949
 30
0.0
 10
10.4358836361
 20
9.8457102302
 30
0.0
 10
10.4362690286
 20
9.8458038373
 30
0.0
 10
10.4368402015
 20
9.8459419559
 30
0.0
 10
10.4376327926
 20
9.8461325783
 30
0.0
 10
10.4385677923
 20
9.8463562038
 30
0.0
 10
10.4396446871
 20
9.8466123269
 30
0.0
 10
10.4408629401
 20
9.8469004321
 30
0.0
 10
10.4427681436
 20
9.8473484191
 30
0.0
 10
10.4454990163
 20
9.8479847516
 30
0.0
 10
10.4491933002
 20
9.8488355205
 30
0.0
 10
10.4534398894
 20
9.8498018364
 30
0.0
 10
10.4582322443
 20
9.8508789621
 30
0.0
 10
10.4635622832
 20
9.8520581836
 30
0.0
 10
10.469419949
 20
9.8533304947
 30
0.0
 10
10.4782505528
 20
9.8552091945
 30
0.0
 10
10.4905285156
 20
9.8577296054
 30
0.0
 10
10.5006979889
 20
9.8597083087
 30
0.0
 10
10.5061071391
 20
9.8607310387
 30
0.0
  0
ENDSEC
  0
SECTION
  2
OBJECTS
  0
DICTIONARY
  5
C
100
AcDbDictionary
280
0
281
1
  3
ACAD_GROUP
350
D
  3
ACAD_MLINESTYLE
350
17
  3
ACAD_LAYOUT
350
1A
  3
ACAD_PLOTSETTINGS
350
19
  3
ACAD_PLOTSTYLENAME
350
E
  0
DICTIONARY
  5
D
102
{ACAD_REACTORS
330
C
102
}
100
AcDbDictionary
280
0
281
1
  0
ACDBDICTIONARYWDFLT
  5
E
102
{ACAD_REACTORS
330
C
102
}
100
AcDbDictionary
281
1
  3
Normal
350
F
100
AcDbDictionaryWithDefault
340
F
  0
DICTIONARY
  5
17
102
{ACAD_REACTORS
330
C
102
}
100
AcDbDictionary
280
0
281
1
  3
Standard
350
18
  0
DICTIONARY
  5
19
102
{ACAD_REACTORS
330
C
102
}
100
AcDbDictionary
281
1
  0
DICTIONARY
  5
1A
102
{ACAD_REACTORS
330
C
102
}
100
AcDbDictionary
281
1
  3
Model
350
399
  3
Layout1
350
39A
  0
ACDBPLACEHOLDER
  5
F
102
{ACAD_REACTORS
330
E
102
}
  0
MLINESTYLE
  5
18
102
{ACAD_REACTORS
330
17
102
}
100
AcDbMlineStyle
  2
STANDARD
 70
0
  3

 62
256
 51
90.0
 52
90.0
 71
2
 49
0.5
 62
256
  6
BYLAYER
 49
-0.5
 62
256
  6
BYLAYER
  0
LAYOUT
  5
399
102
{ACAD_REACTORS
330
1A
102
}
100
AcDbPlotSettings
  1

  2
none_device
  4
ANSI_C_(22.00_x_17.00_Inches)
  6

 40
0.0
 41
0.0
 42
0.0
 43
0.0
 44
558.8
 45
431.8
 46
0.0
 47
0.0
 48
0.0
 49
0.0
140
0.0
141
0.0
142
1.0
143
1.0
 70
1024
 72
0
 73
0
 74
0
  7

 75
0
147
1.0
148
0.0
149
0.0
100
AcDbLayout
  1
Model
 70
0
 71
0
 10
0.0
 20
0.0
 11
22.0
 21
17.0
 12
0.0
 22
0.0
 32
0.0
 14
0.0
 24
0.0
 34
0.0
 15
0.0
 25
0.0
 35
0.0
146
0.0
 13
0.0
 23
0.0
 33
0.0
 16
1.0
 26
0.0
 36
0.0
 17
0.0
 27
1.0
 37
0.0
 76
0
330
202
345
0
346
0
  0
LAYOUT
  5
39A
102
{ACAD_REACTORS
330
1A
102
}
100
AcDbPlotSettings
  1

  2
none_device
  4
ANSI_C_(22.00_x_17.00_Inches)
  6

 40
0.0
 41
0.0
 42
0.0
 43
0.0
 44
558.8
 45
431.8
 46
0.0
 47
0.0
 48
0.0
 49
0.0
140
0.0
141
0.0
142
1.0
143
1.0
 70
0
 72
0
 73
0
 74
0
  7

 75
0
147
1.0
148
0.0
149
0.0
100
AcDbLayout
  1
Layout1
 70
0
 71
1
 10
0.0
 20
0.0
 11
22.0
 21
17.0
 12
0.0
 22
0.0
 32
0.0
 14
0.0
 24
0.0
 34
0.0
 15
0.0
 25
0.0
 35
0.0
146
0.0
 13
0.0
 23
0.0
 33
0.0
 16
1.0
 26
0.0
 36
0.0
 17
0.0
 27
1.0
 37
0.0
 76
0
330
203
345
0
346
0
  0
ENDSEC
  0
EOF
