  0
SECTION
  2
HEADER
  9
$ACADVER
  1
AC1015
  9
$DWGCODEPAGE
  3
ANSI_1252
  9
$EXTMAX
 10
11.6929133858
 20
8.2677165354
 30
0.0
  9
$EXTMIN
 10
0.0
 20
0.0
 30
0.0
  9
$LIMMIN
 10
0.0
 20
0.0
  9
$LIMMAX
 10
11.6929133858
 20
8.2677165354
  9
$VIEWCTR
 10
5.8464566929
 20
4.1338582677
  9
$VIEWSIZE
 40
8.2677165354
  9
$CLAYER
  8
0
  9
$LTSCALE
 40
0.6431102362
  9
$CELTYPE
  6
BYLAYER
  9
$DIMSCALE
 40
1.0
  9
$DIMASZ
 40
0.1
  9
$DIMEXO
 40
0.0730807087
  9
$DIMDLI
 40
0.4443307087
  9
$DIMEXE
 40
0.2104724409
  9
$DIMCEN
 40
0.1052362205
  9
$DIMLFAC
 40
1.0
  9
$DIMBLK
  1
_FILLED
  9
$DIMTXT
 40
0.08
  9
$DIMTOL
 70
1
  9
$DIMLIM
 70
0
  9
$DIMTFAC
 40
1.0
  9
$DIMTP
 40
0.01
  9
$DIMTM
 40
0.01
  9
$PDMODE
 70
3
  9
$PDSIZE
 40
0.06
  9
$HANDSEED
  5
52A
  9
$TILEMODE
 70
1
  9
$MEASUREMENT
 70
0
  9
$INSUNITS
 70
1
  0
ENDSEC
  0
SECTION
  2
CLASSES
  0
CLASS
  1
ACDBDICTIONARYWDFLT
  2
AcDbDictionaryWithDefault
  3
AutoCAD 2000
 90
0
280
0
281
0
  0
CLASS
  1
ACDBPLACEHOLDER
  2
AcDbPlaceHolder
  3
AutoCAD 2000
 90
0
280
0
281
0
  0
CLASS
  1
LAYOUT
  2
AcDbLayout
  3
AutoCAD 2000
 90
0
280
0
281
0
  0
ENDSEC
  0
SECTION
  2
TABLES
  0
TABLE
  2
VPORT
  5
8
100
AcDbSymbolTable
 70
2
  0
VPORT
  5
1F4
100
AcDbSymbolTableRecord
100
AcDbViewportTableRecord
  2
*ACTIVE
 70
0
 10
0.0
 20
0.0
 11
1.0
 21
1.0
 12
5.8464566929
 22
4.1338582677
 13
0.0
 23
0.0
 14
1.0
 24
1.0
 15
0.0
 25
0.0
 16
0.0
 26
0.0
 36
1.0
 17
0.0
 27
0.0
 37
0.0
 40
8.2677165354
 41
1.4142857143
 42
50.0
 43
0.0
 44
0.0
 50
0.0
 51
0.0
 71
0
 72
100
 73
1
 74
1
 75
0
 76
0
 77
0
 78
0
  0
ENDTAB
  0
TABLE
  2
LTYPE
  5
5
100
AcDbSymbolTable
 70
6
  0
LTYPE
  5
14
100
AcDbSymbolTableRecord
100
AcDbLinetypeTableRecord
  2
BYBLOCK
 70
0
  3

 72
65
 73
0
 40
0.0
  0
LTYPE
  5
15
100
AcDbSymbolTableRecord
100
AcDbLinetypeTableRecord
  2
BYLAYER
 70
0
  3

 72
65
 73
0
 40
0.0
  0
LTYPE
  5
16
100
AcDbSymbolTableRecord
100
AcDbLinetypeTableRecord
  2
CONTINUOUS
 70
64
  3
Solid line
 72
65
 73
0
 40
0.0
  0
LTYPE
  5
1F5
100
AcDbSymbolTableRecord
100
AcDbLinetypeTableRecord
  2
CENTER
 70
64
  3
____ _ ____ _ ____ _ ____ _ ____ _ ____ _ ____
 72
65
 73
4
 40
0.6
 49
0.375
 74
0
 49
-0.075
 74
0
 49
0.075
 74
0
 49
-0.075
 74
0
  0
LTYPE
  5
1F6
100
AcDbSymbolTableRecord
100
AcDbLinetypeTableRecord
  2
HIDDEN
 70
64
  3
- - - - - - - - - - - - - - - - - - - -
 72
65
 73
2
 40
0.2
 49
0.1
 74
0
 49
-0.1
 74
0
  0
LTYPE
  5
1F7
100
AcDbSymbolTableRecord
100
AcDbLinetypeTableRecord
  2
PHANTOM
 70
64
  3
_____ _ _ _____ _ _ _____ _ _ _____
 72
65
 73
6
 40
0.8
 49
0.45
 74
0
 49
-0.05
 74
0
 49
0.1
 74
0
 49
-0.05
 74
0
 49
0.1
 74
0
 49
-0.05
 74
0
  0
LTYPE
  5
1F8
100
AcDbSymbolTableRecord
100
AcDbLinetypeTableRecord
  2
DOT
 70
64
  3
. . . . . . . . . . . . . . . . . . . .
 72
65
 73
2
 40
0.2
 49
0.1
 74
0
 49
-0.1
 74
0
  0
LTYPE
  5
1F9
100
AcDbSymbolTableRecord
100
AcDbLinetypeTableRecord
  2
DASHED
 70
64
  3
- - - - - - - - - - - - - - - - - - - -
 72
65
 73
2
 40
0.2
 49
0.1
 74
0
 49
-0.1
 74
0
  0
ENDTAB
  0
TABLE
  2
LAYER
  5
2
100
AcDbSymbolTable
 70
36
  0
LAYER
  5
10
100
AcDbSymbolTableRecord
100
AcDbLayerTableRecord
  2
0
 70
0
 62
7
  6
CONTINUOUS
370
-3
390
F
  0
LAYER
  5
1FA
100
AcDbSymbolTableRecord
100
AcDbLayerTableRecord
  2
DEFAULT_1
 70
0
 62
7
  6
CENTER
370
-3
390
F
  0
LAYER
  5
1FB
100
AcDbSymbolTableRecord
100
AcDbLayerTableRecord
  2
DEFAULT_2
 70
0
 62
8
  6
HIDDEN
370
-3
390
F
  0
LAYER
  5
1FC
100
AcDbSymbolTableRecord
100
AcDbLayerTableRecord
  2
DEFAULT_3
 70
0
 62
7
  6
PHANTOM
370
-3
390
F
  0
LAYER
  5
1FD
100
AcDbSymbolTableRecord
100
AcDbLayerTableRecord
  2
DEFAULT_COORDINATE_SYSTEM
 70
0
 62
7
  6
CONTINUOUS
370
-3
390
F
  0
LAYER
  5
1FE
100
AcDbSymbolTableRecord
100
AcDbLayerTableRecord
  2
DEFAULT_DATUM_AXES
 70
0
 62
7
  6
CONTINUOUS
370
-3
390
F
  0
LAYER
  5
1FF
100
AcDbSymbolTableRecord
100
AcDbLayerTableRecord
  2
DEFAULT_DATUM_CURVES
 70
0
 62
7
  6
CONTINUOUS
370
-3
390
F
  0
LAYER
  5
200
100
AcDbSymbolTableRecord
100
AcDbLayerTableRecord
  2
DEFAULT_DATUM_PLANES
 70
0
 62
7
  6
CONTINUOUS
370
-3
390
F
  0
ENDTAB
  0
TABLE
  2
STYLE
  5
3
100
AcDbSymbolTable
 70
1
  0
STYLE
  5
11
100
AcDbSymbolTableRecord
100
AcDbTextStyleTableRecord
  2
STANDARD
 70
0
 40
0.0
 41
0.8
 50
0.0
 71
0
 42
0.2
  3
txt
  4

  0
STYLE
  5
201
100
AcDbSymbolTableRecord
100
AcDbTextStyleTableRecord
  2
TEXTSTYLE_1
 70
0
 40
0.0
 41
0.8
 50
0.0
 71
0
 42
0.2
  3
gdt
  4

  0
ENDTAB
  0
TABLE
  2
VIEW
  5
6
100
AcDbSymbolTable
 70
0
  0
ENDTAB
  0
TABLE
  2
UCS
  5
7
100
AcDbSymbolTable
 70
0
  0
ENDTAB
  0
TABLE
  2
APPID
  5
9
100
AcDbSymbolTable
 70
1
  0
APPID
  5
202
100
AcDbSymbolTableRecord
100
AcDbRegAppTableRecord
  2
ACAD
 70
0
  0
ENDTAB
  0
TABLE
  2
BLOCK_RECORD
  5
1
100
AcDbSymbolTable
 70
0
  0
BLOCK_RECORD
  5
203
100
AcDbSymbolTableRecord
100
AcDbBlockTableRecord
  2
*Model_Space
  0
BLOCK_RECORD
  5
204
100
AcDbSymbolTableRecord
100
AcDbBlockTableRecord
  2
*Paper_Space
  0
ENDTAB
  0
TABLE
  2
DIMSTYLE
  5
A
100
AcDbSymbolTable
 70
1
100
AcDbDimStyleTable
 71
0
  0
DIMSTYLE
105
205
100
AcDbSymbolTableRecord
100
AcDbDimStyleTableRecord
  2
STANDARD
 70
0
  3

  4

 40
1.0
 41
0.1
 42
0.0625
 43
0.38
 44
0.18
 45
0.0
 46
0.0
 47
0.01
 48
0.01
140
0.08
141
0.09
142
0.0
143
25.4
144
1.0
145
0.0
146
1.0
147
0.09
 71
1.0
 72
0.0
 73
1
 74
1
 75
0
 76
0
 77
0
 78
4
170
0
171
2
172
0
173
0
174
0
175
0
176
0
177
0
178
0
270
2
271
2
272
2
273
2
274
2
275
0
280
0
281
0
282
0
283
1
284
4
285
0
286
0
287
3
288
0
340
11
  0
ENDTAB
  0
ENDSEC
  0
SECTION
  2
BLOCKS
  0
BLOCK
  5
20
100
AcDbEntity
  8
0
100
AcDbBlockBegin
  2
*Model_Space
 70
0
 10
0.0
 20
0.0
 30
0.0
  3
*Model_Space
  1

  0
ENDBLK
  5
21
100
AcDbEntity
  8
0
100
AcDbBlockEnd
  0
BLOCK
  5
1C
100
AcDbEntity
  8
0
100
AcDbBlockBegin
  2
*Paper_Space
 70
0
 10
0.0
 20
0.0
 30
0.0
  3
*Paper_Space
  1

  0
ENDBLK
  5
1D
100
AcDbEntity
  8
0
100
AcDbBlockEnd
  0
ENDSEC
  0
SECTION
  2
ENTITIES
  0
LINE
  5
206
100
AcDbEntity
  8
0
100
AcDbLine
 62
6
  6
CONTINUOUS
 10
5.5058387536
 20
6.0565444499
 11
5.4478387536
 21
6.0376991075
  0
LINE
  5
207
100
AcDbEntity
  8
0
100
AcDbLine
 62
6
  6
CONTINUOUS
 10
7.0103387536
 20
2.3265444499
 11
4.9103387536
 21
2.3265444499
  0
LINE
  5
208
100
AcDbEntity
  8
0
100
AcDbLine
 62
6
  6
CONTINUOUS
 10
5.4478387536
 20
6.0376991075
 11
5.4328387536
 21
6.0226991075
  0
LWPOLYLINE
  5
209
100
AcDbEntity
  8
0
100
AcDbPolyline
 62
6
  6
CONTINUOUS
 90
5
 70
0
 10
5.1334242322
 20
5.6556749171
 10
5.1155498236
 20
5.6419573927
 10
5.093263912
 20
5.621416228
 10
5.072034009
 20
5.597688591
 10
5.0524778883
 20
5.5714603836
  0
LINE
  5
20A
100
AcDbEntity
  8
0
100
AcDbLine
 62
9
  6
CONTINUOUS
 10
5.1334242322
 20
5.6556749171
 11
5.1334038883
 21
5.6556605498
  0
LINE
  5
20B
100
AcDbEntity
  8
0
100
AcDbLine
 62
6
  6
CONTINUOUS
 10
5.1508671482
 20
5.6670188902
 11
5.1334038883
 21
5.6556605498
  0
LINE
  5
20C
100
AcDbEntity
  8
0
100
AcDbLine
 62
6
  6
CONTINUOUS
 10
5.175499563
 20
5.6799977627
 11
5.150403884
 21
5.6667418143
  0
LINE
  5
20D
100
AcDbEntity
  8
0
100
AcDbLine
 62
6
  6
CONTINUOUS
 10
5.2006084766
 20
5.6899235855
 11
5.1751769976
 21
5.6798491861
  0
LINE
  5
20E
100
AcDbEntity
  8
0
100
AcDbLine
 62
9
  6
CONTINUOUS
 10
7.06685046
 20
2.5630407594
 11
4.8538270472
 21
2.5630407594
  0
LINE
  5
20F
100
AcDbEntity
  8
0
100
AcDbLine
 62
6
  6
CONTINUOUS
 10
5.0525744049
 20
5.5716019498
 11
5.035391296
 21
5.5440891493
  0
LINE
  5
210
100
AcDbEntity
  8
0
100
AcDbLine
 62
6
  6
CONTINUOUS
 10
5.0719583902
 20
5.5975872199
 11
5.0718775881
 21
5.5974967612
  0
LINE
  5
211
100
AcDbEntity
  8
0
100
AcDbLine
 62
6
  6
CONTINUOUS
 10
5.4484637536
 20
5.9311694499
 11
5.4328387536
 21
5.9155444499
  0
LINE
  5
212
100
AcDbEntity
  8
0
100
AcDbLine
 62
9
  6
CONTINUOUS
 10
5.5009379912
 20
5.7313028593
 11
5.5009279225
 21
5.7312968859
  0
LWPOLYLINE
  5
213
100
AcDbEntity
  8
0
100
AcDbPolyline
 62
6
  6
CONTINUOUS
 90
3
 70
0
 10
5.5009274707
 20
5.7312976504
 10
5.5001462422
 20
5.7309159598
 10
5.498004265
 20
5.7302429359
  0
LWPOLYLINE
  5
214
100
AcDbEntity
  8
0
100
AcDbPolyline
 62
6
  6
CONTINUOUS
 90
3
 70
0
 10
5.0218973247
 20
5.5184142864
 10
5.0021693318
 20
5.4741368902
 10
4.983954299
 20
5.42544839
  0
LINE
  5
215
100
AcDbEntity
  8
0
100
AcDbLine
 62
6
  6
CONTINUOUS
 10
5.0354353265
 20
5.5441662805
 11
5.0218968901
 21
5.5184133852
  0
LINE
  5
216
100
AcDbEntity
  8
0
100
AcDbLine
 62
6
  6
CONTINUOUS
 10
4.9684666432
 20
5.3745783044
 11
4.9559749894
 21
5.3217647843
  0
LINE
  5
217
100
AcDbEntity
  8
0
100
AcDbLine
 62
6
  6
CONTINUOUS
 10
4.9839543039
 20
5.4254484031
 11
4.968466637
 21
5.3745782839
  0
LINE
  5
218
100
AcDbEntity
  8
0
100
AcDbLine
 62
7
  6
CONTINUOUS
 10
6.7103387536
 20
2.9515444499
 11
5.2103387536
 21
2.9515444499
  0
LINE
  5
219
100
AcDbEntity
  8
0
100
AcDbLine
 62
6
  6
CONTINUOUS
 10
4.9395773145
 20
5.1562900302
 11
4.9395769926
 21
5.1562739441
  0
LINE
  5
21A
100
AcDbEntity
  8
0
100
AcDbLine
 62
6
  6
CONTINUOUS
 10
4.941200415
 20
5.2113451262
 11
4.9395769896
 21
5.1562744523
  0
LINE
  5
21B
100
AcDbEntity
  8
0
100
AcDbLine
 62
6
  6
CONTINUOUS
 10
4.9467736372
 20
5.2672358193
 11
4.9412004107
 21
5.2113450825
  0
LINE
  5
21C
100
AcDbEntity
  8
0
100
AcDbLine
 62
6
  6
CONTINUOUS
 10
4.9559749961
 20
5.3217648125
 11
4.9467736311
 21
5.267235783
  0
LINE
  5
21D
100
AcDbEntity
  8
0
100
AcDbLine
 62
6
  6
CONTINUOUS
 10
5.4328387536
 20
5.9155444499
 11
5.4028387536
 21
5.8355444499
  0
LINE
  5
21E
100
AcDbEntity
  8
0
100
AcDbLine
 62
9
  6
CONTINUOUS
 10
5.4000918447
 20
5.4122275825
 11
5.4000909979
 21
5.4122259803
  0
LWPOLYLINE
  5
21F
100
AcDbEntity
  8
0
100
AcDbPolyline
 62
6
  6
CONTINUOUS
 90
10
 70
0
 10
5.4000909979
 20
5.4122259803
 10
5.4087708913
 20
5.4276086572
 10
5.4172134488
 20
5.4407783391
 10
5.4247871915
 20
5.451248867
 10
5.4316832806
 20
5.4597266055
 10
5.4378817374
 20
5.4664663826
 10
5.4429188883
 20
5.4712460663
 10
5.447300542
 20
5.4747740538
 10
5.450885926
 20
5.4771515495
 10
5.4519292939
 20
5.4777295918
  0
LWPOLYLINE
  5
220
100
AcDbEntity
  8
0
100
AcDbPolyline
 62
6
  6
CONTINUOUS
 90
3
 70
0
 10
6.4644287198
 20
5.4736629338
 10
6.4704729836
 20
5.4755524932
 10
6.4718146014
 20
5.4758108559
  0
LINE
  5
221
100
AcDbEntity
  8
0
100
AcDbLine
 62
6
  6
CONTINUOUS
 10
6.7078387536
 20
3.0815444499
 11
5.2128387536
 21
3.0815444499
  0
LINE
  5
222
100
AcDbEntity
  8
0
100
AcDbLine
 62
6
  6
CONTINUOUS
 10
4.9395865335
 20
5.1313354696
 11
4.9421618913
 21
5.1052655769
  0
LINE
  5
223
100
AcDbEntity
  8
0
100
AcDbLine
 62
6
  6
CONTINUOUS
 10
4.9395255772
 20
5.1562908513
 11
4.9395865337
 21
5.1313353612
  0
LWPOLYLINE
  5
224
100
AcDbEntity
  8
0
100
AcDbPolyline
 62
6
  6
CONTINUOUS
 90
5
 70
0
 10
5.3641797351
 20
5.3213645405
 10
5.3714100022
 20
5.3449302435
 10
5.3799747051
 20
5.3683841976
 10
5.389843986
 20
5.3914708144
 10
5.4000918447
 20
5.4122275825
  0
LINE
  5
225
100
AcDbEntity
  8
0
100
AcDbLine
 62
6
  6
CONTINUOUS
 10
5.3189916324
 20
5.0749487518
 11
5.3271061116
 21
5.0966426154
  0
LWPOLYLINE
  5
226
100
AcDbEntity
  8
0
100
AcDbPolyline
 62
6
  6
CONTINUOUS
 90
5
 70
0
 10
5.2754977784
 20
5.0024921626
 10
5.2879648172
 20
5.0187154186
 10
5.3001163738
 20
5.0372722474
 10
5.3107257589
 20
5.0566547812
 10
5.3189916648
 20
5.074948831
  0
LWPOLYLINE
  5
227
100
AcDbEntity
  8
0
100
AcDbPolyline
 62
6
  6
CONTINUOUS
 90
4
 70
0
 10
5.2729240373
 20
4.9994391273
 10
5.2734364661
 20
5.0000381033
 10
5.2750900692
 20
5.0020010061
 10
5.2754978046
 20
5.002492194
  0
LWPOLYLINE
  5
228
100
AcDbEntity
  8
0
100
AcDbPolyline
 62
6
  6
CONTINUOUS
 90
4
 70
0
 10
5.2353650733
 20
4.964874285
 10
5.2480722149
 20
4.9747951396
 10
5.2615389333
 20
4.9871614637
 10
5.2729240307
 20
4.9994391197
  0
LWPOLYLINE
  5
229
100
AcDbEntity
  8
0
100
AcDbPolyline
 62
6
  6
CONTINUOUS
 90
3
 70
0
 10
5.2332362293
 20
4.9633610428
 10
5.2350906389
 20
4.9646767146
 10
5.235365027
 20
4.9648742515
  0
LINE
  5
22A
100
AcDbEntity
  8
0
100
AcDbLine
 62
6
  6
CONTINUOUS
 10
5.2313905617
 20
4.9620844175
 11
5.2332743885
 21
4.9633877798
  0
LINE
  5
22B
100
AcDbEntity
  8
0
100
AcDbLine
 62
6
  6
CONTINUOUS
 10
5.2295538347
 20
4.960845677
 11
5.2314475281
 21
4.9621233388
  0
LINE
  5
22C
100
AcDbEntity
  8
0
100
AcDbLine
 62
6
  6
CONTINUOUS
 10
5.2277262139
 20
4.959643701
 11
5.2296294189
 21
4.9608960393
  0
LINE
  5
22D
100
AcDbEntity
  8
0
100
AcDbLine
 62
6
  6
CONTINUOUS
 10
5.2259077802
 20
4.9584773755
 11
5.2278202241
 21
4.9597047952
  0
LINE
  5
22E
100
AcDbEntity
  8
0
100
AcDbLine
 62
6
  6
CONTINUOUS
 10
5.2240985659
 20
4.9573456157
 11
5.226020025
 21
4.9585485255
  0
LINE
  5
22F
100
AcDbEntity
  8
0
100
AcDbLine
 62
6
  6
CONTINUOUS
 10
5.2222985609
 20
4.9562473697
 11
5.2242288551
 21
4.957426177
  0
LINE
  5
230
100
AcDbEntity
  8
0
100
AcDbLine
 62
6
  6
CONTINUOUS
 10
5.220507715
 20
4.9551816178
 11
5.2224467074
 21
4.9563367277
  0
LINE
  5
231
100
AcDbEntity
  8
0
100
AcDbLine
 62
6
  6
CONTINUOUS
 10
5.2187259395
 20
4.954147372
 11
5.2206735362
 21
4.9552791868
  0
LINE
  5
232
100
AcDbEntity
  8
0
100
AcDbLine
 62
6
  6
CONTINUOUS
 10
5.2169531092
 20
4.9531436762
 11
5.2189092586
 21
4.9542525939
  0
LINE
  5
233
100
AcDbEntity
  8
0
100
AcDbLine
 62
6
  6
CONTINUOUS
 10
5.2151890637
 20
4.9521696053
 11
5.2171537567
 21
4.953256019
  0
LINE
  5
234
100
AcDbEntity
  8
0
100
AcDbLine
 62
6
  6
CONTINUOUS
 10
5.2134336091
 20
4.9512242654
 11
5.2154068784
 21
4.9522885623
  0
LINE
  5
235
100
AcDbEntity
  8
0
100
AcDbLine
 62
6
  6
CONTINUOUS
 10
5.2116865196
 20
4.950306793
 11
5.2136684397
 21
4.9513493535
  0
LINE
  5
236
100
AcDbEntity
  8
0
100
AcDbLine
 62
6
  6
CONTINUOUS
 10
5.2099475389
 20
4.9494163554
 11
5.2119382254
 21
4.950437552
  0
LINE
  5
237
100
AcDbEntity
  8
0
100
AcDbLine
 62
6
  6
CONTINUOUS
 10
5.2082163816
 20
4.94855215
 11
5.2102159912
 21
4.9495523463
  0
LINE
  5
238
100
AcDbEntity
  8
0
100
AcDbLine
 62
6
  6
CONTINUOUS
 10
5.2064927345
 20
4.9477134039
 11
5.2085014645
 21
4.9486929539
  0
LINE
  5
239
100
AcDbEntity
  8
0
100
AcDbLine
 62
6
  6
CONTINUOUS
 10
5.204776258
 20
4.9468993743
 11
5.2067943459
 21
4.9478586212
  0
LINE
  5
23A
100
AcDbEntity
  8
0
100
AcDbLine
 62
6
  6
CONTINUOUS
 10
5.2030665872
 20
4.9461093478
 11
5.2050943104
 21
4.9470486232
  0
LINE
  5
23B
100
AcDbEntity
  8
0
100
AcDbLine
 62
6
  6
CONTINUOUS
 10
5.2013633332
 20
4.9453426404
 11
5.2034010086
 21
4.9462622631
  0
LINE
  5
23C
100
AcDbEntity
  8
0
100
AcDbLine
 62
6
  6
CONTINUOUS
 10
5.1996660843
 20
4.9445985972
 11
5.2017140679
 21
4.9454988724
  0
LINE
  5
23D
100
AcDbEntity
  8
0
100
AcDbLine
 62
6
  6
CONTINUOUS
 10
5.1979744068
 20
4.9438765926
 11
5.2000330934
 21
4.9447578108
  0
LINE
  5
23E
100
AcDbEntity
  8
0
100
AcDbLine
 62
6
  6
CONTINUOUS
 10
5.1962878465
 20
4.9431760299
 11
5.1983576691
 21
4.9440384657
  0
LINE
  5
23F
100
AcDbEntity
  8
0
100
AcDbLine
 62
6
  6
CONTINUOUS
 10
5.1946059292
 20
4.9424963411
 11
5.1966873591
 21
4.9433402524
  0
LINE
  5
240
100
AcDbEntity
  8
0
100
AcDbLine
 62
6
  6
CONTINUOUS
 10
5.1929281623
 20
4.9418369872
 11
5.1950217081
 21
4.942662614
  0
LINE
  5
241
100
AcDbEntity
  8
0
100
AcDbLine
 62
6
  6
CONTINUOUS
 10
5.1912555834
 20
4.9411980408
 11
5.1933602427
 21
4.9420050213
  0
LINE
  5
242
100
AcDbEntity
  8
0
100
AcDbLine
 62
9
  6
CONTINUOUS
 10
6.4644312303
 20
5.4736638778
 11
6.4644287198
 21
5.4736629338
  0
LINE
  5
243
100
AcDbEntity
  8
0
100
AcDbLine
 62
6
  6
CONTINUOUS
 10
5.1895991466
 20
4.9405831704
 11
5.1917029645
 21
4.9413671591
  0
LINE
  5
244
100
AcDbEntity
  8
0
100
AcDbLine
 62
6
  6
CONTINUOUS
 10
5.1879738549
 20
4.9399970339
 11
5.1900577501
 21
4.9407516293
  0
LINE
  5
245
100
AcDbEntity
  8
0
100
AcDbLine
 62
6
  6
CONTINUOUS
 10
5.1863948975
 20
4.9394437645
 11
5.1884389294
 21
4.9401630269
  0
LINE
  5
246
100
AcDbEntity
  8
0
100
AcDbLine
 62
6
  6
CONTINUOUS
 10
5.1848775134
 20
4.9389269625
 11
5.1868611854
 21
4.939605503
  0
LINE
  5
247
100
AcDbEntity
  8
0
100
AcDbLine
 62
6
  6
CONTINUOUS
 10
5.1834280459
 20
4.9384468288
 11
5.1853393551
 21
4.9390827211
  0
LINE
  5
248
100
AcDbEntity
  8
0
100
AcDbLine
 62
6
  6
CONTINUOUS
 10
5.182036916
 20
4.9379983806
 11
5.1838844027
 21
4.9385965748
  0
LINE
  5
249
100
AcDbEntity
  8
0
100
AcDbLine
 62
6
  6
CONTINUOUS
 10
5.1806931234
 20
4.9375766225
 11
5.1824901211
 21
4.9381431517
  0
LINE
  5
24A
100
AcDbEntity
  8
0
100
AcDbLine
 62
6
  6
CONTINUOUS
 10
5.1793896529
 20
4.9371781953
 11
5.1811455886
 21
4.9377173811
  0
LINE
  5
24B
100
AcDbEntity
  8
0
100
AcDbLine
 62
6
  6
CONTINUOUS
 10
5.1781220556
 20
4.9368007672
 11
5.1798423086
 21
4.9373153688
  0
LINE
  5
24C
100
AcDbEntity
  8
0
100
AcDbLine
 62
6
  6
CONTINUOUS
 10
5.1768858651
 20
4.9364421769
 11
5.1785756887
 21
4.9369347029
  0
LINE
  5
24D
100
AcDbEntity
  8
0
100
AcDbLine
 62
6
  6
CONTINUOUS
 10
5.1761351369
 20
4.9362289628
 11
5.1773414195
 21
4.9365732353
  0
LINE
  5
24E
100
AcDbEntity
  8
0
100
AcDbLine
 62
6
  6
CONTINUOUS
 10
5.3397602162
 20
5.1432910053
 11
5.3397635359
 21
5.1433167064
  0
LINE
  5
24F
100
AcDbEntity
  8
0
100
AcDbLine
 62
6
  6
CONTINUOUS
 10
5.3488617147
 20
5.2418645319
 11
5.3542208085
 21
5.277225847
  0
LINE
  5
250
100
AcDbEntity
  8
0
100
AcDbLine
 62
9
  6
CONTINUOUS
 10
5.3542195836
 20
5.2772316284
 11
5.3542191342
 21
5.277229027
  0
LINE
  5
251
100
AcDbEntity
  8
0
100
AcDbLine
 62
6
  6
CONTINUOUS
 10
5.3542195836
 20
5.2772316284
 11
5.358416009
 21
5.2983920935
  0
LINE
  5
252
100
AcDbEntity
  8
0
100
AcDbLine
 62
6
  6
CONTINUOUS
 10
5.3344246401
 20
5.1206800251
 11
5.3397578253
 21
5.1432915664
  0
LINE
  5
253
100
AcDbEntity
  8
0
100
AcDbLine
 62
6
  6
CONTINUOUS
 10
5.3583327431
 20
5.2980263759
 11
5.3642598384
 21
5.3216256223
  0
LINE
  5
254
100
AcDbEntity
  8
0
100
AcDbLine
 62
6
  6
CONTINUOUS
 10
5.3271061121
 20
5.0966426172
 11
5.3344246392
 21
5.1206800212
  0
LINE
  5
255
100
AcDbEntity
  8
0
100
AcDbLine
 62
6
  6
CONTINUOUS
 10
6.4878387536
 20
5.9467944499
 11
6.4722137536
 21
5.9311694499
  0
LINE
  5
256
100
AcDbEntity
  8
0
100
AcDbLine
 62
6
  6
CONTINUOUS
 10
6.5178387536
 20
5.2665444499
 11
6.3038387536
 21
5.1970116349
  0
LWPOLYLINE
  5
257
100
AcDbEntity
  8
0
100
AcDbPolyline
 62
6
  6
CONTINUOUS
 90
5
 70
0
 10
4.946788063
 20
5.0819568042
 10
4.952748787
 20
5.0619543095
 10
4.9611429084
 20
5.0412595031
 10
4.9713362569
 20
5.0219475439
 10
4.9821178477
 20
5.0055874379
  0
LINE
  5
258
100
AcDbEntity
  8
0
100
AcDbLine
 62
6
  6
CONTINUOUS
 10
4.9421618863
 20
5.1052656268
 11
4.9467880444
 21
5.081956879
  0
LINE
  5
259
100
AcDbEntity
  8
0
100
AcDbLine
 62
6
  6
CONTINUOUS
 10
5.3397635359
 20
5.1433167064
 11
5.3421496484
 21
5.1773490973
  0
LINE
  5
25A
100
AcDbEntity
  8
0
100
AcDbLine
 62
6
  6
CONTINUOUS
 10
5.3421443802
 20
5.1772739573
 11
5.3450652557
 21
5.2093540381
  0
LINE
  5
25B
100
AcDbEntity
  8
0
100
AcDbLine
 62
6
  6
CONTINUOUS
 10
5.3450492352
 20
5.2091933413
 11
5.3488729484
 21
5.2419611942
  0
LWPOLYLINE
  5
25C
100
AcDbEntity
  8
0
100
AcDbPolyline
 62
6
  6
CONTINUOUS
 90
5
 70
0
 10
6.4338315143
 20
5.4537951976
 10
6.4385875348
 20
5.458026861
 10
6.4492043184
 20
5.4658508456
 10
6.4586398952
 20
5.4711633106
 10
6.4644312303
 20
5.4736638778
  0
LINE
  5
25D
100
AcDbEntity
  8
0
100
AcDbLine
 62
6
  6
CONTINUOUS
 10
5.4028387536
 20
5.8355444499
 11
5.4028387536
 21
5.7239010102
  0
LINE
  5
25E
100
AcDbEntity
  8
0
100
AcDbLine
 62
6
  6
CONTINUOUS
 10
5.4028387536
 20
5.4170956067
 11
5.4028387536
 21
5.2665444499
  0
LINE
  5
25F
100
AcDbEntity
  8
0
100
AcDbLine
 62
6
  6
CONTINUOUS
 10
5.4328387536
 20
6.0226991075
 11
5.4328387536
 21
5.9467944499
  0
LINE
  5
260
100
AcDbEntity
  8
0
100
AcDbLine
 62
6
  6
CONTINUOUS
 10
5.3762800808
 20
4.0449880631
 11
5.2128387536
 21
3.0815444499
  0
LINE
  5
261
100
AcDbEntity
  8
0
100
AcDbLine
 62
9
  6
CONTINUOUS
 10
6.4338981873
 20
5.4538578099
 11
6.4338327343
 21
5.453796338
  0
LINE
  5
262
100
AcDbEntity
  8
0
100
AcDbLine
 62
6
  6
CONTINUOUS
 10
6.84173379
 20
4.9368663691
 11
6.8430767142
 21
4.9372593949
  0
LINE
  5
263
100
AcDbEntity
  8
0
100
AcDbLine
 62
6
  6
CONTINUOUS
 10
6.8408368209
 20
4.9366100008
 11
6.8421722601
 21
4.9369934779
  0
LINE
  5
264
100
AcDbEntity
  8
0
100
AcDbLine
 62
6
  6
CONTINUOUS
 10
5.6168387536
 20
5.1970116349
 11
5.6168387536
 21
4.8565444499
  0
LWPOLYLINE
  5
265
100
AcDbEntity
  8
0
100
AcDbPolyline
 62
6
  6
CONTINUOUS
 90
3
 70
0
 10
6.8651955231
 20
4.9454119184
 10
6.8663772044
 20
4.9459425476
 10
6.86787247
 20
4.9466288719
  0
LINE
  5
266
100
AcDbEntity
  8
0
100
AcDbLine
 62
6
  6
CONTINUOUS
 10
6.8640168801
 20
4.944892864
 11
6.8655257072
 21
4.9455591492
  0
LINE
  5
267
100
AcDbEntity
  8
0
100
AcDbLine
 62
6
  6
CONTINUOUS
 10
6.8628411253
 20
4.9443851252
 11
6.8643569041
 21
4.9450415652
  0
LINE
  5
268
100
AcDbEntity
  8
0
100
AcDbLine
 62
6
  6
CONTINUOUS
 10
6.8616681027
 20
4.9438884512
 11
6.8631909642
 21
4.9445351583
  0
LINE
  5
269
100
AcDbEntity
  8
0
100
AcDbLine
 62
6
  6
CONTINUOUS
 10
6.8604980896
 20
4.9434027801
 11
6.8620277379
 21
4.9440396828
  0
LINE
  5
26A
100
AcDbEntity
  8
0
100
AcDbLine
 62
6
  6
CONTINUOUS
 10
6.8593327776
 20
4.9429286157
 11
6.8608671834
 21
4.9435549477
  0
LINE
  5
26B
100
AcDbEntity
  8
0
100
AcDbLine
 62
6
  6
CONTINUOUS
 10
6.8581741565
 20
4.9424665307
 11
6.8597104905
 21
4.9430812683
  0
LINE
  5
26C
100
AcDbEntity
  8
0
100
AcDbLine
 62
6
  6
CONTINUOUS
 10
6.857024233
 20
4.9420170474
 11
6.8585596192
 21
4.9426192323
  0
LINE
  5
26D
100
AcDbEntity
  8
0
100
AcDbLine
 62
6
  6
CONTINUOUS
 10
6.8558850292
 20
4.9415806389
 11
6.8574165572
 21
4.9421693825
  0
LINE
  5
26E
100
AcDbEntity
  8
0
100
AcDbLine
 62
6
  6
CONTINUOUS
 10
6.8547585814
 20
4.9411577306
 11
6.8562833081
 21
4.9417322123
  0
LINE
  5
26F
100
AcDbEntity
  8
0
100
AcDbLine
 62
6
  6
CONTINUOUS
 10
6.8536469383
 20
4.9407487015
 11
6.85516189
 21
4.9413081675
  0
LINE
  5
270
100
AcDbEntity
  8
0
100
AcDbLine
 62
6
  6
CONTINUOUS
 10
6.8525521602
 20
4.940353886
 11
6.8540543341
 21
4.9408976479
  0
LINE
  5
271
100
AcDbEntity
  8
0
100
AcDbLine
 62
6
  6
CONTINUOUS
 10
6.851476317
 20
4.939973576
 11
6.8529626832
 21
4.9405010081
  0
LINE
  5
272
100
AcDbEntity
  8
0
100
AcDbLine
 62
6
  6
CONTINUOUS
 10
6.8504214494
 20
4.9396080101
 11
6.8518889907
 21
4.9401185603
  0
LINE
  5
273
100
AcDbEntity
  8
0
100
AcDbLine
 62
6
  6
CONTINUOUS
 10
6.849388144
 20
4.9392568982
 11
6.8508353189
 21
4.9397505757
  0
LINE
  5
274
100
AcDbEntity
  8
0
100
AcDbLine
 62
6
  6
CONTINUOUS
 10
6.8483750869
 20
4.9389193245
 11
6.8498031458
 21
4.9393970868
  0
LINE
  5
275
100
AcDbEntity
  8
0
100
AcDbLine
 62
6
  6
CONTINUOUS
 10
6.8473808186
 20
4.938594376
 11
6.8487916265
 21
4.93905733
  0
LINE
  5
276
100
AcDbEntity
  8
0
100
AcDbLine
 62
6
  6
CONTINUOUS
 10
6.8464038598
 20
4.9382811836
 11
6.8477993286
 21
4.9387303886
  0
LINE
  5
277
100
AcDbEntity
  8
0
100
AcDbLine
 62
6
  6
CONTINUOUS
 10
6.8454427134
 20
4.9379789212
 11
6.8468248003
 21
4.9384153896
  0
LINE
  5
278
100
AcDbEntity
  8
0
100
AcDbLine
 62
6
  6
CONTINUOUS
 10
6.8444959464
 20
4.937686828
 11
6.8458665716
 21
4.9381115025
  0
LINE
  5
279
100
AcDbEntity
  8
0
100
AcDbLine
 62
6
  6
CONTINUOUS
 10
6.8435626592
 20
4.9374043458
 11
6.8449231665
 21
4.9378179408
  0
LINE
  5
27A
100
AcDbEntity
  8
0
100
AcDbLine
 62
6
  6
CONTINUOUS
 10
6.8426421702
 20
4.9371310083
 11
6.8439934514
 21
4.937534065
  0
LWPOLYLINE
  5
27B
100
AcDbEntity
  8
0
100
AcDbPolyline
 62
6
  6
CONTINUOUS
 90
4
 70
0
 10
4.9821178899
 20
5.0055873798
 10
4.9824800137
 20
5.0050918547
 10
4.9839922753
 20
5.0030551926
 10
4.9844575111
 20
5.0024389699
  0
LINE
  5
27C
100
AcDbEntity
  8
0
100
AcDbLine
 62
6
  6
CONTINUOUS
 10
5.6838387536
 20
4.8265444499
 11
5.6838387536
 21
4.2015444499
  0
LINE
  5
27D
100
AcDbEntity
  8
0
100
AcDbLine
 62
6
  6
CONTINUOUS
 10
6.8845462882
 20
4.9554935048
 11
6.885944237
 21
4.9563462078
  0
LINE
  5
27E
100
AcDbEntity
  8
0
100
AcDbLine
 62
6
  6
CONTINUOUS
 10
6.8833062275
 20
4.9547522735
 11
6.8847109261
 21
4.9555929809
  0
LINE
  5
27F
100
AcDbEntity
  8
0
100
AcDbLine
 62
6
  6
CONTINUOUS
 10
6.8820704944
 20
4.9540275523
 11
6.8834818463
 21
4.9548563912
  0
LINE
  5
280
100
AcDbEntity
  8
0
100
AcDbLine
 62
6
  6
CONTINUOUS
 10
6.8808390705
 20
4.9533189484
 11
6.882256993
 21
4.9541360472
  0
LINE
  5
281
100
AcDbEntity
  8
0
100
AcDbLine
 62
6
  6
CONTINUOUS
 10
6.8796119263
 20
4.9526260785
 11
6.8810363501
 21
4.9534315667
  0
LINE
  5
282
100
AcDbEntity
  8
0
100
AcDbLine
 62
6
  6
CONTINUOUS
 10
6.8783890211
 20
4.9519485688
 11
6.8798198909
 21
4.9527425764
  0
LINE
  5
283
100
AcDbEntity
  8
0
100
AcDbLine
 62
6
  6
CONTINUOUS
 10
6.8771703041
 20
4.9512860545
 11
6.8786075781
 21
4.9520687122
  0
LINE
  5
284
100
AcDbEntity
  8
0
100
AcDbLine
 62
6
  6
CONTINUOUS
 10
6.8759557143
 20
4.9506381802
 11
6.8773993643
 21
4.9514096188
  0
LINE
  5
285
100
AcDbEntity
  8
0
100
AcDbLine
 62
6
  6
CONTINUOUS
 10
6.8747451808
 20
4.9500045996
 11
6.8761951924
 21
4.9507649496
  0
LINE
  5
286
100
AcDbEntity
  8
0
100
AcDbLine
 62
6
  6
CONTINUOUS
 10
6.8735386236
 20
4.9493849753
 11
6.8749949957
 21
4.9501343671
  0
LINE
  5
287
100
AcDbEntity
  8
0
100
AcDbLine
 62
6
  6
CONTINUOUS
 10
6.8723359537
 20
4.9487789792
 11
6.8737986987
 21
4.9495175424
  0
LINE
  5
288
100
AcDbEntity
  8
0
100
AcDbLine
 62
6
  6
CONTINUOUS
 10
6.8711370731
 20
4.9481862917
 11
6.8726062171
 21
4.9489141551
  0
LINE
  5
289
100
AcDbEntity
  8
0
100
AcDbLine
 62
6
  6
CONTINUOUS
 10
6.8699418759
 20
4.9476066024
 11
6.8714174581
 21
4.9483238934
  0
LINE
  5
28A
100
AcDbEntity
  8
0
100
AcDbLine
 62
6
  6
CONTINUOUS
 10
6.8687502479
 20
4.9470396092
 11
6.8702323209
 21
4.9477464542
  0
LINE
  5
28B
100
AcDbEntity
  8
0
100
AcDbLine
 62
6
  6
CONTINUOUS
 10
6.8675620671
 20
4.9464850192
 11
6.8690506969
 21
4.9471815425
  0
LINE
  5
28C
100
AcDbEntity
  8
0
100
AcDbLine
 62
6
  6
CONTINUOUS
 10
6.8655257072
 20
4.9455591492
 11
6.8666975169
 21
4.9460881641
  0
LINE
  5
28D
100
AcDbEntity
  8
0
100
AcDbLine
 62
9
  6
CONTINUOUS
 10
5.3762800808
 20
4.0449880631
 11
6.5443974264
 21
4.0449880631
  0
LWPOLYLINE
  5
28E
100
AcDbEntity
  8
0
100
AcDbPolyline
 62
6
  6
CONTINUOUS
 90
4
 70
0
 10
4.9844574904
 20
5.0024389972
 10
4.9947483035
 20
4.9899896757
 10
5.0074331814
 20
4.9771614164
 10
5.0198267677
 20
4.9666763999
  0
LINE
  5
28F
100
AcDbEntity
  8
0
100
AcDbLine
 62
7
  6
CONTINUOUS
 10
5.9303387536
 20
6.1337829933
 11
5.9303387536
 21
6.1347841306
  0
LINE
  5
290
100
AcDbEntity
  8
0
100
AcDbLine
 62
7
  6
CONTINUOUS
 10
5.9434735168
 20
6.1085485527
 11
5.9434735168
 21
6.1095662703
  0
LWPOLYLINE
  5
291
100
AcDbEntity
  8
0
100
AcDbPolyline
 62
6
  6
CONTINUOUS
 90
3
 70
0
 10
6.8984648808
 20
4.9648584253
 10
6.8997533505
 20
4.9658317479
 10
6.9008507696
 20
4.9666764232
  0
LINE
  5
292
100
AcDbEntity
  8
0
100
AcDbLine
 62
6
  6
CONTINUOUS
 10
6.8971798411
 20
4.9639070249
 11
6.8985017896
 21
4.9648860343
  0
LINE
  5
293
100
AcDbEntity
  8
0
100
AcDbLine
 62
6
  6
CONTINUOUS
 10
6.8958983969
 20
4.9629770477
 11
6.8972288753
 21
4.9639429796
  0
LINE
  5
294
100
AcDbEntity
  8
0
100
AcDbLine
 62
6
  6
CONTINUOUS
 10
6.8946206961
 20
4.9620680039
 11
6.8959594602
 21
4.9630209444
  0
LINE
  5
295
100
AcDbEntity
  8
0
100
AcDbLine
 62
6
  6
CONTINUOUS
 10
6.8933468698
 20
4.9611794129
 11
6.8946936888
 21
4.9621194534
  0
LINE
  5
296
100
AcDbEntity
  8
0
100
AcDbLine
 62
6
  6
CONTINUOUS
 10
6.8920770377
 20
4.9603108065
 11
6.8934316895
 21
4.9612380399
  0
LINE
  5
297
100
AcDbEntity
  8
0
100
AcDbLine
 62
6
  6
CONTINUOUS
 10
6.8908113091
 20
4.9594617291
 11
6.8921735796
 21
4.9603762496
  0
LINE
  5
298
100
AcDbEntity
  8
0
100
AcDbLine
 62
6
  6
CONTINUOUS
 10
6.889549758
 20
4.9586317205
 11
6.890919467
 21
4.9595336401
  0
LINE
  5
299
100
AcDbEntity
  8
0
100
AcDbLine
 62
6
  6
CONTINUOUS
 10
6.8882924426
 20
4.95782033
 11
6.8896694251
 21
4.9587097647
  0
LINE
  5
29A
100
AcDbEntity
  8
0
100
AcDbLine
 62
6
  6
CONTINUOUS
 10
6.8870394074
 20
4.9570271164
 11
6.8884235119
 21
4.9579041851
  0
LINE
  5
29B
100
AcDbEntity
  8
0
100
AcDbLine
 62
6
  6
CONTINUOUS
 10
6.8857906833
 20
4.9562516485
 11
6.8871817719
 21
4.9571164725
  0
LINE
  5
29C
100
AcDbEntity
  8
0
100
AcDbLine
 62
6
  6
CONTINUOUS
 10
5.5616319063
 20
4.2015444499
 11
6.3590456009
 21
4.2015444499
  0
LWPOLYLINE
  5
29D
100
AcDbEntity
  8
0
100
AcDbPolyline
 62
6
  6
CONTINUOUS
 90
3
 70
0
 10
5.0198267376
 20
4.9666764232
 10
5.021103301
 20
4.9656952408
 10
5.022479338
 20
4.9646593891
  0
LWPOLYLINE
  5
29E
100
AcDbEntity
  8
0
100
AcDbPolyline
 62
6
  6
CONTINUOUS
 90
4
 70
0
 10
6.9008507395
 20
4.9666763999
 10
6.9132443258
 20
4.9771614164
 10
6.9259292037
 20
4.9899896757
 10
6.9362200168
 20
5.0024389972
  0
LINE
  5
29F
100
AcDbEntity
  8
0
100
AcDbLine
 62
6
  6
CONTINUOUS
 10
5.0385728587
 20
4.954047398
 11
5.0399128221
 21
4.9532765739
  0
LWPOLYLINE
  5
2A0
100
AcDbEntity
  8
0
100
AcDbPolyline
 62
6
  6
CONTINUOUS
 90
3
 70
0
 10
5.0238505455
 20
4.963649081
 10
5.0252167192
 20
4.962663676
 10
5.0265776787
 20
4.9617025463
  0
LWPOLYLINE
  5
2A1
100
AcDbEntity
  8
0
100
AcDbPolyline
 62
6
  6
CONTINUOUS
 90
13
 70
0
 10
5.0224888531
 20
4.9646523037
 10
5.0238629685
 20
4.9636400259
 10
5.0252319136
 20
4.9626528334
 10
5.0265955058
 20
4.9616900902
 10
5.0279535858
 20
4.9607511736
 10
5.029306017
 20
4.9598354736
 10
5.0306526844
 20
4.9589423935
 10
5.0319934916
 20
4.9580713505
 10
5.033328365
 20
4.9572217734
 10
5.0346572608
 20
4.9563930973
 10
5.0359801538
 20
4.9555847706
 10
5.0372970362
 20
4.9547962553
 10
5.0386079172
 20
4.9540270269
  0
LINE
  5
2A2
100
AcDbEntity
  8
0
100
AcDbLine
 62
6
  6
CONTINUOUS
 10
6.2368387536
 20
4.8265444499
 11
6.2368387536
 21
4.2015444499
  0
LWPOLYLINE
  5
2A3
100
AcDbEntity
  8
0
100
AcDbPolyline
 62
6
  6
CONTINUOUS
 90
4
 70
0
 10
6.9362199961
 20
5.0024389699
 10
6.9366852319
 20
5.0030551926
 10
6.9381974935
 20
5.0050918547
 10
6.9385596173
 20
5.0055873798
  0
LWPOLYLINE
  5
2A4
100
AcDbEntity
  8
0
100
AcDbPolyline
 62
6
  6
CONTINUOUS
 90
18
 70
0
 10
5.0588249447
 20
4.9439659042
 10
5.0600422173
 20
4.9434592323
 10
5.0612514126
 20
4.9429662374
 10
5.0624515599
 20
4.9424869882
 10
5.0636416848
 20
4.9420215324
 10
5.0648208098
 20
4.9415698975
 10
5.0659879547
 20
4.9411320915
 10
5.0671421375
 20
4.9407081034
 10
5.0682823746
 20
4.940297904
 10
5.0694076812
 20
4.9399014468
 10
5.0705171206
 20
4.939518652
 10
5.0716104353
 20
4.9391491984
 10
5.0726878744
 20
4.9387926038
 10
5.0737497088
 20
4.9384483981
 10
5.0747962188
 20
4.9381161261
 10
5.0758276941
 20
4.937795348
 10
5.0768444329
 20
4.9374856385
 10
5.0778467474
 20
4.9371865847
  0
LINE
  5
2A5
100
AcDbEntity
  8
0
100
AcDbLine
 62
6
  6
CONTINUOUS
 10
5.0575629186
 20
4.9445023285
 11
5.0587887976
 21
4.9439811104
  0
LINE
  5
2A6
100
AcDbEntity
  8
0
100
AcDbLine
 62
6
  6
CONTINUOUS
 10
5.0563312617
 20
4.9450368911
 11
5.0576005615
 21
4.9444861633
  0
LINE
  5
2A7
100
AcDbEntity
  8
0
100
AcDbLine
 62
6
  6
CONTINUOUS
 10
5.0550948531
 20
4.9455846232
 11
5.0563700291
 21
4.9450198977
  0
LINE
  5
2A8
100
AcDbEntity
  8
0
100
AcDbLine
 62
6
  6
CONTINUOUS
 10
5.0538541138
 20
4.9461455977
 11
5.055134303
 21
4.9455669736
  0
LINE
  5
2A9
100
AcDbEntity
  8
0
100
AcDbLine
 62
6
  6
CONTINUOUS
 10
5.0526088845
 20
4.9467201512
 11
5.0538940351
 21
4.9461273701
  0
LINE
  5
2AA
100
AcDbEntity
  8
0
100
AcDbLine
 62
6
  6
CONTINUOUS
 10
5.0513589915
 20
4.9473086422
 11
5.0526491499
 21
4.9467013901
  0
LINE
  5
2AB
100
AcDbEntity
  8
0
100
AcDbLine
 62
6
  6
CONTINUOUS
 10
5.0501042705
 20
4.9479114407
 11
5.0513994709
 21
4.9472893965
  0
LINE
  5
2AC
100
AcDbEntity
  8
0
100
AcDbLine
 62
6
  6
CONTINUOUS
 10
5.0488445676
 20
4.9485289285
 11
5.050144832
 21
4.9478917637
  0
LINE
  5
2AD
100
AcDbEntity
  8
0
100
AcDbLine
 62
6
  6
CONTINUOUS
 10
5.0475797396
 20
4.9491614991
 11
5.048885077
 21
4.9485088779
  0
LINE
  5
2AE
100
AcDbEntity
  8
0
100
AcDbLine
 62
6
  6
CONTINUOUS
 10
5.0463096542
 20
4.9498095578
 11
5.0476200608
 21
4.9491411373
  0
LINE
  5
2AF
100
AcDbEntity
  8
0
100
AcDbLine
 62
6
  6
CONTINUOUS
 10
5.0450341909
 20
4.9504735222
 11
5.0463496494
 21
4.949788952
  0
LINE
  5
2B0
100
AcDbEntity
  8
0
100
AcDbLine
 62
6
  6
CONTINUOUS
 10
5.0437532412
 20
4.9511538219
 11
5.0450737204
 21
4.9504527445
  0
LINE
  5
2B1
100
AcDbEntity
  8
0
100
AcDbLine
 62
6
  6
CONTINUOUS
 10
5.0424667091
 20
4.9518508987
 11
5.0437921638
 21
4.9511329494
  0
LINE
  5
2B2
100
AcDbEntity
  8
0
100
AcDbLine
 62
6
  6
CONTINUOUS
 10
5.0411745117
 20
4.952565207
 11
5.0425048823
 21
4.9518300141
  0
LINE
  5
2B3
100
AcDbEntity
  8
0
100
AcDbLine
 62
6
  6
CONTINUOUS
 10
5.0398765799
 20
4.9532972136
 11
5.0412117918
 21
4.9525443981
  0
LINE
  5
2B4
100
AcDbEntity
  8
0
100
AcDbLine
 62
6
  6
CONTINUOUS
 10
6.3038387536
 20
5.1970116349
 11
6.3038387536
 21
4.8565444499
  0
LWPOLYLINE
  5
2B5
100
AcDbEntity
  8
0
100
AcDbPolyline
 62
6
  6
CONTINUOUS
 90
5
 70
0
 10
6.9385596595
 20
5.0055874379
 10
6.9493412503
 20
5.0219475439
 10
6.9595345988
 20
5.0412595031
 10
6.9679287202
 20
5.0619543095
 10
6.9738894442
 20
5.0819568042
  0
LINE
  5
2B6
100
AcDbEntity
  8
0
100
AcDbLine
 62
6
  6
CONTINUOUS
 10
6.839950558
 20
4.9363614946
 11
6.8412793861
 21
4.9367358805
  0
LINE
  5
2B7
100
AcDbEntity
  8
0
100
AcDbLine
 62
6
  6
CONTINUOUS
 10
6.8390742891
 20
4.9361204593
 11
6.8403973815
 21
4.9364861879
  0
LINE
  5
2B8
100
AcDbEntity
  8
0
100
AcDbLine
 62
6
  6
CONTINUOUS
 10
6.8382072952
 20
4.9358865214
 11
6.8395255284
 21
4.9362440034
  0
LINE
  5
2B9
100
AcDbEntity
  8
0
100
AcDbLine
 62
6
  6
CONTINUOUS
 10
6.8373488512
 20
4.9356593243
 11
6.8386631021
 21
4.9360089478
  0
LINE
  5
2BA
100
AcDbEntity
  8
0
100
AcDbLine
 62
6
  6
CONTINUOUS
 10
6.8364982261
 20
4.9354385279
 11
6.8378093716
 21
4.935780659
  0
LINE
  5
2BB
100
AcDbEntity
  8
0
100
AcDbLine
 62
6
  6
CONTINUOUS
 10
6.835654683
 20
4.9352238086
 11
6.8369635996
 21
4.9355587917
  0
LINE
  5
2BC
100
AcDbEntity
  8
0
100
AcDbLine
 62
6
  6
CONTINUOUS
 10
5.0835347556
 20
4.9356054321
 11
5.0845001549
 21
4.9353563548
  0
LINE
  5
2BD
100
AcDbEntity
  8
0
100
AcDbLine
 62
6
  6
CONTINUOUS
 10
5.0826102205
 20
4.935849166
 11
5.0835848029
 21
4.9355923836
  0
LINE
  5
2BE
100
AcDbEntity
  8
0
100
AcDbLine
 62
6
  6
CONTINUOUS
 10
5.0816744906
 20
4.9361010578
 11
5.082658647
 21
4.9358362727
  0
LINE
  5
2BF
100
AcDbEntity
  8
0
100
AcDbLine
 62
6
  6
CONTINUOUS
 10
5.0807270174
 20
4.9363614757
 11
5.0817211359
 21
4.9360883768
  0
LINE
  5
2C0
100
AcDbEntity
  8
0
100
AcDbLine
 62
6
  6
CONTINUOUS
 10
5.0797672594
 20
4.9366308034
 11
5.0807717247
 21
4.9363490658
  0
LINE
  5
2C1
100
AcDbEntity
  8
0
100
AcDbLine
 62
6
  6
CONTINUOUS
 10
5.078794682
 20
4.9369094412
 11
5.0798098755
 21
4.9366187258
  0
LINE
  5
2C2
100
AcDbEntity
  8
0
100
AcDbLine
 62
6
  6
CONTINUOUS
 10
5.0778087585
 20
4.9371978063
 11
5.0788350575
 21
4.936897759
  0
LINE
  5
2C3
100
AcDbEntity
  8
0
100
AcDbLine
 62
6
  6
CONTINUOUS
 10
5.0715861927
 20
4.9391573072
 11
5.072661991
 21
4.9388010836
  0
LINE
  5
2C4
100
AcDbEntity
  8
0
100
AcDbLine
 62
6
  6
CONTINUOUS
 10
6.4878387536
 20
6.0226991075
 11
6.4878387536
 21
5.9467944499
  0
LINE
  5
2C5
100
AcDbEntity
  8
0
100
AcDbLine
 62
6
  6
CONTINUOUS
 10
6.5178387536
 20
5.2665444499
 11
6.5178387536
 21
5.4170951182
  0
LINE
  5
2C6
100
AcDbEntity
  8
0
100
AcDbLine
 62
6
  6
CONTINUOUS
 10
6.5178387536
 20
5.7239010102
 11
6.5178387536
 21
5.8355444499
  0
LINE
  5
2C7
100
AcDbEntity
  8
0
100
AcDbLine
 62
6
  6
CONTINUOUS
 10
6.8348174802
 20
4.9350148583
 11
6.8361250436
 21
4.9353430168
  0
LINE
  5
2C8
100
AcDbEntity
  8
0
100
AcDbLine
 62
6
  6
CONTINUOUS
 10
6.8339858707
 20
4.9348113846
 11
6.8352929553
 21
4.9351330212
  0
LINE
  5
2C9
100
AcDbEntity
  8
0
100
AcDbLine
 62
6
  6
CONTINUOUS
 10
6.8331592736
 20
4.9346131508
 11
6.8344665817
 21
4.9349285073
  0
LINE
  5
2CA
100
AcDbEntity
  8
0
100
AcDbLine
 62
6
  6
CONTINUOUS
 10
6.832337711
 20
4.9344200734
 11
6.8336452029
 21
4.9347292021
  0
LINE
  5
2CB
100
AcDbEntity
  8
0
100
AcDbLine
 62
6
  6
CONTINUOUS
 10
6.8315213392
 20
4.9342321002
 11
6.8328285998
 21
4.9345349659
  0
LINE
  5
2CC
100
AcDbEntity
  8
0
100
AcDbLine
 62
6
  6
CONTINUOUS
 10
6.8307103139
 20
4.9340491776
 11
6.8320169106
 21
4.9343457467
  0
LINE
  5
2CD
100
AcDbEntity
  8
0
100
AcDbLine
 62
6
  6
CONTINUOUS
 10
6.8299047904
 20
4.9338712501
 11
6.8312102803
 21
4.9341614932
  0
LINE
  5
2CE
100
AcDbEntity
  8
0
100
AcDbLine
 62
6
  6
CONTINUOUS
 10
6.8288221867
 20
4.9336379898
 11
6.8304088536
 21
4.9339821524
  0
LINE
  5
2CF
100
AcDbEntity
  8
0
100
AcDbLine
 62
6
  6
CONTINUOUS
 10
6.8275227738
 20
4.9333668625
 11
6.8291049232
 21
4.933698261
  0
LINE
  5
2D0
100
AcDbEntity
  8
0
100
AcDbLine
 62
6
  6
CONTINUOUS
 10
6.8264847992
 20
4.9331571868
 11
6.8280372332
 21
4.9334730552
  0
LINE
  5
2D1
100
AcDbEntity
  8
0
100
AcDbLine
 62
6
  6
CONTINUOUS
 10
6.8251958099
 20
4.9329052953
 11
6.8267407985
 21
4.933208332
  0
LINE
  5
2D2
100
AcDbEntity
  8
0
100
AcDbLine
 62
6
  6
CONTINUOUS
 10
6.8242019554
 20
4.9327174728
 11
6.8257176024
 21
4.9330061324
  0
LINE
  5
2D3
100
AcDbEntity
  8
0
100
AcDbLine
 62
6
  6
CONTINUOUS
 10
6.8229280079
 20
4.932484823
 11
6.8244331005
 21
4.9327606599
  0
LINE
  5
2D4
100
AcDbEntity
  8
0
100
AcDbLine
 62
6
  6
CONTINUOUS
 10
6.8219774565
 20
4.9323171414
 11
6.8234537862
 21
4.9325797399
  0
LINE
  5
2D5
100
AcDbEntity
  8
0
100
AcDbLine
 62
6
  6
CONTINUOUS
 10
6.8207234433
 20
4.932103622
 11
6.8221859263
 21
4.9323534851
  0
LINE
  5
2D6
100
AcDbEntity
  8
0
100
AcDbLine
 62
6
  6
CONTINUOUS
 10
6.8198150758
 20
4.9319544027
 11
6.8212495749
 21
4.932192142
  0
LINE
  5
2D7
100
AcDbEntity
  8
0
100
AcDbLine
 62
6
  6
CONTINUOUS
 10
6.818586681
 20
4.9317598642
 11
6.8200033444
 21
4.9319849548
  0
LINE
  5
2D8
100
AcDbEntity
  8
0
100
AcDbLine
 62
6
  6
CONTINUOUS
 10
6.817720159
 20
4.9316276343
 11
6.8191088369
 21
4.9318415399
  0
LINE
  5
2D9
100
AcDbEntity
  8
0
100
AcDbLine
 62
6
  6
CONTINUOUS
 10
6.8165259543
 20
4.9314521555
 11
6.8178908386
 21
4.9316533533
  0
LINE
  5
2DA
100
AcDbEntity
  8
0
100
AcDbLine
 62
6
  6
CONTINUOUS
 10
6.815702553
 20
4.9313357103
 11
6.817038508
 21
4.9315265137
  0
LINE
  5
2DB
100
AcDbEntity
  8
0
100
AcDbLine
 62
6
  6
CONTINUOUS
 10
6.8144056931
 20
4.9311598107
 11
6.8158576415
 21
4.9313573597
  0
LINE
  5
2DC
100
AcDbEntity
  8
0
100
AcDbLine
 62
6
  6
CONTINUOUS
 10
6.8131502256
 20
4.9309982407
 11
6.8145510993
 21
4.9311790769
  0
LINE
  5
2DD
100
AcDbEntity
  8
0
100
AcDbLine
 62
6
  6
CONTINUOUS
 10
6.8119343881
 20
4.9308499156
 11
6.813286159
 21
4.9310153213
  0
LINE
  5
2DE
100
AcDbEntity
  8
0
100
AcDbLine
 62
6
  6
CONTINUOUS
 10
6.8107552147
 20
4.9307136947
 11
6.8120609153
 21
4.9308649783
  0
LINE
  5
2DF
100
AcDbEntity
  8
0
100
AcDbLine
 62
6
  6
CONTINUOUS
 10
6.8096097305
 20
4.9305885397
 11
6.8108724507
 21
4.9307269023
  0
LINE
  5
2E0
100
AcDbEntity
  8
0
100
AcDbLine
 62
6
  6
CONTINUOUS
 10
6.808494975
 20
4.930473511
 11
6.8097178395
 21
4.9306000501
  0
LINE
  5
2E1
100
AcDbEntity
  8
0
100
AcDbLine
 62
6
  6
CONTINUOUS
 10
6.8074081478
 20
4.930367774
 11
6.8085941675
 21
4.9304834763
  0
LINE
  5
2E2
100
AcDbEntity
  8
0
100
AcDbLine
 62
6
  6
CONTINUOUS
 10
6.2368387536
 20
4.8265444499
 11
5.6838387536
 21
4.8265444499
  0
LINE
  5
2E3
100
AcDbEntity
  8
0
100
AcDbLine
 62
6
  6
CONTINUOUS
 10
5.1123254724
 20
4.9304592433
 11
5.1136225407
 21
4.9303347725
  0
LINE
  5
2E4
100
AcDbEntity
  8
0
100
AcDbLine
 62
6
  6
CONTINUOUS
 10
5.1109994066
 20
4.9305958118
 11
5.1123254724
 21
4.9304592433
  0
LINE
  5
2E5
100
AcDbEntity
  8
0
100
AcDbLine
 62
6
  6
CONTINUOUS
 10
5.1096494044
 20
4.9307445523
 11
5.1109814503
 21
4.9305977258
  0
LINE
  5
2E6
100
AcDbEntity
  8
0
100
AcDbLine
 62
6
  6
CONTINUOUS
 10
5.1082777622
 20
4.9309057414
 11
5.1096494044
 21
4.9307445523
  0
LINE
  5
2E7
100
AcDbEntity
  8
0
100
AcDbLine
 62
6
  6
CONTINUOUS
 10
5.1068836328
 20
4.9310800046
 11
5.1082777622
 21
4.9309057414
  0
LINE
  5
2E8
100
AcDbEntity
  8
0
100
AcDbLine
 62
6
  6
CONTINUOUS
 10
5.1054660293
 20
4.931268025
 11
5.1068836328
 21
4.9310800046
  0
LINE
  5
2E9
100
AcDbEntity
  8
0
100
AcDbLine
 62
6
  6
CONTINUOUS
 10
5.1040239469
 20
4.9314705333
 11
5.1054660293
 21
4.931268025
  0
LINE
  5
2EA
100
AcDbEntity
  8
0
100
AcDbLine
 62
6
  6
CONTINUOUS
 10
5.1025152988
 20
4.9316945745
 11
5.1040239469
 21
4.9314705333
  0
LINE
  5
2EB
100
AcDbEntity
  8
0
100
AcDbLine
 62
6
  6
CONTINUOUS
 10
5.1010175593
 20
4.9319293759
 11
5.1025563846
 21
4.9316883075
  0
LINE
  5
2EC
100
AcDbEntity
  8
0
100
AcDbLine
 62
6
  6
CONTINUOUS
 10
5.0994927245
 20
4.932181158
 11
5.101062356
 21
4.9319221736
  0
LINE
  5
2ED
100
AcDbEntity
  8
0
100
AcDbLine
 62
6
  6
CONTINUOUS
 10
5.09799108
 20
4.9324417292
 11
5.0995408947
 21
4.9321730069
  0
LINE
  5
2EE
100
AcDbEntity
  8
0
100
AcDbLine
 62
6
  6
CONTINUOUS
 10
5.0971529835
 20
4.932592628
 11
5.0987198885
 21
4.9323136956
  0
LINE
  5
2EF
100
AcDbEntity
  8
0
100
AcDbLine
 62
6
  6
CONTINUOUS
 10
5.0956117603
 20
4.9328803995
 11
5.0972053203
 21
4.9325830898
  0
LINE
  5
2F0
100
AcDbEntity
  8
0
100
AcDbLine
 62
6
  6
CONTINUOUS
 10
5.0948038299
 20
4.9330365926
 11
5.0963587894
 21
4.9327392512
  0
LINE
  5
2F1
100
AcDbEntity
  8
0
100
AcDbLine
 62
6
  6
CONTINUOUS
 10
5.0939883812
 20
4.9331979786
 11
5.0955573526
 21
4.9328908023
  0
LINE
  5
2F2
100
AcDbEntity
  8
0
100
AcDbLine
 62
6
  6
CONTINUOUS
 10
5.0931653525
 20
4.9333646864
 11
5.0947486135
 21
4.9330474019
  0
LINE
  5
2F3
100
AcDbEntity
  8
0
100
AcDbLine
 62
6
  6
CONTINUOUS
 10
5.0923346837
 20
4.9335368478
 11
5.0939325136
 21
4.9332091733
  0
LINE
  5
2F4
100
AcDbEntity
  8
0
100
AcDbLine
 62
6
  6
CONTINUOUS
 10
5.0914963163
 20
4.9337145974
 11
5.0931089959
 21
4.9333762425
  0
LINE
  5
2F5
100
AcDbEntity
  8
0
100
AcDbLine
 62
6
  6
CONTINUOUS
 10
5.0906501933
 20
4.9338980729
 11
5.0922780051
 21
4.9335487382
  0
LINE
  5
2F6
100
AcDbEntity
  8
0
100
AcDbLine
 62
6
  6
CONTINUOUS
 10
5.08979626
 20
4.9340874148
 11
5.0914394871
 21
4.9337267918
  0
LINE
  5
2F7
100
AcDbEntity
  8
0
100
AcDbLine
 62
6
  6
CONTINUOUS
 10
5.0897396628
 20
4.9341001125
 11
5.0905933899
 21
4.9339105376
  0
LINE
  5
2F8
100
AcDbEntity
  8
0
100
AcDbLine
 62
6
  6
CONTINUOUS
 10
5.0888782575
 20
4.9342956565
 11
5.08979626
 21
4.9340874148
  0
LINE
  5
2F9
100
AcDbEntity
  8
0
100
AcDbLine
 62
6
  6
CONTINUOUS
 10
5.0880091273
 20
4.9344973123
 11
5.0889344632
 21
4.9342827666
  0
LINE
  5
2FA
100
AcDbEntity
  8
0
100
AcDbLine
 62
6
  6
CONTINUOUS
 10
5.0871321305
 20
4.9347052487
 11
5.0880647518
 21
4.9344842748
  0
LINE
  5
2FB
100
AcDbEntity
  8
0
100
AcDbLine
 62
6
  6
CONTINUOUS
 10
5.086246769
 20
4.9349197275
 11
5.0871869879
 21
4.9346921104
  0
LINE
  5
2FC
100
AcDbEntity
  8
0
100
AcDbLine
 62
6
  6
CONTINUOUS
 10
5.0853524663
 20
4.9351410429
 11
5.0863006818
 21
4.9349065358
  0
LINE
  5
2FD
100
AcDbEntity
  8
0
100
AcDbLine
 62
6
  6
CONTINUOUS
 10
5.0844486506
 20
4.9353695035
 11
5.0854052602
 21
4.9351278471
  0
LINE
  5
2FE
100
AcDbEntity
  8
0
100
AcDbLine
 62
6
  6
CONTINUOUS
 10
5.4821182097
 20
5.4580016362
 11
5.4868355343
 21
5.4538026298
  0
LINE
  5
2FF
100
AcDbEntity
  8
0
100
AcDbLine
 62
9
  6
CONTINUOUS
 10
5.4867705555
 20
5.4538638253
 11
5.4868349842
 21
5.453803309
  0
LINE
  5
300
100
AcDbEntity
  8
0
100
AcDbLine
 62
6
  6
CONTINUOUS
 10
6.5443974264
 20
4.0449880631
 11
6.7078387536
 21
3.0815444499
  0
LINE
  5
301
100
AcDbEntity
  8
0
100
AcDbLine
 62
6
  6
CONTINUOUS
 10
6.5756107478
 20
5.2093676002
 11
6.5785329703
 21
5.1772728556
  0
LINE
  5
302
100
AcDbEntity
  8
0
100
AcDbLine
 62
6
  6
CONTINUOUS
 10
6.5785260331
 20
5.1773717886
 11
6.5809139711
 21
5.1433167103
  0
LINE
  5
303
100
AcDbEntity
  8
0
100
AcDbLine
 62
6
  6
CONTINUOUS
 10
6.8063481932
 20
4.9302707297
 11
6.807498719
 21
4.9303763443
  0
LINE
  5
304
100
AcDbEntity
  8
0
100
AcDbLine
 62
6
  6
CONTINUOUS
 10
5.1424480118
 20
4.9301143633
 11
5.1434339024
 21
4.9301984771
  0
LINE
  5
305
100
AcDbEntity
  8
0
100
AcDbLine
 62
6
  6
CONTINUOUS
 10
6.8053144491
 20
4.9301818487
 11
6.8064303881
 21
4.9302780408
  0
LINE
  5
306
100
AcDbEntity
  8
0
100
AcDbLine
 62
6
  6
CONTINUOUS
 10
5.1416811412
 20
4.9300528924
 11
5.1426433543
 21
4.930130575
  0
LINE
  5
307
100
AcDbEntity
  8
0
100
AcDbLine
 62
6
  6
CONTINUOUS
 10
6.8043059501
 20
4.930100603
 11
6.8053883435
 21
4.9301880136
  0
LINE
  5
308
100
AcDbEntity
  8
0
100
AcDbLine
 62
6
  6
CONTINUOUS
 10
5.1409274669
 20
4.9299958561
 11
5.1418649212
 21
4.9300673083
  0
LINE
  5
309
100
AcDbEntity
  8
0
100
AcDbLine
 62
6
  6
CONTINUOUS
 10
6.8033217709
 20
4.9300264956
 11
6.8043714806
 21
4.9301057187
  0
LINE
  5
30A
100
AcDbEntity
  8
0
100
AcDbLine
 62
6
  6
CONTINUOUS
 10
5.1401883352
 20
4.9299431747
 11
5.1410995779
 21
4.930008586
  0
LINE
  5
30B
100
AcDbEntity
  8
0
100
AcDbLine
 62
6
  6
CONTINUOUS
 10
6.8023602984
 20
4.9299590019
 11
6.8033787865
 21
4.9300306497
  0
LINE
  5
30C
100
AcDbEntity
  8
0
100
AcDbLine
 62
6
  6
CONTINUOUS
 10
6.801452546
 20
4.9298996662
 11
6.8024084051
 21
4.9299622645
  0
LINE
  5
30D
100
AcDbEntity
  8
0
100
AcDbLine
 62
6
  6
CONTINUOUS
 10
5.1388960097
 20
4.9298588183
 11
5.1403487046
 21
4.9299543311
  0
LINE
  5
30E
100
AcDbEntity
  8
0
100
AcDbLine
 62
6
  6
CONTINUOUS
 10
6.8003844977
 20
4.9298350756
 11
6.8014926397
 21
4.9299021985
  0
LINE
  5
30F
100
AcDbEntity
  8
0
100
AcDbLine
 62
6
  6
CONTINUOUS
 10
5.1380718355
 20
4.9298101802
 11
5.1394651113
 21
4.9298947498
  0
LINE
  5
310
100
AcDbEntity
  8
0
100
AcDbLine
 62
9
  6
CONTINUOUS
 10
6.8001361896
 20
4.9298208042
 11
6.8001159421
 21
4.9298196216
  0
LINE
  5
311
100
AcDbEntity
  8
0
100
AcDbLine
 62
6
  6
CONTINUOUS
 10
6.8000836389
 20
4.9298177454
 11
6.80036304
 21
4.9298338305
  0
LINE
  5
312
100
AcDbEntity
  8
0
100
AcDbLine
 62
6
  6
CONTINUOUS
 10
5.1368545014
 20
4.9297457062
 11
5.1381970344
 21
4.9298173096
  0
LINE
  5
313
100
AcDbEntity
  8
0
100
AcDbLine
 62
6
  6
CONTINUOUS
 10
5.1361137806
 20
4.9297107824
 11
5.1374027918
 21
4.9297736571
  0
LINE
  5
314
100
AcDbEntity
  8
0
100
AcDbLine
 62
6
  6
CONTINUOUS
 10
5.1348810057
 20
4.9296599032
 11
5.1362080143
 21
4.9297150442
  0
LINE
  5
315
100
AcDbEntity
  8
0
100
AcDbLine
 62
6
  6
CONTINUOUS
 10
5.1336971855
 20
4.9296195909
 11
5.1349574776
 21
4.9296627956
  0
LWPOLYLINE
  5
316
100
AcDbEntity
  8
0
100
AcDbPolyline
 62
6
  6
CONTINUOUS
 90
4
 70
0
 10
6.7935462346
 20
4.9295618135
 10
6.7957670362
 20
4.9296184405
 10
6.7982835893
 20
4.9297216944
 10
6.8001361896
 20
4.9298208042
  0
LINE
  5
317
100
AcDbEntity
  8
0
100
AcDbLine
 62
6
  6
CONTINUOUS
 10
5.1325596981
 20
4.9295887855
 11
5.1337572033
 21
4.9296214326
  0
LINE
  5
318
100
AcDbEntity
  8
0
100
AcDbLine
 62
6
  6
CONTINUOUS
 10
5.1314984986
 20
4.9295671113
 11
5.13260463
 21
4.9295898542
  0
LINE
  5
319
100
AcDbEntity
  8
0
100
AcDbLine
 62
6
  6
CONTINUOUS
 10
5.1304532796
 20
4.9295525474
 11
5.1314984986
 21
4.9295671113
  0
LINE
  5
31A
100
AcDbEntity
  8
0
100
AcDbLine
 62
6
  6
CONTINUOUS
 10
6.7916639203
 20
4.9295448716
 11
6.7935445731
 21
4.9295617981
  0
LINE
  5
31B
100
AcDbEntity
  8
0
100
AcDbLine
 62
6
  6
CONTINUOUS
 10
5.1294956259
 20
4.9295454207
 11
5.1304532796
 21
4.9295525474
  0
LINE
  5
31C
100
AcDbEntity
  8
0
100
AcDbLine
 62
6
  6
CONTINUOUS
 10
5.1290937388
 20
4.9295444599
 11
5.1299628321
 21
4.9295481138
  0
LINE
  5
31D
100
AcDbEntity
  8
0
100
AcDbLine
 62
6
  6
CONTINUOUS
 10
6.7916667896
 20
4.9295444591
 11
6.7916248747
 21
4.9295444499
  0
LINE
  5
31E
100
AcDbEntity
  8
0
100
AcDbLine
 62
9
  6
CONTINUOUS
 10
5.1290923911
 20
4.9295444596
 11
5.1290526325
 21
4.9295444499
  0
LINE
  5
31F
100
AcDbEntity
  8
0
100
AcDbLine
 62
6
  6
CONTINUOUS
 10
6.3038387536
 20
4.8565444499
 11
5.6168387536
 21
4.8565444499
  0
LINE
  5
320
100
AcDbEntity
  8
0
100
AcDbLine
 62
6
  6
CONTINUOUS
 10
5.1290107176
 20
4.9295444591
 11
5.1290526325
 21
4.9295444499
  0
LINE
  5
321
100
AcDbEntity
  8
0
100
AcDbLine
 62
9
  6
CONTINUOUS
 10
6.7915851161
 20
4.9295444596
 11
6.7916248747
 21
4.9295444499
  0
LINE
  5
322
100
AcDbEntity
  8
0
100
AcDbLine
 62
6
  6
CONTINUOUS
 10
6.7907251054
 20
4.9295480369
 11
6.7915837684
 21
4.9295444599
  0
LINE
  5
323
100
AcDbEntity
  8
0
100
AcDbLine
 62
6
  6
CONTINUOUS
 10
5.1271329341
 20
4.9295617981
 11
5.1290105859
 21
4.9295444591
  0
LINE
  5
324
100
AcDbEntity
  8
0
100
AcDbLine
 62
9
  6
CONTINUOUS
 10
5.1290173393
 20
4.9295448326
 11
5.1290526325
 21
4.9295444499
  0
LINE
  5
325
100
AcDbEntity
  8
0
100
AcDbLine
 62
6
  6
CONTINUOUS
 10
6.789734975
 20
4.9295585138
 11
6.7907251054
 21
4.9295480369
  0
LINE
  5
326
100
AcDbEntity
  8
0
100
AcDbLine
 62
6
  6
CONTINUOUS
 10
6.7886698474
 20
4.9295766541
 11
6.789734975
 21
4.9295585138
  0
LINE
  5
327
100
AcDbEntity
  8
0
100
AcDbLine
 62
6
  6
CONTINUOUS
 10
5.124918703
 20
4.9296182306
 11
5.1271345656
 21
4.9295617567
  0
LINE
  5
328
100
AcDbEntity
  8
0
100
AcDbLine
 62
6
  6
CONTINUOUS
 10
6.7875022032
 20
4.9296044894
 11
6.788632151
 21
4.9295774236
  0
LINE
  5
329
100
AcDbEntity
  8
0
100
AcDbLine
 62
6
  6
CONTINUOUS
 10
6.7863265381
 20
4.9296408166
 11
6.7875545483
 21
4.9296030652
  0
LINE
  5
32A
100
AcDbEntity
  8
0
100
AcDbLine
 62
6
  6
CONTINUOUS
 10
6.7851013821
 20
4.9296874781
 11
6.7863946354
 21
4.9296384862
  0
LINE
  5
32B
100
AcDbEntity
  8
0
100
AcDbLine
 62
6
  6
CONTINUOUS
 10
5.1224350432
 20
4.9297197074
 11
5.1249269328
 21
4.9296178943
  0
LINE
  5
32C
100
AcDbEntity
  8
0
100
AcDbLine
 62
6
  6
CONTINUOUS
 10
6.7838230058
 20
4.9297457062
 11
6.7851864857
 21
4.9296839472
  0
LINE
  5
32D
100
AcDbEntity
  8
0
100
AcDbLine
 62
6
  6
CONTINUOUS
 10
6.7826056717
 20
4.9298101802
 11
6.7839269245
 21
4.9297406099
  0
LINE
  5
32E
100
AcDbEntity
  8
0
100
AcDbLine
 62
9
  6
CONTINUOUS
 10
5.1205413176
 20
4.9298208042
 11
5.1205665315
 21
4.9298193319
  0
LINE
  5
32F
100
AcDbEntity
  8
0
100
AcDbLine
 62
6
  6
CONTINUOUS
 10
5.119918962
 20
4.929857089
 11
5.1224107835
 21
4.9297210024
  0
LINE
  5
330
100
AcDbEntity
  8
0
100
AcDbLine
 62
6
  6
CONTINUOUS
 10
6.7817814975
 20
4.9298588183
 11
6.7831604964
 21
4.9297797044
  0
LINE
  5
331
100
AcDbEntity
  8
0
100
AcDbLine
 62
6
  6
CONTINUOUS
 10
5.1189685314
 20
4.9299160019
 11
5.1203044881
 21
4.9298344093
  0
LINE
  5
332
100
AcDbEntity
  8
0
100
AcDbLine
 62
6
  6
CONTINUOUS
 10
6.780489172
 20
4.9299431747
 11
6.7819183282
 21
4.9298504649
  0
LINE
  5
333
100
AcDbEntity
  8
0
100
AcDbLine
 62
6
  6
CONTINUOUS
 10
5.1178736123
 20
4.9299895425
 11
5.1189685314
 21
4.9299160019
  0
LINE
  5
334
100
AcDbEntity
  8
0
100
AcDbLine
 62
6
  6
CONTINUOUS
 10
6.7797500403
 20
4.9299958561
 11
6.7810638004
 21
4.9299044471
  0
LINE
  5
335
100
AcDbEntity
  8
0
100
AcDbLine
 62
6
  6
CONTINUOUS
 10
5.1167076732
 20
4.9300747202
 11
5.1178662367
 21
4.929990059
  0
LINE
  5
336
100
AcDbEntity
  8
0
100
AcDbLine
 62
6
  6
CONTINUOUS
 10
6.778996366
 20
4.9300528924
 11
6.7803288026
 21
4.9299543311
  0
LINE
  5
337
100
AcDbEntity
  8
0
100
AcDbLine
 62
6
  6
CONTINUOUS
 10
6.7782294954
 20
4.9301143633
 11
6.7795779293
 21
4.930008586
  0
LINE
  5
338
100
AcDbEntity
  8
0
100
AcDbLine
 62
6
  6
CONTINUOUS
 10
5.1155018866
 20
4.9301703447
 11
5.1167076732
 21
4.9300747202
  0
LINE
  5
339
100
AcDbEntity
  8
0
100
AcDbLine
 62
6
  6
CONTINUOUS
 10
6.7774505679
 20
4.9301803453
 11
6.778812586
 21
4.9300673083
  0
LINE
  5
33A
100
AcDbEntity
  8
0
100
AcDbLine
 62
6
  6
CONTINUOUS
 10
6.7772436048
 20
4.9301984771
 11
6.7780341529
 21
4.930130575
  0
LWPOLYLINE
  5
33B
100
AcDbEntity
  8
0
100
AcDbPolyline
 62
6
  6
CONTINUOUS
 90
3
 70
0
 10
5.1136136964
 20
4.9303355908
 10
5.1142523304
 20
4.9302775762
 10
5.1155018866
 20
4.9301703447
  0
LINE
  5
33C
100
AcDbEntity
  8
0
100
AcDbLine
 62
6
  6
CONTINUOUS
 10
6.5664567011
 20
5.2772258333
 11
6.5718151794
 21
5.2418687359
  0
LINE
  5
33D
100
AcDbEntity
  8
0
100
AcDbLine
 62
6
  6
CONTINUOUS
 10
6.5809139711
 20
5.1433167103
 11
6.5809172914
 21
5.1432910027
  0
LINE
  5
33E
100
AcDbEntity
  8
0
100
AcDbLine
 62
6
  6
CONTINUOUS
 10
6.571804704
 20
5.2419584355
 11
6.5756298291
 21
5.209178173
  0
LINE
  5
33F
100
AcDbEntity
  8
0
100
AcDbLine
 62
6
  6
CONTINUOUS
 10
6.9738894628
 20
5.081956879
 11
6.9785156121
 21
5.105265551
  0
LINE
  5
340
100
AcDbEntity
  8
0
100
AcDbLine
 62
6
  6
CONTINUOUS
 10
5.1749524266
 20
4.9359000206
 11
5.1768858651
 21
4.9364421769
  0
LINE
  5
341
100
AcDbEntity
  8
0
100
AcDbLine
 62
6
  6
CONTINUOUS
 10
5.1737888394
 20
4.9355846788
 11
5.1756765598
 21
4.9361004114
  0
LINE
  5
342
100
AcDbEntity
  8
0
100
AcDbLine
 62
6
  6
CONTINUOUS
 10
5.172641211
 20
4.9352816805
 11
5.1744895677
 21
4.9357735997
  0
LINE
  5
343
100
AcDbEntity
  8
0
100
AcDbLine
 62
6
  6
CONTINUOUS
 10
5.1715089675
 20
4.9349905229
 11
5.1733204651
 21
4.9354600577
  0
LINE
  5
344
100
AcDbEntity
  8
0
100
AcDbLine
 62
6
  6
CONTINUOUS
 10
5.1703918325
 20
4.9347108003
 11
5.172167257
 21
4.9351588639
  0
LINE
  5
345
100
AcDbEntity
  8
0
100
AcDbLine
 62
6
  6
CONTINUOUS
 10
5.1692895223
 20
4.9344421199
 11
5.1710296295
 21
4.9348695829
  0
LINE
  5
346
100
AcDbEntity
  8
0
100
AcDbLine
 62
6
  6
CONTINUOUS
 10
5.1682017466
 20
4.9341841014
 11
5.1699072941
 21
4.9345918018
  0
LINE
  5
347
100
AcDbEntity
  8
0
100
AcDbLine
 62
6
  6
CONTINUOUS
 10
5.1671282085
 20
4.9339363774
 11
5.1687999552
 21
4.9343251213
  0
LINE
  5
348
100
AcDbEntity
  8
0
100
AcDbLine
 62
6
  6
CONTINUOUS
 10
5.1660686048
 20
4.9336985926
 11
5.1677073102
 21
4.9340691552
  0
LINE
  5
349
100
AcDbEntity
  8
0
100
AcDbLine
 62
6
  6
CONTINUOUS
 10
5.1650226267
 20
4.9334704038
 11
5.1666290499
 21
4.9338235303
  0
LINE
  5
34A
100
AcDbEntity
  8
0
100
AcDbLine
 62
6
  6
CONTINUOUS
 10
5.1639899593
 20
4.9332514794
 11
5.1655648588
 21
4.9335878861
  0
LINE
  5
34B
100
AcDbEntity
  8
0
100
AcDbLine
 62
6
  6
CONTINUOUS
 10
5.1629702821
 20
4.9330414995
 11
5.1645144152
 21
4.9333618744
  0
LINE
  5
34C
100
AcDbEntity
  8
0
100
AcDbLine
 62
6
  6
CONTINUOUS
 10
5.1619632495
 20
4.9328401517
 11
5.1634773919
 21
4.9331451592
  0
LINE
  5
34D
100
AcDbEntity
  8
0
100
AcDbLine
 62
6
  6
CONTINUOUS
 10
5.1609684919
 20
4.9326471315
 11
5.1624534499
 21
4.9329374154
  0
LINE
  5
34E
100
AcDbEntity
  8
0
100
AcDbLine
 62
6
  6
CONTINUOUS
 10
5.1599856358
 20
4.9324621464
 11
5.1614422169
 21
4.9327383243
  0
LINE
  5
34F
100
AcDbEntity
  8
0
100
AcDbLine
 62
6
  6
CONTINUOUS
 10
5.1590143034
 20
4.9322849156
 11
5.1604433101
 21
4.9325475784
  0
LINE
  5
350
100
AcDbEntity
  8
0
100
AcDbLine
 62
6
  6
CONTINUOUS
 10
5.1580541137
 20
4.9321151699
 11
5.1594563426
 21
4.9323648827
  0
LINE
  5
351
100
AcDbEntity
  8
0
100
AcDbLine
 62
6
  6
CONTINUOUS
 10
5.1571046821
 20
4.9319526513
 11
5.158480924
 21
4.932189954
  0
LINE
  5
352
100
AcDbEntity
  8
0
100
AcDbLine
 62
6
  6
CONTINUOUS
 10
5.1561656208
 20
4.9317971128
 11
5.1575166599
 21
4.9320225214
  0
LINE
  5
353
100
AcDbEntity
  8
0
100
AcDbLine
 62
6
  6
CONTINUOUS
 10
5.1552365388
 20
4.9316483182
 11
5.1565631526
 21
4.9318623251
  0
LINE
  5
354
100
AcDbEntity
  8
0
100
AcDbLine
 62
6
  6
CONTINUOUS
 10
5.1543170424
 20
4.9315060422
 11
5.1556200011
 21
4.931709117
  0
LINE
  5
355
100
AcDbEntity
  8
0
100
AcDbLine
 62
6
  6
CONTINUOUS
 10
5.1534067352
 20
4.9313700695
 11
5.1546868014
 21
4.9315626601
  0
LINE
  5
356
100
AcDbEntity
  8
0
100
AcDbLine
 62
6
  6
CONTINUOUS
 10
5.1525052571
 20
4.9312402009
 11
5.1537631464
 21
4.9314227282
  0
LINE
  5
357
100
AcDbEntity
  8
0
100
AcDbLine
 62
6
  6
CONTINUOUS
 10
5.1516126303
 20
4.9311162987
 11
5.1528486295
 21
4.9312891064
  0
LINE
  5
358
100
AcDbEntity
  8
0
100
AcDbLine
 62
6
  6
CONTINUOUS
 10
5.1507290909
 20
4.9309982545
 11
5.1519430761
 21
4.9311616225
  0
LINE
  5
359
100
AcDbEntity
  8
0
100
AcDbLine
 62
6
  6
CONTINUOUS
 10
5.1498548804
 20
4.9308859578
 11
5.1510466963
 21
4.9310401613
  0
LINE
  5
35A
100
AcDbEntity
  8
0
100
AcDbLine
 62
6
  6
CONTINUOUS
 10
5.1489902431
 20
4.9307792954
 11
5.1501597372
 21
4.9309246097
  0
LINE
  5
35B
100
AcDbEntity
  8
0
100
AcDbLine
 62
6
  6
CONTINUOUS
 10
5.1481354266
 20
4.9306781512
 11
5.1492824494
 21
4.9308148521
  0
LINE
  5
35C
100
AcDbEntity
  8
0
100
AcDbLine
 62
6
  6
CONTINUOUS
 10
5.1472906808
 20
4.9305824067
 11
5.148415087
 21
4.93071077
  0
LINE
  5
35D
100
AcDbEntity
  8
0
100
AcDbLine
 62
6
  6
CONTINUOUS
 10
5.1464562583
 20
4.9304919406
 11
5.1475579065
 21
4.9306122419
  0
LINE
  5
35E
100
AcDbEntity
  8
0
100
AcDbLine
 62
6
  6
CONTINUOUS
 10
5.145632414
 20
4.9304066291
 11
5.1467111673
 21
4.930519144
  0
LINE
  5
35F
100
AcDbEntity
  8
0
100
AcDbLine
 62
6
  6
CONTINUOUS
 10
5.1448194055
 20
4.9303263457
 11
5.1458751314
 21
4.9304313493
  0
LINE
  5
360
100
AcDbEntity
  8
0
100
AcDbLine
 62
6
  6
CONTINUOUS
 10
5.1440174928
 20
4.9302509615
 11
5.1450500632
 21
4.9303487284
  0
LINE
  5
361
100
AcDbEntity
  8
0
100
AcDbLine
 62
6
  6
CONTINUOUS
 10
5.1432269393
 20
4.9301803453
 11
5.14423623
 21
4.9302711492
  0
LINE
  5
362
100
AcDbEntity
  8
0
100
AcDbLine
 62
6
  6
CONTINUOUS
 10
6.7764412772
 20
4.9302711492
 11
6.7774505679
 21
4.9301803453
  0
LINE
  5
363
100
AcDbEntity
  8
0
100
AcDbLine
 62
6
  6
CONTINUOUS
 10
6.775627444
 20
4.9303487284
 11
6.7766600144
 21
4.9302509615
  0
LINE
  5
364
100
AcDbEntity
  8
0
100
AcDbLine
 62
6
  6
CONTINUOUS
 10
6.7748023758
 20
4.9304313493
 11
6.7758581017
 21
4.9303263457
  0
LINE
  5
365
100
AcDbEntity
  8
0
100
AcDbLine
 62
6
  6
CONTINUOUS
 10
6.7739663399
 20
4.930519144
 11
6.7750450932
 21
4.9304066291
  0
LINE
  5
366
100
AcDbEntity
  8
0
100
AcDbLine
 62
6
  6
CONTINUOUS
 10
6.7731196007
 20
4.9306122419
 11
6.7742212489
 21
4.9304919406
  0
LINE
  5
367
100
AcDbEntity
  8
0
100
AcDbLine
 62
6
  6
CONTINUOUS
 10
6.7722624202
 20
4.93071077
 11
6.7733868264
 21
4.9305824067
  0
LINE
  5
368
100
AcDbEntity
  8
0
100
AcDbLine
 62
6
  6
CONTINUOUS
 10
6.7713950578
 20
4.9308148521
 11
6.7725420806
 21
4.9306781512
  0
LINE
  5
369
100
AcDbEntity
  8
0
100
AcDbLine
 62
6
  6
CONTINUOUS
 10
6.77051777
 20
4.9309246097
 11
6.7716872641
 21
4.9307792954
  0
LINE
  5
36A
100
AcDbEntity
  8
0
100
AcDbLine
 62
6
  6
CONTINUOUS
 10
6.7696308109
 20
4.9310401613
 11
6.7708226268
 21
4.9308859578
  0
LINE
  5
36B
100
AcDbEntity
  8
0
100
AcDbLine
 62
6
  6
CONTINUOUS
 10
6.7687344311
 20
4.9311616225
 11
6.7699484163
 21
4.9309982545
  0
LINE
  5
36C
100
AcDbEntity
  8
0
100
AcDbLine
 62
6
  6
CONTINUOUS
 10
6.7678288777
 20
4.9312891064
 11
6.7690648769
 21
4.9311162987
  0
LINE
  5
36D
100
AcDbEntity
  8
0
100
AcDbLine
 62
6
  6
CONTINUOUS
 10
6.7669143608
 20
4.9314227282
 11
6.7681722501
 21
4.9312402009
  0
LINE
  5
36E
100
AcDbEntity
  8
0
100
AcDbLine
 62
6
  6
CONTINUOUS
 10
6.7659907058
 20
4.9315626601
 11
6.767270772
 21
4.9313700695
  0
LINE
  5
36F
100
AcDbEntity
  8
0
100
AcDbLine
 62
6
  6
CONTINUOUS
 10
6.7650575061
 20
4.931709117
 11
6.7663604648
 21
4.9315060422
  0
LINE
  5
370
100
AcDbEntity
  8
0
100
AcDbLine
 62
6
  6
CONTINUOUS
 10
6.7641143546
 20
4.9318623251
 11
6.7654409684
 21
4.9316483182
  0
LINE
  5
371
100
AcDbEntity
  8
0
100
AcDbLine
 62
6
  6
CONTINUOUS
 10
6.7631608473
 20
4.9320225214
 11
6.7645118864
 21
4.9317971128
  0
LINE
  5
372
100
AcDbEntity
  8
0
100
AcDbLine
 62
6
  6
CONTINUOUS
 10
6.7621965832
 20
4.932189954
 11
6.7635728251
 21
4.9319526513
  0
LINE
  5
373
100
AcDbEntity
  8
0
100
AcDbLine
 62
6
  6
CONTINUOUS
 10
6.7612211646
 20
4.9323648827
 11
6.7626233935
 21
4.9321151699
  0
LINE
  5
374
100
AcDbEntity
  8
0
100
AcDbLine
 62
6
  6
CONTINUOUS
 10
6.7602341971
 20
4.9325475784
 11
6.7616632038
 21
4.9322849156
  0
LINE
  5
375
100
AcDbEntity
  8
0
100
AcDbLine
 62
6
  6
CONTINUOUS
 10
6.7592352903
 20
4.9327383243
 11
6.7606918714
 21
4.9324621464
  0
LINE
  5
376
100
AcDbEntity
  8
0
100
AcDbLine
 62
6
  6
CONTINUOUS
 10
6.7582240573
 20
4.9329374154
 11
6.7597090153
 21
4.9326471315
  0
LINE
  5
377
100
AcDbEntity
  8
0
100
AcDbLine
 62
6
  6
CONTINUOUS
 10
6.7572001153
 20
4.9331451592
 11
6.7587142577
 21
4.9328401517
  0
LINE
  5
378
100
AcDbEntity
  8
0
100
AcDbLine
 62
6
  6
CONTINUOUS
 10
6.756163092
 20
4.9333618744
 11
6.7577072251
 21
4.9330414995
  0
LINE
  5
379
100
AcDbEntity
  8
0
100
AcDbLine
 62
6
  6
CONTINUOUS
 10
6.7551126484
 20
4.9335878861
 11
6.7566875479
 21
4.9332514794
  0
LINE
  5
37A
100
AcDbEntity
  8
0
100
AcDbLine
 62
6
  6
CONTINUOUS
 10
6.7540484573
 20
4.9338235303
 11
6.7556548805
 21
4.9334704038
  0
LINE
  5
37B
100
AcDbEntity
  8
0
100
AcDbLine
 62
6
  6
CONTINUOUS
 10
6.752970197
 20
4.9340691552
 11
6.7546089024
 21
4.9336985926
  0
LINE
  5
37C
100
AcDbEntity
  8
0
100
AcDbLine
 62
6
  6
CONTINUOUS
 10
6.751877552
 20
4.9343251213
 11
6.7535492987
 21
4.9339363774
  0
LINE
  5
37D
100
AcDbEntity
  8
0
100
AcDbLine
 62
6
  6
CONTINUOUS
 10
6.7507702131
 20
4.9345918018
 11
6.7524757606
 21
4.9341841014
  0
LINE
  5
37E
100
AcDbEntity
  8
0
100
AcDbLine
 62
6
  6
CONTINUOUS
 10
6.7496478777
 20
4.9348695829
 11
6.7513879849
 21
4.9344421199
  0
LINE
  5
37F
100
AcDbEntity
  8
0
100
AcDbLine
 62
6
  6
CONTINUOUS
 10
6.7485102502
 20
4.9351588639
 11
6.7502856747
 21
4.9347108003
  0
LINE
  5
380
100
AcDbEntity
  8
0
100
AcDbLine
 62
6
  6
CONTINUOUS
 10
6.7473570421
 20
4.9354600577
 11
6.7491685397
 21
4.9349905229
  0
LINE
  5
381
100
AcDbEntity
  8
0
100
AcDbLine
 62
6
  6
CONTINUOUS
 10
6.7461879395
 20
4.9357735997
 11
6.7480362962
 21
4.9352816805
  0
LINE
  5
382
100
AcDbEntity
  8
0
100
AcDbLine
 62
6
  6
CONTINUOUS
 10
6.7450009474
 20
4.9361004114
 11
6.7468886678
 21
4.9355846788
  0
LINE
  5
383
100
AcDbEntity
  8
0
100
AcDbLine
 62
6
  6
CONTINUOUS
 10
6.7437916421
 20
4.9364421769
 11
6.7457250806
 21
4.9359000206
  0
LINE
  5
384
100
AcDbEntity
  8
0
100
AcDbLine
 62
6
  6
CONTINUOUS
 10
6.7425554516
 20
4.9368007672
 11
6.7445423703
 21
4.9362289628
  0
LINE
  5
385
100
AcDbEntity
  8
0
100
AcDbLine
 62
6
  6
CONTINUOUS
 10
6.7421018185
 20
4.9369347029
 11
6.7433360877
 21
4.9365732353
  0
LINE
  5
386
100
AcDbEntity
  8
0
100
AcDbLine
 62
6
  6
CONTINUOUS
 10
6.7408351986
 20
4.9373153688
 11
6.7425554516
 21
4.9368007672
  0
LINE
  5
387
100
AcDbEntity
  8
0
100
AcDbLine
 62
6
  6
CONTINUOUS
 10
6.7395319186
 20
4.9377173811
 11
6.7412878543
 21
4.9371781953
  0
LINE
  5
388
100
AcDbEntity
  8
0
100
AcDbLine
 62
6
  6
CONTINUOUS
 10
6.7381873861
 20
4.9381431517
 11
6.7399843838
 21
4.9375766225
  0
LINE
  5
389
100
AcDbEntity
  8
0
100
AcDbLine
 62
6
  6
CONTINUOUS
 10
5.6168387536
 20
5.1970116349
 11
5.4028387536
 21
5.2665444499
  0
LINE
  5
38A
100
AcDbEntity
  8
0
100
AcDbLine
 62
6
  6
CONTINUOUS
 10
6.7367931045
 20
4.9385965748
 11
6.7386405912
 21
4.9379983806
  0
LINE
  5
38B
100
AcDbEntity
  8
0
100
AcDbLine
 62
6
  6
CONTINUOUS
 10
5.4328387536
 20
5.9467944499
 11
5.4484637536
 21
5.9311694499
  0
LINE
  5
38C
100
AcDbEntity
  8
0
100
AcDbLine
 62
6
  6
CONTINUOUS
 10
6.5564131299
 20
5.3216436678
 11
6.5623392528
 21
5.2980507282
  0
LWPOLYLINE
  5
38D
100
AcDbEntity
  8
0
100
AcDbPolyline
 62
6
  6
CONTINUOUS
 90
4
 70
0
 10
6.5809196811
 20
5.1432915704
 10
6.5862528667
 20
5.1206800262
 10
6.5935713948
 20
5.0966426179
 10
6.6016858748
 20
5.0749487518
  0
LINE
  5
38E
100
AcDbEntity
  8
0
100
AcDbLine
 62
6
  6
CONTINUOUS
 10
6.5622614982
 20
5.2983920935
 11
6.5664562596
 21
5.277228389
  0
LINE
  5
38F
100
AcDbEntity
  8
0
100
AcDbLine
 62
9
  6
CONTINUOUS
 10
6.5664583252
 20
5.2772283318
 11
6.5664578832
 21
5.2772308908
  0
LINE
  5
390
100
AcDbEntity
  8
0
100
AcDbLine
 62
6
  6
CONTINUOUS
 10
6.9811005136
 20
5.1562737749
 11
6.9794771014
 21
5.2113450078
  0
LINE
  5
391
100
AcDbEntity
  8
0
100
AcDbLine
 62
6
  6
CONTINUOUS
 10
6.9811005136
 20
5.1562737749
 11
6.9811001178
 21
5.1562914226
  0
LINE
  5
392
100
AcDbEntity
  8
0
100
AcDbLine
 62
6
  6
CONTINUOUS
 10
6.9810909711
 20
5.1313353906
 11
6.9811519513
 21
5.1562903632
  0
LINE
  5
393
100
AcDbEntity
  8
0
100
AcDbLine
 62
6
  6
CONTINUOUS
 10
6.9785156158
 20
5.1052655889
 11
6.9810909709
 21
5.1313353082
  0
LINE
  5
394
100
AcDbEntity
  8
0
100
AcDbLine
 62
6
  6
CONTINUOUS
 10
6.3038387536
 20
5.1970116349
 11
5.6168387536
 21
5.1970116349
  0
LINE
  5
395
100
AcDbEntity
  8
0
100
AcDbLine
 62
6
  6
CONTINUOUS
 10
6.5178387536
 20
5.2665444499
 11
5.4028387536
 21
5.2665444499
  0
LINE
  5
396
100
AcDbEntity
  8
0
100
AcDbLine
 62
6
  6
CONTINUOUS
 10
6.7353381521
 20
4.9390827211
 11
6.7372494613
 21
4.9384468288
  0
LINE
  5
397
100
AcDbEntity
  8
0
100
AcDbLine
 62
6
  6
CONTINUOUS
 10
6.7338163218
 20
4.939605503
 11
6.7357999938
 21
4.9389269625
  0
LINE
  5
398
100
AcDbEntity
  8
0
100
AcDbLine
 62
6
  6
CONTINUOUS
 10
6.7322385778
 20
4.9401630269
 11
6.7342826097
 21
4.9394437645
  0
LINE
  5
399
100
AcDbEntity
  8
0
100
AcDbLine
 62
6
  6
CONTINUOUS
 10
6.7306197571
 20
4.9407516293
 11
6.7327036523
 21
4.9399970339
  0
LINE
  5
39A
100
AcDbEntity
  8
0
100
AcDbLine
 62
6
  6
CONTINUOUS
 10
6.7289745427
 20
4.9413671591
 11
6.7310783606
 21
4.9405831704
  0
LINE
  5
39B
100
AcDbEntity
  8
0
100
AcDbLine
 62
9
  6
CONTINUOUS
 10
5.4562491822
 20
5.4736627854
 11
5.4562462003
 21
5.4736639066
  0
LINE
  5
39C
100
AcDbEntity
  8
0
100
AcDbLine
 62
6
  6
CONTINUOUS
 10
6.7273172645
 20
4.9420050213
 11
6.7294219238
 21
4.9411980408
  0
LINE
  5
39D
100
AcDbEntity
  8
0
100
AcDbLine
 62
6
  6
CONTINUOUS
 10
6.7256557991
 20
4.942662614
 11
6.7277493449
 21
4.9418369872
  0
LINE
  5
39E
100
AcDbEntity
  8
0
100
AcDbLine
 62
6
  6
CONTINUOUS
 10
6.7239901481
 20
4.9433402524
 11
6.726071578
 21
4.9424963411
  0
LINE
  5
39F
100
AcDbEntity
  8
0
100
AcDbLine
 62
6
  6
CONTINUOUS
 10
6.7223198381
 20
4.9440384657
 11
6.7243896607
 21
4.9431760299
  0
LINE
  5
3A0
100
AcDbEntity
  8
0
100
AcDbLine
 62
6
  6
CONTINUOUS
 10
6.7206444138
 20
4.9447578108
 11
6.7227031004
 21
4.9438765926
  0
LWPOLYLINE
  5
3A1
100
AcDbEntity
  8
0
100
AcDbPolyline
 62
6
  6
CONTINUOUS
 90
4
 70
0
 10
5.4562462003
 20
5.4736639066
 10
5.4620308914
 20
5.4711665836
 10
5.471489147
 20
5.4658402754
 10
5.4821182097
 20
5.4580016362
  0
LINE
  5
3A2
100
AcDbEntity
  8
0
100
AcDbLine
 62
6
  6
CONTINUOUS
 10
6.7189634393
 20
4.9454988724
 11
6.7210114229
 21
4.9445985972
  0
LINE
  5
3A3
100
AcDbEntity
  8
0
100
AcDbLine
 62
6
  6
CONTINUOUS
 10
6.7172764986
 20
4.9462622631
 11
6.719314174
 21
4.9453426404
  0
LINE
  5
3A4
100
AcDbEntity
  8
0
100
AcDbLine
 62
6
  6
CONTINUOUS
 10
6.7155831968
 20
4.9470486232
 11
6.71761092
 21
4.9461093478
  0
LINE
  5
3A5
100
AcDbEntity
  8
0
100
AcDbLine
 62
6
  6
CONTINUOUS
 10
6.7138831613
 20
4.9478586212
 11
6.7159012492
 21
4.9468993743
  0
LINE
  5
3A6
100
AcDbEntity
  8
0
100
AcDbLine
 62
6
  6
CONTINUOUS
 10
6.7121760427
 20
4.9486929539
 11
6.7141847727
 21
4.9477134039
  0
LINE
  5
3A7
100
AcDbEntity
  8
0
100
AcDbLine
 62
6
  6
CONTINUOUS
 10
6.710461516
 20
4.9495523463
 11
6.7124611256
 21
4.94855215
  0
LINE
  5
3A8
100
AcDbEntity
  8
0
100
AcDbLine
 62
6
  6
CONTINUOUS
 10
6.7087392818
 20
4.950437552
 11
6.7107299683
 21
4.9494163554
  0
LINE
  5
3A9
100
AcDbEntity
  8
0
100
AcDbLine
 62
6
  6
CONTINUOUS
 10
6.7070090675
 20
4.9513493535
 11
6.7089909876
 21
4.950306793
  0
LINE
  5
3AA
100
AcDbEntity
  8
0
100
AcDbLine
 62
6
  6
CONTINUOUS
 10
6.7052706288
 20
4.9522885623
 11
6.7072438981
 21
4.9512242654
  0
LINE
  5
3AB
100
AcDbEntity
  8
0
100
AcDbLine
 62
6
  6
CONTINUOUS
 10
6.7035237505
 20
4.953256019
 11
6.7054884435
 21
4.9521696053
  0
LINE
  5
3AC
100
AcDbEntity
  8
0
100
AcDbLine
 62
6
  6
CONTINUOUS
 10
6.7017682486
 20
4.9542525939
 11
6.703724398
 21
4.9531436762
  0
LINE
  5
3AD
100
AcDbEntity
  8
0
100
AcDbLine
 62
6
  6
CONTINUOUS
 10
6.700003971
 20
4.9552791868
 11
6.7019515677
 21
4.954147372
  0
LINE
  5
3AE
100
AcDbEntity
  8
0
100
AcDbLine
 62
6
  6
CONTINUOUS
 10
6.6982307998
 20
4.9563367277
 11
6.7001697922
 21
4.9551816178
  0
LINE
  5
3AF
100
AcDbEntity
  8
0
100
AcDbLine
 62
6
  6
CONTINUOUS
 10
6.6964486521
 20
4.957426177
 11
6.6983789463
 21
4.9562473697
  0
LINE
  5
3B0
100
AcDbEntity
  8
0
100
AcDbLine
 62
6
  6
CONTINUOUS
 10
6.6946574822
 20
4.9585485255
 11
6.6965789413
 21
4.9573456157
  0
LINE
  5
3B1
100
AcDbEntity
  8
0
100
AcDbLine
 62
6
  6
CONTINUOUS
 10
6.6928572831
 20
4.9597047952
 11
6.694769727
 21
4.9584773755
  0
LINE
  5
3B2
100
AcDbEntity
  8
0
100
AcDbLine
 62
6
  6
CONTINUOUS
 10
6.6910480883
 20
4.9608960393
 11
6.6929512933
 21
4.959643701
  0
LINE
  5
3B3
100
AcDbEntity
  8
0
100
AcDbLine
 62
6
  6
CONTINUOUS
 10
6.6892299791
 20
4.9621233388
 11
6.6911236725
 21
4.960845677
  0
LINE
  5
3B4
100
AcDbEntity
  8
0
100
AcDbLine
 62
6
  6
CONTINUOUS
 10
6.6874031187
 20
4.9633877798
 11
6.6892869455
 21
4.9620844175
  0
LWPOLYLINE
  5
3B5
100
AcDbEntity
  8
0
100
AcDbPolyline
 62
6
  6
CONTINUOUS
 90
3
 70
0
 10
6.6853124802
 20
4.9648742515
 10
6.6855868683
 20
4.9646767146
 10
6.6874412779
 20
4.9633610428
  0
LWPOLYLINE
  5
3B6
100
AcDbEntity
  8
0
100
AcDbPolyline
 62
6
  6
CONTINUOUS
 90
4
 70
0
 10
6.6477534765
 20
4.9994391197
 10
6.6591385739
 20
4.9871614637
 10
6.6726052923
 20
4.9747951396
 10
6.6853124339
 20
4.964874285
  0
LWPOLYLINE
  5
3B7
100
AcDbEntity
  8
0
100
AcDbPolyline
 62
6
  6
CONTINUOUS
 90
4
 70
0
 10
6.6451797026
 20
5.002492194
 10
6.645587438
 20
5.0020010061
 10
6.6472410411
 20
5.0000381033
 10
6.6477534699
 20
4.9994391273
  0
LINE
  5
3B8
100
AcDbEntity
  8
0
100
AcDbLine
 62
9
  6
CONTINUOUS
 10
6.5205868386
 20
5.4122255004
 11
6.5205859721
 21
5.41222714
  0
LWPOLYLINE
  5
3B9
100
AcDbEntity
  8
0
100
AcDbPolyline
 62
6
  6
CONTINUOUS
 90
5
 70
0
 10
6.5205859721
 20
5.41222714
 10
6.530826381
 20
5.391486476
 10
6.5406913783
 20
5.3684132461
 10
6.549255127
 20
5.3449672556
 10
6.5564877088
 20
5.3214006604
  0
LWPOLYLINE
  5
3BA
100
AcDbEntity
  8
0
100
AcDbPolyline
 62
6
  6
CONTINUOUS
 90
5
 70
0
 10
6.6016858424
 20
5.074948831
 10
6.6099517483
 20
5.0566547812
 10
6.6205611334
 20
5.0372722474
 10
6.63271269
 20
5.0187154186
 10
6.6451797288
 20
5.0024921626
  0
LINE
  5
3BB
100
AcDbEntity
  8
0
100
AcDbLine
 62
6
  6
CONTINUOUS
 10
6.9794771025
 20
5.21134497
 11
6.9739038843
 21
5.2672357217
  0
LWPOLYLINE
  5
3BC
100
AcDbEntity
  8
0
100
AcDbPolyline
 62
6
  6
CONTINUOUS
 90
3
 70
0
 10
5.4488638334
 20
5.4758106844
 10
5.4501985507
 20
5.4755538762
 10
5.4562491822
 20
5.4736627854
  0
LINE
  5
3BD
100
AcDbEntity
  8
0
100
AcDbLine
 62
6
  6
CONTINUOUS
 10
6.4878387536
 20
5.9155444499
 11
6.5178387536
 21
5.8355444499
  0
LINE
  5
3BE
100
AcDbEntity
  8
0
100
AcDbLine
 62
6
  6
CONTINUOUS
 10
6.9739038874
 20
5.2672356911
 11
6.9647025275
 21
5.3217647363
  0
LINE
  5
3BF
100
AcDbEntity
  8
0
100
AcDbLine
 62
9
  6
CONTINUOUS
 10
6.2963543111
 20
5.571544463
 11
6.3372343343
 21
5.5715444499
  0
LINE
  5
3C0
100
AcDbEntity
  8
0
100
AcDbLine
 62
9
  6
CONTINUOUS
 10
5.6243156482
 20
5.571544467
 11
5.5834431729
 21
5.5715444499
  0
LWPOLYLINE
  5
3C1
100
AcDbEntity
  8
0
100
AcDbPolyline
 62
6
  6
CONTINUOUS
 90
11
 70
0
 10
6.4682716333
 20
5.4779698016
 10
6.4681665642
 20
5.4780100806
 10
6.4698098359
 20
5.4771395665
 10
6.4733690363
 20
5.4747806137
 10
6.4777373988
 20
5.4712648576
 10
6.482775255
 20
5.4664869025
 10
6.4889708645
 20
5.4597533227
 10
6.4958642693
 20
5.4512826401
 10
6.5034392464
 20
5.4408146659
 10
6.5118901392
 20
5.4276360869
 10
6.5205868386
 20
5.4122255004
  0
LWPOLYLINE
  5
3C2
100
AcDbEntity
  8
0
100
AcDbPolyline
 62
6
  6
CONTINUOUS
 90
3
 70
0
 10
6.9367232194
 20
5.4254483559
 10
6.9185081799
 20
5.4741368794
 10
6.8987801825
 20
5.5184142864
  0
LINE
  5
3C3
100
AcDbEntity
  8
0
100
AcDbLine
 62
6
  6
CONTINUOUS
 10
6.9522108839
 20
5.3745782312
 11
6.9367232159
 21
5.4254483674
  0
LINE
  5
3C4
100
AcDbEntity
  8
0
100
AcDbLine
 62
6
  6
CONTINUOUS
 10
6.9647025316
 20
5.3217647123
 11
6.9522108797
 21
5.3745782489
  0
LINE
  5
3C5
100
AcDbEntity
  8
0
100
AcDbLine
 62
9
  6
CONTINUOUS
 10
5.4860071991
 20
5.7295639035
 11
5.4843863123
 21
5.7295315266
  0
LINE
  5
3C6
100
AcDbEntity
  8
0
100
AcDbLine
 62
9
  6
CONTINUOUS
 10
5.4971010077
 20
5.7299731842
 11
5.4957689643
 21
5.729951206
  0
LINE
  5
3C7
100
AcDbEntity
  8
0
100
AcDbLine
 62
9
  6
CONTINUOUS
 10
6.4235764993
 20
5.7299731729
 11
6.4249065866
 21
5.7299512412
  0
LINE
  5
3C8
100
AcDbEntity
  8
0
100
AcDbLine
 62
9
  6
CONTINUOUS
 10
6.4362911949
 20
5.7295315266
 11
6.4346703081
 21
5.7295639035
  0
LINE
  5
3C9
100
AcDbEntity
  8
0
100
AcDbLine
 62
6
  6
CONTINUOUS
 10
6.8852862112
 20
5.5440891493
 11
6.8681031023
 21
5.5716019498
  0
LINE
  5
3CA
100
AcDbEntity
  8
0
100
AcDbLine
 62
6
  6
CONTINUOUS
 10
6.8987806171
 20
5.5184133852
 11
6.8852421807
 21
5.5441662805
  0
LINE
  5
3CB
100
AcDbEntity
  8
0
100
AcDbLine
 62
6
  6
CONTINUOUS
 10
5.2244823918
 20
5.696457144
 11
5.200441337
 21
5.689867991
  0
LINE
  5
3CC
100
AcDbEntity
  8
0
100
AcDbLine
 62
9
  6
CONTINUOUS
 10
5.2244786021
 20
5.6964563279
 11
5.2244823918
 21
5.696457144
  0
LINE
  5
3CD
100
AcDbEntity
  8
0
100
AcDbLine
 62
6
  6
CONTINUOUS
 10
5.3101666275
 20
5.7123766055
 11
5.2244786021
 21
5.6964563279
  0
LINE
  5
3CE
100
AcDbEntity
  8
0
100
AcDbLine
 62
6
  6
CONTINUOUS
 10
5.498004265
 20
5.7302429359
 11
5.4957686194
 21
5.7299511944
  0
LWPOLYLINE
  5
3CF
100
AcDbEntity
  8
0
100
AcDbPolyline
 62
6
  6
CONTINUOUS
 90
3
 70
0
 10
5.4843859191
 20
5.729531511
 10
5.3975626963
 20
5.7235367198
 10
5.3101666275
 20
5.7123766055
  0
LWPOLYLINE
  5
3D0
100
AcDbEntity
  8
0
100
AcDbPolyline
 62
6
  6
CONTINUOUS
 90
3
 70
0
 10
5.4957478169
 20
5.7299505121
 10
5.4940505138
 20
5.7298924728
 10
5.4843863123
 20
5.7295315266
  0
LINE
  5
3D1
100
AcDbEntity
  8
0
100
AcDbLine
 62
9
  6
CONTINUOUS
 10
5.4957689643
 20
5.729951206
 11
5.4957477926
 21
5.7299504985
  0
LINE
  5
3D2
100
AcDbEntity
  8
0
100
AcDbLine
 62
6
  6
CONTINUOUS
 10
6.5178387536
 20
5.8355444499
 11
5.4028387536
 21
5.8355444499
  0
LINE
  5
3D3
100
AcDbEntity
  8
0
100
AcDbLine
 62
9
  6
CONTINUOUS
 10
6.4249065866
 20
5.7299512412
 11
6.4249296773
 21
5.7299504698
  0
LWPOLYLINE
  5
3D4
100
AcDbEntity
  8
0
100
AcDbPolyline
 62
6
  6
CONTINUOUS
 90
3
 70
0
 10
6.4362911949
 20
5.7295315266
 10
6.4320364274
 20
5.7296965749
 10
6.4249296472
 20
5.7299505136
  0
LINE
  5
3D5
100
AcDbEntity
  8
0
100
AcDbLine
 62
6
  6
CONTINUOUS
 10
6.5231148109
 20
5.7235367198
 11
6.4362915881
 21
5.729531511
  0
LINE
  5
3D6
100
AcDbEntity
  8
0
100
AcDbLine
 62
6
  6
CONTINUOUS
 10
6.424906553
 20
5.7299512423
 11
6.4226925566
 21
5.7302387065
  0
LWPOLYLINE
  5
3D7
100
AcDbEntity
  8
0
100
AcDbPolyline
 62
6
  6
CONTINUOUS
 90
3
 70
0
 10
6.6961989051
 20
5.6964563279
 10
6.6105108797
 20
5.7123766055
 10
6.5231148109
 20
5.7235367198
  0
LINE
  5
3D8
100
AcDbEntity
  8
0
100
AcDbLine
 62
9
  6
CONTINUOUS
 10
6.6961989051
 20
5.6964563279
 11
6.6961951154
 21
5.696457144
  0
LINE
  5
3D9
100
AcDbEntity
  8
0
100
AcDbLine
 62
6
  6
CONTINUOUS
 10
6.7202361702
 20
5.689867991
 11
6.6961951489
 21
5.6964571368
  0
LWPOLYLINE
  5
3DA
100
AcDbEntity
  8
0
100
AcDbPolyline
 62
6
  6
CONTINUOUS
 90
3
 70
0
 10
6.4226925566
 20
5.7302387065
 10
6.4205371786
 20
5.7309134697
 10
6.4197504512
 20
5.7312973917
  0
LINE
  5
3DB
100
AcDbEntity
  8
0
100
AcDbLine
 62
6
  6
CONTINUOUS
 10
6.7455005096
 20
5.6798491861
 11
6.7200690306
 21
5.6899235855
  0
LINE
  5
3DC
100
AcDbEntity
  8
0
100
AcDbLine
 62
6
  6
CONTINUOUS
 10
6.7702736232
 20
5.6667418143
 11
6.7451779442
 21
5.6799977627
  0
LINE
  5
3DD
100
AcDbEntity
  8
0
100
AcDbLine
 62
9
  6
CONTINUOUS
 10
6.4197504142
 20
5.7312973301
 11
6.4197410305
 21
5.7313028969
  0
LINE
  5
3DE
100
AcDbEntity
  8
0
100
AcDbLine
 62
6
  6
CONTINUOUS
 10
6.7872736189
 20
5.6556605498
 11
6.769810359
 21
5.6670188902
  0
LINE
  5
3DF
100
AcDbEntity
  8
0
100
AcDbLine
 62
9
  6
CONTINUOUS
 10
6.7872539445
 20
5.6556744443
 11
6.7872731389
 21
5.6556608888
  0
LINE
  5
3E0
100
AcDbEntity
  8
0
100
AcDbLine
 62
6
  6
CONTINUOUS
 10
6.8054219026
 20
5.6417123467
 11
6.7872539445
 21
5.6556744443
  0
LINE
  5
3E1
100
AcDbEntity
  8
0
100
AcDbLine
 62
6
  6
CONTINUOUS
 10
6.4722137536
 20
5.9311694499
 11
6.4878387536
 21
5.9155444499
  0
LINE
  5
3E2
100
AcDbEntity
  8
0
100
AcDbLine
 62
6
  6
CONTINUOUS
 10
6.4728387536
 20
6.0376991075
 11
6.4878387536
 21
6.0226991075
  0
LWPOLYLINE
  5
3E3
100
AcDbEntity
  8
0
100
AcDbPolyline
 62
6
  6
CONTINUOUS
 90
3
 70
0
 10
6.8487999191
 20
5.5974967612
 10
6.8276365661
 20
5.6211893326
 10
6.8052512948
 20
5.641843459
  0
LINE
  5
3E4
100
AcDbEntity
  8
0
100
AcDbLine
 62
6
  6
CONTINUOUS
 10
6.8681996189
 20
5.5714603836
 11
6.848719117
 21
5.5975872199
  0
LINE
  5
3E5
100
AcDbEntity
  8
0
100
AcDbLine
 62
6
  6
CONTINUOUS
 10
5.4328387536
 20
5.9155444499
 11
6.4878387536
 21
5.9155444499
  0
LINE
  5
3E6
100
AcDbEntity
  8
0
100
AcDbLine
 62
6
  6
CONTINUOUS
 10
5.4484637536
 20
5.9311694499
 11
6.4722137536
 21
5.9311694499
  0
LINE
  5
3E7
100
AcDbEntity
  8
0
100
AcDbLine
 62
6
  6
CONTINUOUS
 10
5.4328387536
 20
5.9467944499
 11
6.4878387536
 21
5.9467944499
  0
LINE
  5
3E8
100
AcDbEntity
  8
0
100
AcDbLine
 62
6
  6
CONTINUOUS
 10
5.4328387536
 20
6.0226991075
 11
6.4878387536
 21
6.0226991075
  0
LINE
  5
3E9
100
AcDbEntity
  8
0
100
AcDbLine
 62
6
  6
CONTINUOUS
 10
5.4478387536
 20
6.0376991075
 11
6.4728387536
 21
6.0376991075
  0
LINE
  5
3EA
100
AcDbEntity
  8
0
100
AcDbLine
 62
6
  6
CONTINUOUS
 10
5.5058387536
 20
6.0565444499
 11
6.4148387536
 21
6.0565444499
  0
LINE
  5
3EB
100
AcDbEntity
  8
0
100
AcDbLine
 62
9
  6
CONTINUOUS
 10
6.3554834102
 20
6.0853537431
 11
5.565194097
 21
6.0853537431
  0
LINE
  5
3EC
100
AcDbEntity
  8
0
100
AcDbLine
 62
6
  6
CONTINUOUS
 10
6.4728387536
 20
6.0376991075
 11
6.4148387536
 21
6.0565444499
  0
ARC
  5
3ED
100
AcDbEntity
  8
0
100
AcDbCircle
 62
9
  6
CONTINUOUS
 10
5.5578162217
 20
3.9341759261
 40
1.7968234541
100
AcDbArc
 50
91.9788832014
 51
92.2904030534
  0
ARC
  5
3EE
100
AcDbEntity
  8
0
100
AcDbCircle
 62
9
  6
CONTINUOUS
 10
5.5772889551
 20
3.9490488375
 40
1.7755912663
100
AcDbArc
 50
91.7750497459
 51
92.2037105742
  0
ARC
  5
3EF
100
AcDbEntity
  8
0
100
AcDbCircle
 62
6
  6
CONTINUOUS
 10
4.5147568089
 20
3.2320186167
 40
0.75
100
AcDbArc
 50
296.8780899777
 51
338.0396077086
  0
ARC
  5
3F0
100
AcDbEntity
  8
0
100
AcDbCircle
 62
6
  6
CONTINUOUS
 10
5.5616319063
 20
4.0135444499
 40
0.188
100
AcDbArc
 50
90.0
 51
170.3718438715
  0
ARC
  5
3F1
100
AcDbEntity
  8
0
100
AcDbCircle
 62
6
  6
CONTINUOUS
 10
4.9103387536
 20
2.4515444499
 40
0.125
100
AcDbArc
 50
116.8780899777
 51
270.0
  0
ARC
  5
3F2
100
AcDbEntity
  8
0
100
AcDbCircle
 62
6
  6
CONTINUOUS
 10
5.2128387536
 20
3.0165444499
 40
0.065
100
AcDbArc
 50
90.0
 51
267.8004275869
  0
ARC
  5
3F3
100
AcDbEntity
  8
0
100
AcDbCircle
 62
6
  6
CONTINUOUS
 10
5.2300594627
 20
5.3982522158
 40
1.36
100
AcDbArc
 50
18.7559867836
 51
22.3561036556
  0
ARC
  5
3F4
100
AcDbEntity
  8
0
100
AcDbCircle
 62
9
  6
CONTINUOUS
 10
4.9967208453
 20
5.1744093824
 40
0.3092786662
100
AcDbArc
 50
341.5540697657
 51
355.0008347719
  0
ARC
  5
3F5
100
AcDbEntity
  8
0
100
AcDbCircle
 62
9
  6
CONTINUOUS
 10
5.2446619182
 20
5.1298016108
 40
0.2572024307
100
AcDbArc
 50
208.7369575462
 51
209.5704153837
  0
ARC
  5
3F6
100
AcDbEntity
  8
0
100
AcDbCircle
 62
9
  6
CONTINUOUS
 10
5.2725472502
 20
5.4586646321
 40
0.2411809834
100
AcDbArc
 50
125.234559578
 51
126.952648443
  0
ARC
  5
3F7
100
AcDbEntity
  8
0
100
AcDbCircle
 62
9
  6
CONTINUOUS
 10
5.0645343574
 20
5.139918128
 40
0.2325143665
100
AcDbArc
 50
323.0229797467
 51
323.9554950668
  0
ARC
  5
3F8
100
AcDbEntity
  8
0
100
AcDbCircle
 62
9
  6
CONTINUOUS
 10
5.1662641462
 20
5.1235388381
 40
0.211538955
100
AcDbArc
 50
213.715744983
 51
214.7702743725
  0
ARC
  5
3F9
100
AcDbEntity
  8
0
100
AcDbCircle
 62
9
  6
CONTINUOUS
 10
5.1396156021
 20
5.1048424626
 40
0.1789847303
100
AcDbArc
 50
214.7188268662
 51
230.5731710703
  0
ARC
  5
3FA
100
AcDbEntity
  8
0
100
AcDbCircle
 62
9
  6
CONTINUOUS
 10
5.1301199412
 20
5.0936147966
 40
0.1640738306
100
AcDbArc
 50
266.6619478767
 51
269.5042264097
  0
ARC
  5
3FB
100
AcDbEntity
  8
0
100
AcDbCircle
 62
6
  6
CONTINUOUS
 10
5.1290771384
 20
5.0257330055
 40
0.0961886403
100
AcDbArc
 50
264.9387792843
 51
269.7773059872
  0
ARC
  5
3FC
100
AcDbEntity
  8
0
100
AcDbCircle
 62
9
  6
CONTINUOUS
 10
5.1294985667
 20
4.9586248399
 40
0.0290838089
100
AcDbArc
 50
268.4547470561
 51
269.1214647486
  0
ARC
  5
3FD
100
AcDbEntity
  8
0
100
AcDbCircle
 62
9
  6
CONTINUOUS
 10
5.2716135464
 20
5.5244331951
 40
0.1770366074
100
AcDbArc
 50
102.194308472
 51
105.2427936191
  0
ARC
  5
3FE
100
AcDbEntity
  8
0
100
AcDbCircle
 62
9
  6
CONTINUOUS
 10
5.2338296882
 20
5.6530367262
 40
0.0444151397
100
AcDbArc
 50
100.3834101206
 51
102.1489407273
  0
ARC
  5
3FF
100
AcDbEntity
  8
0
100
AcDbCircle
 62
7
  6
CONTINUOUS
 10
5.9396846481
 20
4.8543012938
 40
1.2814868155
100
AcDbArc
 50
83.9811724424
 51
84.206545154
  0
ARC
  5
400
100
AcDbEntity
  8
0
100
AcDbCircle
 62
7
  6
CONTINUOUS
 10
5.939726828
 20
4.8547198523
 40
1.2810661371
100
AcDbArc
 50
84.2065323683
 51
84.8751318057
  0
ARC
  5
401
100
AcDbEntity
  8
0
100
AcDbCircle
 62
7
  6
CONTINUOUS
 10
5.9481571729
 20
4.8553746741
 40
1.2809085371
100
AcDbArc
 50
84.583316174
 51
85.3121340134
  0
ARC
  5
402
100
AcDbEntity
  8
0
100
AcDbCircle
 62
7
  6
CONTINUOUS
 10
5.9398077584
 20
4.8556213759
 40
1.2801609874
100
AcDbArc
 50
84.9346632787
 51
85.9033270835
  0
ARC
  5
403
100
AcDbEntity
  8
0
100
AcDbCircle
 62
7
  6
CONTINUOUS
 10
5.948222938
 20
4.856193848
 40
1.2800867284
100
AcDbArc
 50
85.3248909532
 51
86.277274108
  0
ARC
  5
404
100
AcDbEntity
  8
0
100
AcDbCircle
 62
7
  6
CONTINUOUS
 10
5.9481569703
 20
4.8551974005
 40
1.2800856489
100
AcDbArc
 50
84.5798145923
 51
85.3091123965
  0
ARC
  5
405
100
AcDbEntity
  8
0
100
AcDbCircle
 62
7
  6
CONTINUOUS
 10
5.9482230931
 20
4.8560208064
 40
1.2792595931
100
AcDbArc
 50
85.324174661
 51
86.280614428
  0
ARC
  5
406
100
AcDbEntity
  8
0
100
AcDbCircle
 62
7
  6
CONTINUOUS
 10
5.9398846517
 20
4.8566937521
 40
1.2790858579
100
AcDbArc
 50
85.9033309703
 51
87.739356384
  0
ARC
  5
407
100
AcDbEntity
  8
0
100
AcDbCircle
 62
7
  6
CONTINUOUS
 10
5.948284338
 20
4.8571973198
 40
1.2790813874
100
AcDbArc
 50
86.2771001668
 51
88.114596149
  0
ARC
  5
408
100
AcDbEntity
  8
0
100
AcDbCircle
 62
7
  6
CONTINUOUS
 10
5.9482552314
 20
4.8565104485
 40
1.2787688975
100
AcDbArc
 50
86.2806282063
 51
86.7579791674
  0
ARC
  5
409
100
AcDbEntity
  8
0
100
AcDbCircle
 62
7
  6
CONTINUOUS
 10
5.9483019225
 20
4.857700424
 40
1.278577977
100
AcDbArc
 50
88.114641975
 51
89.0572893885
  0
ARC
  5
40A
100
AcDbEntity
  8
0
100
AcDbCircle
 62
7
  6
CONTINUOUS
 10
5.9483017745
 20
4.8575199966
 40
1.2777582349
100
AcDbArc
 50
88.1149990136
 51
89.013845417
  0
ARC
  5
40B
100
AcDbEntity
  8
0
100
AcDbCircle
 62
6
  6
CONTINUOUS
 10
5.8470109192
 20
5.0669006581
 40
0.7706786497
100
AcDbArc
 50
17.878269959
 51
22.2928424536
  0
ARC
  5
40C
100
AcDbEntity
  8
0
100
AcDbCircle
 62
9
  6
CONTINUOUS
 10
5.4977527231
 20
5.1578246623
 40
0.4564891784
100
AcDbArc
 50
199.4103039527
 51
199.8391772033
  0
ARC
  5
40D
100
AcDbEntity
  8
0
100
AcDbCircle
 62
7
  6
CONTINUOUS
 10
5.8988980707
 20
5.7524601018
 40
0.3817903801
100
AcDbArc
 50
97.9716112843
 51
100.7106989062
  0
ARC
  5
40E
100
AcDbEntity
  8
0
100
AcDbCircle
 62
7
  6
CONTINUOUS
 10
5.914032259
 20
5.771613598
 40
0.3643378865
100
AcDbArc
 50
97.309448197
 51
99.8660159599
  0
ARC
  5
40F
100
AcDbEntity
  8
0
100
AcDbCircle
 62
7
  6
CONTINUOUS
 10
5.9139204234
 20
5.7715881113
 40
0.3633546703
100
AcDbArc
 50
97.2907137006
 51
99.8494227093
  0
ARC
  5
410
100
AcDbEntity
  8
0
100
AcDbCircle
 62
7
  6
CONTINUOUS
 10
5.6579364174
 20
6.0558063278
 40
0.3235946931
100
AcDbArc
 50
9.3804042515
 51
9.5643826065
  0
ARC
  5
411
100
AcDbEntity
  8
0
100
AcDbCircle
 62
7
  6
CONTINUOUS
 10
5.907956833
 20
5.81681375
 40
0.3187322058
100
AcDbArc
 50
96.9544309759
 51
97.2361655653
  0
ARC
  5
412
100
AcDbEntity
  8
0
100
AcDbCircle
 62
7
  6
CONTINUOUS
 10
5.8898578273
 20
5.8151430798
 40
0.3184594126
100
AcDbArc
 50
96.9311504276
 51
97.8447145489
  0
ARC
  5
413
100
AcDbEntity
  8
0
100
AcDbCircle
 62
7
  6
CONTINUOUS
 10
5.884394482
 20
5.8629936848
 40
0.2702992708
100
AcDbArc
 50
94.2332805497
 51
96.9791402408
  0
ARC
  5
414
100
AcDbEntity
  8
0
100
AcDbCircle
 62
7
  6
CONTINUOUS
 10
5.8804455784
 20
5.921993827
 40
0.2121641724
100
AcDbArc
 50
90.6525733571
 51
93.449973626
  0
ARC
  5
415
100
AcDbEntity
  8
0
100
AcDbCircle
 62
7
  6
CONTINUOUS
 10
5.8801805428
 20
5.9745169604
 40
0.1586324772
100
AcDbArc
 50
87.4429556112
 51
89.1531866268
  0
ARC
  5
416
100
AcDbEntity
  8
0
100
AcDbCircle
 62
7
  6
CONTINUOUS
 10
5.88069065
 20
5.9861203395
 40
0.1470178938
100
AcDbArc
 50
86.6485613171
 51
87.4398089052
  0
ARC
  5
417
100
AcDbEntity
  8
0
100
AcDbCircle
 62
7
  6
CONTINUOUS
 10
5.8811705084
 20
5.9940820631
 40
0.1390417349
100
AcDbArc
 50
85.6782467959
 51
86.6541627038
  0
ARC
  5
418
100
AcDbEntity
  8
0
100
AcDbCircle
 62
7
  6
CONTINUOUS
 10
5.9010047276
 20
6.0070135228
 40
0.1280500476
100
AcDbArc
 50
83.1562041635
 51
86.059270463
  0
ARC
  5
419
100
AcDbEntity
  8
0
100
AcDbCircle
 62
9
  6
CONTINUOUS
 10
5.4903714025
 20
5.5640959752
 40
0.0966588879
100
AcDbArc
 50
245.330562855
 51
245.9394812144
  0
ARC
  5
41A
100
AcDbEntity
  8
0
100
AcDbCircle
 62
9
  6
CONTINUOUS
 10
5.4895428355
 20
5.56218425
 40
0.0945754572
100
AcDbArc
 50
245.9256469229
 51
249.3863754865
  0
ARC
  5
41B
100
AcDbEntity
  8
0
100
AcDbCircle
 62
9
  6
CONTINUOUS
 10
5.495405649
 20
5.7799836106
 40
0.0500391546
100
AcDbArc
 50
271.9415894433
 51
276.4900838153
  0
ARC
  5
41C
100
AcDbEntity
  8
0
100
AcDbCircle
 62
7
  6
CONTINUOUS
 10
5.9270839792
 20
6.0915939252
 40
0.0373699769
100
AcDbArc
 50
27.1418977615
 51
28.4631079745
  0
ARC
  5
41D
100
AcDbEntity
  8
0
100
AcDbCircle
 62
6
  6
CONTINUOUS
 10
5.5728387536
 20
6.0563441029
 40
0.03
100
AcDbArc
 50
104.7630312681
 51
179.6053134713
  0
ARC
  5
41E
100
AcDbEntity
  8
0
100
AcDbCircle
 62
9
  6
CONTINUOUS
 10
6.362862662
 20
3.9342124862
 40
1.7967868681
100
AcDbArc
 50
87.7095942155
 51
88.0211827908
  0
ARC
  5
41F
100
AcDbEntity
  8
0
100
AcDbCircle
 62
9
  6
CONTINUOUS
 10
6.3433885521
 20
3.9490488375
 40
1.7755912663
100
AcDbArc
 50
87.7962894258
 51
88.2249502541
  0
ARC
  5
420
100
AcDbEntity
  8
0
100
AcDbCircle
 62
6
  6
CONTINUOUS
 10
7.4059206983
 20
3.2320186167
 40
0.75
100
AcDbArc
 50
201.9603922914
 51
243.1219100223
  0
ARC
  5
421
100
AcDbEntity
  8
0
100
AcDbCircle
 62
6
  6
CONTINUOUS
 10
6.3590456009
 20
4.0135444499
 40
0.188
100
AcDbArc
 50
9.6281561285
 51
90.0
  0
ARC
  5
422
100
AcDbEntity
  8
0
100
AcDbCircle
 62
6
  6
CONTINUOUS
 10
7.0103387536
 20
2.4515444499
 40
0.125
100
AcDbArc
 50
270.0
 51
63.1219100223
  0
ARC
  5
423
100
AcDbEntity
  8
0
100
AcDbCircle
 62
6
  6
CONTINUOUS
 10
6.7078387536
 20
3.0165444499
 40
0.065
100
AcDbArc
 50
272.1995724131
 51
90.0
  0
ARC
  5
424
100
AcDbEntity
  8
0
100
AcDbCircle
 62
6
  6
CONTINUOUS
 10
5.9603387536
 20
4.5858744344
 40
1.5506700155
100
AcDbArc
 50
93.4257610296
 51
104.7630312681
  0
ARC
  5
425
100
AcDbEntity
  8
0
100
AcDbCircle
 62
6
  6
CONTINUOUS
 10
5.9603387536
 20
4.5858744344
 40
1.5506700155
100
AcDbArc
 50
75.2369687319
 51
86.5742389704
  0
ARC
  5
426
100
AcDbEntity
  8
0
100
AcDbCircle
 62
6
  6
CONTINUOUS
 10
5.9603387536
 20
4.5858744344
 40
1.5506700155
100
AcDbArc
 50
87.3749745646
 51
92.6250254354
  0
ARC
  5
427
100
AcDbEntity
  8
0
100
AcDbCircle
 62
7
  6
CONTINUOUS
 10
5.9603387536
 20
4.5858744344
 40
1.5237851708
100
AcDbArc
 50
89.3658380229
 51
90.6341619771
  0
ARC
  5
428
100
AcDbEntity
  8
0
100
AcDbCircle
 62
7
  6
CONTINUOUS
 10
5.9603387536
 20
4.5858744344
 40
1.5227675157
100
AcDbArc
 50
89.3654141994
 51
90.6345858006
  0
ARC
  5
429
100
AcDbEntity
  8
0
100
AcDbCircle
 62
7
  6
CONTINUOUS
 10
5.9603387536
 20
4.5858744344
 40
1.519875405
100
AcDbArc
 50
88.5861934599
 51
91.4138065401
  0
ARC
  5
42A
100
AcDbEntity
  8
0
100
AcDbCircle
 62
7
  6
CONTINUOUS
 10
5.9809926373
 20
4.854303424
 40
1.2814846738
100
AcDbArc
 50
95.7890962906
 51
96.0188276817
  0
ARC
  5
42B
100
AcDbEntity
  8
0
100
AcDbCircle
 62
7
  6
CONTINUOUS
 10
5.9809504108
 20
4.8547226857
 40
1.281063291
100
AcDbArc
 50
95.1248675591
 51
95.7891087455
  0
ARC
  5
42C
100
AcDbEntity
  8
0
100
AcDbCircle
 62
7
  6
CONTINUOUS
 10
5.9725203343
 20
4.8553746742
 40
1.280908537
100
AcDbArc
 50
94.6878659865
 51
95.416683826
  0
ARC
  5
42D
100
AcDbEntity
  8
0
100
AcDbCircle
 62
7
  6
CONTINUOUS
 10
5.980869648
 20
4.8556225593
 40
1.2801597997
100
AcDbArc
 50
94.0936073506
 51
95.0653369025
  0
ARC
  5
42E
100
AcDbEntity
  8
0
100
AcDbCircle
 62
7
  6
CONTINUOUS
 10
5.9724545692
 20
4.856193848
 40
1.2800867284
100
AcDbArc
 50
93.722725892
 51
94.6751090468
  0
ARC
  5
42F
100
AcDbEntity
  8
0
100
AcDbCircle
 62
7
  6
CONTINUOUS
 10
5.9725205369
 20
4.8551974005
 40
1.2800856489
100
AcDbArc
 50
94.6908876035
 51
95.4201854077
  0
ARC
  5
430
100
AcDbEntity
  8
0
100
AcDbCircle
 62
7
  6
CONTINUOUS
 10
5.9724544141
 20
4.8560208064
 40
1.2792595931
100
AcDbArc
 50
93.719385572
 51
94.675825339
  0
ARC
  5
431
100
AcDbEntity
  8
0
100
AcDbCircle
 62
7
  6
CONTINUOUS
 10
5.9807927865
 20
4.8566950499
 40
1.2790845584
100
AcDbArc
 50
92.2606428192
 51
94.0936026735
  0
ARC
  5
432
100
AcDbEntity
  8
0
100
AcDbCircle
 62
7
  6
CONTINUOUS
 10
5.9723931692
 20
4.8571973199
 40
1.2790813873
100
AcDbArc
 50
91.8854038509
 51
93.7228998332
  0
ARC
  5
433
100
AcDbEntity
  8
0
100
AcDbCircle
 62
7
  6
CONTINUOUS
 10
5.9724222758
 20
4.8565104485
 40
1.2787688974
100
AcDbArc
 50
93.2420208326
 51
93.7193717937
  0
ARC
  5
434
100
AcDbEntity
  8
0
100
AcDbCircle
 62
7
  6
CONTINUOUS
 10
5.9723755847
 20
4.8577004241
 40
1.278577977
100
AcDbArc
 50
90.9427106115
 51
91.885358025
  0
ARC
  5
435
100
AcDbEntity
  8
0
100
AcDbCircle
 62
7
  6
CONTINUOUS
 10
5.9723757327
 20
4.8575199967
 40
1.2777582348
100
AcDbArc
 50
90.986154583
 51
91.8850009864
  0
ARC
  5
436
100
AcDbEntity
  8
0
100
AcDbCircle
 62
6
  6
CONTINUOUS
 10
6.073666788
 20
5.0669005901
 40
0.7706788629
100
AcDbArc
 50
157.7071736922
 51
162.1217297425
  0
ARC
  5
437
100
AcDbEntity
  8
0
100
AcDbCircle
 62
9
  6
CONTINUOUS
 10
6.4229247843
 20
5.1578246623
 40
0.4564891782
100
AcDbArc
 50
340.1608227966
 51
340.5896960474
  0
ARC
  5
438
100
AcDbEntity
  8
0
100
AcDbCircle
 62
7
  6
CONTINUOUS
 10
6.0217897811
 20
5.7525198966
 40
0.3817297051
100
AcDbArc
 50
79.289055836
 51
82.0320549591
  0
ARC
  5
439
100
AcDbEntity
  8
0
100
AcDbCircle
 62
7
  6
CONTINUOUS
 10
6.0066452194
 20
5.771613416
 40
0.3643380707
100
AcDbArc
 50
80.1339844691
 51
82.6905399425
  0
ARC
  5
43A
100
AcDbEntity
  8
0
100
AcDbCircle
 62
7
  6
CONTINUOUS
 10
6.0067572075
 20
5.7715888883
 40
0.3633538836
100
AcDbArc
 50
80.1505730857
 51
82.7093396695
  0
ARC
  5
43B
100
AcDbEntity
  8
0
100
AcDbCircle
 62
6
  6
CONTINUOUS
 10
6.26274109
 20
6.0558063278
 40
0.3235946933
100
AcDbArc
 50
170.4356173936
 51
170.6195957485
  0
ARC
  5
43C
100
AcDbEntity
  8
0
100
AcDbCircle
 62
7
  6
CONTINUOUS
 10
6.0302756661
 20
5.8109474568
 40
0.3226900249
100
AcDbArc
 50
82.1612219198
 51
83.0629069298
  0
ARC
  5
43D
100
AcDbEntity
  8
0
100
AcDbCircle
 62
7
  6
CONTINUOUS
 10
6.0125591065
 20
5.8155158543
 40
0.3200401153
100
AcDbArc
 50
82.76439663
 51
83.0441468221
  0
ARC
  5
43E
100
AcDbEntity
  8
0
100
AcDbCircle
 62
7
  6
CONTINUOUS
 10
6.0352820454
 20
5.8527959631
 40
0.2805431664
100
AcDbArc
 50
83.0710485306
 51
85.7168211374
  0
ARC
  5
43F
100
AcDbEntity
  8
0
100
AcDbCircle
 62
7
  6
CONTINUOUS
 10
6.0404959682
 20
5.929364425
 40
0.2047911219
100
AcDbArc
 50
86.4996722153
 51
89.3993115603
  0
ARC
  5
440
100
AcDbEntity
  8
0
100
AcDbCircle
 62
7
  6
CONTINUOUS
 10
6.0405828858
 20
5.9716617525
 40
0.1614886485
100
AcDbArc
 50
90.8634130209
 51
92.5698960212
  0
ARC
  5
441
100
AcDbEntity
  8
0
100
AcDbCircle
 62
7
  6
CONTINUOUS
 10
6.0400416911
 20
5.9850547494
 40
0.1480848674
100
AcDbArc
 50
92.5930589798
 51
93.3480673091
  0
ARC
  5
442
100
AcDbEntity
  8
0
100
AcDbCircle
 62
7
  6
CONTINUOUS
 10
6.0396011611
 20
5.9926762131
 40
0.1404506847
100
AcDbArc
 50
93.3502405227
 51
94.314066717
  0
ARC
  5
443
100
AcDbEntity
  8
0
100
AcDbCircle
 62
7
  6
CONTINUOUS
 10
6.0200152505
 20
6.0033851689
 40
0.1316933915
100
AcDbArc
 50
93.980705573
 51
96.8032593341
  0
ARC
  5
444
100
AcDbEntity
  8
0
100
AcDbCircle
 62
9
  6
CONTINUOUS
 10
6.4303361266
 20
5.5640301488
 40
0.0965865385
100
AcDbArc
 50
293.8013223851
 51
294.6296339483
  0
ARC
  5
445
100
AcDbEntity
  8
0
100
AcDbCircle
 62
9
  6
CONTINUOUS
 10
6.4309882811
 20
5.5625385009
 40
0.0949585672
100
AcDbArc
 50
290.620996096
 51
293.804514266
  0
ARC
  5
446
100
AcDbEntity
  8
0
100
AcDbCircle
 62
9
  6
CONTINUOUS
 10
6.425259891
 20
5.7798212868
 40
0.0498765302
100
AcDbArc
 50
263.5029971561
 51
268.0658325453
  0
ARC
  5
447
100
AcDbEntity
  8
0
100
AcDbCircle
 62
7
  6
CONTINUOUS
 10
5.9936417722
 20
6.0915684832
 40
0.0374245149
100
AcDbArc
 50
151.5384837776
 51
152.8571354464
  0
ARC
  5
448
100
AcDbEntity
  8
0
100
AcDbCircle
 62
6
  6
CONTINUOUS
 10
6.3478387536
 20
6.0563441029
 40
0.03
100
AcDbArc
 50
0.3946865287
 51
75.2369687319
  0
ARC
  5
449
100
AcDbEntity
  8
0
100
AcDbCircle
 62
9
  6
CONTINUOUS
 10
6.9239566617
 20
5.1744093823
 40
0.3092786662
100
AcDbArc
 50
184.9991652233
 51
198.4459302386
  0
ARC
  5
44A
100
AcDbEntity
  8
0
100
AcDbCircle
 62
9
  6
CONTINUOUS
 10
6.676015589
 20
5.1298016108
 40
0.2572024307
100
AcDbArc
 50
330.4295846163
 51
331.2630424538
  0
ARC
  5
44B
100
AcDbEntity
  8
0
100
AcDbCircle
 62
9
  6
CONTINUOUS
 10
6.8561431498
 20
5.139918128
 40
0.2325143665
100
AcDbArc
 50
216.0445049332
 51
216.9770202533
  0
ARC
  5
44C
100
AcDbEntity
  8
0
100
AcDbCircle
 62
9
  6
CONTINUOUS
 10
6.754413361
 20
5.1235388381
 40
0.2115389549
100
AcDbArc
 50
325.2297256274
 51
326.2842550171
  0
ARC
  5
44D
100
AcDbEntity
  8
0
100
AcDbCircle
 62
9
  6
CONTINUOUS
 10
6.7810619051
 20
5.1048424626
 40
0.1789847303
100
AcDbArc
 50
309.4268289279
 51
325.2811731349
  0
ARC
  5
44E
100
AcDbEntity
  8
0
100
AcDbCircle
 62
9
  6
CONTINUOUS
 10
6.7905575796
 20
5.0936146245
 40
0.164073658
100
AcDbArc
 50
270.4920487506
 51
273.3397443606
  0
ARC
  5
44F
100
AcDbEntity
  8
0
100
AcDbCircle
 62
6
  6
CONTINUOUS
 10
6.7916005579
 20
5.0257290996
 40
0.0961847315
100
AcDbArc
 50
270.2163060061
 51
275.0501274051
  0
ARC
  5
450
100
AcDbEntity
  8
0
100
AcDbCircle
 62
9
  6
CONTINUOUS
 10
6.7911789435
 20
4.9586246866
 40
0.0290836556
100
AcDbArc
 50
270.8785338575
 51
271.5250851664
  0
ARC
  5
451
100
AcDbEntity
  8
0
100
AcDbCircle
 62
6
  6
CONTINUOUS
 10
6.6906180445
 20
5.3982522158
 40
1.36
100
AcDbArc
 50
157.6438963444
 51
161.2440132164
  0
ARC
  5
452
100
AcDbEntity
  8
0
100
AcDbCircle
 62
9
  6
CONTINUOUS
 10
6.6481235717
 20
5.458655284
 40
0.2411924758
100
AcDbArc
 50
53.0330945726
 51
54.7655640137
  0
ARC
  5
453
100
AcDbEntity
  8
0
100
AcDbCircle
 62
9
  6
CONTINUOUS
 10
6.6490639637
 20
5.5244332078
 40
0.1770365944
100
AcDbArc
 50
74.7572171103
 51
77.8056915727
  0
ARC
  5
454
100
AcDbEntity
  8
0
100
AcDbCircle
 62
9
  6
CONTINUOUS
 10
6.6868622065
 20
5.6531091911
 40
0.0443412698
100
AcDbArc
 50
77.8495720208
 51
79.6634990379
  0
LINE
  5
455
100
AcDbEntity
  8
0
100
AcDbLine
 62
7
  6
CONTINUOUS
 10
5.89806139
 20
6.1341343815
 11
5.9094404531
 21
6.133784698
  0
LINE
  5
456
100
AcDbEntity
  8
0
100
AcDbLine
 62
7
  6
CONTINUOUS
 10
5.9597726785
 20
6.1097036842
 11
5.959936829
 21
6.1094041872
  0
LINE
  5
457
100
AcDbEntity
  8
0
100
AcDbLine
 62
7
  6
CONTINUOUS
 10
6.0689123448
 20
6.1295871895
 11
6.0690726392
 21
6.1295594642
  0
SPLINE
  5
458
100
AcDbEntity
  8
0
100
AcDbSpline
 62
7
  6
CONTINUOUS
 70
0
 71
3
 72
8
 73
4
 74
2
 42
0.0000001
 43
0.0000001
 44
0.0000000001
 12
0.0000716629
 22
-0.000004301
 32
0.0
 13
0.0000716629
 23
-0.000004301
 33
0.0
 40
0.0
 40
0.0
 40
0.0
 40
0.0
 40
1.0
 40
1.0
 40
1.0
 40
1.0
 10
6.0529993365
 20
6.1337734987
 30
0.0
 10
6.0530232241
 20
6.133772065
 30
0.0
 10
6.0530471118
 20
6.1337706313
 30
0.0
 10
6.0530709994
 20
6.1337691977
 30
0.0
 11
6.0529993365
 21
6.1337734987
 31
0.0
 11
6.0530709994
 21
6.1337691977
 31
0.0
  0
SPLINE
  5
459
100
AcDbEntity
  8
0
100
AcDbSpline
 62
7
  6
CONTINUOUS
 70
0
 71
3
 72
9
 73
5
 74
3
 42
0.0000001
 43
0.0000001
 44
0.0000000001
 12
0.0162198089
 22
-0.0009759984
 32
0.0
 13
0.0161306559
 23
-0.0019587528
 33
0.0
 40
0.0
 40
0.0
 40
0.0
 40
0.0
 40
0.4881188627
 40
1.0
 40
1.0
 40
1.0
 40
1.0
 10
6.0530709994
 20
6.1337691977
 30
0.0
 10
6.0557100643
 20
6.1336103966
 30
0.0
 10
6.0611113808
 20
6.1331927956
 30
0.0
 10
6.0664973756
 20
6.1326121982
 30
0.0
 10
6.0692497017
 20
6.132277982
 30
0.0
 11
6.0530709994
 21
6.1337691977
 31
0.0
 11
6.0609793827
 21
6.1331638832
 31
0.0
 11
6.0692497017
 21
6.132277982
 31
0.0
  0
SPLINE
  5
45A
100
AcDbEntity
  8
0
100
AcDbSpline
 62
7
  6
CONTINUOUS
 70
0
 71
3
 72
9
 73
5
 74
3
 42
0.0000001
 43
0.0000001
 44
0.0000000001
 12
0.0244432707
 22
-0.0029681574
 32
0.0
 13
0.0241898972
 23
-0.0045969898
 33
0.0
 40
0.0
 40
0.0
 40
0.0
 40
0.0
 40
0.4854137643
 40
1.0
 40
1.0
 40
1.0
 40
1.0
 10
6.0692497017
 20
6.132277982
 30
0.0
 10
6.0732047351
 20
6.1317977206
 30
0.0
 10
6.0813338478
 20
6.130650998
 30
0.0
 10
6.0894198606
 20
6.1292350061
 30
0.0
 10
6.0935691233
 20
6.1284464902
 30
0.0
 11
6.0692497017
 21
6.132277982
 31
0.0
 11
6.081086546
 21
6.1306210037
 31
0.0
 11
6.0935691233
 21
6.1284464902
 31
0.0
  0
SPLINE
  5
45B
100
AcDbEntity
  8
0
100
AcDbSpline
 62
6
  6
CONTINUOUS
 70
0
 71
3
 72
16
 73
12
 74
10
 42
0.0000001
 43
0.0000001
 44
0.0000000001
 12
0.0579775464
 22
-0.0587533786
 32
0.0
 13
0.0822217845
 23
-0.0072755446
 33
0.0
 40
0.0
 40
0.0
 40
0.0
 40
0.0
 40
0.1344056708
 40
0.2003638482
 40
0.2655261915
 40
0.3935726016
 40
0.518865724
 40
0.6417403003
 40
0.7625808846
 40
0.8818308355
 40
1.0
 40
1.0
 40
1.0
 40
1.0
 10
5.0483268955
 20
4.9662249257
 30
0.0
 10
5.0509243992
 20
4.9635926633
 30
0.0
 10
5.0549468537
 20
4.9598121508
 30
0.0
 10
5.0605596252
 20
4.9551332015
 30
0.0
 10
5.066216747
 20
4.9507893271
 30
0.0
 10
5.073488039
 20
4.9458786119
 30
0.0
 10
5.082536173
 20
4.9408247897
 30
0.0
 10
5.0918125168
 20
4.9366644582
 30
0.0
 10
5.1012725443
 20
4.9334189778
 30
0.0
 10
5.1108702864
 20
4.931109776
 30
0.0
 10
5.1173526709
 20
4.930205986
 30
0.0
 10
5.1205913641
 20
4.9299194044
 30
0.0
 11
5.0483268955
 21
4.9662249257
 31
0.0
 11
5.0564167881
 21
4.9586330805
 31
0.0
 11
5.060599335
 21
4.9551477288
 31
0.0
 11
5.0648661187
 21
4.9518728309
 31
0.0
 11
5.0736299061
 21
4.9459646155
 31
0.0
 11
5.0826631695
 21
4.9409288731
 31
0.0
 11
5.091920928
 21
4.9367860421
 31
0.0
 11
5.1013582005
 21
4.9335565613
 31
0.0
 11
5.1109300062
 21
4.9312608691
 31
0.0
 11
5.1205913641
 21
4.9299194044
 31
0.0
  0
LINE
  5
45C
100
AcDbEntity
  8
0
100
AcDbLine
 62
6
  6
CONTINUOUS
 10
5.1287032788
 20
4.9295450917
 11
5.1290107176
 21
4.9295444591
  0
SPLINE
  5
45D
100
AcDbEntity
  8
0
100
AcDbSpline
 62
6
  6
CONTINUOUS
 70
0
 71
3
 72
16
 73
12
 74
10
 42
0.0000001
 43
0.0000001
 44
0.0000000001
 12
-0.0579907232
 22
-0.0587667317
 32
0.0
 13
-0.0822418772
 23
-0.0072612925
 33
0.0
 40
0.0
 40
0.0
 40
0.0
 40
0.0
 40
0.1344071266
 40
0.200365736
 40
0.2655283321
 40
0.3935747698
 40
0.5188674443
 40
0.6417413019
 40
0.7625811473
 40
0.8818306434
 40
1.0
 40
1.0
 40
1.0
 40
1.0
 10
6.8723506117
 20
4.9662249257
 30
0.0
 10
6.8697524895
 20
4.9635920365
 30
0.0
 10
6.8657290464
 20
4.9598106627
 30
0.0
 10
6.8601148416
 20
4.9551307459
 30
0.0
 10
6.85445627
 20
4.9507860645
 30
0.0
 10
6.8471830806
 20
4.945874594
 30
0.0
 10
6.8381325457
 20
4.9408202901
 30
0.0
 10
6.8288537323
 20
4.9366599287
 30
0.0
 10
6.8193911983
 20
4.9334148864
 30
0.0
 10
6.8097909466
 20
4.9311066067
 30
0.0
 10
6.803306927
 20
4.9302037717
 30
0.0
 10
6.8000674371
 20
4.929917751
 30
0.0
 11
6.8723506117
 21
4.9662249257
 31
0.0
 11
6.864258722
 21
4.9586313483
 31
0.0
 11
6.8600751136
 21
4.9551452819
 31
0.0
 11
6.8558072318
 21
4.9518697727
 31
0.0
 11
6.8470411546
 21
4.9459606525
 31
0.0
 11
6.838005504
 21
4.9409244411
 31
0.0
 11
6.8287452934
 21
4.9367815918
 31
0.0
 11
6.8193055364
 21
4.933552558
 31
0.0
 11
6.8097312465
 21
4.9312577933
 31
0.0
 11
6.8000674371
 21
4.929917751
 31
0.0
  0
LINE
  5
45E
100
AcDbEntity
  8
0
100
AcDbLine
 62
6
  6
CONTINUOUS
 10
6.7919636787
 20
4.9295450535
 11
6.7916667896
 21
4.9295444591
  0
SPLINE
  5
45F
100
AcDbEntity
  8
0
100
AcDbSpline
 62
7
  6
CONTINUOUS
 70
0
 71
3
 72
30
 73
26
 74
24
 42
0.0000001
 43
0.0000001
 44
0.0000000001
 12
-0.0000755313
 22
0.287035438
 32
0.0
 13
-0.2495599632
 23
0.1418068162
 33
0.0
 40
0.0
 40
0.0
 40
0.0
 40
0.0
 40
0.0656040142
 40
0.1312068732
 40
0.1966673927
 40
0.2619308068
 40
0.294483807
 40
0.3269719959
 40
0.3917211114
 40
0.4561288559
 40
0.488184766
 40
0.5201249929
 40
0.583600294
 40
0.6151149881
 40
0.6464628453
 40
0.7085702318
 40
0.7697272743
 40
0.7998965179
 40
0.8297476323
 40
0.8592399843
 40
0.8883402939
 40
0.9170214315
 40
0.9452319056
 40
0.9729078352
 40
1.0
 40
1.0
 40
1.0
 40
1.0
 10
5.7353979537
 20
5.571386571
 30
0.0
 10
5.735396302
 20
5.5776634633
 30
0.0
 10
5.7349167718
 20
5.5902213289
 30
0.0
 10
5.7328747667
 20
5.6089408671
 30
0.0
 10
5.7296078286
 20
5.6274518621
 30
0.0
 10
5.7259427128
 20
5.6426482301
 30
0.0
 10
5.7224947225
 20
5.6546307451
 30
0.0
 10
5.718727255
 20
5.6664650944
 30
0.0
 10
5.7134332852
 20
5.6810052477
 30
0.0
 10
5.7073963213
 20
5.6952072651
 30
0.0
 10
5.7021602892
 20
5.706322387
 30
0.0
 10
5.6966846332
 20
5.7172215168
 30
0.0
 10
5.6908184473
 20
5.7278626136
 30
0.0
 10
5.6845710818
 20
5.7382121692
 30
0.0
 10
5.6781226297
 20
5.7482826516
 30
0.0
 10
5.6696444197
 20
5.760414952
 30
0.0
 10
5.6605378908
 20
5.7719422492
 30
0.0
 10
5.6529179425
 20
5.7806830585
 30
0.0
 10
5.647071069
 20
5.7869436818
 30
0.0
 10
5.6410697812
 20
5.7929125569
 30
0.0
 10
5.6349183614
 20
5.7985628645
 30
0.0
 10
5.6286238809
 20
5.803865412
 30
0.0
 10
5.6221979771
 20
5.8087877037
 30
0.0
 10
5.6156564704
 20
5.8132927489
 30
0.0
 10
5.6111796104
 20
5.8160229386
 30
0.0
 10
5.6089259038
 20
5.8173035565
 30
0.0
 11
5.7353979537
 21
5.571386571
 31
0.0
 11
5.7346960647
 21
5.590204163
 31
0.0
 11
5.7326678185
 21
5.6089249576
 31
0.0
 11
5.7294141999
 21
5.6274306022
 31
0.0
 11
5.7250336792
 21
5.6456441433
 31
0.0
 11
5.7224511949
 21
5.6546240424
 31
0.0
 11
5.7196232892
 21
5.6635101809
 31
0.0
 11
5.713269653
 21
5.6809757002
 31
0.0
 11
5.7060416037
 21
5.6979914511
 31
0.0
 11
5.7021205981
 21
5.7063153609
 31
0.0
 11
5.6980043976
 21
5.714507351
 31
0.0
 11
5.689204194
 21
5.7304607983
 31
0.0
 11
5.684528858
 21
5.7382047218
 31
0.0
 11
5.6796758032
 21
5.7457817196
 31
0.0
 11
5.669450979
 21
5.7603849956
 31
0.0
 11
5.6585541068
 21
5.7741476074
 31
0.0
 11
5.6528609918
 21
5.7806727777
 31
0.0
 11
5.6470095647
 21
5.7869319347
 31
0.0
 11
5.6410041392
 21
5.7928982588
 31
0.0
 11
5.6348490356
 21
5.7985448779
 31
0.0
 11
5.6285491319
 21
5.8038444366
 31
0.0
 11
5.6221168003
 21
5.8087630843
 31
0.0
 11
5.6155697744
 21
5.8132623237
 31
0.0
 11
5.6089259038
 21
5.8173035565
 31
0.0
  0
SPLINE
  5
460
100
AcDbEntity
  8
0
100
AcDbSpline
 62
7
  6
CONTINUOUS
 70
0
 71
3
 72
19
 73
15
 74
13
 42
0.0000001
 43
0.0000001
 44
0.0000000001
 12
-0.0863428186
 22
-0.060429363
 32
0.0
 13
-0.0323013082
 23
-0.1003165775
 33
0.0
 40
0.0
 40
0.0
 40
0.0
 40
0.0
 40
0.0559756461
 40
0.1127387194
 40
0.1703572864
 40
0.22885477
 40
0.3484818986
 40
0.4718194729
 40
0.5348672901
 40
0.5987973675
 40
0.7292601672
 40
0.7957670744
 40
0.8630769242
 40
1.0
 40
1.0
 40
1.0
 40
1.0
 10
5.5275404894
 20
5.8173035564
 30
0.0
 10
5.5259294577
 20
5.8161760322
 30
0.0
 10
5.5227666694
 20
5.8137859364
 30
0.0
 10
5.5182416938
 20
5.8098634511
 30
0.0
 10
5.5139042304
 20
5.8056073225
 30
0.0
 10
5.5083292784
 20
5.7994782881
 30
0.0
 10
5.5018310618
 20
5.7910930841
 30
0.0
 10
5.4960129228
 20
5.7820396876
 30
0.0
 10
5.4916716157
 20
5.7743909382
 30
0.0
 10
5.4874774543
 20
5.7663768102
 30
0.0
 10
5.4836183589
 20
5.7580565746
 30
0.0
 10
5.4800579104
 20
5.7494816418
 30
0.0
 10
5.476634552
 20
5.7406072384
 30
0.0
 10
5.4742917498
 20
5.7338225578
 30
0.0
 10
5.472817485
 20
5.7292440063
 30
0.0
 11
5.5275404894
 21
5.8173035564
 31
0.0
 11
5.5228302391
 21
5.8137519163
 31
0.0
 11
5.5183058853
 21
5.8098382457
 31
0.0
 11
5.5139674866
 21
5.805589514
 31
0.0
 11
5.5098151014
 21
5.8010326905
 31
0.0
 11
5.5020608207
 21
5.7910920407
 31
0.0
 11
5.4950029001
 21
5.7801767306
 31
0.0
 11
5.4917198368
 21
5.7743999417
 31
0.0
 11
5.4885929321
 21
5.7684319834
 31
0.0
 11
5.4827863513
 21
5.7559689496
 31
0.0
 11
5.4800960907
 21
5.749496724
 31
0.0
 11
5.4775408
 21
5.7428792403
 31
0.0
 11
5.472817485
 21
5.7292440063
 31
0.0
  0
SPLINE
  5
461
100
AcDbEntity
  8
0
100
AcDbSpline
 62
7
  6
CONTINUOUS
 70
0
 71
3
 72
61
 73
57
 74
55
 42
0.0000001
 43
0.0000001
 44
0.0000000001
 12
0.0980811737
 22
-0.4707674014
 32
0.0
 13
0.0013142664
 23
0.4808743448
 33
0.0
 40
0.0
 40
0.0
 40
0.0
 40
0.0
 40
0.0335358503
 40
0.0659246547
 40
0.0816634648
 40
0.0970953405
 40
0.1270488218
 40
0.1558523882
 40
0.1836034834
 40
0.2104348483
 40
0.2365103049
 40
0.2493258199
 40
0.2620250749
 40
0.274634515
 40
0.2871848046
 40
0.2997113377
 40
0.3122437827
 40
0.3248121223
 40
0.3374563443
 40
0.3502238565
 40
0.3631549278
 40
0.3762841127
 40
0.3829340582
 40
0.3896450576
 40
0.4032610062
 40
0.4171527967
 40
0.4313282003
 40
0.4457861444
 40
0.4605238791
 40
0.475536284
 40
0.4908125716
 40
0.5063392542
 40
0.522106233
 40
0.5381028789
 40
0.5543172584
 40
0.5707375353
 40
0.5873521544
 40
0.6041494568
 40
0.6382420802
 40
0.6555221756
 40
0.672942586
 40
0.6904936074
 40
0.7081661438
 40
0.7259498024
 40
0.7438351184
 40
0.761812252
 40
0.7798708316
 40
0.7980013718
 40
0.8161946349
 40
0.8344421304
 40
0.8527360839
 40
0.8710693737
 40
0.8894350576
 40
0.9262354244
 40
0.9631019145
 40
1.0
 40
1.0
 40
1.0
 40
1.0
 10
5.4593984778
 20
5.4721720046
 30
0.0
 10
5.4604948896
 20
5.4669094762
 30
0.0
 10
5.4628985355
 20
5.4566138116
 30
0.0
 10
5.4665851878
 20
5.444044869
 30
0.0
 10
5.4699222878
 20
5.4344169399
 30
0.0
 10
5.4734401634
 20
5.4252709712
 30
0.0
 10
5.4782900755
 20
5.4144002158
 30
0.0
 10
5.4849178672
 20
5.4022027296
 30
0.0
 10
5.492302506
 20
5.3910392742
 30
0.0
 10
5.5004474152
 20
5.3809717969
 30
0.0
 10
5.5079134462
 20
5.3735058185
 30
0.0
 10
5.5142518786
 20
5.3681880587
 30
0.0
 10
5.5191653465
 20
5.3645478344
 30
0.0
 10
5.5242634816
 20
5.3612483524
 30
0.0
 10
5.5295440979
 20
5.358305345
 30
0.0
 10
5.5350023285
 20
5.355734572
 30
0.0
 10
5.5406331563
 20
5.3535583178
 30
0.0
 10
5.5464298037
 20
5.3518045463
 30
0.0
 10
5.5523832848
 20
5.3505014094
 30
0.0
 10
5.5584805706
 20
5.349677293
 30
0.0
 10
5.5647009406
 20
5.349332419
 30
0.0
 10
5.5699483306
 20
5.3494447
 30
0.0
 10
5.5741827021
 20
5.3497714627
 30
0.0
 10
5.5784797869
 20
5.3502625306
 30
0.0
 10
5.5838926515
 20
5.3511778941
 30
0.0
 10
5.5903974499
 20
5.3527228247
 30
0.0
 10
5.5969256332
 20
5.3546975744
 30
0.0
 10
5.6034600966
 20
5.3570804457
 30
0.0
 10
5.6099855682
 20
5.3598506685
 30
0.0
 10
5.6164883109
 20
5.3629878762
 30
0.0
 10
5.6229556262
 20
5.3664719944
 30
0.0
 10
5.6293757747
 20
5.3702845725
 30
0.0
 10
5.6357343798
 20
5.374414747
 30
0.0
 10
5.6420181845
 20
5.3788516386
 30
0.0
 10
5.6482143953
 20
5.383584522
 30
0.0
 10
5.654309231
 20
5.3886044331
 30
0.0
 10
5.6602886409
 20
5.3939034219
 30
0.0
 10
5.6681266547
 20
5.4013656378
 30
0.0
 10
5.6756338092
 20
5.4093209316
 30
0.0
 10
5.682765195
 20
5.41773381
 30
0.0
 10
5.6879479741
 20
5.4243156742
 30
0.0
 10
5.6929227052
 20
5.431134094
 30
0.0
 10
5.6976719622
 20
5.4381818921
 30
0.0
 10
5.7021797889
 20
5.4454497167
 30
0.0
 10
5.7064286989
 20
5.4529281542
 30
0.0
 10
5.7104070663
 20
5.460603621
 30
0.0
 10
5.714104514
 20
5.4684617494
 30
0.0
 10
5.717513466
 20
5.4764868692
 30
0.0
 10
5.7206292801
 20
5.4846626431
 30
0.0
 10
5.7234476389
 20
5.4929733074
 30
0.0
 10
5.7259644565
 20
5.5014035482
 30
0.0
 10
5.7281804393
 20
5.5099374061
 30
0.0
 10
5.7307381926
 20
5.5214398006
 30
0.0
 10
5.7331904512
 20
5.5359994439
 30
0.0
 10
5.7349598289
 20
5.5536455903
 30
0.0
 10
5.7353687629
 20
5.5654721595
 30
0.0
 10
5.7353849276
 20
5.5713866071
 30
0.0
 11
5.4593984778
 21
5.4721720046
 31
0.0
 11
5.4630885028
 21
5.4564732585
 31
0.0
 11
5.4674972489
 21
5.4415352639
 31
0.0
 11
5.4699785298
 21
5.434385145
 31
0.0
 11
5.4726454323
 21
5.4274601025
 31
0.0
 11
5.4785369149
 21
5.4143161615
 31
0.0
 11
5.4851737328
 21
5.4021588014
 31
0.0
 11
5.4925592126
 21
5.391043972
 31
0.0
 11
5.5006954546
 21
5.3810300965
 31
0.0
 11
5.5095816888
 21
5.3721834593
 31
0.0
 11
5.5143049091
 21
5.3682249547
 31
0.0
 11
5.5192137571
 21
5.3645923475
 31
0.0
 11
5.5243059471
 21
5.3613004497
 31
0.0
 11
5.5295788917
 21
5.3583646521
 31
0.0
 11
5.5350297575
 21
5.3558008357
 31
0.0
 11
5.5406523543
 21
5.3536315602
 31
0.0
 11
5.5464380666
 21
5.3518842112
 31
0.0
 11
5.5523782251
 21
5.3505862813
 31
0.0
 11
5.5584620705
 21
5.3497608031
 31
0.0
 11
5.5646705907
 21
5.3494131948
 31
0.0
 11
5.5709827363
 21
5.3495445275
 31
0.0
 11
5.5741710908
 21
5.3497901314
 31
0.0
 11
5.5773774693
 21
5.3501557753
 31
0.0
 11
5.5838346569
 21
5.351240024
 31
0.0
 11
5.5903357272
 21
5.3527767628
 31
0.0
 11
5.5968622627
 21
5.3547441348
 31
0.0
 11
5.6033960625
 21
5.3571203592
 31
0.0
 11
5.609921753
 21
5.3598846469
 31
0.0
 11
5.6164259422
 21
5.3630169039
 31
0.0
 11
5.6228952791
 21
5.3664970518
 31
0.0
 11
5.6293164441
 21
5.3703070303
 31
0.0
 11
5.6356762132
 21
5.3744349248
 31
0.0
 11
5.6419613808
 21
5.3788699862
 31
0.0
 11
5.6481586993
 21
5.3836015969
 31
0.0
 11
5.6542544595
 21
5.3886206016
 31
0.0
 11
5.6602346646
 21
5.3939187559
 31
0.0
 11
5.666085286
 21
5.3994878648
 31
0.0
 11
5.6773391196
 21
5.4114094947
 31
0.0
 11
5.68271214
 21
5.4177482536
 31
0.0
 11
5.6878943085
 21
5.4243300664
 31
0.0
 11
5.69286836
 21
5.4311484367
 31
0.0
 11
5.6976171912
 21
5.4381961117
 31
0.0
 11
5.7021241504
 21
5.4454638161
 31
0.0
 11
5.7063730708
 21
5.4529416078
 31
0.0
 11
5.7103515499
 21
5.4606164911
 31
0.0
 11
5.7140493525
 21
5.4684737852
 31
0.0
 11
5.7174589591
 21
5.4764979734
 31
0.0
 11
5.7205752733
 21
5.48467284
 31
0.0
 11
5.7233939775
 21
5.4929825791
 31
0.0
 11
5.7259117676
 21
5.5014117044
 31
0.0
 11
5.7281287977
 21
5.5099444278
 31
0.0
 11
5.7300468154
 21
5.5185652575
 31
0.0
 11
5.7329930412
 21
5.5360146981
 31
0.0
 11
5.7347666072
 21
5.553653975
 31
0.0
 11
5.7353849276
 21
5.5713866071
 31
0.0
  0
SPLINE
  5
462
100
AcDbEntity
  8
0
100
AcDbSpline
 62
7
  6
CONTINUOUS
 70
0
 71
3
 72
18
 73
14
 74
12
 42
0.0000001
 43
0.0000001
 44
0.0000000001
 12
0.0865402144
 22
-0.0605709374
 32
0.0
 13
0.0322908254
 23
-0.1005750951
 33
0.0
 40
0.0
 40
0.0
 40
0.0
 40
0.0
 40
0.0559696626
 40
0.1127341585
 40
0.1703510913
 40
0.2288352433
 40
0.3484576577
 40
0.4096794229
 40
0.4718191068
 40
0.5987794871
 40
0.7292623758
 40
0.8630498516
 40
1.0
 40
1.0
 40
1.0
 40
1.0
 10
6.3931370793
 20
5.8173035565
 30
0.0
 10
6.3947516215
 20
5.8161735115
 30
0.0
 10
6.3979215142
 20
5.8137779244
 30
0.0
 10
6.4024565445
 20
5.8098463023
 30
0.0
 10
6.4068030236
 20
5.8055799653
 30
0.0
 10
6.4123878399
 20
5.7994352142
 30
0.0
 10
6.4175537522
 20
5.7927575469
 30
0.0
 10
6.422335022
 20
5.7856608665
 30
0.0
 10
6.4269627103
 20
5.778156877
 30
0.0
 10
6.4323308561
 20
5.7682560948
 30
0.0
 10
6.4381198555
 20
5.7557477844
 30
0.0
 10
6.4433533022
 20
5.7426193636
 30
0.0
 10
6.4464573199
 20
5.7336021227
 30
0.0
 10
6.4479313977
 20
5.7290108646
 30
0.0
 11
6.3931370793
 21
5.8173035565
 31
0.0
 11
6.3978575772
 21
5.8137439732
 31
0.0
 11
6.4023922155
 21
5.8098208872
 31
0.0
 11
6.4067397165
 21
5.8055616941
 31
0.0
 11
6.4108988709
 21
5.8009937213
 31
0.0
 11
6.4186633813
 21
5.7910248347
 31
0.0
 11
6.422280793
 21
5.7856642508
 31
0.0
 11
6.425729872
 21
5.780079551
 31
0.0
 11
6.4321464357
 21
5.7683031516
 31
0.0
 11
6.4379580149
 21
5.7558051497
 31
0.0
 11
6.4432076723
 21
5.7426841752
 31
0.0
 11
6.4479313977
 21
5.7290108646
 31
0.0
  0
SPLINE
  5
463
100
AcDbEntity
  8
0
100
AcDbSpline
 62
7
  6
CONTINUOUS
 70
0
 71
3
 72
30
 73
26
 74
24
 42
0.0000001
 43
0.0000001
 44
0.0000000001
 12
0.000052656
 22
0.287015182
 32
0.0
 13
0.2495701774
 23
0.1417478183
 33
0.0
 40
0.0
 40
0.0
 40
0.0
 40
0.0
 40
0.1311315502
 40
0.196580468
 40
0.2618501111
 40
0.3268886871
 40
0.3916482617
 40
0.4560610498
 40
0.5200516996
 40
0.5518666622
 40
0.5835434828
 40
0.6150647609
 40
0.6464134048
 40
0.6775735039
 40
0.708528601
 40
0.7392506045
 40
0.7697086547
 40
0.7998756591
 40
0.8297263582
 40
0.859222492
 40
0.8883248009
 40
0.9170025624
 40
0.9452167524
 40
0.9729011366
 40
1.0
 40
1.0
 40
1.0
 40
1.0
 10
6.1852938579
 20
5.5713866092
 30
0.0
 10
6.1852961595
 20
5.5839321911
 30
0.0
 10
6.1867120796
 20
5.6027688802
 30
0.0
 10
6.1910717711
 20
5.6274479261
 30
0.0
 10
6.1954673114
 20
5.6456662119
 30
0.0
 10
6.2008857998
 20
5.6635345813
 30
0.0
 10
6.2072482295
 20
5.6810013646
 30
0.0
 10
6.2144735519
 20
5.6980192313
 30
0.0
 10
6.2211832834
 20
5.7118091722
 30
0.0
 10
6.2269362157
 20
5.7225648088
 30
0.0
 10
6.2314272405
 20
5.7304691817
 30
0.0
 10
6.2360998279
 20
5.7382155243
 30
0.0
 10
6.2409505304
 20
5.7457930352
 30
0.0
 10
6.2459759631
 20
5.753190463
 30
0.0
 10
6.2511714069
 20
5.7603957981
 30
0.0
 10
6.2565346845
 20
5.7673927995
 30
0.0
 10
6.2620633622
 20
5.7741629641
 30
0.0
 10
6.2677544187
 20
5.7806871856
 30
0.0
 10
6.2736031651
 20
5.7869452982
 30
0.0
 10
6.2796058513
 20
5.7929126489
 30
0.0
 10
6.285757804
 20
5.7985618245
 30
0.0
 10
6.2920522644
 20
5.8038638234
 30
0.0
 10
6.2984781886
 20
5.8087865203
 30
0.0
 10
6.3050204815
 20
5.8132926246
 30
0.0
 10
6.3094984283
 20
5.8160231548
 30
0.0
 10
6.3117527844
 20
5.8173035564
 30
0.0
 11
6.1852938579
 21
5.5713866092
 31
0.0
 11
6.1880115168
 21
5.6089251095
 31
0.0
 11
6.1912649649
 21
5.6274260565
 31
0.0
 11
6.1956465365
 21
5.6456398236
 31
0.0
 11
6.2010559399
 21
5.6635059213
 31
0.0
 11
6.2074103951
 21
5.680972941
 31
0.0
 11
6.2146338861
 21
5.6979907824
 31
0.0
 11
6.2226696055
 21
5.7145058592
 31
0.0
 11
6.2269765688
 21
5.7225576988
 31
0.0
 11
6.2314687842
 21
5.7304620982
 31
0.0
 11
6.2361425881
 21
5.7382084079
 31
0.0
 11
6.2409945612
 21
5.7457856122
 31
0.0
 11
6.2460212846
 21
5.7531826957
 31
0.0
 11
6.251219377
 21
5.7603879472
 31
0.0
 11
6.2565857311
 21
5.767384643
 31
0.0
 11
6.2621173595
 21
5.7741538604
 31
0.0
 11
6.2678112756
 21
5.7806766673
 31
0.0
 11
6.2736642729
 21
5.7869333645
 31
0.0
 11
6.2796715131
 21
5.7928985539
 31
0.0
 11
6.2858274232
 21
5.7985442705
 31
0.0
 11
6.2921264049
 21
5.8038425172
 31
0.0
 11
6.2985589919
 21
5.8087616458
 31
0.0
 11
6.3051074041
 21
5.8132621624
 31
0.0
 11
6.3117527844
 21
5.8173035564
 31
0.0
  0
SPLINE
  5
464
100
AcDbEntity
  8
0
100
AcDbSpline
 62
7
  6
CONTINUOUS
 70
0
 71
3
 72
56
 73
52
 74
50
 42
0.0000001
 43
0.0000001
 44
0.0000000001
 12
-0.0980425698
 22
-0.4708115282
 32
0.0
 13
-0.001314726
 23
0.4809096714
 33
0.0
 40
0.0
 40
0.0
 40
0.0
 40
0.0
 40
0.0169119637
 40
0.033553506
 40
0.0499069143
 40
0.0659596953
 40
0.0971414024
 40
0.1271088754
 40
0.1559246845
 40
0.1836866742
 40
0.2105263822
 40
0.2236545889
 40
0.2366147086
 40
0.2494314873
 40
0.2621296566
 40
0.274737358
 40
0.2872830896
 40
0.2997987401
 40
0.3123173338
 40
0.3248754863
 40
0.3375114231
 40
0.3502653109
 40
0.3631781937
 40
0.3697079425
 40
0.3762920309
 40
0.3896370646
 40
0.4032411551
 40
0.4171204514
 40
0.4312830085
 40
0.4457300679
 40
0.4604584247
 40
0.4754605909
 40
0.490727786
 40
0.5062489034
 40
0.5220128525
 40
0.5380076137
 40
0.5706362139
 40
0.6040463772
 40
0.6381472197
 40
0.6728524703
 40
0.708080835
 40
0.7258706144
 40
0.7437622355
 40
0.7617452978
 40
0.7798100894
 40
0.8161400273
 40
0.8526884725
 40
0.8893949162
 40
0.9262086439
 40
0.9630885325
 40
1.0
 40
1.0
 40
1.0
 40
1.0
 10
6.4612885613
 20
5.472218569
 30
0.0
 10
6.4607358638
 20
5.4695644532
 30
0.0
 10
6.4595756377
 20
5.4643116342
 30
0.0
 10
6.4576468424
 20
5.4565464151
 30
0.0
 10
6.4555375805
 20
5.4489708223
 30
0.0
 10
6.4525087291
 20
5.4392365817
 30
0.0
 10
6.448275053
 20
5.427596908
 30
0.0
 10
6.4423943229
 20
5.4144143984
 30
0.0
 10
6.4357628734
 20
5.4022103295
 30
0.0
 10
6.4283752391
 20
5.3910428248
 30
0.0
 10
6.421533682
 20
5.3825860858
 30
0.0
 10
6.4156878395
 20
5.3764318307
 30
0.0
 10
6.4111472925
 20
5.3721514593
 30
0.0
 10
6.4064201974
 20
5.3681842147
 30
0.0
 10
6.4015069653
 20
5.3645435165
 30
0.0
 10
6.3964098208
 20
5.3612438138
 30
0.0
 10
6.3911310184
 20
5.3583021868
 30
0.0
 10
6.3856746562
 20
5.3557371952
 30
0.0
 10
6.3800460724
 20
5.3535694545
 30
0.0
 10
6.3742529628
 20
5.3518209045
 30
0.0
 10
6.3683057814
 20
5.3505128529
 30
0.0
 10
6.3622178927
 20
5.3496668615
 30
0.0
 10
6.3570594399
 20
5.3493669429
 30
0.0
 10
6.352886351
 20
5.3493713035
 30
0.0
 10
6.3486473752
 20
5.3495422769
 30
0.0
 10
6.3432921389
 20
5.3500662645
 30
0.0
 10
6.3368348121
 20
5.3511631769
 30
0.0
 10
6.330335769
 20
5.3527092754
 30
0.0
 10
6.3238128633
 20
5.3546827923
 30
0.0
 10
6.3172821542
 20
5.3570618573
 30
0.0
 10
6.3107588668
 20
5.3598259191
 30
0.0
 10
6.3042567592
 20
5.3629550359
 30
0.0
 10
6.297789687
 20
5.3664324254
 30
0.0
 10
6.2913702654
 20
5.3702417811
 30
0.0
 10
6.2850117894
 20
5.3743702182
 30
0.0
 10
6.276576843
 20
5.3803224608
 30
0.0
 10
6.2662676322
 20
5.3885072649
 30
0.0
 10
6.2544352711
 20
5.3993750218
 30
0.0
 10
6.2431748451
 20
5.411297788
 30
0.0
 10
6.2326097499
 20
5.4242195456
 30
0.0
 10
6.224519483
 20
5.4357392147
 30
0.0
 10
6.2185266381
 20
5.4454009833
 30
0.0
 10
6.2142741528
 20
5.4528815578
 30
0.0
 10
6.2102927407
 20
5.460559583
 30
0.0
 10
6.2053497306
 20
5.4710590006
 30
0.0
 10
6.1998981869
 20
5.4845962033
 30
0.0
 10
6.1945629289
 20
5.5013494785
 30
0.0
 10
6.1904321396
 20
5.5185187317
 30
0.0
 10
6.1874888798
 20
5.5359837439
 30
0.0
 10
6.1857180486
 20
5.5536379369
 30
0.0
 10
6.1853087607
 20
5.565469581
 30
0.0
 10
6.1852925845
 20
5.5713866082
 30
0.0
 11
6.4612885613
 21
5.472218569
 31
0.0
 11
6.4595315983
 21
5.4642774527
 31
0.0
 11
6.4575991414
 21
5.4565111565
 31
0.0
 11
6.4554864574
 21
5.4489356974
 31
0.0
 11
6.4531900424
 21
5.4415651912
 31
0.0
 11
6.4480410673
 21
5.4274812539
 31
0.0
 11
6.442147063
 21
5.4143299098
 31
0.0
 11
6.4355069187
 21
5.4021664985
 31
0.0
 11
6.4281178196
 21
5.3910466065
 31
0.0
 11
6.4199785697
 21
5.3810287838
 31
0.0
 11
6.4156279226
 21
5.3764536098
 31
0.0
 11
6.4110904699
 21
5.3721807067
 31
0.0
 11
6.4063668776
 21
5.3682209951
 31
0.0
 11
6.4014584664
 21
5.3645879213
 31
0.0
 11
6.3963668776
 21
5.3612958133
 31
0.0
 11
6.3910950421
 21
5.3583616184
 31
0.0
 11
6.3856467181
 21
5.3558036578
 31
0.0
 11
6.3800277161
 21
5.3536423497
 31
0.0
 11
6.3742454587
 21
5.3518989727
 31
0.0
 11
6.3683102924
 21
5.3505947882
 31
0.0
 11
6.3622350754
 21
5.3497513134
 31
0.0
 11
6.3560357117
 21
5.3493888081
 31
0.0
 11
6.3528954819
 21
5.3493917594
 31
0.0
 11
6.3497316568
 21
5.3495185225
 31
0.0
 11
6.3433436991
 21
5.3501364977
 31
0.0
 11
6.3368924994
 21
5.3512248627
 31
0.0
 11
6.3303973838
 21
5.3527628041
 31
0.0
 11
6.3238763644
 21
5.3547288042
 31
0.0
 11
6.3173462339
 21
5.3571012959
 31
0.0
 11
6.3108223685
 21
5.3598596607
 31
0.0
 11
6.3043193455
 21
5.3629842064
 31
0.0
 11
6.2978507949
 21
5.3664577206
 31
0.0
 11
6.2914300175
 21
5.3702641816
 31
0.0
 11
6.2850700821
 21
5.3743901665
 31
0.0
 11
6.278783987
 21
5.378823321
 31
0.0
 11
6.2664869552
 21
5.3885703809
 31
0.0
 11
6.2546490862
 21
5.3994342648
 31
0.0
 11
6.2433869254
 21
5.411355124
 31
0.0
 11
6.2328235471
 21
5.4242770529
 31
0.0
 11
6.2230917129
 21
5.4381447649
 31
0.0
 11
6.2185820012
 21
5.4454149651
 31
0.0
 11
6.2143298465
 21
5.4528951332
 31
0.0
 11
6.2103482763
 21
5.4605723407
 31
0.0
 11
6.2066472364
 21
5.4684321179
 31
0.0
 11
6.2001151806
 21
5.4846365923
 31
0.0
 11
6.1947740648
 21
5.5013819849
 31
0.0
 11
6.1906353609
 21
5.5185425106
 31
0.0
 11
6.1876864925
 21
5.5359993397
 31
0.0
 11
6.1859114242
 21
5.5536462504
 31
0.0
 11
6.1852925845
 21
5.5713866082
 31
0.0
  0
SPLINE
  5
465
100
AcDbEntity
  8
0
100
AcDbSpline
 62
7
  6
CONTINUOUS
 70
0
 71
3
 72
14
 73
10
 74
8
 42
0.0000001
 43
0.0000001
 44
0.0000000001
 12
-0.0392249221
 22
0.0222854261
 32
0.0
 13
-0.0451135759
 23
0.0000003721
 33
0.0
 40
0.0
 40
0.0
 40
0.0
 40
0.0
 40
0.1333576444
 40
0.2643130052
 40
0.5186848562
 40
0.6422743062
 40
0.7635548509
 40
0.88272228
 40
1.0
 40
1.0
 40
1.0
 40
1.0
 10
5.6089252
 20
5.8173035564
 30
0.0
 10
5.6071815523
 20
5.8182942004
 30
0.0
 10
5.6036778319
 20
5.8201756143
 30
0.0
 10
5.596622107
 20
5.8235054048
 30
0.0
 10
5.5894329998
 20
5.8261939572
 30
0.0
 10
5.5821735508
 20
5.828126355
 30
0.0
 10
5.5767941377
 20
5.8291673351
 30
0.0
 10
5.5714472768
 20
5.8298002393
 30
0.0
 10
5.5678901788
 20
5.8299447941
 30
0.0
 10
5.566126573
 20
5.8299448086
 30
0.0
 11
5.6089252
 21
5.8173035564
 31
0.0
 11
5.6036226291
 21
5.820145719
 31
0.0
 11
5.5982776696
 21
5.8226625169
 31
0.0
 11
5.5875145428
 21
5.8266431003
 31
0.0
 11
5.5821252472
 21
5.8280722207
 31
0.0
 11
5.5767525291
 21
5.8291066807
 31
0.0
 11
5.5714131906
 21
5.8297340407
 31
0.0
 11
5.566126573
 21
5.8299448086
 31
0.0
  0
SPLINE
  5
466
100
AcDbEntity
  8
0
100
AcDbSpline
 62
7
  6
CONTINUOUS
 70
0
 71
3
 72
15
 73
11
 74
9
 42
0.0000001
 43
0.0000001
 44
0.0000000001
 12
-0.0412504449
 22
-0.0000000935
 32
0.0
 13
-0.0337982333
 23
-0.0236490725
 33
0.0
 40
0.0
 40
0.0
 40
0.0
 40
0.0
 40
0.1265628852
 40
0.2518559907
 40
0.3762810601
 40
0.5002857135
 40
0.6242911698
 40
0.7486873006
 40
0.873832314
 40
1.0
 40
1.0
 40
1.0
 40
1.0
 10
5.5661265644
 20
5.8299448086
 30
0.0
 10
5.564386306
 20
5.8299448047
 30
0.0
 10
5.5609215468
 20
5.8298058182
 30
0.0
 10
5.555780384
 20
5.8291776678
 30
0.0
 10
5.5507416156
 20
5.8281402845
 30
0.0
 10
5.5458197788
 20
5.8267065067
 30
0.0
 10
5.5410260337
 20
5.8248918462
 30
0.0
 10
5.5363694843
 20
5.822713046
 30
0.0
 10
5.531857249
 20
5.8201891203
 30
0.0
 10
5.5289614103
 20
5.8182981393
 30
0.0
 10
5.5275399953
 20
5.8173035564
 30
0.0
 11
5.5661265644
 21
5.8299448086
 31
0.0
 11
5.5609100452
 21
5.8297340429
 31
0.0
 11
5.5557798683
 21
5.8291066629
 31
0.0
 11
5.550752608
 21
5.8280721926
 31
0.0
 11
5.5458410518
 21
5.8266430779
 31
0.0
 11
5.5410562317
 21
5.8248343245
 31
0.0
 11
5.5364070878
 21
5.822662532
 31
0.0
 11
5.5318998847
 21
5.820145722
 31
0.0
 11
5.5275399953
 21
5.8173035564
 31
0.0
  0
SPLINE
  5
467
100
AcDbEntity
  8
0
100
AcDbSpline
 62
7
  6
CONTINUOUS
 70
0
 71
3
 72
15
 73
11
 74
9
 42
0.0000001
 43
0.0000001
 44
0.0000000001
 12
0.0412504557
 22
-0.0000016815
 32
0.0
 13
0.0337988727
 23
-0.0236481776
 33
0.0
 40
0.0
 40
0.0
 40
0.0
 40
0.0
 40
0.1265531197
 40
0.2518574551
 40
0.376288724
 40
0.5002908371
 40
0.6242907529
 40
0.748695157
 40
0.8738443105
 40
1.0
 40
1.0
 40
1.0
 40
1.0
 10
6.3545509435
 20
5.8299448086
 30
0.0
 10
6.3562910681
 20
5.8299447377
 30
0.0
 10
6.359755824
 20
5.8298055142
 30
0.0
 10
6.3648971624
 20
5.8291778809
 30
0.0
 10
6.3699360691
 20
5.8281401283
 30
0.0
 10
6.3748579686
 20
5.8267066576
 30
0.0
 10
6.3796515924
 20
5.8248916604
 30
0.0
 10
6.3843083428
 20
5.8227130696
 30
0.0
 10
6.3888204251
 20
5.8201888421
 30
0.0
 10
6.3917162205
 20
5.8182980071
 30
0.0
 10
6.3931375272
 20
5.8173035564
 30
0.0
 11
6.3545509435
 21
5.8299448086
 31
0.0
 11
6.3597670555
 21
5.8297339099
 31
0.0
 11
6.3648977234
 21
5.8291067175
 31
0.0
 11
6.3699252181
 21
5.828072111
 31
0.0
 11
6.3748367002
 21
5.8266431119
 31
0.0
 11
6.3796212589
 21
5.8248343095
 31
0.0
 11
6.384270743
 21
5.8226624357
 31
0.0
 11
6.3887780186
 21
5.8201454025
 31
0.0
 11
6.3931375272
 21
5.8173035564
 31
0.0
  0
SPLINE
  5
468
100
AcDbEntity
  8
0
100
AcDbSpline
 62
7
  6
CONTINUOUS
 70
0
 71
3
 72
14
 73
10
 74
8
 42
0.0000001
 43
0.0000001
 44
0.0000000001
 12
0.0392256761
 22
0.0222841391
 32
0.0
 13
0.0451135957
 23
0.0000016965
 33
0.0
 40
0.0
 40
0.0
 40
0.0
 40
0.0
 40
0.1333448589
 40
0.2643049042
 40
0.5186795111
 40
0.6422630125
 40
0.7635519848
 40
0.8827323558
 40
1.0
 40
1.0
 40
1.0
 40
1.0
 10
6.3117523233
 20
5.8173035564
 30
0.0
 10
6.3134958373
 20
5.8182940482
 30
0.0
 10
6.3169994641
 20
5.8201753722
 30
0.0
 10
6.3240549789
 20
5.8235054227
 30
0.0
 10
6.331244141
 20
5.8261939752
 30
0.0
 10
6.3385037101
 20
5.8281261882
 30
0.0
 10
6.343883309
 20
5.8291674903
 30
0.0
 10
6.3492303971
 20
5.8297999401
 30
0.0
 10
6.3527875187
 20
5.8299447423
 30
0.0
 10
6.3545509737
 20
5.8299448086
 30
0.0
 11
6.3117523233
 21
5.8173035564
 31
0.0
 11
6.3170544103
 21
5.8201454063
 31
0.0
 11
6.3223994912
 21
5.8226624486
 31
0.0
 11
6.3331627354
 21
5.8266430874
 31
0.0
 11
6.3385517905
 21
5.8280720773
 31
0.0
 11
6.3439248682
 21
5.8291066934
 31
0.0
 11
6.3492648141
 21
5.8297339075
 31
0.0
 11
6.3545509737
 21
5.8299448086
 31
0.0
  0
SPLINE
  5
469
100
AcDbEntity
  8
0
100
AcDbSpline
 62
7
  6
CONTINUOUS
 70
0
 71
3
 72
8
 73
4
 74
2
 42
0.0000001
 43
0.0000001
 44
0.0000000001
 12
-0.0000573702
 22
-0.0000026377
 32
0.0
 13
-0.0000573702
 23
-0.0000026377
 33
0.0
 40
0.0
 40
0.0
 40
0.0
 40
0.0
 40
1.0
 40
1.0
 40
1.0
 40
1.0
 10
5.8893191362
 20
6.1349172714
 30
0.0
 10
5.8893000128
 20
6.1349163922
 30
0.0
 10
5.8892808895
 20
6.1349155129
 30
0.0
 10
5.8892617661
 20
6.1349146337
 30
0.0
 11
5.8893191362
 21
6.1349172714
 31
0.0
 11
5.8892617661
 21
6.1349146337
 31
0.0
  0
SPLINE
  5
46A
100
AcDbEntity
  8
0
100
AcDbSpline
 62
7
  6
CONTINUOUS
 70
0
 71
3
 72
9
 73
5
 74
3
 42
0.0000001
 43
0.0000001
 44
0.0000000001
 12
-0.01995298
 22
-0.0009199579
 32
0.0
 13
-0.019827234
 23
-0.0024183721
 33
0.0
 40
0.0
 40
0.0
 40
0.0
 40
0.0
 40
0.4854317677
 40
1.0
 40
1.0
 40
1.0
 40
1.0
 10
5.8892617661
 20
6.1349146337
 30
0.0
 10
5.8860331626
 20
6.1347657748
 30
0.0
 10
5.8793883541
 20
6.13431474
 30
0.0
 10
5.8727655898
 20
6.1336157736
 30
0.0
 10
5.8693647682
 20
6.1332009678
 30
0.0
 11
5.8892617661
 21
6.1349146337
 31
0.0
 11
5.8795871549
 21
6.1342694579
 31
0.0
 11
5.8693647682
 21
6.1332009678
 31
0.0
  0
LINE
  5
46B
100
AcDbEntity
  8
0
100
AcDbLine
 62
7
  6
CONTINUOUS
 10
5.867809503
 20
6.1330073788
 11
5.8676782155
 21
6.1329906839
  0
LINE
  5
46C
100
AcDbEntity
  8
0
100
AcDbLine
 62
7
  6
CONTINUOUS
 10
6.052999361
 20
6.1329906751
 11
6.0528680648
 21
6.1330073712
  0
SPLINE
  5
46D
100
AcDbEntity
  8
0
100
AcDbSpline
 62
7
  6
CONTINUOUS
 70
0
 71
3
 72
9
 73
5
 74
3
 42
0.0000001
 43
0.0000001
 44
0.0000000001
 12
-0.0198318715
 22
0.0024192384
 32
0.0
 13
-0.0199576832
 23
0.0009201752
 33
0.0
 40
0.0
 40
0.0
 40
0.0
 40
0.0
 40
0.5145713064
 40
1.0
 40
1.0
 40
1.0
 40
1.0
 10
6.0513174185
 20
6.133200397
 30
0.0
 10
6.0479157811
 20
6.1336153539
 30
0.0
 10
6.0412914637
 20
6.1343145662
 30
0.0
 10
6.0346450903
 20
6.1347657403
 30
0.0
 10
6.0314157462
 20
6.1349146335
 30
0.0
 11
6.0513174185
 21
6.133200397
 31
0.0
 11
6.0410925737
 21
6.1342692666
 31
0.0
 11
6.0314157462
 21
6.1349146335
 31
0.0
  0
SPLINE
  5
46E
100
AcDbEntity
  8
0
100
AcDbSpline
 62
7
  6
CONTINUOUS
 70
0
 71
3
 72
8
 73
4
 74
2
 42
0.0000001
 43
0.0000001
 44
0.0000000001
 12
-0.0000573753
 22
0.0000026379
 32
0.0
 13
-0.0000573753
 23
0.0000026379
 33
0.0
 40
0.0
 40
0.0
 40
0.0
 40
0.0
 40
1.0
 40
1.0
 40
1.0
 40
1.0
 10
6.0314157462
 20
6.1349146335
 30
0.0
 10
6.0313966212
 20
6.1349155128
 30
0.0
 10
6.0313774961
 20
6.1349163921
 30
0.0
 10
6.031358371
 20
6.1349172714
 30
0.0
 11
6.0314157462
 21
6.1349146335
 31
0.0
 11
6.031358371
 21
6.1349172714
 31
0.0
  0
LINE
  5
46F
100
AcDbEntity
  8
0
100
AcDbLine
 62
7
  6
CONTINUOUS
 10
6.0525570886
 20
6.1320215861
 11
6.052842549
 21
6.13199821
  0
SPLINE
  5
470
100
AcDbEntity
  8
0
100
AcDbSpline
 62
7
  6
CONTINUOUS
 70
0
 71
3
 72
17
 73
13
 74
11
 42
0.0000001
 43
0.0000001
 44
0.0000000001
 12
-0.0039688898
 22
0.0240079534
 32
0.0
 13
-0.0103882897
 23
0.0220049391
 33
0.0
 40
0.0
 40
0.0
 40
0.0
 40
0.0
 40
0.1738540402
 40
0.3336627489
 40
0.4794362667
 40
0.6112034572
 40
0.7290181231
 40
0.8329710185
 40
0.8797960577
 40
0.9232182585
 40
0.9632715339
 40
1.0
 40
1.0
 40
1.0
 40
1.0
 10
5.9772039904
 20
6.1095662703
 30
0.0
 10
5.9769739878
 20
6.1109575635
 30
0.0
 10
5.9765156187
 20
6.1136250015
 30
0.0
 10
5.9757976432
 20
6.1174471669
 30
0.0
 10
5.9750784483
 20
6.1209211986
 30
0.0
 10
5.9743583607
 20
6.1240464858
 30
0.0
 10
5.9736376523
 20
6.1268224719
 30
0.0
 10
5.9730172522
 20
6.1289115981
 30
0.0
 10
5.9725157835
 20
6.1304050117
 30
0.0
 10
5.9721527617
 20
6.1313977733
 30
0.0
 10
5.9717896458
 20
6.132302818
 30
0.0
 10
5.9715366602
 20
6.1328721406
 30
0.0
 10
5.9714094782
 20
6.1331415431
 30
0.0
 11
5.9772039904
 21
6.1095662703
 31
0.0
 11
5.9764851101
 21
6.1137352741
 31
0.0
 11
5.975764348
 21
6.1175566489
 31
0.0
 11
5.9750418692
 21
6.1210295183
 31
0.0
 11
5.9743178374
 21
6.1241530992
 31
0.0
 11
5.9735924173
 21
6.1269266816
 31
0.0
 11
5.9728657738
 21
6.1293496363
 31
0.0
 11
5.972502045
 21
6.1304294533
 31
0.0
 11
5.9721380723
 21
6.1314214135
 31
0.0
 11
5.9717738765
 21
6.1323254605
 31
0.0
 11
5.9714094782
 21
6.1331415431
 31
0.0
  0
SPLINE
  5
471
100
AcDbEntity
  8
0
100
AcDbSpline
 62
7
  6
CONTINUOUS
 70
0
 71
3
 72
11
 73
7
 74
5
 42
0.0000001
 43
0.0000001
 44
0.0000000001
 12
-0.0015565293
 22
0.0032971098
 32
0.0
 13
-0.0029245375
 23
0.002177337
 33
0.0
 40
0.0
 40
0.0
 40
0.0
 40
0.0
 40
0.3105552368
 40
0.5788026698
 40
0.8072525543
 40
1.0
 40
1.0
 40
1.0
 40
1.0
 10
5.9714094782
 20
6.1331415431
 30
0.0
 10
5.9712483487
 20
6.1334828547
 30
0.0
 10
5.9709296856
 20
6.1341106946
 30
0.0
 10
5.9704154858
 20
6.1349480116
 30
0.0
 10
5.9699004916
 20
6.1356113594
 30
0.0
 10
5.9695258325
 20
6.1359654481
 30
0.0
 10
5.9693379334
 20
6.1361053401
 30
0.0
 11
5.9714094782
 21
6.1331415431
 31
0.0
 11
5.9708919929
 21
6.1341486755
 31
0.0
 11
5.9703742009
 21
6.1349784123
 31
0.0
 11
5.9698561612
 21
6.1356306587
 31
0.0
 11
5.9693379334
 21
6.1361053401
 31
0.0
  0
SPLINE
  5
472
100
AcDbEntity
  8
0
100
AcDbSpline
 62
6
  6
CONTINUOUS
 70
0
 71
3
 72
17
 73
13
 74
11
 42
0.0000001
 43
0.0000001
 44
0.0000000001
 12
0.0039688898
 22
0.0240079534
 32
0.0
 13
0.0103882897
 23
0.0220049391
 33
0.0
 40
0.0
 40
0.0
 40
0.0
 40
0.0
 40
0.1738540402
 40
0.3336627489
 40
0.4794362667
 40
0.6112034572
 40
0.7290181231
 40
0.8329710185
 40
0.8797960577
 40
0.9232182585
 40
0.9632715339
 40
1.0
 40
1.0
 40
1.0
 40
1.0
 10
5.9434735168
 20
6.1095662703
 30
0.0
 10
5.9437035194
 20
6.1109575635
 30
0.0
 10
5.9441618885
 20
6.1136250015
 30
0.0
 10
5.944879864
 20
6.1174471669
 30
0.0
 10
5.9455990589
 20
6.1209211986
 30
0.0
 10
5.9463191465
 20
6.1240464858
 30
0.0
 10
5.9470398549
 20
6.1268224719
 30
0.0
 10
5.947660255
 20
6.1289115981
 30
0.0
 10
5.9481617237
 20
6.1304050117
 30
0.0
 10
5.9485247455
 20
6.1313977733
 30
0.0
 10
5.9488878614
 20
6.132302818
 30
0.0
 10
5.949140847
 20
6.1328721406
 30
0.0
 10
5.949268029
 20
6.1331415431
 30
0.0
 11
5.9434735168
 21
6.1095662703
 31
0.0
 11
5.9441923971
 21
6.1137352741
 31
0.0
 11
5.9449131592
 21
6.1175566489
 31
0.0
 11
5.945635638
 21
6.1210295183
 31
0.0
 11
5.9463596698
 21
6.1241530992
 31
0.0
 11
5.9470850899
 21
6.1269266816
 31
0.0
 11
5.9478117334
 21
6.1293496363
 31
0.0
 11
5.9481754622
 21
6.1304294533
 31
0.0
 11
5.9485394349
 21
6.1314214135
 31
0.0
 11
5.9489036307
 21
6.1323254605
 31
0.0
 11
5.949268029
 21
6.1331415431
 31
0.0
  0
SPLINE
  5
473
100
AcDbEntity
  8
0
100
AcDbSpline
 62
6
  6
CONTINUOUS
 70
0
 71
3
 72
11
 73
7
 74
5
 42
0.0000001
 43
0.0000001
 44
0.0000000001
 12
0.0015565293
 22
0.0032971098
 32
0.0
 13
0.0029245375
 23
0.002177337
 33
0.0
 40
0.0
 40
0.0
 40
0.0
 40
0.0
 40
0.3105552368
 40
0.5788026698
 40
0.8072525543
 40
1.0
 40
1.0
 40
1.0
 40
1.0
 10
5.949268029
 20
6.1331415431
 30
0.0
 10
5.9494291585
 20
6.1334828547
 30
0.0
 10
5.9497478216
 20
6.1341106946
 30
0.0
 10
5.9502620214
 20
6.1349480116
 30
0.0
 10
5.9507770156
 20
6.1356113594
 30
0.0
 10
5.9511516747
 20
6.1359654481
 30
0.0
 10
5.9513395738
 20
6.1361053401
 30
0.0
 11
5.949268029
 21
6.1331415431
 31
0.0
 11
5.9497855143
 21
6.1341486755
 31
0.0
 11
5.9503033063
 21
6.1349784123
 31
0.0
 11
5.950821346
 21
6.1356306587
 31
0.0
 11
5.9513395738
 21
6.1361053401
 31
0.0
  0
LINE
  5
474
100
AcDbEntity
  8
0
100
AcDbLine
 62
7
  6
CONTINUOUS
 10
5.8681204186
 20
6.1320215861
 11
5.8678349582
 21
6.13199821
  0
LINE
  5
475
100
AcDbEntity
  8
0
100
AcDbLine
 62
7
  6
CONTINUOUS
 10
5.9903387536
 20
6.1347841306
 11
5.9917568432
 21
6.1321114026
  0
SPLINE
  5
476
100
AcDbEntity
  8
0
100
AcDbSpline
 62
7
  6
CONTINUOUS
 70
0
 71
3
 72
17
 73
13
 74
11
 42
0.0000001
 43
0.0000001
 44
0.0000000001
 12
0.0107654997
 22
-0.0253677473
 32
0.0
 13
0.0041897776
 23
-0.0272371869
 33
0.0
 40
0.0
 40
0.0
 40
0.0
 40
0.0
 40
0.0371979934
 40
0.0776844187
 40
0.121493566
 40
0.1686517455
 40
0.2730876011
 40
0.3911109906
 40
0.5227882177
 40
0.668154763
 40
0.8272262459
 40
1.0
 40
1.0
 40
1.0
 40
1.0
 10
5.9917568432
 20
6.1321114026
 30
0.0
 10
5.9918903282
 20
6.1317968595
 30
0.0
 10
5.9921558547
 20
6.1311343066
 30
0.0
 10
5.9925372994
 20
6.1300853374
 30
0.0
 10
5.9929186125
 20
6.1289394664
 30
0.0
 10
5.9934448468
 20
6.1272232526
 30
0.0
 10
5.9940959838
 20
6.1248330771
 30
0.0
 10
5.9948527286
 20
6.1216688924
 30
0.0
 10
5.9956085954
 20
6.1181191332
 30
0.0
 10
5.9963632825
 20
6.1141845455
 30
0.0
 10
5.9971164304
 20
6.1098659623
 30
0.0
 10
5.9975974591
 20
6.1068557725
 30
0.0
 10
5.9978387536
 20
6.1052871489
 30
0.0
 11
5.9917568432
 21
6.1321114026
 31
0.0
 11
5.9921396563
 21
6.1311604795
 31
0.0
 11
5.992522222
 21
6.1301124123
 31
0.0
 11
5.9929045164
 21
6.1289672666
 31
0.0
 11
5.9932865153
 21
6.127725114
 31
0.0
 11
5.9940495312
 21
6.124950106
 31
0.0
 11
5.9948110779
 21
6.1217880839
 31
0.0
 11
5.9955709645
 21
6.118239838
 31
0.0
 11
5.9963289985
 21
6.1143062662
 31
0.0
 11
5.9970849939
 21
6.109988327
 31
0.0
 11
5.9978387536
 21
6.1052871489
 31
0.0
  0
LINE
  5
477
100
AcDbEntity
  8
0
100
AcDbLine
 62
7
  6
CONTINUOUS
 10
6.0541601131
 20
6.1306647849
 11
6.0528353321
 21
6.1307829034
  0
SPLINE
  5
478
100
AcDbEntity
  8
0
100
AcDbSpline
 62
7
  6
CONTINUOUS
 70
0
 71
3
 72
33
 73
29
 74
27
 42
0.0000001
 43
0.0000001
 44
0.0000000001
 12
0.0046545003
 22
-0.00088453
 32
0.0
 13
-0.0047377077
 23
-0.0000298626
 33
0.0
 40
0.0
 40
0.0
 40
0.0
 40
0.0
 40
0.0981851975
 40
0.1829121939
 40
0.2537720719
 40
0.2838891723
 40
0.3104128982
 40
0.3333252817
 40
0.3526599715
 40
0.3684962926
 40
0.3809884736
 40
0.390466251
 40
0.3976989829
 40
0.4009831169
 40
0.4043780899
 40
0.412392166
 40
0.4230693759
 40
0.4369485117
 40
0.4542536713
 40
0.4750853261
 40
0.4994890796
 40
0.5274832487
 40
0.5590712486
 40
0.59424773
 40
0.6752727859
 40
0.7702034363
 40
0.8785983249
 40
1.0
 40
1.0
 40
1.0
 40
1.0
 10
6.0935691233
 20
6.1284464902
 30
0.0
 10
6.0937214576
 20
6.1284175409
 30
0.0
 10
6.0940048121
 20
6.1283612454
 30
0.0
 10
6.0943960219
 20
6.1282740501
 30
0.0
 10
6.0946802323
 20
6.1282013323
 30
0.0
 10
6.0948733309
 20
6.1281441702
 30
0.0
 10
6.0949926676
 20
6.1281048078
 30
0.0
 10
6.0950943956
 20
6.1280666558
 30
0.0
 10
6.0951784448
 20
6.128029766
 30
0.0
 10
6.0952449379
 20
6.1279942489
 30
0.0
 10
6.0952940327
 20
6.1279599069
 30
0.0
 10
6.0953265484
 20
6.1279266227
 30
0.0
 10
6.0953395723
 20
6.1278963517
 30
0.0
 10
6.095338459
 20
6.1278740583
 30
0.0
 10
6.0953304664
 20
6.127851949
 30
0.0
 10
6.0953062065
 20
6.1278254431
 30
0.0
 10
6.0952621951
 20
6.1277984323
 30
0.0
 10
6.0952010648
 20
6.1277727501
 30
0.0
 10
6.0951224915
 20
6.1277485431
 30
0.0
 10
6.0950263389
 20
6.1277257291
 30
0.0
 10
6.0949126402
 20
6.1277044136
 30
0.0
 10
6.0947814644
 20
6.1276846382
 30
0.0
 10
6.094632909
 20
6.1276664518
 30
0.0
 10
6.0944006468
 20
6.1276432871
 30
0.0
 10
6.0940679953
 20
6.127619584
 30
0.0
 10
6.0936193791
 20
6.1275988641
 30
0.0
 10
6.0931067116
 20
6.1275849535
 30
0.0
 10
6.0927438159
 20
6.127580547
 30
0.0
 10
6.092552094
 20
6.1275793386
 30
0.0
 11
6.0935691233
 21
6.1284464902
 31
0.0
 11
6.0940252627
 21
6.1283552153
 31
0.0
 11
6.0944168856
 21
6.1282670715
 31
0.0
 11
6.0947417935
 21
6.1281825564
 31
0.0
 11
6.0948785424
 21
6.1281418151
 31
0.0
 11
6.0949977881
 21
6.1281021675
 31
0.0
 11
6.0950992878
 21
6.1280636726
 31
0.0
 11
6.0951829546
 21
6.1280263744
 31
0.0
 11
6.0952487491
 21
6.1279903122
 31
0.0
 11
6.0952966321
 21
6.1279555251
 31
0.0
 11
6.0953265642
 21
6.1279220524
 31
0.0
 11
6.0953385063
 21
6.1278899334
 31
0.0
 11
6.0953377187
 21
6.1278743938
 31
0.0
 11
6.0953324189
 21
6.1278592073
 31
0.0
 11
6.0953082629
 21
6.1278299133
 31
0.0
 11
6.0952660156
 21
6.1278020895
 31
0.0
 11
6.0952057573
 21
6.127775767
 31
0.0
 11
6.0951276074
 21
6.1277509742
 31
0.0
 11
6.0950316851
 21
6.1277277393
 31
0.0
 11
6.0949181097
 21
6.1277060908
 31
0.0
 11
6.0947870007
 21
6.127686057
 31
0.0
 11
6.0946384772
 21
6.1276676663
 31
0.0
 11
6.0944726588
 21
6.127650947
 31
0.0
 11
6.0940898251
 21
6.1276226151
 31
0.0
 11
6.0936405737
 21
6.1276011762
 31
0.0
 11
6.0931272237
 21
6.1275867205
 31
0.0
 11
6.092552094
 21
6.1275793386
 31
0.0
  0
SPLINE
  5
479
100
AcDbEntity
  8
0
100
AcDbSpline
 62
7
  6
CONTINUOUS
 70
0
 71
3
 72
15
 73
11
 74
9
 42
0.0000001
 43
0.0000001
 44
0.0000000001
 12
-0.0185387965
 22
-0.0001168533
 32
0.0
 13
-0.0184369676
 23
0.0019439279
 33
0.0
 40
0.0
 40
0.0
 40
0.0
 40
0.0
 40
0.0908878778
 40
0.1987761494
 40
0.320443523
 40
0.4522405276
 40
0.5901934534
 40
0.7302194428
 40
0.8682729678
 40
1.0
 40
1.0
 40
1.0
 40
1.0
 10
6.092552094
 20
6.1275793386
 30
0.0
 10
6.0919904434
 20
6.1275757984
 30
0.0
 10
6.0907619695
 20
6.1275880366
 30
0.0
 10
6.0887825002
 20
6.1276460799
 30
0.0
 10
6.086551554
 20
6.1277448944
 30
0.0
 10
6.0841365227
 20
6.1278816535
 30
0.0
 10
6.08160993
 20
6.1280522842
 30
0.0
 10
6.0790466748
 20
6.1282518244
 30
0.0
 10
6.0765239302
 20
6.1284742693
 30
0.0
 10
6.0748648308
 20
6.1286385487
 30
0.0
 10
6.0740552818
 20
6.1287239047
 30
0.0
 11
6.092552094
 21
6.1275793386
 31
0.0
 11
6.0908671559
 21
6.1275919588
 31
0.0
 11
6.0888677902
 21
6.1276482654
 31
0.0
 11
6.0866143214
 21
6.1277465593
 31
0.0
 11
6.0841747733
 21
6.1278838175
 31
0.0
 11
6.081623027
 21
6.1280557496
 31
0.0
 11
6.0790348923
 21
6.1282572251
 31
0.0
 11
6.0764854177
 21
6.1284823753
 31
0.0
 11
6.0740552818
 21
6.1287239047
 31
0.0
  0
SPLINE
  5
47A
100
AcDbEntity
  8
0
100
AcDbSpline
 62
7
  6
CONTINUOUS
 70
0
 71
3
 72
9
 73
5
 74
3
 42
0.0000001
 43
0.0000001
 44
0.0000000001
 12
0.0241899461
 22
0.0045969991
 32
0.0
 13
0.0244433206
 23
0.0029681594
 33
0.0
 40
0.0
 40
0.0
 40
0.0
 40
0.0
 40
0.5145862722
 40
1.0
 40
1.0
 40
1.0
 40
1.0
 10
5.8271083839
 20
6.1284464902
 30
0.0
 10
5.8312576553
 20
6.1292350077
 30
0.0
 10
5.8393436845
 20
6.1306510022
 30
0.0
 10
5.8474728138
 20
6.1317977263
 30
0.0
 10
5.8514278549
 20
6.132277988
 30
0.0
 11
5.8271083839
 21
6.1284464902
 31
0.0
 11
5.8395909874
 21
6.1306210078
 31
0.0
 11
5.8514278549
 21
6.132277988
 31
0.0
  0
SPLINE
  5
47B
100
AcDbEntity
  8
0
100
AcDbSpline
 62
7
  6
CONTINUOUS
 70
0
 71
3
 72
9
 73
5
 74
3
 42
0.0000001
 43
0.0000001
 44
0.0000000001
 12
0.016130611
 22
0.0019587447
 32
0.0
 13
0.0162197634
 23
0.0009759953
 33
0.0
 40
0.0
 40
0.0
 40
0.0
 40
0.0
 40
0.5118811092
 40
1.0
 40
1.0
 40
1.0
 40
1.0
 10
5.8514278549
 20
6.132277988
 30
0.0
 10
5.8541801733
 20
6.1326122028
 30
0.0
 10
5.859566153
 20
6.1331927978
 30
0.0
 10
5.8649674544
 20
6.1336103973
 30
0.0
 10
5.867606512
 20
6.1337691979
 30
0.0
 11
5.8514278549
 21
6.132277988
 31
0.0
 11
5.8596981504
 21
6.1331638856
 31
0.0
 11
5.867606512
 21
6.1337691979
 31
0.0
  0
SPLINE
  5
47C
100
AcDbEntity
  8
0
100
AcDbSpline
 62
7
  6
CONTINUOUS
 70
0
 71
3
 72
8
 73
4
 74
2
 42
0.0000001
 43
0.0000001
 44
0.0000000001
 12
0.0000716587
 22
0.0000043008
 32
0.0
 13
0.0000716587
 23
0.0000043008
 33
0.0
 40
0.0
 40
0.0
 40
0.0
 40
0.0
 40
1.0
 40
1.0
 40
1.0
 40
1.0
 10
5.867606512
 20
6.1337691979
 30
0.0
 10
5.8676303982
 20
6.1337706315
 30
0.0
 10
5.8676542845
 20
6.1337720651
 30
0.0
 10
5.8676781707
 20
6.1337734987
 30
0.0
 11
5.867606512
 21
6.1337691979
 31
0.0
 11
5.8676781707
 21
6.1337734987
 31
0.0
  0
SPLINE
  5
47D
100
AcDbEntity
  8
0
100
AcDbSpline
 62
7
  6
CONTINUOUS
 70
0
 71
3
 72
15
 73
11
 74
9
 42
0.0000001
 43
0.0000001
 44
0.0000000001
 12
-0.0184305158
 22
-0.0019432477
 32
0.0
 13
-0.0185323244
 23
0.0001143591
 33
0.0
 40
0.0
 40
0.0
 40
0.0
 40
0.0
 40
0.1316996515
 40
0.2697225801
 40
0.409721938
 40
0.5476573186
 40
0.6794500298
 40
0.8011308688
 40
0.9090538206
 40
1.0
 40
1.0
 40
1.0
 40
1.0
 10
5.8466222254
 20
6.1287239047
 30
0.0
 10
5.8458131279
 20
6.1286385963
 30
0.0
 10
5.8441549661
 20
6.1284744035
 30
0.0
 10
5.8416336269
 20
6.1282520613
 30
0.0
 10
5.8390717321
 20
6.128052591
 30
0.0
 10
5.8365463257
 20
6.1278819906
 30
0.0
 10
5.8341321949
 20
6.127745216
 30
0.0
 10
5.8319017628
 20
6.1276463371
 30
0.0
 10
5.8299223324
 20
6.1275881811
 30
0.0
 10
5.8286937157
 20
6.1275758312
 30
0.0
 10
5.828131901
 20
6.127579298
 30
0.0
 11
5.8466222254
 21
6.1287239047
 31
0.0
 11
5.8441934456
 21
6.1284825022
 31
0.0
 11
5.8416454299
 21
6.128257459
 31
0.0
 11
5.8390586958
 21
6.1280560559
 31
0.0
 11
5.8365081703
 21
6.1278841543
 31
0.0
 11
5.8340695592
 21
6.1277468794
 31
0.0
 11
5.8318166337
 21
6.127648517
 31
0.0
 11
5.8298173286
 21
6.1275920897
 31
0.0
 11
5.828131901
 21
6.127579298
 31
0.0
  0
SPLINE
  5
47E
100
AcDbEntity
  8
0
100
AcDbSpline
 62
7
  6
CONTINUOUS
 70
0
 71
3
 72
33
 73
29
 74
27
 42
0.0000001
 43
0.0000001
 44
0.0000000001
 12
-0.004744197
 22
0.0000292754
 32
0.0
 13
0.0046608717
 23
0.0008857408
 33
0.0
 40
0.0
 40
0.0
 40
0.0
 40
0.0
 40
0.1214489567
 40
0.229896869
 40
0.3248852305
 40
0.405971565
 40
0.4411796141
 40
0.4727995843
 40
0.500825968
 40
0.52526197
 40
0.5461255998
 40
0.5634619575
 40
0.5773705708
 40
0.5880734964
 40
0.5961046895
 40
0.5995021267
 40
0.602783529
 40
0.6099968791
 40
0.6194451795
 40
0.6319038679
 40
0.6477050104
 40
0.6670037366
 40
0.689879766
 40
0.7163669939
 40
0.7464475694
 40
0.817234374
 40
0.9018882144
 40
1.0
 40
1.0
 40
1.0
 40
1.0
 10
5.828131901
 20
6.127579298
 30
0.0
 10
5.8279398417
 20
6.1275804832
 30
0.0
 10
5.82757629
 20
6.1275848467
 30
0.0
 10
5.8270626688
 20
6.127598699
 30
0.0
 10
5.8266131627
 20
6.1276193709
 30
0.0
 10
5.8262798127
 20
6.1276430406
 30
0.0
 10
5.8260470289
 20
6.1276661832
 30
0.0
 10
5.8258981131
 20
6.1276843571
 30
0.0
 10
5.8257665981
 20
6.1277041228
 30
0.0
 10
5.825652582
 20
6.1277254314
 30
0.0
 10
5.8255561345
 20
6.1277482409
 30
0.0
 10
5.8254772904
 20
6.1277724463
 30
0.0
 10
5.8254159139
 20
6.1277981274
 30
0.0
 10
5.8253716889
 20
6.1278251369
 30
0.0
 10
5.8253472467
 20
6.1278516291
 30
0.0
 10
5.8253391118
 20
6.1278737475
 30
0.0
 10
5.8253378684
 20
6.127896034
 30
0.0
 10
5.8253507463
 20
6.1279263366
 30
0.0
 10
5.8253831544
 20
6.1279596424
 30
0.0
 10
5.82543215
 20
6.1279939977
 30
0.0
 10
5.8254985664
 20
6.1280295286
 30
0.0
 10
5.8255825602
 20
6.1280664343
 30
0.0
 10
5.8256842567
 20
6.1281046043
 30
0.0
 10
5.8258035857
 20
6.1281439868
 30
0.0
 10
5.8259967207
 20
6.1282011837
 30
0.0
 10
5.8262810362
 20
6.1282739456
 30
0.0
 10
5.8266724403
 20
6.1283611942
 30
0.0
 10
5.8269559551
 20
6.128417523
 30
0.0
 10
5.8271083839
 20
6.1284464902
 30
0.0
 11
5.828131901
 21
6.127579298
 31
0.0
 11
5.8275557586
 21
6.1275866113
 31
0.0
 11
5.8270414521
 21
6.1276010082
 31
0.0
 11
5.8265913079
 21
6.1276223986
 31
0.0
 11
5.8262076529
 21
6.1276506923
 31
0.0
 11
5.8260414532
 21
6.1276673964
 31
0.0
 11
5.8258925689
 21
6.1276857745
 31
0.0
 11
5.8257611201
 21
6.1277057982
 31
0.0
 11
5.8256472264
 21
6.1277274392
 31
0.0
 11
5.8255510078
 21
6.127750669
 31
0.0
 11
5.8254725841
 21
6.1277754592
 31
0.0
 11
5.825412075
 21
6.1278017816
 31
0.0
 11
5.8253696004
 21
6.1278296076
 31
0.0
 11
5.8253452411
 21
6.1278589062
 31
0.0
 11
5.8253398487
 21
6.1278740958
 31
0.0
 11
5.8253389747
 21
6.1278896392
 31
0.0
 11
5.825350762
 21
6.1279217674
 31
0.0
 11
5.8253805638
 21
6.1279552513
 31
0.0
 11
5.8254283408
 21
6.1279900517
 31
0.0
 11
5.8254940536
 21
6.1280261293
 31
0.0
 11
5.8255776632
 21
6.1280634448
 31
0.0
 11
5.8256791301
 21
6.1281019588
 31
0.0
 11
5.8257983676
 21
6.1281416274
 31
0.0
 11
5.8259351328
 21
6.1281823914
 31
0.0
 11
5.8262601443
 21
6.1282669564
 31
0.0
 11
5.8266519622
 21
6.1283551555
 31
0.0
 11
5.8271083839
 21
6.1284464902
 31
0.0
  0
LINE
  5
47F
100
AcDbEntity
  8
0
100
AcDbLine
 62
7
  6
CONTINUOUS
 10
5.8665173941
 20
6.1306647849
 11
5.8678421751
 21
6.1307829034
  0
LINE
  5
480
100
AcDbEntity
  8
0
100
AcDbLine
 62
7
  6
CONTINUOUS
 10
5.9918251573
 20
6.1318542956
 11
5.9914312793
 21
6.1317530682
  0
LINE
  5
481
100
AcDbEntity
  8
0
100
AcDbLine
 62
7
  6
CONTINUOUS
 10
5.9903317649
 20
6.1345867868
 11
5.9904744596
 21
6.1345820826
  0
LINE
  5
482
100
AcDbEntity
  8
0
100
AcDbLine
 62
7
  6
CONTINUOUS
 10
6.0525057673
 20
6.1310228575
 11
6.052842376
 21
6.1309952819
  0
LINE
  5
483
100
AcDbEntity
  8
0
100
AcDbLine
 62
7
  6
CONTINUOUS
 10
6.0747047937
 20
6.1305642977
 11
6.0742860952
 21
6.1306221889
  0
LINE
  5
484
100
AcDbEntity
  8
0
100
AcDbLine
 62
7
  6
CONTINUOUS
 10
6.0692500128
 20
6.1312751835
 11
6.0691263416
 21
6.1312901854
  0
LINE
  5
485
100
AcDbEntity
  8
0
100
AcDbLine
 62
7
  6
CONTINUOUS
 10
5.9909622418
 20
6.1337582143
 11
5.9903387536
 21
6.1337829933
  0
LINE
  5
486
100
AcDbEntity
  8
0
100
AcDbLine
 62
7
  6
CONTINUOUS
 10
5.9903387536
 20
6.1337829933
 11
5.9907563225
 21
6.1331343453
  0
SPLINE
  5
487
100
AcDbEntity
  8
0
100
AcDbSpline
 62
7
  6
CONTINUOUS
 70
0
 71
3
 72
19
 73
15
 74
13
 42
0.0000001
 43
0.0000001
 44
0.0000000001
 12
0.0146446744
 22
-0.0247792068
 32
0.0
 13
0.0044488973
 23
-0.0284373503
 33
0.0
 40
0.0
 40
0.0
 40
0.0
 40
0.0
 40
0.0316524702
 40
0.0671987528
 40
0.1067351041
 40
0.1503302329
 40
0.1980341736
 40
0.2498839037
 40
0.3059069876
 40
0.3661240489
 40
0.4991938147
 40
0.6491771403
 40
0.8161099803
 40
1.0
 40
1.0
 40
1.0
 40
1.0
 10
5.9907563225
 20
6.1331343453
 30
0.0
 10
5.9909108359
 20
6.1328729043
 30
0.0
 10
5.9912171356
 20
6.1323049288
 30
0.0
 10
5.991650415
 20
6.131376606
 30
0.0
 10
5.9920836567
 20
6.1303232291
 30
0.0
 10
5.9925167925
 20
6.1291447754
 30
0.0
 10
5.9929497816
 20
6.1278411826
 30
0.0
 10
5.9933825558
 20
6.1264124752
 30
0.0
 10
5.9938150784
 20
6.1248587091
 30
0.0
 10
5.9944113875
 20
6.1225421177
 30
0.0
 10
5.9951490463
 20
6.1193317369
 30
0.0
 10
5.9960063244
 20
6.1150999979
 30
0.0
 10
5.996861967
 20
6.1103715638
 30
0.0
 10
5.997404799
 20
6.1070495273
 30
0.0
 10
5.9976775016
 20
6.1053064123
 30
0.0
 11
5.9907563225
 21
6.1331343453
 31
0.0
 11
5.9911919516
 21
6.1323341831
 31
0.0
 11
5.9916273379
 21
6.1314083056
 31
0.0
 11
5.9920624462
 21
6.1303567876
 31
0.0
 11
5.9924972409
 21
6.1291797147
 31
0.0
 11
5.9929316868
 21
6.1278771823
 31
0.0
 11
5.9933657484
 21
6.1264492959
 31
0.0
 11
5.9937993907
 21
6.1248961713
 31
0.0
 11
5.9942325783
 21
6.1232179343
 31
0.0
 11
5.9950974489
 21
6.1194866769
 31
0.0
 11
5.9959600793
 21
6.115256733
 31
0.0
 11
5.9968201892
 21
6.1105294731
 31
0.0
 11
5.9976775016
 21
6.1053064123
 31
0.0
  0
LINE
  5
488
100
AcDbEntity
  8
0
100
AcDbLine
 62
7
  6
CONTINUOUS
 10
5.8515509642
 20
6.131290161
 11
5.8514272406
 21
6.1312751527
  0
LINE
  5
489
100
AcDbEntity
  8
0
100
AcDbLine
 62
7
  6
CONTINUOUS
 10
5.8463917076
 20
6.1306222295
 11
5.8459504533
 21
6.1305612048
  0
LINE
  5
48A
100
AcDbEntity
  8
0
100
AcDbLine
 62
7
  6
CONTINUOUS
 10
5.851604868
 20
6.1295594642
 11
5.8517651778
 21
6.1295871922
  0
LINE
  5
48B
100
AcDbEntity
  8
0
100
AcDbLine
 62
7
  6
CONTINUOUS
 10
5.8681717399
 20
6.1310228575
 11
5.8678351312
 21
6.1309952819
  0
LINE
  5
48C
100
AcDbEntity
  8
0
100
AcDbLine
 62
7
  6
CONTINUOUS
 10
5.9607404812
 20
6.1094038236
 11
5.9609051318
 21
6.109704231
  0
LINE
  5
48D
100
AcDbEntity
  8
0
100
AcDbLine
 62
7
  6
CONTINUOUS
 10
5.9918251814
 20
6.130851266
 11
5.9921844985
 21
6.1309418674
  0
LINE
  5
48E
100
AcDbEntity
  8
0
100
AcDbLine
 62
7
  6
CONTINUOUS
 10
6.0112359808
 20
6.1337846257
 11
6.0226151126
 21
6.1341343843
  0
SPLINE
  5
48F
100
AcDbEntity
  8
0
100
AcDbSpline
 62
9
  6
CONTINUOUS
 70
0
 71
3
 72
33
 73
29
 74
27
 42
0.0000001
 43
0.0000001
 44
0.0000000001
 12
-0.0004730852
 22
0.190942243
 32
0.0
 13
-0.1741530546
 23
0.0782935346
 33
0.0
 40
0.0
 40
0.0
 40
0.0
 40
0.0
 40
0.0325384293
 40
0.0651193237
 40
0.0977297512
 40
0.1303221539
 40
0.1628549486
 40
0.1953415963
 40
0.2277911466
 40
0.2602000471
 40
0.2925541815
 40
0.3248447627
 40
0.3570707866
 40
0.3892282356
 40
0.453299952
 40
0.5169856824
 40
0.5802166178
 40
0.6116435676
 40
0.6429314593
 40
0.7050176268
 40
0.7663381995
 40
0.7966771567
 40
0.826766808
 40
0.8860546652
 40
0.9152103323
 40
0.9439750351
 40
0.9722630401
 40
1.0
 40
1.0
 40
1.0
 40
1.0
 10
5.6243209913
 20
5.571544467
 30
0.0
 10
5.6243158601
 20
5.5736154539
 30
0.0
 10
5.6241600661
 20
5.5777609136
 30
0.0
 10
5.6235325559
 20
5.5839529593
 30
0.0
 10
5.6225531002
 20
5.5901022071
 30
0.0
 10
5.6212637856
 20
5.596190165
 30
0.0
 10
5.6197008525
 20
5.6022051786
 30
0.0
 10
5.617886614
 20
5.6081394378
 30
0.0
 10
5.6158443585
 20
5.6139905002
 30
0.0
 10
5.6135962786
 20
5.6197562881
 30
0.0
 10
5.611165696
 20
5.6254363342
 30
0.0
 10
5.6085675955
 20
5.6310288038
 30
0.0
 10
5.60581077
 20
5.6365307342
 30
0.0
 10
5.6019414483
 20
5.6437340619
 30
0.0
 10
5.5967597306
 20
5.6525004987
 30
0.0
 10
5.5900497045
 20
5.6626425012
 30
0.0
 10
5.5840674324
 20
5.6707590543
 30
0.0
 10
5.5790680007
 20
5.6770261309
 30
0.0
 10
5.5739575574
 20
5.6831081393
 30
0.0
 10
5.56733159
 20
5.6903976574
 30
0.0
 10
5.5603504699
 20
5.697263314
 30
0.0
 10
5.554583329
 20
5.7024408232
 30
0.0
 10
5.5487528327
 20
5.7073477704
 30
0.0
 10
5.5427341238
 20
5.7119101212
 30
0.0
 10
5.5365320847
 20
5.7160588773
 30
0.0
 10
5.5318451182
 20
5.718915379
 30
0.0
 10
5.5271107682
 20
5.7215097371
 30
0.0
 10
5.5238992218
 20
5.7230639925
 30
0.0
 10
5.522289063
 20
5.7237878674
 30
0.0
 11
5.6243209913
 21
5.571544467
 31
0.0
 11
5.624094671
 21
5.5777533233
 31
0.0
 11
5.6234741969
 21
5.5839433919
 31
0.0
 11
5.6225011312
 21
5.5900936176
 31
0.0
 11
5.6212170042
 21
5.5961829772
 31
0.0
 11
5.619657762
 21
5.6021960059
 31
0.0
 11
5.6178474691
 21
5.6081290654
 31
0.0
 11
5.6158086678
 21
5.6139800325
 31
0.0
 11
5.6135639007
 21
5.619746784
 31
0.0
 11
5.6111353364
 21
5.6254272034
 31
0.0
 11
5.6085384474
 21
5.6310192932
 31
0.0
 11
5.6057829215
 21
5.6365211587
 31
0.0
 11
5.6028782562
 21
5.6419309089
 31
0.0
 11
5.5966594952
 21
5.6524664971
 31
0.0
 11
5.5899491311
 21
5.6626077359
 31
0.0
 11
5.5827849908
 21
5.6723259839
 31
0.0
 11
5.5790427383
 21
5.6770168853
 31
0.0
 11
5.5751989578
 21
5.6815903303
 31
0.0
 11
5.5672183855
 21
5.6903567048
 31
0.0
 11
5.5588631972
 21
5.6985594505
 31
0.0
 11
5.5545512075
 21
5.7024279989
 31
0.0
 11
5.5501538497
 21
5.7061256877
 31
0.0
 11
5.5411191377
 21
5.7129469605
 31
0.0
 11
5.5364900699
 21
5.7160395242
 31
0.0
 11
5.5317979039
 21
5.7188943774
 31
0.0
 11
5.5270587596
 21
5.721485814
 31
0.0
 11
5.522289063
 21
5.7237878674
 31
0.0
  0
SPLINE
  5
490
100
AcDbEntity
  8
0
100
AcDbSpline
 62
9
  6
CONTINUOUS
 70
0
 71
3
 72
15
 73
11
 74
9
 42
0.0000001
 43
0.0000001
 44
0.0000000001
 12
-0.0172303362
 22
-0.0105524751
 32
0.0
 13
-0.0087769668
 23
-0.0181990129
 33
0.0
 40
0.0
 40
0.0
 40
0.0
 40
0.0
 40
0.1249193015
 40
0.2488459578
 40
0.3722885936
 40
0.4957597854
 40
0.6197702598
 40
0.7448231719
 40
0.8714088086
 40
1.0
 40
1.0
 40
1.0
 40
1.0
 10
5.0351979424
 20
5.5332549945
 30
0.0
 10
5.0344804752
 20
5.5328155919
 30
0.0
 10
5.033081688
 20
5.5318893227
 30
0.0
 10
5.0310950648
 20
5.5303561062
 30
0.0
 10
5.0292328247
 20
5.5286883637
 30
0.0
 10
5.0274972672
 20
5.5268884242
 30
0.0
 10
5.0258904939
 20
5.5249585429
 30
0.0
 10
5.0244145996
 20
5.5229009751
 30
0.0
 10
5.0230717148
 20
5.5207181405
 30
0.0
 10
5.0222735382
 20
5.519194364
 30
0.0
 10
5.0218973247
 20
5.5184142864
 30
0.0
 11
5.0351979424
 21
5.5332549945
 31
0.0
 11
5.0330939709
 21
5.5318607891
 31
0.0
 11
5.0311120119
 21
5.5303305926
 31
0.0
 11
5.0292541155
 21
5.52866656
 31
0.0
 11
5.0275223317
 21
5.5268708465
 31
0.0
 11
5.0259187107
 21
5.5249456072
 31
0.0
 11
5.0244453024
 21
5.5228929973
 31
0.0
 11
5.0231041571
 21
5.520715172
 31
0.0
 11
5.0218973247
 21
5.5184142864
 31
0.0
  0
LINE
  5
491
100
AcDbEntity
  8
0
100
AcDbLine
 62
9
  6
CONTINUOUS
 10
5.7353979537
 20
5.571386571
 11
5.6243209913
 21
5.571544467
  0
SPLINE
  5
492
100
AcDbEntity
  8
0
100
AcDbSpline
 62
6
  6
CONTINUOUS
 70
0
 71
3
 72
25
 73
21
 74
19
 42
0.0000001
 43
0.0000001
 44
0.0000000001
 12
-0.0140203878
 22
-0.0009826721
 32
0.0
 13
-0.0006350281
 23
-0.0140404294
 33
0.0
 40
0.0
 40
0.0
 40
0.0
 40
0.0
 40
0.226149724
 40
0.4227946875
 40
0.5100619038
 40
0.5899673127
 40
0.6625230768
 40
0.7277477856
 40
0.7856696973
 40
0.8363322812
 40
0.8798042777
 40
0.9161993695
 40
0.9318052745
 40
0.9457301026
 40
0.9580296817
 40
0.9687856208
 40
0.9781206149
 40
0.9862227659
 40
0.9933787412
 40
1.0
 40
1.0
 40
1.0
 40
1.0
 10
4.9531874561
 20
5.1587280777
 30
0.0
 10
4.9521305538
 20
5.1586540007
 30
0.0
 10
4.9501554989
 20
5.1585026908
 30
0.0
 10
4.947776267
 20
5.1582782234
 30
0.0
 10
4.9460825516
 20
5.1580867376
 30
0.0
 10
4.944968411
 20
5.1579447229
 30
0.0
 10
4.9439590251
 20
5.1577986511
 30
0.0
 10
4.9430544489
 20
5.1576486246
 30
0.0
 10
4.9422547239
 20
5.1574947729
 30
0.0
 10
4.9415597918
 20
5.1573372803
 30
0.0
 10
4.9409696335
 20
5.1571762741
 30
0.0
 10
4.9405453934
 20
5.1570330563
 30
0.0
 10
4.940260197
 20
5.1569141745
 30
0.0
 10
4.9400836937
 20
5.156828727
 30
0.0
 10
4.9399332962
 20
5.1567423624
 30
0.0
 10
4.9398089006
 20
5.1566549821
 30
0.0
 10
4.939710382
 20
5.1565663901
 30
0.0
 10
4.9396377216
 20
5.1564761204
 30
0.0
 10
4.9395913768
 20
5.1563836308
 30
0.0
 10
4.9395787266
 20
5.1563192897
 30
0.0
 10
4.939577325
 20
5.1562883013
 30
0.0
 11
4.9531874561
 21
5.1587280777
 31
0.0
 11
4.9500184962
 21
5.1584821884
 31
0.0
 11
4.9472673168
 21
5.1582183419
 31
0.0
 11
4.9460486387
 21
5.1580798529
 31
0.0
 11
4.9449346982
 21
5.1579370764
 31
0.0
 11
4.9439255931
 21
5.1577900797
 31
0.0
 11
4.9430214207
 21
5.1576389301
 31
0.0
 11
4.9422222786
 21
5.1574836948
 31
0.0
 11
4.9415282643
 21
5.1573244412
 31
0.0
 11
4.9409394754
 21
5.1571612365
 31
0.0
 11
4.9404560095
 21
5.1569941479
 31
0.0
 11
4.940253803
 21
5.1569091683
 31
0.0
 11
4.9400779639
 21
5.1568232429
 31
0.0
 11
4.9399285042
 21
5.1567363802
 31
0.0
 11
4.9398054363
 21
5.1566485886
 31
0.0
 11
4.9397087722
 21
5.1565598764
 31
0.0
 11
4.9396385241
 21
5.1564702523
 31
0.0
 11
4.9395947044
 21
5.1563797244
 31
0.0
 11
4.939577325
 21
5.1562883013
 31
0.0
  0
SPLINE
  5
493
100
AcDbEntity
  8
0
100
AcDbSpline
 62
9
  6
CONTINUOUS
 70
0
 71
3
 72
26
 73
22
 74
20
 42
0.0000001
 43
0.0000001
 44
0.0000000001
 12
0.022087535
 22
-0.0936935918
 32
0.0
 13
-0.0827799659
 23
-0.0491306992
 33
0.0
 40
0.0
 40
0.0
 40
0.0
 40
0.0
 40
0.0720618457
 40
0.1431299733
 40
0.2130117524
 40
0.2815330563
 40
0.3485957174
 40
0.4141686941
 40
0.4782417232
 40
0.5408310967
 40
0.6019815353
 40
0.661762509
 40
0.6911764658
 40
0.7202895752
 40
0.749122092
 40
0.7776956746
 40
0.8341433148
 40
0.8898480954
 40
0.9175009975
 40
0.9450580135
 40
1.0
 40
1.0
 40
1.0
 40
1.0
 10
5.5275404894
 20
5.8173035564
 30
0.0
 10
5.5280710456
 20
5.8150529787
 30
0.0
 10
5.5289973658
 20
5.8105516127
 30
0.0
 10
5.5299814881
 20
5.8037840016
 30
0.0
 10
5.5305462927
 20
5.7970820884
 30
0.0
 10
5.5306844256
 20
5.7904861211
 30
0.0
 10
5.5303941157
 20
5.7840332196
 30
0.0
 10
5.5296796604
 20
5.7777567677
 30
0.0
 10
5.52854412
 20
5.7716882306
 30
0.0
 10
5.5269910079
 20
5.7658591753
 30
0.0
 10
5.5250309736
 20
5.7602997546
 30
0.0
 10
5.5230558482
 20
5.7558915318
 30
0.0
 10
5.5212807221
 20
5.7525347735
 30
0.0
 10
5.5198613499
 20
5.7501164495
 30
0.0
 10
5.51834929
 20
5.747787011
 30
0.0
 10
5.516221648
 20
5.7448159614
 30
0.0
 10
5.5133398126
 20
5.7413304178
 30
0.0
 10
5.5101577709
 20
5.7381576452
 30
0.0
 10
5.5074572206
 20
5.7358375598
 30
0.0
 10
5.5046648337
 20
5.7336690854
 30
0.0
 10
5.502454037
 20
5.732202617
 30
0.0
 10
5.5009380051
 20
5.7313028376
 30
0.0
 11
5.5275404894
 21
5.8173035564
 31
0.0
 11
5.5289366101
 21
5.8105086939
 31
0.0
 11
5.5299180368
 21
5.8037383061
 31
0.0
 11
5.530478544
 21
5.7970347472
 31
0.0
 11
5.5306121484
 21
5.7904401114
 31
0.0
 11
5.5303177465
 21
5.7839912504
 31
0.0
 11
5.5295987609
 21
5.7777201544
 31
0.0
 11
5.5284587853
 21
5.7716586292
 31
0.0
 11
5.526902789
 21
5.7658380499
 31
0.0
 11
5.524940371
 21
5.7602883402
 31
0.0
 11
5.5225821033
 21
5.755039119
 31
0.0
 11
5.5212578305
 21
5.7525364467
 31
0.0
 11
5.5198388127
 21
5.7501197762
 31
0.0
 11
5.518327229
 21
5.7477920391
 31
0.0
 11
5.5167253473
 21
5.745556087
 31
0.0
 11
5.5132597617
 21
5.7413709446
 31
0.0
 11
5.5094602013
 21
5.7375871597
 31
0.0
 11
5.5074410031
 21
5.7358526113
 31
0.0
 11
5.5053457274
 21
5.7342257789
 31
0.0
 11
5.5009380051
 21
5.7313028376
 31
0.0
  0
SPLINE
  5
494
100
AcDbEntity
  8
0
100
AcDbSpline
 62
9
  6
CONTINUOUS
 70
0
 71
3
 72
32
 73
28
 74
26
 42
0.0000001
 43
0.0000001
 44
0.0000000001
 12
0.0
 22
-0.1871652101
 32
0.0
 13
-0.1751899172
 23
0.0658734302
 33
0.0
 40
0.0
 40
0.0
 40
0.0
 40
0.0
 40
0.034460797
 40
0.0684786099
 40
0.1021212852
 40
0.1354469135
 40
0.1685040695
 40
0.2013322174
 40
0.2663901601
 40
0.3308065005
 40
0.3946363592
 40
0.4578613232
 40
0.5204189178
 40
0.5822333376
 40
0.6432477414
 40
0.7034586972
 40
0.7333002577
 40
0.7629835341
 40
0.792539898
 40
0.8220111227
 40
0.8367332653
 40
0.8514550556
 40
0.8809236663
 40
0.9104753203
 40
0.9401522738
 40
0.9699863331
 40
1.0
 40
1.0
 40
1.0
 40
1.0
 10
5.5834431729
 20
5.5715444499
 30
0.0
 10
5.5834431729
 20
5.5693944958
 30
0.0
 10
5.5833073867
 20
5.5651209556
 30
0.0
 10
5.5827015081
 20
5.5587746209
 30
0.0
 10
5.581710741
 20
5.5525484684
 30
0.0
 10
5.5803509659
 20
5.5464540515
 30
0.0
 10
5.5786378875
 20
5.5405021614
 30
0.0
 10
5.5759129809
 20
5.5327964686
 30
0.0
 10
5.5717038178
 20
5.5235599544
 30
0.0
 10
5.5654802001
 20
5.5132014775
 30
0.0
 10
5.5582240139
 20
5.5036822126
 30
0.0
 10
5.5500606423
 20
5.4950889772
 30
0.0
 10
5.5411139737
 20
5.4875077419
 30
0.0
 10
5.5315065099
 20
5.4810254507
 30
0.0
 10
5.5213613622
 20
5.4757303679
 30
0.0
 10
5.512528817
 20
5.4723703448
 30
0.0
 10
5.5053255713
 20
5.4703756703
 30
0.0
 10
5.4998816392
 20
5.469237109
 30
0.0
 10
5.4943974188
 20
5.4684633898
 30
0.0
 10
5.4898042186
 20
5.468131945
 30
0.0
 10
5.4861286125
 20
5.4680607378
 30
0.0
 10
5.4824529627
 20
5.4681204555
 30
0.0
 10
5.4778592471
 20
5.4684378756
 30
0.0
 10
5.4723735712
 20
5.4691952727
 30
0.0
 10
5.466927618
 20
5.4703179656
 30
0.0
 10
5.4615373693
 20
5.4717945441
 30
0.0
 10
5.4580018794
 20
5.473003751
 30
0.0
 10
5.4562491822
 20
5.4736627854
 30
0.0
 11
5.5834431729
 21
5.5715444499
 31
0.0
 11
5.5832380074
 21
5.5650978515
 31
0.0
 11
5.5826329563
 21
5.5587597146
 31
0.0
 11
5.5816436879
 21
5.5525411727
 31
0.0
 11
5.5802858705
 21
5.5464533596
 31
0.0
 11
5.5785751723
 21
5.5405074088
 31
0.0
 11
5.5765272615
 21
5.5347144539
 31
0.0
 11
5.5714824754
 21
5.5236320661
 31
0.0
 11
5.5652768583
 21
5.513295265
 31
0.0
 11
5.558035756
 21
5.5037931194
 31
0.0
 11
5.5498845147
 21
5.4952146982
 31
0.0
 11
5.5409484805
 21
5.48764907
 31
0.0
 11
5.5313529992
 21
5.4811853036
 31
0.0
 11
5.521223417
 21
5.4759124679
 31
0.0
 11
5.5106850799
 21
5.4719196316
 31
0.0
 11
5.505301799
 21
5.4704310472
 31
0.0
 11
5.499863334
 21
5.4692958634
 31
0.0
 11
5.4943853533
 21
5.4685252139
 31
0.0
 11
5.4888835252
 21
5.4681302323
 31
0.0
 11
5.4861285647
 21
5.4680770961
 31
0.0
 11
5.4833735179
 21
5.4681216468
 31
0.0
 11
5.4778709996
 21
5.4684998252
 31
0.0
 11
5.4723916387
 21
5.4692541619
 31
0.0
 11
5.4669511033
 21
5.4703735232
 31
0.0
 11
5.4615650617
 21
5.4718467755
 31
0.0
 11
5.4562491822
 21
5.4736627854
 31
0.0
  0
SPLINE
  5
495
100
AcDbEntity
  8
0
100
AcDbSpline
 62
9
  6
CONTINUOUS
 70
0
 71
3
 72
15
 73
11
 74
9
 42
0.0000001
 43
0.0000001
 44
0.0000000001
 12
0.007150267
 22
-0.0324273597
 32
0.0
 13
-0.0155156633
 23
-0.0293585451
 33
0.0
 40
0.0
 40
0.0
 40
0.0
 40
0.0
 40
0.1535122262
 40
0.2962948718
 40
0.4297682141
 40
0.5552817252
 40
0.6740792242
 40
0.7872473674
 40
0.895667173
 40
1.0
 40
1.0
 40
1.0
 40
1.0
 10
5.4035228124
 20
5.4445522089
 30
0.0
 10
5.4038886969
 20
5.4428928769
 30
0.0
 10
5.4044750095
 20
5.4396618373
 30
0.0
 10
5.4049320377
 20
5.4349212033
 30
0.0
 10
5.404968212
 20
5.43046822
 30
0.0
 10
5.4046199499
 20
5.4262951444
 30
0.0
 10
5.4039236175
 20
5.4223941898
 30
0.0
 10
5.402918744
 20
5.4187574739
 30
0.0
 10
5.4016474134
 20
5.4153765821
 30
0.0
 10
5.4006314424
 20
5.4132486025
 30
0.0
 10
5.4000918447
 20
5.4122275825
 30
0.0
 11
5.4035228124
 21
5.4445522089
 31
0.0
 11
5.4044234356
 21
5.4395348225
 31
0.0
 11
5.404870104
 21
5.4348146225
 31
0.0
 11
5.4048993229
 21
5.4303825597
 31
0.0
 11
5.4045475975
 21
5.4262295849
 31
0.0
 11
5.4038515523
 21
5.422346649
 31
0.0
 11
5.402849902
 21
5.4187247028
 31
0.0
 11
5.4015831469
 21
5.415354697
 31
0.0
 11
5.4000918447
 21
5.4122275825
 31
0.0
  0
SPLINE
  5
496
100
AcDbEntity
  8
0
100
AcDbSpline
 62
9
  6
CONTINUOUS
 70
0
 71
3
 72
35
 73
31
 74
29
 42
0.0000001
 43
0.0000001
 44
0.0000000001
 12
0.0004421207
 22
0.1909439037
 32
0.0
 13
0.1741723677
 23
0.0782544322
 33
0.0
 40
0.0
 40
0.0
 40
0.0
 40
0.0
 40
0.0325488833
 40
0.0651335995
 40
0.0977282426
 40
0.1302840979
 40
0.1628016301
 40
0.1952900701
 40
0.2277423002
 40
0.2601438591
 40
0.2924937302
 40
0.3247895843
 40
0.35702363
 40
0.3891835533
 40
0.4212607384
 40
0.4532504256
 40
0.5169361309
 40
0.5801786019
 40
0.6428889533
 40
0.674020366
 40
0.704985306
 40
0.7357620238
 40
0.7663284864
 40
0.7966656442
 40
0.8267558685
 40
0.8860505937
 40
0.9151971461
 40
0.9439582363
 40
0.9722522101
 40
1.0
 40
1.0
 40
1.0
 40
1.0
 10
6.296355724
 20
5.5715444606
 30
0.0
 10
6.2963605209
 20
5.5736161309
 30
0.0
 10
6.2965164454
 20
5.5777625562
 30
0.0
 10
6.297144628
 20
5.5839544869
 30
0.0
 10
6.2981234835
 20
5.5901007141
 30
0.0
 10
6.2994102873
 20
5.5961848955
 30
0.0
 10
6.3009760377
 20
5.6021959998
 30
0.0
 10
6.3027936145
 20
5.6081285424
 30
0.0
 10
6.3048359639
 20
5.6139793479
 30
0.0
 10
6.3070777669
 20
5.6197469986
 30
0.0
 10
6.3095056206
 20
5.6254279001
 30
0.0
 10
6.3121059264
 20
5.631020077
 30
0.0
 10
6.3148655931
 20
5.6365217104
 30
0.0
 10
6.3177709784
 20
5.6419318994
 30
0.0
 10
6.3208132336
 20
5.6472484177
 30
0.0
 10
6.3250373907
 20
5.6541972181
 30
0.0
 10
6.3306259739
 20
5.6626336848
 30
0.0
 10
6.3377872101
 20
5.6723557795
 30
0.0
 10
6.3441208976
 20
5.6800982125
 30
0.0
 10
6.3493899969
 20
5.6860439199
 30
0.0
 10
6.3534279451
 20
5.6903620464
 30
0.0
 10
6.3575594563
 20
5.6945403721
 30
0.0
 10
6.3617820551
 20
5.6985690136
 30
0.0
 10
6.3660932526
 20
5.7024378929
 30
0.0
 10
6.3719247972
 20
5.7073441553
 30
0.0
 10
6.3779426123
 20
5.7119075703
 30
0.0
 10
6.3841437715
 20
5.7160570929
 30
0.0
 10
6.3888299971
 20
5.7189140715
 30
0.0
 10
6.3935648725
 20
5.7215093263
 30
0.0
 10
6.3967775365
 20
5.7230638398
 30
0.0
 10
6.3983885026
 20
5.7237876357
 30
0.0
 11
6.296355724
 21
5.5715444606
 31
0.0
 11
6.2965819735
 21
5.5777553686
 31
0.0
 11
6.2972030046
 21
5.5839461667
 31
0.0
 11
6.2981754005
 21
5.5900934993
 31
0.0
 11
6.2994575947
 21
5.5961761874
 31
0.0
 11
6.3010188127
 21
5.6021857457
 31
0.0
 11
6.3028321813
 21
5.6081182776
 31
0.0
 11
6.3048708333
 21
5.6139698931
 31
0.0
 11
6.307110645
 21
5.6197371225
 31
0.0
 11
6.3095364887
 21
5.6254178749
 31
0.0
 11
6.3121350776
 21
5.6310103417
 31
0.0
 11
6.3148931252
 21
5.6365127142
 31
0.0
 11
6.3177976026
 21
5.6419231594
 31
0.0
 11
6.3208392823
 21
5.6472394844
 31
0.0
 11
6.3240118333
 21
5.6524592223
 31
0.0
 11
6.3307245159
 21
5.6625990421
 31
0.0
 11
6.3378885257
 21
5.6723202472
 31
0.0
 11
6.345473699
 21
5.6815855807
 31
0.0
 11
6.3494166913
 21
5.6860339893
 31
0.0
 11
6.3534560018
 21
5.6903516972
 31
0.0
 11
6.3575889405
 21
5.694529465
 31
0.0
 11
6.361812884
 21
5.698557241
 31
0.0
 11
6.3661252088
 21
5.7024249734
 31
0.0
 11
6.3705231493
 21
5.7061222132
 31
0.0
 11
6.3795583041
 21
5.712945232
 31
0.0
 11
6.3841854925
 21
5.7160375591
 31
0.0
 11
6.388876709
 21
5.7188927334
 31
0.0
 11
6.3936166858
 21
5.7214851166
 31
0.0
 11
6.3983885026
 21
5.7237876357
 31
0.0
  0
LINE
  5
497
100
AcDbEntity
  8
0
100
AcDbLine
 62
9
  6
CONTINUOUS
 10
6.296355724
 20
5.5715444606
 11
6.1852938579
 21
5.5713866092
  0
SPLINE
  5
498
100
AcDbEntity
  8
0
100
AcDbSpline
 62
9
  6
CONTINUOUS
 70
0
 71
3
 72
22
 73
18
 74
16
 42
0.0000001
 43
0.0000001
 44
0.0000000001
 12
0.0214782284
 22
-0.0219708651
 32
0.0
 13
-0.0052267218
 23
-0.0302772949
 33
0.0
 40
0.0
 40
0.0
 40
0.0
 40
0.0
 40
0.1021944443
 40
0.1975571336
 40
0.2863910122
 40
0.369005317
 40
0.4457164866
 40
0.5168491485
 40
0.5827371527
 40
0.6437270867
 40
0.7001829106
 40
0.7524773137
 40
0.8009887525
 40
0.8460992144
 40
0.9275693651
 40
0.9647423023
 40
1.0
 40
1.0
 40
1.0
 40
1.0
 10
5.3402068752
 20
5.3034933475
 30
0.0
 10
5.3409385271
 20
5.302744914
 30
0.0
 10
5.3423342379
 20
5.3012796202
 30
0.0
 10
5.3442942806
 20
5.2990969372
 30
0.0
 10
5.3460539993
 20
5.2970056853
 30
0.0
 10
5.3476209906
 20
5.2950039129
 30
0.0
 10
5.3490028685
 20
5.2930896374
 30
0.0
 10
5.3502072324
 20
5.2912608765
 30
0.0
 10
5.3512416799
 20
5.2895156084
 30
0.0
 10
5.3521138348
 20
5.2878517531
 30
0.0
 10
5.3528319732
 20
5.2862674352
 30
0.0
 10
5.3534043978
 20
5.284760795
 30
0.0
 10
5.3538394211
 20
5.2833296032
 30
0.0
 10
5.3542339977
 20
5.2815793011
 30
0.0
 10
5.354414812
 20
5.279902552
 30
0.0
 10
5.3543707803
 20
5.2783252161
 30
0.0
 10
5.354281011
 20
5.2775874643
 30
0.0
 10
5.3542195836
 20
5.2772316284
 30
0.0
 11
5.3402068752
 21
5.3034933475
 31
0.0
 11
5.3423708251
 21
5.3012181498
 31
0.0
 11
5.3443266916
 21
5.2990364843
 31
0.0
 11
5.3460820893
 21
5.296946418
 31
0.0
 11
5.3476446332
 21
5.2949460181
 31
0.0
 11
5.349021938
 21
5.2930333517
 31
0.0
 11
5.3502216185
 21
5.291206486
 31
0.0
 11
5.3512512895
 21
5.2894634879
 31
0.0
 11
5.3521187326
 21
5.2878024248
 31
0.0
 11
5.3528322624
 21
5.2862213636
 31
0.0
 11
5.3534003
 21
5.2847183715
 31
0.0
 11
5.3538312664
 21
5.2832915156
 31
0.0
 11
5.3541335824
 21
5.2819388631
 31
0.0
 11
5.3543859457
 21
5.2794484364
 31
0.0
 11
5.3543520457
 21
5.2783067965
 31
0.0
 11
5.3542195836
 21
5.2772316284
 31
0.0
  0
SPLINE
  5
499
100
AcDbEntity
  8
0
100
AcDbSpline
 62
9
  6
CONTINUOUS
 70
0
 71
3
 72
26
 73
22
 74
20
 42
0.0000001
 43
0.0000001
 44
0.0000000001
 12
-0.0373932093
 22
-0.1287936317
 32
0.0
 13
-0.1336656949
 23
-0.0109331453
 33
0.0
 40
0.0
 40
0.0
 40
0.0
 40
0.0
 40
0.0692681426
 40
0.1394435098
 40
0.2100098666
 40
0.2805020684
 40
0.3505328263
 40
0.4197243092
 40
0.4877009922
 40
0.5540937652
 40
0.6185624846
 40
0.6808247304
 40
0.7406359841
 40
0.7978256514
 40
0.8254189932
 40
0.8523351071
 40
0.8785760902
 40
0.9041485612
 40
0.9290621458
 40
0.9533311963
 40
1.0
 40
1.0
 40
1.0
 40
1.0
 10
5.6089252
 20
5.8173035564
 30
0.0
 10
5.608061814
 20
5.8143297912
 30
0.0
 10
5.6061449552
 20
5.8083938084
 30
0.0
 10
5.6027573077
 20
5.7996330394
 30
0.0
 10
5.5988625308
 20
5.7910251381
 30
0.0
 10
5.5944945829
 20
5.7826548392
 30
0.0
 10
5.589696741
 20
5.7745946581
 30
0.0
 10
5.5845079115
 20
5.7669155386
 30
0.0
 10
5.5789752672
 20
5.7596837832
 30
0.0
 10
5.5731489563
 20
5.7529628434
 30
0.0
 10
5.5670771156
 20
5.7468163667
 30
0.0
 10
5.5608173931
 20
5.7412957763
 30
0.0
 10
5.5544243655
 20
5.7364507975
 30
0.0
 10
5.5489659235
 20
5.7329722985
 30
0.0
 10
5.5445824883
 20
5.7305775805
 30
0.0
 10
5.5413357349
 20
5.7289964213
 30
0.0
 10
5.5380977609
 20
5.7276131848
 30
0.0
 10
5.5348760835
 20
5.72643146
 30
0.0
 10
5.5316786608
 20
5.7254528396
 30
0.0
 10
5.5275149731
 20
5.7244350912
 30
0.0
 10
5.5243684437
 20
5.7239581097
 30
0.0
 10
5.5222891043
 20
5.7237880308
 30
0.0
 11
5.6089252
 21
5.8173035564
 31
0.0
 11
5.6060753819
 21
5.8084617821
 31
0.0
 11
5.6026828811
 21
5.7996831303
 31
0.0
 11
5.5987815864
 21
5.7910608664
 31
0.0
 11
5.5944077491
 21
5.7826796407
 31
0.0
 11
5.5896012829
 21
5.7746107496
 31
0.0
 11
5.5844029191
 21
5.7669241027
 31
0.0
 11
5.5788592281
 21
5.7596868403
 31
0.0
 11
5.5730205478
 21
5.752964316
 31
0.0
 11
5.5669383338
 21
5.7468193518
 31
0.0
 11
5.5606682611
 21
5.7413047633
 31
0.0
 11
5.5542670531
 21
5.73647076
 31
0.0
 11
5.5477910584
 21
5.7323612933
 31
0.0
 11
5.5445424462
 21
5.7305890168
 31
0.0
 11
5.5412960436
 21
5.7290106143
 31
0.0
 11
5.5380588238
 21
5.7276302489
 31
0.0
 11
5.5348382734
 21
5.7264512422
 31
0.0
 11
5.5316426752
 21
5.7254756118
 31
0.0
 11
5.5284803801
 21
5.7247052629
 31
0.0
 11
5.5222891043
 21
5.7237880308
 31
0.0
  0
SPLINE
  5
49A
100
AcDbEntity
  8
0
100
AcDbSpline
 62
9
  6
CONTINUOUS
 70
0
 71
3
 72
12
 73
8
 74
6
 42
0.0000001
 43
0.0000001
 44
0.0000000001
 12
-0.023820831
 22
0.0107048824
 32
0.0
 13
-0.026115637
 23
0.0000000298
 33
0.0
 40
0.0
 40
0.0
 40
0.0
 40
0.0
 40
0.2658477994
 40
0.522146438
 40
0.646241597
 40
0.7673524163
 40
1.0
 40
1.0
 40
1.0
 40
1.0
 10
5.5222891043
 20
5.7237880308
 30
0.0
 10
5.5201781992
 20
5.7247366539
 30
0.0
 10
5.515961388
 20
5.7264479476
 30
0.0
 10
5.5105758583
 20
5.7281050238
 30
0.0
 10
5.506313906
 20
5.7290614869
 30
0.0
 10
5.5022092635
 20
5.7297436975
 30
0.0
 10
5.4991262543
 20
5.7299731822
 30
0.0
 10
5.4971010077
 20
5.7299731845
 30
0.0
 11
5.5222891043
 21
5.7237880308
 31
0.0
 11
5.5158493889
 21
5.7263827029
 31
0.0
 11
5.5094456812
 21
5.7283305635
 31
0.0
 11
5.5062828028
 21
5.7290370627
 31
0.0
 11
5.5031621426
 21
5.7295521638
 31
0.0
 11
5.4971010077
 21
5.7299731845
 31
0.0
  0
SPLINE
  5
49B
100
AcDbEntity
  8
0
100
AcDbSpline
 62
9
  6
CONTINUOUS
 70
0
 71
3
 72
23
 73
19
 74
17
 42
0.0000001
 43
0.0000001
 44
0.0000000001
 12
0.0000001425
 22
-0.1293521476
 32
0.0
 13
-0.1285241644
 23
-0.0146122292
 33
0.0
 40
0.0
 40
0.0
 40
0.0
 40
0.0
 40
0.0718715116
 40
0.1435674492
 40
0.2146667263
 40
0.2848113306
 40
0.4211865766
 40
0.4870968462
 40
0.5512268673
 40
0.6134496142
 40
0.6737135214
 40
0.7320267181
 40
0.7884638488
 40
0.8432041675
 40
0.8700259552
 40
0.8965239834
 40
0.9486790931
 40
1.0
 40
1.0
 40
1.0
 40
1.0
 10
5.5661265644
 20
5.8299448086
 30
0.0
 10
5.5661265678
 20
5.8268458972
 30
0.0
 10
5.5659211306
 20
5.8206537046
 30
0.0
 10
5.5650071729
 20
5.8114368524
 30
0.0
 10
5.5634928853
 20
5.8023732572
 30
0.0
 10
5.560712133
 20
5.7907240599
 30
0.0
 10
5.5567947273
 20
5.7795963097
 30
0.0
 10
5.5517480495
 20
5.769266412
 30
0.0
 10
5.5475191069
 20
5.7621248431
 30
0.0
 10
5.5428350061
 20
5.7555695567
 30
0.0
 10
5.5377379166
 20
5.74965614
 30
0.0
 10
5.5322732381
 20
5.7444336213
 30
0.0
 10
5.5264832266
 20
5.7399523475
 30
0.0
 10
5.5213926897
 20
5.736844408
 30
0.0
 10
5.517214622
 20
5.734776626
 30
0.0
 10
5.5130219792
 20
5.7330083754
 30
0.0
 10
5.5076648193
 20
5.7313121302
 30
0.0
 10
5.5032602963
 20
5.7305151063
 30
0.0
 10
5.5010616374
 20
5.7302651353
 30
0.0
 11
5.5661265644
 21
5.8299448086
 31
0.0
 11
5.5658191784
 21
5.8206531573
 31
0.0
 11
5.5649019031
 21
5.8114246083
 31
0.0
 11
5.5633821234
 21
5.8023542052
 31
0.0
 11
5.5612715791
 21
5.7935297291
 31
0.0
 11
5.5553619169
 21
5.7769086372
 31
0.0
 11
5.5516123461
 21
5.7692517991
 31
0.0
 11
5.5473761065
 21
5.7621196743
 31
0.0
 11
5.5426881115
 21
5.7555772432
 31
0.0
 11
5.53759005
 21
5.7496801305
 31
0.0
 11
5.532127625
 21
5.7444784178
 31
0.0
 11
5.5263471376
 21
5.7400197386
 31
0.0
 11
5.5202975735
 21
5.736340039
 31
0.0
 11
5.5171874534
 21
5.7348024186
 31
0.0
 11
5.5140287555
 21
5.7334716628
 31
0.0
 11
5.507594987
 21
5.7314418342
 31
0.0
 11
5.5010616374
 21
5.7302651353
 31
0.0
  0
SPLINE
  5
49C
100
AcDbEntity
  8
0
100
AcDbSpline
 62
9
  6
CONTINUOUS
 70
0
 71
3
 72
23
 73
19
 74
17
 42
0.0000001
 43
0.0000001
 44
0.0000000001
 12
-0.1285247305
 22
0.0146111697
 32
0.0
 13
0.0000001534
 23
0.1293525903
 33
0.0
 40
0.0
 40
0.0
 40
0.0
 40
0.0
 40
0.0513208948
 40
0.1034759789
 40
0.1299739905
 40
0.1567957592
 40
0.2115360354
 40
0.2679731224
 40
0.3262862801
 40
0.3865501576
 40
0.4487728857
 40
0.5129029008
 40
0.5788131779
 40
0.7151884736
 40
0.785333118
 40
0.8564324428
 40
0.9281284335
 40
1.0
 40
1.0
 40
1.0
 40
1.0
 10
6.4196162998
 20
5.7302650749
 30
0.0
 10
6.4174176317
 20
5.7305150276
 30
0.0
 10
6.4130130885
 20
5.7313120177
 30
0.0
 10
6.4076558996
 20
5.733008228
 30
0.0
 10
6.4034632326
 20
5.7347764547
 30
0.0
 10
6.3992851404
 20
5.7368442154
 30
0.0
 10
6.3941945717
 20
5.7399521338
 30
0.0
 10
6.3884045221
 20
5.7444333908
 30
0.0
 10
6.382939806
 20
5.7496559008
 30
0.0
 10
6.3778426803
 20
5.7555693168
 30
0.0
 10
6.3731585448
 20
5.7621246096
 30
0.0
 10
6.3689295703
 20
5.7692661919
 30
0.0
 10
6.3638828531
 20
5.7795961168
 30
0.0
 10
6.3599654166
 20
5.7907239039
 30
0.0
 10
6.3571846424
 20
5.8023731442
 30
0.0
 10
6.3556703428
 20
5.8114367756
 30
0.0
 10
6.3547563783
 20
5.8206536657
 30
0.0
 10
6.3545509398
 20
5.8268458842
 30
0.0
 10
6.3545509435
 20
5.8299448086
 30
0.0
 11
6.4196162998
 21
5.7302650749
 31
0.0
 11
6.4130829196
 21
5.7314417237
 31
0.0
 11
6.4066491171
 21
5.7334715101
 31
0.0
 11
6.4034904012
 21
5.7348022478
 31
0.0
 11
6.4003802627
 21
5.7363398524
 31
0.0
 11
6.3943306613
 21
5.7400195266
 31
0.0
 11
6.3885501362
 21
5.7444781886
 31
0.0
 11
6.3830876739
 21
5.7496798923
 31
0.0
 11
6.3779895762
 21
5.7555770039
 31
0.0
 11
6.3733015467
 21
5.7621194411
 31
0.0
 11
6.369065275
 21
5.769251579
 31
0.0
 11
6.3653156752
 21
5.7769084365
 31
0.0
 11
6.3594059664
 21
5.7935295827
 31
0.0
 11
6.3572954053
 21
5.802354092
 31
0.0
 11
6.3557756136
 21
5.8114245313
 31
0.0
 11
6.3548583313
 21
5.8206531185
 31
0.0
 11
6.3545509435
 21
5.8299448086
 31
0.0
  0
SPLINE
  5
49D
100
AcDbEntity
  8
0
100
AcDbSpline
 62
9
  6
CONTINUOUS
 70
0
 71
3
 72
11
 73
7
 74
5
 42
0.0000001
 43
0.0000001
 44
0.0000000001
 12
-0.0261724579
 22
-0.0785506077
 32
0.0
 13
-0.0487187543
 23
-0.0669453397
 33
0.0
 40
0.0
 40
0.0
 40
0.0
 40
0.0
 40
0.2536994214
 40
0.4427156241
 40
0.630319687
 40
1.0
 40
1.0
 40
1.0
 40
1.0
 10
5.2901108922
 20
5.0765502165
 30
0.0
 10
5.2878975797
 20
5.0699074686
 30
0.0
 10
5.2835933768
 20
5.0584569537
 30
0.0
 10
5.2764050915
 20
5.0426057329
 30
0.0
 10
5.2668428733
 20
5.0243547227
 30
0.0
 10
5.258539671
 20
5.0113529974
 30
0.0
 10
5.2525362163
 20
5.0031035393
 30
0.0
 11
5.2901108922
 21
5.0765502165
 31
0.0
 11
5.2827199866
 21
5.0568881163
 31
0.0
 11
5.2762553606
 21
5.0426359222
 31
0.0
 11
5.2690440067
 21
5.0288784903
 31
0.0
 11
5.2525362163
 21
5.0031035393
 31
0.0
  0
SPLINE
  5
49E
100
AcDbEntity
  8
0
100
AcDbSpline
 62
9
  6
CONTINUOUS
 70
0
 71
3
 72
13
 73
9
 74
7
 42
0.0000001
 43
0.0000001
 44
0.0000000001
 12
0.02382244
 22
0.0107058931
 32
0.0
 13
0.0261175189
 23
0.0000001604
 33
0.0
 40
0.0
 40
0.0
 40
0.0
 40
0.0
 40
0.2658212867
 40
0.3953014296
 40
0.5221777084
 40
0.6462582408
 40
0.7673652044
 40
1.0
 40
1.0
 40
1.0
 40
1.0
 10
6.3983884029
 20
5.7237880307
 30
0.0
 10
6.4004992401
 20
5.7247366488
 30
0.0
 10
6.4036927458
 20
5.7260327032
 30
0.0
 10
6.4080098201
 20
5.7274610918
 30
0.0
 10
6.4112011893
 20
5.7283518777
 30
0.0
 10
6.4143634993
 20
5.7290614221
 30
0.0
 10
6.4184681087
 20
5.7297437308
 30
0.0
 10
6.421551218
 20
5.7299731574
 30
0.0
 10
6.4235764992
 20
5.7299731698
 30
0.0
 11
6.3983884029
 21
5.7237880307
 31
0.0
 11
6.4048279449
 21
5.7263826192
 31
0.0
 11
6.4080392769
 21
5.7274424502
 31
0.0
 11
6.4112317417
 21
5.7283305574
 31
0.0
 11
6.4143944785
 21
5.7290370091
 31
0.0
 11
6.4175152596
 21
5.7295521591
 31
0.0
 11
6.4235764992
 21
5.7299731698
 31
0.0
  0
SPLINE
  5
49F
100
AcDbEntity
  8
0
100
AcDbSpline
 62
9
  6
CONTINUOUS
 70
0
 71
3
 72
26
 73
22
 74
20
 42
0.0000001
 43
0.0000001
 44
0.0000000001
 12
-0.1336656848
 22
0.0109331389
 32
0.0
 13
-0.0373931923
 23
0.1287936256
 33
0.0
 40
0.0
 40
0.0
 40
0.0
 40
0.0
 40
0.0466688
 40
0.0709378493
 40
0.0958514329
 40
0.1214239032
 40
0.1476648859
 40
0.1745809998
 40
0.2021743419
 40
0.2593640104
 40
0.3191752662
 40
0.3814375144
 40
0.4459062364
 40
0.5122990117
 40
0.5802756967
 40
0.649467181
 40
0.7194979393
 40
0.7899901405
 40
0.8605564959
 40
0.9307318607
 40
1.0
 40
1.0
 40
1.0
 40
1.0
 10
6.3983884029
 20
5.7237880307
 30
0.0
 10
6.3963090639
 20
5.7239581095
 30
0.0
 10
6.3931625349
 20
5.7244350909
 30
0.0
 10
6.3889988478
 20
5.7254528392
 30
0.0
 10
6.3858014255
 20
5.7264314597
 30
0.0
 10
6.3825797485
 20
5.7276131845
 30
0.0
 10
6.3793417749
 20
5.728996421
 30
0.0
 10
6.3760950219
 20
5.7305775803
 30
0.0
 10
6.3717115872
 20
5.7329722985
 30
0.0
 10
6.3662531458
 20
5.7364507979
 30
0.0
 10
6.359860119
 20
5.7412957771
 30
0.0
 10
6.3536003973
 20
5.746816368
 30
0.0
 10
6.3475285575
 20
5.7529628451
 30
0.0
 10
6.3417022476
 20
5.7596837852
 30
0.0
 10
6.3361696044
 20
5.7669155408
 30
0.0
 10
6.330980776
 20
5.7745946604
 30
0.0
 10
6.3261829353
 20
5.7826548414
 30
0.0
 10
6.3218149886
 20
5.79102514
 30
0.0
 10
6.3179202129
 20
5.7996330408
 30
0.0
 10
6.3145325668
 20
5.8083938091
 30
0.0
 10
6.3126157089
 20
5.8143297915
 30
0.0
 10
6.3117523233
 20
5.8173035564
 30
0.0
 11
6.3983884029
 21
5.7237880307
 31
0.0
 11
6.392197128
 21
5.7247052626
 31
0.0
 11
6.3890348334
 21
5.7254756115
 31
0.0
 11
6.3858392356
 21
5.7264512419
 31
0.0
 11
6.3826186856
 21
5.7276302486
 31
0.0
 11
6.3793814662
 21
5.729010614
 31
0.0
 11
6.376135064
 21
5.7305890166
 31
0.0
 11
6.3728864522
 21
5.7323612933
 31
0.0
 11
6.3664104582
 21
5.7364707604
 31
0.0
 11
6.3600092511
 21
5.7413047641
 31
0.0
 11
6.3537391792
 21
5.7468193531
 31
0.0
 11
6.3476569661
 21
5.7529643177
 31
0.0
 11
6.3418182868
 21
5.7596868423
 31
0.0
 11
6.3362745968
 21
5.7669241049
 31
0.0
 11
6.331076234
 21
5.7746107519
 31
0.0
 11
6.3262697691
 21
5.7826796429
 31
0.0
 11
6.321895933
 21
5.7910608683
 31
0.0
 11
6.3179946395
 21
5.7996831318
 31
0.0
 11
6.3146021401
 21
5.808461783
 31
0.0
 11
6.3117523233
 21
5.8173035564
 31
0.0
  0
SPLINE
  5
4A0
100
AcDbEntity
  8
0
100
AcDbSpline
 62
9
  6
CONTINUOUS
 70
0
 71
3
 72
9
 73
5
 74
3
 42
0.0000001
 43
0.0000001
 44
0.0000000001
 12
-0.0285520698
 22
-0.0379200405
 32
0.0
 13
-0.0360675833
 23
-0.0308590277
 33
0.0
 40
0.0
 40
0.0
 40
0.0
 40
0.0
 40
0.5057672305
 40
1.0
 40
1.0
 40
1.0
 40
1.0
 10
5.2502846944
 20
5.0000619772
 30
0.0
 10
5.2454711273
 20
4.9936690726
 30
0.0
 10
5.2352872166
 20
4.9815162064
 30
0.0
 10
5.2238481764
 20
4.9705314991
 30
0.0
 10
5.2179062492
 20
4.9654476516
 30
0.0
 11
5.2502846944
 21
5.0000619772
 31
0.0
 11
5.2348486879
 21
4.9816748453
 31
0.0
 11
5.2179062492
 21
4.9654476516
 31
0.0
  0
SPLINE
  5
4A1
100
AcDbEntity
  8
0
100
AcDbSpline
 62
9
  6
CONTINUOUS
 70
0
 71
3
 72
15
 73
11
 74
9
 42
0.0000001
 43
0.0000001
 44
0.0000000001
 12
-0.0742756678
 22
-0.0635494447
 32
0.0
 13
-0.0977482527
 23
-0.0008281525
 33
0.0
 40
0.0
 40
0.0
 40
0.0
 40
0.0
 40
0.1337371487
 40
0.2648379548
 40
0.393339955
 40
0.5192921596
 40
0.6427723788
 40
0.7639062019
 40
0.8828875014
 40
1.0
 40
1.0
 40
1.0
 40
1.0
 10
5.2179062492
 20
4.9654476516
 30
0.0
 10
5.2145951105
 20
4.9626146777
 30
0.0
 10
5.2078188812
 20
4.9572546176
 30
0.0
 10
5.1971602376
 20
4.9501139167
 30
0.0
 10
5.1861814649
 20
4.9439781154
 30
0.0
 10
5.1749579275
 20
4.9388752024
 30
0.0
 10
5.1635640092
 20
4.9348326175
 30
0.0
 10
5.1520736387
 20
4.93187839
 30
0.0
 10
5.140562752
 20
4.9300409689
 30
0.0
 10
5.1328684799
 20
4.9295767789
 30
0.0
 10
5.1290526325
 20
4.9295444499
 30
0.0
 11
5.2179062492
 21
4.9654476516
 31
0.0
 11
5.2076493511
 21
4.9573420694
 31
0.0
 11
5.1969986192
 21
4.9502150284
 31
0.0
 11
5.1860295699
 21
4.9440940698
 31
0.0
 11
5.1748177195
 21
4.9390067345
 31
0.0
 11
5.1634385843
 21
4.9349805638
 31
0.0
 11
5.1519676805
 21
4.9320430987
 31
0.0
 11
5.1404805245
 21
4.9302218804
 31
0.0
 11
5.1290526325
 21
4.9295444499
 31
0.0
  0
SPLINE
  5
4A2
100
AcDbEntity
  8
0
100
AcDbSpline
 62
9
  6
CONTINUOUS
 70
0
 71
3
 72
19
 73
15
 74
13
 42
0.0000001
 43
0.0000001
 44
0.0000000001
 12
-0.2449246141
 22
0.0086404227
 32
0.0
 13
-0.2450357443
 23
0.0044952756
 33
0.0
 40
0.0
 40
0.0
 40
0.0
 40
0.0
 40
0.0483271048
 40
0.1026242871
 40
0.2271890032
 40
0.3676283076
 40
0.4412015053
 40
0.5154924577
 40
0.6612487791
 40
0.7303373285
 40
0.795546788
 40
0.8559137204
 40
0.9105602271
 40
1.0
 40
1.0
 40
1.0
 40
1.0
 10
5.2901108922
 20
5.0765502165
 30
0.0
 10
5.286165393
 20
5.0766894053
 30
0.0
 10
5.2777870733
 20
5.0769873818
 30
0.0
 10
5.2592392221
 20
5.0776475959
 30
0.0
 10
5.2331708445
 20
5.0785634324
 30
0.0
 10
5.2055272923
 20
5.0794931792
 30
0.0
 10
5.1819869204
 20
5.080239131
 30
0.0
 10
5.1580113494
 20
5.0809645856
 30
0.0
 10
5.13440049
 20
5.0816295493
 30
0.0
 10
5.1115297668
 20
5.0822181818
 30
0.0
 10
5.0956318158
 20
5.082604214
 30
0.0
 10
5.0809128281
 20
5.0829406872
 30
0.0
 10
5.0642144038
 20
5.0832986983
 30
0.0
 10
5.0524459152
 20
5.0835298092
 30
0.0
 10
5.0451406014
 20
5.0836638281
 30
0.0
 11
5.2901108922
 21
5.0765502165
 31
0.0
 11
5.2782744767
 21
5.076970103
 31
0.0
 11
5.264975885
 21
5.0774427751
 31
0.0
 11
5.2344666275
 21
5.0785107444
 31
0.0
 11
5.200067453
 21
5.0796621746
 31
0.0
 11
5.1820453942
 21
5.0802330031
 31
0.0
 11
5.1638467234
 21
5.0807837283
 31
0.0
 11
5.128139277
 21
5.081786295
 31
0.0
 11
5.1112128741
 21
5.082222113
 31
0.0
 11
5.0952362422
 21
5.0826098864
 31
0.0
 11
5.0804455542
 21
5.0829476943
 31
0.0
 11
5.0670560299
 21
5.0832347245
 31
0.0
 11
5.0451406014
 21
5.0836638281
 31
0.0
  0
SPLINE
  5
4A3
100
AcDbEntity
  8
0
100
AcDbSpline
 62
9
  6
CONTINUOUS
 70
0
 71
3
 72
11
 73
7
 74
5
 42
0.0000001
 43
0.0000001
 44
0.0000000001
 12
0.0146699076
 22
-0.0753253328
 32
0.0
 13
0.0175813934
 23
-0.0746994415
 33
0.0
 40
0.0
 40
0.0
 40
0.0
 40
0.0
 40
0.2532897066
 40
0.5053988597
 40
0.7548055163
 40
1.0
 40
1.0
 40
1.0
 40
1.0
 10
5.0292059042
 20
5.1587272214
 30
0.0
 10
5.0304444831
 20
5.152367511
 30
0.0
 10
5.0329559763
 20
5.1396854858
 30
0.0
 10
5.0368550538
 20
5.1207749647
 30
0.0
 10
5.0408900036
 20
5.1021046973
 30
0.0
 10
5.0437036478
 20
5.0897691251
 30
0.0
 10
5.0451406014
 20
5.0836638281
 30
0.0
 11
5.0292059042
 21
5.1587272214
 31
0.0
 11
5.0329867667
 21
5.139660889
 31
0.0
 11
5.036899172
 21
5.1207136121
 31
0.0
 11
5.0409486177
 21
5.1020072916
 31
0.0
 11
5.0451406014
 21
5.0836638281
 31
0.0
  0
SPLINE
  5
4A4
100
AcDbEntity
  8
0
100
AcDbSpline
 62
9
  6
CONTINUOUS
 70
0
 71
3
 72
12
 73
8
 74
6
 42
0.0000001
 43
0.0000001
 44
0.0000000001
 12
-0.0549249042
 22
0.0010076186
 32
0.0
 13
-0.054934146
 23
0.0
 33
0.0
 40
0.0
 40
0.0
 40
0.0
 40
0.0
 40
0.3104350958
 40
0.4434196994
 40
0.5658541993
 40
0.7901166503
 40
1.0
 40
1.0
 40
1.0
 40
1.0
 10
5.0451406014
 20
5.0836638281
 30
0.0
 10
5.0394570621
 20
5.0837680948
 30
0.0
 10
5.0313385596
 20
5.0839046692
 30
0.0
 10
5.0209779783
 20
5.0840483767
 30
0.0
 10
5.0121949864
 20
5.0841545722
 30
0.0
 10
5.0020037149
 20
5.0842563224
 30
0.0
 10
4.9940538923
 20
5.0842890695
 30
0.0
 10
4.9902106381
 20
5.0842890695
 30
0.0
 11
5.0451406014
 21
5.0836638281
 31
0.0
 11
5.0280894754
 21
5.0839475804
 31
0.0
 11
5.020784781
 21
5.0840488004
 31
0.0
 11
5.0140594408
 21
5.0841303609
 31
0.0
 11
5.0017403221
 21
5.0842465111
 31
0.0
 11
4.9902106381
 21
5.0842890695
 31
0.0
  0
SPLINE
  5
4A5
100
AcDbEntity
  8
0
100
AcDbSpline
 62
9
  6
CONTINUOUS
 70
0
 71
3
 72
11
 73
7
 74
5
 42
0.0000001
 43
0.0000001
 44
0.0000000001
 12
0.0
 22
-0.0756344071
 32
0.0
 13
0.0164301359
 23
-0.0738282749
 33
0.0
 40
0.0
 40
0.0
 40
0.0
 40
0.0
 40
0.2518047309
 40
0.5028810236
 40
0.7525135779
 40
1.0
 40
1.0
 40
1.0
 40
1.0
 10
4.9820565218
 20
5.1593413959
 30
0.0
 10
4.9820565218
 20
5.1529930287
 30
0.0
 10
4.9824003777
 20
5.1403120415
 30
0.0
 10
4.9839367615
 20
5.1213934547
 30
0.0
 10
4.986481493
 20
5.1026937091
 30
0.0
 10
4.9888552263
 20
5.090379568
 30
0.0
 10
4.9902106381
 20
5.0842890695
 30
0.0
 11
4.9820565218
 21
5.1593413959
 31
0.0
 11
4.9825720859
 21
5.1403032739
 31
0.0
 11
4.9841108692
 21
5.1213757148
 31
0.0
 11
4.9866610078
 21
5.1026679146
 31
0.0
 11
4.9902106381
 21
5.0842890695
 31
0.0
  0
SPLINE
  5
4A6
100
AcDbEntity
  8
0
100
AcDbSpline
 62
9
  6
CONTINUOUS
 70
0
 71
3
 72
14
 73
10
 74
8
 42
0.0000001
 43
0.0000001
 44
0.0000000001
 12
-0.0323853681
 22
0.0
 32
0.0
 13
-0.0323244998
 23
-0.001984635
 33
0.0
 40
0.0
 40
0.0
 40
0.0
 40
0.0
 40
0.3149695262
 40
0.4500755024
 40
0.5752627879
 40
0.6934706543
 40
0.8043984743
 40
0.9069405101
 40
1.0
 40
1.0
 40
1.0
 40
1.0
 10
4.9902106381
 20
5.0842890695
 30
0.0
 10
4.9868105034
 20
5.0842890695
 30
0.0
 10
4.9819518227
 20
5.0842719195
 30
0.0
 10
4.9757421656
 20
5.0842015744
 30
0.0
 10
4.971656731
 20
5.0841347425
 30
0.0
 10
4.9678325894
 20
5.0840548499
 30
0.0
 10
4.9642534076
 20
5.0839560884
 30
0.0
 10
4.9609466244
 20
5.0838328497
 30
0.0
 10
4.9588376962
 20
5.0837253911
 30
0.0
 10
4.9578349957
 20
5.0836638281
 30
0.0
 11
4.9902106381
 21
5.0842890695
 31
0.0
 11
4.9800103229
 21
5.0842465111
 31
0.0
 11
4.9756351513
 21
5.0841965546
 31
0.0
 11
4.9715814554
 21
5.0841303609
 31
0.0
 11
4.967754119
 21
5.0840488004
 31
0.0
 11
4.964163107
 21
5.0839475804
 31
0.0
 11
4.9608446543
 21
5.0838211174
 31
0.0
 11
4.9578349957
 21
5.0836638281
 31
0.0
  0
SPLINE
  5
4A7
100
AcDbEntity
  8
0
100
AcDbSpline
 62
9
  6
CONTINUOUS
 70
0
 71
3
 72
12
 73
8
 74
6
 42
0.0000001
 43
0.0000001
 44
0.0000000001
 12
-0.0062644182
 22
-0.0752033415
 32
0.0
 13
0.0158178123
 23
-0.073787413
 33
0.0
 40
0.0
 40
0.0
 40
0.0
 40
0.0
 40
0.2529344546
 40
0.3787748564
 40
0.5041351959
 40
0.7532312562
 40
1.0
 40
1.0
 40
1.0
 40
1.0
 10
4.9531874639
 20
5.1587272214
 30
0.0
 10
4.9526593015
 20
5.1523867161
 30
0.0
 10
4.9522104258
 20
5.1428583954
 30
0.0
 10
4.9523030481
 20
5.1301754362
 30
0.0
 10
4.9528521311
 20
5.1176000817
 30
0.0
 10
4.9543874413
 20
5.1020344718
 30
0.0
 10
4.9565338818
 20
5.0897333038
 30
0.0
 10
4.9578349957
 20
5.0836638281
 30
0.0
 11
4.9531874639
 21
5.1587272214
 31
0.0
 11
4.9522910029
 21
5.139660889
 31
0.0
 11
4.952360742
 21
5.1301647498
 31
0.0
 11
4.9527739897
 21
5.1207136121
 31
0.0
 11
4.9546255966
 21
5.1020072916
 31
0.0
 11
4.9578349957
 21
5.0836638281
 31
0.0
  0
SPLINE
  5
4A8
100
AcDbEntity
  8
0
100
AcDbSpline
 62
9
  6
CONTINUOUS
 70
0
 71
3
 72
25
 73
21
 74
19
 42
0.0000001
 43
0.0000001
 44
0.0000000001
 12
-0.0113389235
 22
-0.0006961786
 32
0.0
 13
0.0027427001
 23
-0.0110242209
 33
0.0
 40
0.0
 40
0.0
 40
0.0
 40
0.0
 40
0.1732302608
 40
0.3477417371
 40
0.4329756324
 40
0.515530588
 40
0.594412736
 40
0.6686335461
 40
0.7372128396
 40
0.7992059898
 40
0.8537991179
 40
0.9002525822
 40
0.9202212767
 40
0.9379242652
 40
0.9533162014
 40
0.9663888683
 40
0.9772059359
 40
0.9859800637
 40
0.9932340683
 40
1.0
 40
1.0
 40
1.0
 40
1.0
 10
4.9578349957
 20
5.0836638281
 30
0.0
 10
4.9571802475
 20
5.0836236283
 30
0.0
 10
4.9558662323
 20
5.0835375357
 30
0.0
 10
4.9542313585
 20
5.0834127977
 30
0.0
 10
4.9529401001
 20
5.0832994615
 30
0.0
 10
4.9520103667
 20
5.0832092522
 30
0.0
 10
4.9511231555
 20
5.083113139
 30
0.0
 10
4.9502898893
 20
5.0830110876
 30
0.0
 10
4.9495218924
 20
5.0829030979
 30
0.0
 10
4.9488299422
 20
5.082789125
 30
0.0
 10
4.9482241585
 20
5.0826694164
 30
0.0
 10
4.9477786958
 20
5.082560634
 30
0.0
 10
4.9474737714
 20
5.0824681338
 30
0.0
 10
4.9472843111
 20
5.0824009109
 30
0.0
 10
4.9471233299
 20
5.0823323507
 30
0.0
 10
4.9469917432
 20
5.0822624402
 30
0.0
 10
4.946890259
 20
5.0821909145
 30
0.0
 10
4.9468192423
 20
5.0821168628
 30
0.0
 10
4.9467807051
 20
5.0820371356
 30
0.0
 10
4.9467818588
 20
5.081981742
 30
0.0
 10
4.9467880444
 20
5.081956879
 30
0.0
 11
4.9578349957
 21
5.0836638281
 31
0.0
 11
4.9558713159
 21
5.0835343563
 31
0.0
 11
4.9538946778
 21
5.0833820349
 31
0.0
 11
4.9529301318
 21
5.0832970762
 31
0.0
 11
4.9519967049
 21
5.0832061299
 31
0.0
 11
4.9511058501
 21
5.0831091042
 31
0.0
 11
4.9502690203
 21
5.0830059074
 31
0.0
 11
4.9494976684
 21
5.0828964478
 31
0.0
 11
4.9488029933
 21
5.082780657
 31
0.0
 11
4.9481949331
 21
5.0826585826
 31
0.0
 11
4.9476830363
 21
5.0825303081
 31
0.0
 11
4.9474661328
 21
5.0824638719
 31
0.0
 11
4.9472768508
 21
5.0823959169
 31
0.0
 11
4.9471163837
 21
5.0823264537
 31
0.0
 11
4.9469859249
 21
5.0822554927
 31
0.0
 11
4.9468866681
 21
5.0821830443
 31
0.0
 11
4.9468198067
 21
5.0821091189
 31
0.0
 11
4.9467865343
 21
5.082033727
 31
0.0
 11
4.9467880444
 21
5.081956879
 31
0.0
  0
SPLINE
  5
4A9
100
AcDbEntity
  8
0
100
AcDbSpline
 62
9
  6
CONTINUOUS
 70
0
 71
3
 72
19
 73
15
 74
13
 42
0.0000001
 43
0.0000001
 44
0.0000000001
 12
-0.1853194374
 22
0.0035907787
 32
0.0
 13
-0.1853531171
 23
0.0006399438
 33
0.0
 40
0.0
 40
0.0
 40
0.0
 40
0.0
 40
0.0480282072
 40
0.1017639727
 40
0.2244650859
 40
0.3624259339
 40
0.5079212574
 40
0.6522708737
 40
0.7212853858
 40
0.7869550056
 40
0.8483963991
 40
0.9048019285
 40
0.9555390785
 40
1.0
 40
1.0
 40
1.0
 40
1.0
 10
5.2525362163
 20
5.0031035393
 30
0.0
 10
5.2495693628
 20
5.0031610255
 30
0.0
 10
5.2432831932
 20
5.0032885531
 30
0.0
 10
5.229417807
 20
5.0035832591
 30
0.0
 10
5.2099975017
 20
5.0040094665
 30
0.0
 10
5.1849088715
 20
5.0045443291
 30
0.0
 10
5.1584818479
 20
5.0050517516
 30
0.0
 10
5.1363127987
 20
5.0054181668
 30
0.0
 10
5.1190744427
 20
5.005658801
 30
0.0
 10
5.1069577897
 20
5.0058079085
 30
0.0
 10
5.095619895
 20
5.0059277593
 30
0.0
 10
5.0852043594
 20
5.006018365
 30
0.0
 10
5.0758377805
 20
5.0060819375
 30
0.0
 10
5.0699560525
 20
5.0061097855
 30
0.0
 10
5.0672090624
 20
5.0061192696
 30
0.0
 11
5.2525362163
 21
5.0031035393
 31
0.0
 11
5.2436357894
 21
5.003282755
 31
0.0
 11
5.2336778663
 21
5.0034934116
 31
0.0
 11
5.2109400438
 21
5.003986542
 31
0.0
 11
5.1853741011
 21
5.0045256255
 31
0.0
 11
5.1584108547
 21
5.005041056
 31
0.0
 11
5.131658638
 21
5.0054795925
 31
0.0
 11
5.118867752
 21
5.0056580742
 31
0.0
 11
5.1066965277
 21
5.0058074866
 31
0.0
 11
5.0953087368
 21
5.0059273442
 31
0.0
 11
5.084854126
 21
5.006017904
 31
0.0
 11
5.0754499937
 21
5.0060811403
 31
0.0
 11
5.0672090624
 21
5.0061192696
 31
0.0
  0
SPLINE
  5
4AA
100
AcDbEntity
  8
0
100
AcDbSpline
 62
9
  6
CONTINUOUS
 70
0
 71
3
 72
13
 73
9
 74
7
 42
0.0000001
 43
0.0000001
 44
0.0000000001
 12
0.0184793925
 22
-0.0785148403
 32
0.0
 13
0.0268068618
 23
-0.076075359
 33
0.0
 40
0.0
 40
0.0
 40
0.0
 40
0.0
 40
0.2647550334
 40
0.5208518134
 40
0.6450949134
 40
0.7665080308
 40
0.8848785775
 40
1.0
 40
1.0
 40
1.0
 40
1.0
 10
5.0451406014
 20
5.0836638281
 30
0.0
 10
5.0467714388
 20
5.0767347617
 30
0.0
 10
5.0501067723
 20
5.0631326597
 30
0.0
 10
5.054607048
 20
5.0463802824
 30
0.0
 10
5.0583630437
 20
5.033422802
 30
0.0
 10
5.0612217771
 20
5.024061713
 30
0.0
 10
5.0641509458
 20
5.0149797635
 30
0.0
 10
5.066180381
 20
5.0090385708
 30
0.0
 10
5.0672090624
 20
5.0061192696
 30
0.0
 11
5.0451406014
 21
5.0836638281
 31
0.0
 11
5.0502392667
 21
5.0629262309
 31
0.0
 11
5.0556147537
 21
5.0429810996
 31
0.0
 11
5.0584073108
 21
5.0333565707
 31
0.0
 11
5.0612702799
 21
5.0239911929
 31
0.0
 11
5.064204063
 21
5.0149053109
 31
0.0
 11
5.0672090624
 21
5.0061192696
 31
0.0
  0
LINE
  5
4AB
100
AcDbEntity
  8
0
100
AcDbLine
 62
9
  6
CONTINUOUS
 10
5.0672090624
 20
5.0061192696
 11
5.0191375105
 21
5.0061414641
  0
SPLINE
  5
4AC
100
AcDbEntity
  8
0
100
AcDbSpline
 62
9
  6
CONTINUOUS
 70
0
 71
3
 72
11
 73
7
 74
5
 42
0.0000001
 43
0.0000001
 44
0.0000000001
 12
0.0181576822
 22
-0.0815909472
 32
0.0
 13
0.0401883808
 23
-0.0732917331
 33
0.0
 40
0.0
 40
0.0
 40
0.0
 40
0.0
 40
0.257223579
 40
0.5101306951
 40
0.7579536004
 40
1.0
 40
1.0
 40
1.0
 40
1.0
 10
4.9902106381
 20
5.0842890695
 30
0.0
 10
4.9917674994
 20
5.0772933643
 30
0.0
 10
4.9953124719
 20
5.0635163011
 30
0.0
 10
5.0019467441
 20
5.0434502084
 30
0.0
 10
5.0098023899
 20
5.0242856108
 30
0.0
 10
5.0158950262
 20
5.0120547974
 30
0.0
 10
5.0191375105
 20
5.0061414641
 30
0.0
 11
4.9902106381
 21
5.0842890695
 31
0.0
 11
4.9955764113
 21
5.0634688426
 31
0.0
 11
5.0022241344
 21
5.0434015427
 31
0.0
 11
5.0100968276
 21
5.0242411048
 31
0.0
 11
5.0191375105
 21
5.0061414641
 31
0.0
  0
LINE
  5
4AD
100
AcDbEntity
  8
0
100
AcDbLine
 62
9
  6
CONTINUOUS
 10
5.0191375105
 20
5.0061414641
 11
4.9903057011
 21
5.0061192696
  0
SPLINE
  5
4AE
100
AcDbEntity
  8
0
100
AcDbSpline
 62
9
  6
CONTINUOUS
 70
0
 71
3
 72
11
 73
7
 74
5
 42
0.0000001
 43
0.0000001
 44
0.0000000001
 12
0.0177193361
 22
-0.0826576991
 32
0.0
 13
0.0469235079
 23
-0.0703168152
 33
0.0
 40
0.0
 40
0.0
 40
0.0
 40
0.0
 40
0.253660027
 40
0.5048242029
 40
0.7535652806
 40
1.0
 40
1.0
 40
1.0
 40
1.0
 10
4.9578349957
 20
5.0836638281
 30
0.0
 10
4.9593332248
 20
5.0766748433
 30
0.0
 10
4.9629554644
 20
5.0628939148
 30
0.0
 10
4.9702401015
 20
5.0429166205
 30
0.0
 10
4.979275015
 20
5.0238921485
 30
0.0
 10
4.986451174
 20
5.0118954378
 30
0.0
 10
4.9903057011
 20
5.0061192696
 30
0.0
 11
4.9578349957
 21
5.0836638281
 31
0.0
 11
4.9632909507
 21
5.0629262309
 31
0.0
 11
4.9705712708
 21
5.0429810996
 31
0.0
 11
4.9796011297
 21
5.0239911929
 31
0.0
 11
4.9903057011
 21
5.0061192696
 31
0.0
  0
SPLINE
  5
4AF
100
AcDbEntity
  8
0
100
AcDbSpline
 62
9
  6
CONTINUOUS
 70
0
 71
3
 72
29
 73
25
 74
23
 42
0.0000001
 43
0.0000001
 44
0.0000000001
 12
-0.0082795089
 22
-0.0000942791
 32
0.0
 13
0.0048684092
 23
-0.0066975927
 33
0.0
 40
0.0
 40
0.0
 40
0.0
 40
0.0
 40
0.1886734354
 40
0.3722580728
 40
0.460006472
 40
0.5439208526
 40
0.6231490096
 40
0.6968403435
 40
0.764146797
 40
0.8242290994
 40
0.8513202381
 40
0.8763284748
 40
0.8991685365
 40
0.9197569051
 40
0.9380128474
 40
0.9538603199
 40
0.967231807
 40
0.9780769715
 40
0.9863853355
 40
0.9896166207
 40
0.9922750426
 40
0.9962196476
 40
0.9979887933
 40
1.0
 40
1.0
 40
1.0
 40
1.0
 10
4.9903057011
 20
5.0061192696
 30
0.0
 10
4.9897849933
 20
5.0061133403
 30
0.0
 10
4.9887576568
 20
5.0060982905
 30
0.0
 10
4.987488327
 20
5.0060701338
 30
0.0
 10
4.9865082619
 20
5.006041186
 30
0.0
 10
4.9858162242
 20
5.0060167993
 30
0.0
 10
4.9851631298
 20
5.005989349
 30
0.0
 10
4.9845560631
 20
5.0059587753
 30
0.0
 10
4.9840020944
 20
5.00592503
 30
0.0
 10
4.9835768917
 20
5.0058932447
 30
0.0
 10
4.9832684996
 20
5.0058656007
 30
0.0
 10
4.9830627127
 20
5.0058447612
 30
0.0
 10
4.982875064
 20
5.0058231078
 30
0.0
 10
4.9827062912
 20
5.0058006523
 30
0.0
 10
4.9825571217
 20
5.0057774226
 30
0.0
 10
4.9824282823
 20
5.0057534361
 30
0.0
 10
4.9823204319
 20
5.005728796
 30
0.0
 10
4.9822342518
 20
5.0057034498
 30
0.0
 10
4.9821766768
 20
5.0056805592
 30
0.0
 10
4.9821426899
 20
5.0056606394
 30
0.0
 10
4.9821214691
 20
5.0056440679
 30
0.0
 10
4.9821071363
 20
5.0056232016
 30
0.0
 10
4.9821093695
 20
5.0056012236
 30
0.0
 10
4.9821145839
 20
5.005591928
 30
0.0
 10
4.9821178477
 20
5.0055874379
 30
0.0
 11
4.9903057011
 21
5.0061192696
 31
0.0
 11
4.9887436483
 21
5.0060960976
 31
0.0
 11
4.9872239473
 21
5.006061749
 31
0.0
 11
4.9864977071
 21
5.0060401687
 31
0.0
 11
4.9858033289
 21
5.0060155364
 31
0.0
 11
4.9851479042
 21
5.0059877663
 31
0.0
 11
4.9845385243
 21
5.0059567723
 31
0.0
 11
4.9839822806
 21
5.0059224686
 31
0.0
 11
4.9834862266
 21
5.0058847726
 31
0.0
 11
4.9832628159
 21
5.0058646414
 31
0.0
 11
4.9830568125
 21
5.0058436575
 31
0.0
 11
4.9828689604
 21
5.0058218231
 31
0.0
 11
4.9827000035
 21
5.0057991408
 31
0.0
 11
4.9825506858
 21
5.0057756129
 31
0.0
 11
4.9824217511
 21
5.0057512416
 31
0.0
 11
4.9823139434
 21
5.0057260295
 31
0.0
 11
4.9822280067
 21
5.0056999788
 31
0.0
 11
4.9821646848
 21
5.0056730919
 31
0.0
 11
4.9821417369
 21
5.0056593356
 31
0.0
 11
4.9821247217
 21
5.0056453712
 31
0.0
 11
4.9821088614
 21
5.0056168191
 31
0.0
 11
4.9821102022
 21
5.005602232
 31
0.0
 11
4.9821178477
 21
5.0055874379
 31
0.0
  0
SPLINE
  5
4B0
100
AcDbEntity
  8
0
100
AcDbSpline
 62
9
  6
CONTINUOUS
 70
0
 71
3
 72
19
 73
15
 74
13
 42
0.0000001
 43
0.0000001
 44
0.0000000001
 12
-0.1819183606
 22
0.0035483898
 32
0.0
 13
-0.1819525533
 23
0.0003864314
 33
0.0
 40
0.0
 40
0.0
 40
0.0
 40
0.0
 40
0.0480604317
 40
0.101812695
 40
0.2244976039
 40
0.3623893506
 40
0.5077943829
 40
0.652069619
 40
0.7210645819
 40
0.7867315467
 40
0.8481908041
 40
0.9046379656
 40
0.955442895
 40
1.0
 40
1.0
 40
1.0
 40
1.0
 10
5.2502846944
 20
5.0000619772
 30
0.0
 10
5.2473703361
 20
5.0001188229
 30
0.0
 10
5.2411965692
 20
5.0002443245
 30
0.0
 10
5.2275836132
 20
5.0005323093
 30
0.0
 10
5.2085237175
 20
5.0009448026
 30
0.0
 10
5.1839058465
 20
5.0014571086
 30
0.0
 10
5.157977618
 20
5.0019382457
 30
0.0
 10
5.1362262725
 20
5.0022811568
 30
0.0
 10
5.1193099023
 20
5.0025028353
 30
0.0
 10
5.1074157238
 20
5.0026382816
 30
0.0
 10
5.0962823214
 20
5.0027449792
 30
0.0
 10
5.0860501028
 20
5.0028230933
 30
0.0
 10
5.0768428653
 20
5.0028749704
 30
0.0
 10
5.0710590923
 20
5.0028950832
 30
0.0
 10
5.068356666
 20
5.0029008226
 30
0.0
 11
5.2502846944
 21
5.0000619772
 31
0.0
 11
5.2415417372
 21
5.0002384455
 31
0.0
 11
5.2317635216
 21
5.0004443658
 31
0.0
 11
5.2094457479
 21
5.0009219352
 31
0.0
 11
5.1843612533
 21
5.0014384582
 31
0.0
 11
5.1579088908
 21
5.0019271657
 31
0.0
 11
5.1316607893
 21
5.0023373831
 31
0.0
 11
5.119108028
 21
5.0025018002
 31
0.0
 11
5.1071604995
 21
5.0026374767
 31
0.0
 11
5.0959783139
 21
5.002744105
 31
0.0
 11
5.0857078817
 21
5.0028221027
 31
0.0
 11
5.0764639175
 21
5.0028735647
 31
0.0
 11
5.068356666
 21
5.0029008226
 31
0.0
  0
LINE
  5
4B1
100
AcDbEntity
  8
0
100
AcDbLine
 62
9
  6
CONTINUOUS
 10
5.068356666
 20
5.0029008226
 11
5.0209601401
 21
5.0028740533
  0
LINE
  5
4B2
100
AcDbEntity
  8
0
100
AcDbLine
 62
9
  6
CONTINUOUS
 10
5.0209601401
 20
5.0028740533
 11
4.9924964891
 21
5.0029008226
  0
LINE
  5
4B3
100
AcDbEntity
  8
0
100
AcDbLine
 62
6
  6
CONTINUOUS
 10
5.9303387536
 20
6.1347841306
 11
5.928920664
 21
6.1321114026
  0
SPLINE
  5
4B4
100
AcDbEntity
  8
0
100
AcDbSpline
 62
6
  6
CONTINUOUS
 70
0
 71
3
 72
17
 73
13
 74
11
 42
0.0000001
 43
0.0000001
 44
0.0000000001
 12
-0.0107654997
 22
-0.0253677473
 32
0.0
 13
-0.0041897776
 23
-0.0272371869
 33
0.0
 40
0.0
 40
0.0
 40
0.0
 40
0.0
 40
0.0371979934
 40
0.0776844187
 40
0.121493566
 40
0.1686517455
 40
0.2730876011
 40
0.3911109906
 40
0.5227882177
 40
0.668154763
 40
0.8272262459
 40
1.0
 40
1.0
 40
1.0
 40
1.0
 10
5.928920664
 20
6.1321114026
 30
0.0
 10
5.928787179
 20
6.1317968595
 30
0.0
 10
5.9285216525
 20
6.1311343066
 30
0.0
 10
5.9281402078
 20
6.1300853374
 30
0.0
 10
5.9277588947
 20
6.1289394664
 30
0.0
 10
5.9272326604
 20
6.1272232526
 30
0.0
 10
5.9265815234
 20
6.1248330771
 30
0.0
 10
5.9258247786
 20
6.1216688924
 30
0.0
 10
5.9250689118
 20
6.1181191332
 30
0.0
 10
5.9243142247
 20
6.1141845455
 30
0.0
 10
5.9235610768
 20
6.1098659623
 30
0.0
 10
5.9230800481
 20
6.1068557725
 30
0.0
 10
5.9228387536
 20
6.1052871489
 30
0.0
 11
5.928920664
 21
6.1321114026
 31
0.0
 11
5.9285378509
 21
6.1311604795
 31
0.0
 11
5.9281552852
 21
6.1301124123
 31
0.0
 11
5.9277729908
 21
6.1289672666
 31
0.0
 11
5.9273909919
 21
6.127725114
 31
0.0
 11
5.926627976
 21
6.124950106
 31
0.0
 11
5.9258664293
 21
6.1217880839
 31
0.0
 11
5.9251065427
 21
6.118239838
 31
0.0
 11
5.9243485087
 21
6.1143062662
 31
0.0
 11
5.9235925133
 21
6.109988327
 31
0.0
 11
5.9228387536
 21
6.1052871489
 31
0.0
  0
SPLINE
  5
4B5
100
AcDbEntity
  8
0
100
AcDbSpline
 62
9
  6
CONTINUOUS
 70
0
 71
3
 72
29
 73
25
 74
23
 42
0.0000001
 43
0.0000001
 44
0.0000000001
 12
-0.0081192003
 22
-0.0000567741
 32
0.0
 13
0.0049006143
 23
-0.0064736864
 33
0.0
 40
0.0
 40
0.0
 40
0.0
 40
0.0
 40
0.1891405997
 40
0.3729760901
 40
0.4607871165
 40
0.5447318895
 40
0.6239652551
 40
0.6976434553
 40
0.7649249437
 40
0.8249758802
 40
0.8520495228
 40
0.8770394573
 40
0.8998605822
 40
0.9204293214
 40
0.9386645197
 40
0.954489102
 40
0.9678334213
 40
0.9786428353
 40
0.9868977334
 40
0.9900893033
 40
0.9926936458
 40
0.9964614229
 40
0.9981096323
 40
1.0
 40
1.0
 40
1.0
 40
1.0
 10
4.9924964891
 20
5.0029008226
 30
0.0
 10
4.9919845989
 20
5.0028972432
 30
0.0
 10
4.9909751958
 20
5.0028869797
 30
0.0
 10
4.9897282645
 20
5.0028652702
 30
0.0
 10
4.9887661516
 20
5.0028417857
 30
0.0
 10
4.9880871556
 20
5.0028215436
 30
0.0
 10
4.987446527
 20
5.0027983369
 30
0.0
 10
4.9868511517
 20
5.0027720997
 30
0.0
 10
4.9863079042
 20
5.002742777
 30
0.0
 10
4.9858909235
 20
5.002714864
 30
0.0
 10
4.985588472
 20
5.0026904058
 30
0.0
 10
4.9853866417
 20
5.0026718917
 30
0.0
 10
4.9852025779
 20
5.0026525806
 30
0.0
 10
4.9850369981
 20
5.0026324823
 30
0.0
 10
4.9848906122
 20
5.0026116231
 30
0.0
 10
4.9847641269
 20
5.0025900167
 30
0.0
 10
4.984658198
 20
5.0025677662
 30
0.0
 10
4.9845734777
 20
5.0025448116
 30
0.0
 10
4.9845167946
 20
5.0025240626
 30
0.0
 10
4.9844831303
 20
5.0025059077
 30
0.0
 10
4.9844623236
 20
5.002490987
 30
0.0
 10
4.9844476556
 20
5.0024720587
 30
0.0
 10
4.9844494415
 20
5.0024515432
 30
0.0
 10
4.9844544024
 20
5.0024430764
 30
0.0
 10
4.9844574904
 20
5.0024389972
 30
0.0
 11
4.9924964891
 21
5.0029008226
 31
0.0
 11
4.9909608631
 21
5.0028849541
 31
0.0
 11
4.9894684658
 21
5.0028583911
 31
0.0
 11
4.9887557083
 21
5.0028408747
 31
0.0
 11
4.9880744343
 21
5.0028204153
 31
0.0
 11
4.9874315361
 21
5.0027969231
 31
0.0
 11
4.9868339058
 21
5.0027703085
 31
0.0
 11
4.9862884354
 21
5.0027404815
 31
0.0
 11
4.9858019845
 21
5.0027073554
 31
0.0
 11
4.9855828858
 21
5.0026895418
 31
0.0
 11
4.9853808411
 21
5.0026708961
 31
0.0
 11
4.9851965737
 21
5.0026514196
 31
0.0
 11
4.9850308069
 21
5.002631114
 31
0.0
 11
4.9848842641
 21
5.0026099806
 31
0.0
 11
4.9847576685
 21
5.0025880211
 31
0.0
 11
4.9846517433
 21
5.0025652368
 31
0.0
 11
4.984567212
 21
5.0025416293
 31
0.0
 11
4.9845047977
 21
5.0025172001
 31
0.0
 11
4.9844821105
 21
5.0025046779
 31
0.0
 11
4.9844652239
 21
5.0024919507
 31
0.0
 11
4.9844492137
 21
5.0024658826
 31
0.0
 11
4.984450271
 21
5.0024525419
 31
0.0
 11
4.9844574904
 21
5.0024389972
 31
0.0
  0
SPLINE
  5
4B6
100
AcDbEntity
  8
0
100
AcDbSpline
 62
9
  6
CONTINUOUS
 70
0
 71
3
 72
17
 73
13
 74
11
 42
0.0000001
 43
0.0000001
 44
0.0000000001
 12
-0.1332312361
 22
0.0025512895
 32
0.0
 13
-0.1332483214
 23
-0.0013986369
 33
0.0
 40
0.0
 40
0.0
 40
0.0
 40
0.0
 40
0.1025512715
 40
0.2252163536
 40
0.3624420844
 40
0.50688478
 40
0.6503091338
 40
0.7190486957
 40
0.7846307737
 40
0.9030371937
 40
0.954491531
 40
1.0
 40
1.0
 40
1.0
 40
1.0
 10
5.2179062492
 20
4.9654476516
 30
0.0
 10
5.213351905
 20
4.9655348642
 30
0.0
 10
5.2033499862
 20
4.9657281189
 30
0.0
 10
5.1872533522
 20
4.9660135594
 30
0.0
 10
5.1692954832
 20
4.9662861752
 30
0.0
 10
5.1504147429
 20
4.966508266
 30
0.0
 10
5.1345752404
 20
4.9666340467
 30
0.0
 10
5.1222382775
 20
4.966689307
 30
0.0
 10
5.1110124848
 20
4.9667140784
 30
0.0
 10
5.1005544052
 20
4.9667008946
 30
0.0
 10
5.0909881528
 20
4.9666477688
 30
0.0
 10
5.0866813539
 20
4.9666108334
 30
0.0
 10
5.0846600448
 20
4.9665896168
 30
0.0
 11
5.2179062492
 21
4.9654476516
 31
0.0
 11
5.2042431836
 21
4.9657075657
 31
0.0
 11
5.1878999037
 21
4.9659955318
 31
0.0
 11
5.1696158756
 21
4.9662711619
 31
0.0
 11
5.1503693877
 21
4.966496496
 31
0.0
 11
5.1312578613
 21
4.9666454816
 31
0.0
 11
5.1220980168
 21
4.9666863842
 31
0.0
 11
5.1133588541
 21
4.9667053005
 31
0.0
 11
5.0975805463
 21
4.9666814073
 31
0.0
 11
5.0907240742
 21
4.9666426364
 31
0.0
 11
5.0846600448
 21
4.9665896168
 31
0.0
  0
SPLINE
  5
4B7
100
AcDbEntity
  8
0
100
AcDbSpline
 62
9
  6
CONTINUOUS
 70
0
 71
3
 72
11
 73
7
 74
5
 42
0.0000001
 43
0.0000001
 44
0.0000000001
 12
0.0135248332
 22
-0.0374815504
 32
0.0
 13
0.0196523788
 23
-0.0346636948
 33
0.0
 40
0.0
 40
0.0
 40
0.0
 40
0.0
 40
0.2682182049
 40
0.5246533819
 40
0.7687418299
 40
1.0
 40
1.0
 40
1.0
 40
1.0
 10
5.068356666
 20
5.0029008226
 30
0.0
 10
5.0695658682
 20
4.9995497445
 30
0.0
 10
5.072041014
 20
4.9930336577
 30
0.0
 10
5.0760223742
 20
4.9836283283
 30
0.0
 10
5.080180592
 20
4.974839714
 30
0.0
 10
5.0831451204
 20
4.9692617043
 30
0.0
 10
5.0846600448
 20
4.9665896168
 30
0.0
 11
5.068356666
 21
5.0029008226
 31
0.0
 11
5.0721598677
 21
4.9929126945
 31
0.0
 11
5.076152437
 21
4.9835068068
 31
0.0
 11
5.0803229655
 21
4.9747201255
 31
0.0
 11
5.0846600448
 21
4.9665896168
 31
0.0
  0
LINE
  5
4B8
100
AcDbEntity
  8
0
100
AcDbLine
 62
9
  6
CONTINUOUS
 10
5.0846600448
 20
4.9665896168
 11
5.0483268955
 21
4.9662249257
  0
SPLINE
  5
4B9
100
AcDbEntity
  8
0
100
AcDbSpline
 62
9
  6
CONTINUOUS
 70
0
 71
3
 72
11
 73
7
 74
5
 42
0.0000001
 43
0.0000001
 44
0.0000000001
 12
0.0226337334
 22
-0.0398879717
 32
0.0
 13
0.0322131842
 23
-0.0326442481
 33
0.0
 40
0.0
 40
0.0
 40
0.0
 40
0.0
 40
0.2585595146
 40
0.511485138
 40
0.7586496696
 40
1.0
 40
1.0
 40
1.0
 40
1.0
 10
5.0209601401
 20
5.0028740533
 30
0.0
 10
5.0229108625
 20
4.9994362485
 30
0.0
 10
5.0269737981
 20
4.992748697
 30
0.0
 10
5.0336071897
 20
4.9832258909
 30
0.0
 10
5.0406829872
 20
4.9743607936
 30
0.0
 10
5.0457353413
 20
4.9688511591
 30
0.0
 10
5.0483268955
 20
4.9662249257
 30
0.0
 11
5.0209601401
 21
5.0028740533
 31
0.0
 11
5.0271231491
 21
4.9927433228
 31
0.0
 11
5.0337598512
 21
4.9832297807
 31
0.0
 11
5.0408383865
 21
4.974376093
 31
0.0
 11
5.0483268955
 21
4.9662249257
 31
0.0
  0
SPLINE
  5
4BA
100
AcDbEntity
  8
0
100
AcDbSpline
 62
9
  6
CONTINUOUS
 70
0
 71
3
 72
11
 73
7
 74
5
 42
0.0000001
 43
0.0000001
 44
0.0000000001
 12
-0.0223860211
 22
0.0
 32
0.0
 13
-0.02237378
 23
0.00074021
 33
0.0
 40
0.0
 40
0.0
 40
0.0
 40
0.0
 40
0.3145930361
 40
0.580691758
 40
0.8107187382
 40
1.0
 40
1.0
 40
1.0
 40
1.0
 10
5.0483268955
 20
4.9662249257
 30
0.0
 10
5.0459794001
 20
4.9662249257
 30
0.0
 10
5.0416462362
 20
4.9662403732
 30
0.0
 10
5.0355970787
 20
4.966321519
 30
0.0
 10
5.0304839713
 20
4.966444623
 30
0.0
 10
5.0273566219
 20
4.9665429141
 30
0.0
 10
5.0259449761
 20
4.9665896168
 30
0.0
 11
5.0483268955
 21
4.9662249257
 31
0.0
 11
5.04128447
 21
4.9662541882
 31
0.0
 11
5.0353281468
 21
4.9663364782
 31
0.0
 11
5.0301802123
 21
4.9664588571
 31
0.0
 11
5.0259449761
 21
4.9665896168
 31
0.0
  0
LINE
  5
4BB
100
AcDbEntity
  8
0
100
AcDbLine
 62
9
  6
CONTINUOUS
 10
5.0259449761
 20
4.9665896168
 11
5.0198267376
 21
4.9666764232
  0
SPLINE
  5
4BC
100
AcDbEntity
  8
0
100
AcDbSpline
 62
9
  6
CONTINUOUS
 70
0
 71
3
 72
16
 73
12
 74
10
 42
0.0000001
 43
0.0000001
 44
0.0000000001
 12
0.0256625611
 22
-0.0452647078
 32
0.0
 13
0.0498405234
 23
-0.014946004
 33
0.0
 40
0.0
 40
0.0
 40
0.0
 40
0.0
 40
0.1568397582
 40
0.3036083246
 40
0.4405574856
 40
0.5680857951
 40
0.6867846779
 40
0.797495123
 40
0.9013705857
 40
0.9512375634
 40
1.0
 40
1.0
 40
1.0
 40
1.0
 10
5.0846600448
 20
4.9665896168
 30
0.0
 10
5.0860016814
 20
4.9642231815
 30
0.0
 10
5.0887119173
 20
4.9597047769
 30
0.0
 10
5.093017714
 20
4.9533865187
 30
0.0
 10
5.0974222047
 20
4.9477682163
 30
0.0
 10
5.1019196598
 20
4.9428648262
 30
0.0
 10
5.1065056985
 20
4.938691337
 30
0.0
 10
5.1111755548
 20
4.9352642896
 30
0.0
 10
5.1151899669
 20
4.9330150706
 30
0.0
 10
5.1184212503
 20
4.9316318692
 30
0.0
 10
5.1200412221
 20
4.9310760617
 30
0.0
 10
5.1208513373
 20
4.9308331271
 30
0.0
 11
5.0846600448
 21
4.9665896168
 31
0.0
 11
5.0888704265
 21
4.9595987135
 31
0.0
 11
5.0931847941
 21
4.9532973106
 31
0.0
 11
5.0975959447
 21
4.9477008497
 31
0.0
 11
5.1020966752
 21
4.9428247722
 31
0.0
 11
5.1066797828
 21
4.9386845197
 31
0.0
 11
5.1113380643
 21
4.9352955337
 31
0.0
 11
5.1160643168
 21
4.9326732557
 31
0.0
 11
5.1184506812
 21
4.9316544576
 31
0.0
 11
5.1208513373
 21
4.9308331271
 31
0.0
  0
SPLINE
  5
4BD
100
AcDbEntity
  8
0
100
AcDbSpline
 62
9
  6
CONTINUOUS
 70
0
 71
3
 72
9
 73
5
 74
3
 42
0.0000001
 43
0.0000001
 44
0.0000000001
 12
0.0076477868
 22
-0.0022933919
 32
0.0
 13
0.0079813491
 23
-0.0002153056
 33
0.0
 40
0.0
 40
0.0
 40
0.0
 40
0.0
 40
0.5034087678
 40
1.0
 40
1.0
 40
1.0
 40
1.0
 10
5.1208513373
 20
4.9308331271
 30
0.0
 10
5.1221346582
 20
4.9304482893
 30
0.0
 10
5.1247345772
 20
4.9298416672
 30
0.0
 10
5.1273931227
 20
4.9295872473
 30
0.0
 10
5.1287142787
 20
4.9295516076
 30
0.0
 11
5.1208513373
 21
4.9308331271
 31
0.0
 11
5.1247671594
 21
4.9299267867
 31
0.0
 11
5.1287142787
 21
4.9295516076
 31
0.0
  0
SPLINE
  5
4BE
100
AcDbEntity
  8
0
100
AcDbSpline
 62
9
  6
CONTINUOUS
 70
0
 71
3
 72
15
 73
11
 74
9
 42
0.0000001
 43
0.0000001
 44
0.0000000001
 12
0.0797480515
 22
-0.0654148478
 32
0.0
 13
0.1029690194
 23
-0.0060195582
 33
0.0
 40
0.0
 40
0.0
 40
0.0
 40
0.0
 40
0.1251988565
 40
0.2501213866
 40
0.3749053685
 40
0.4996576073
 40
0.6244645573
 40
0.7494031247
 40
0.8745515124
 40
1.0
 40
1.0
 40
1.0
 40
1.0
 10
5.0259449761
 20
4.9665896168
 30
0.0
 10
5.0292730977
 20
4.9638596621
 30
0.0
 10
5.0361470537
 20
4.958673871
 30
0.0
 10
5.0470368415
 20
4.9517533211
 30
0.0
 10
5.0584261897
 20
4.9457215881
 30
0.0
 10
5.0702482012
 20
4.9406005408
 30
0.0
 10
5.0824371008
 20
4.9364112825
 30
0.0
 10
5.0949272584
 20
4.9331752923
 30
0.0
 10
5.1076518336
 20
4.9309142243
 30
0.0
 10
5.1162370539
 20
4.930072431
 30
0.0
 10
5.1205428231
 20
4.9298207162
 30
0.0
 11
5.0259449761
 21
4.9665896168
 31
0.0
 11
5.0362526793
 21
4.9588106277
 31
0.0
 11
5.047126406
 21
4.9518977282
 31
0.0
 11
5.0584998626
 21
4.9458725703
 31
0.0
 11
5.0703067557
 21
4.9407568056
 31
0.0
 11
5.0824807918
 21
4.936572086
 31
0.0
 11
5.0949556774
 21
4.9333400634
 31
0.0
 11
5.107665119
 21
4.9310823895
 31
0.0
 11
5.1205428231
 21
4.9298207162
 31
0.0
  0
LINE
  5
4BF
100
AcDbEntity
  8
0
100
AcDbLine
 62
6
  6
CONTINUOUS
 10
5.9303387536
 20
6.1337829933
 11
5.9299211847
 21
6.1331343453
  0
SPLINE
  5
4C0
100
AcDbEntity
  8
0
100
AcDbSpline
 62
6
  6
CONTINUOUS
 70
0
 71
3
 72
19
 73
15
 74
13
 42
0.0000001
 43
0.0000001
 44
0.0000000001
 12
-0.0146446744
 22
-0.0247792068
 32
0.0
 13
-0.0044488973
 23
-0.0284373503
 33
0.0
 40
0.0
 40
0.0
 40
0.0
 40
0.0
 40
0.0316524702
 40
0.0671987528
 40
0.1067351041
 40
0.1503302329
 40
0.1980341736
 40
0.2498839037
 40
0.3059069876
 40
0.3661240489
 40
0.4991938147
 40
0.6491771403
 40
0.8161099803
 40
1.0
 40
1.0
 40
1.0
 40
1.0
 10
5.9299211847
 20
6.1331343453
 30
0.0
 10
5.9297666713
 20
6.1328729043
 30
0.0
 10
5.9294603716
 20
6.1323049288
 30
0.0
 10
5.9290270922
 20
6.131376606
 30
0.0
 10
5.9285938505
 20
6.1303232291
 30
0.0
 10
5.9281607147
 20
6.1291447754
 30
0.0
 10
5.9277277256
 20
6.1278411826
 30
0.0
 10
5.9272949514
 20
6.1264124752
 30
0.0
 10
5.9268624288
 20
6.1248587091
 30
0.0
 10
5.9262661197
 20
6.1225421177
 30
0.0
 10
5.9255284609
 20
6.1193317369
 30
0.0
 10
5.9246711828
 20
6.1150999979
 30
0.0
 10
5.9238155402
 20
6.1103715638
 30
0.0
 10
5.9232727082
 20
6.1070495273
 30
0.0
 10
5.9230000056
 20
6.1053064123
 30
0.0
 11
5.9299211847
 21
6.1331343453
 31
0.0
 11
5.9294855556
 21
6.1323341831
 31
0.0
 11
5.9290501693
 21
6.1314083056
 31
0.0
 11
5.928615061
 21
6.1303567876
 31
0.0
 11
5.9281802663
 21
6.1291797147
 31
0.0
 11
5.9277458204
 21
6.1278771823
 31
0.0
 11
5.9273117588
 21
6.1264492959
 31
0.0
 11
5.9268781165
 21
6.1248961713
 31
0.0
 11
5.9264449289
 21
6.1232179343
 31
0.0
 11
5.9255800583
 21
6.1194866769
 31
0.0
 11
5.9247174279
 21
6.115256733
 31
0.0
 11
5.923857318
 21
6.1105294731
 31
0.0
 11
5.9230000056
 21
6.1053064123
 31
0.0
  0
SPLINE
  5
4C1
100
AcDbEntity
  8
0
100
AcDbSpline
 62
9
  6
CONTINUOUS
 70
0
 71
3
 72
26
 73
22
 74
20
 42
0.0000001
 43
0.0000001
 44
0.0000000001
 12
0.0
 22
0.1755330844
 32
0.0
 13
-0.1549203886
 23
0.0825320357
 33
0.0
 40
0.0
 40
0.0
 40
0.0
 40
0.0
 40
0.0636153922
 40
0.1287238985
 40
0.1950376375
 40
0.2622239683
 40
0.3299182828
 40
0.3977343613
 40
0.4652731542
 40
0.532130739
 40
0.5979061502
 40
0.6622098069
 40
0.7246733842
 40
0.7849622069
 40
0.8142046538
 40
0.8428022574
 40
0.8707310172
 40
0.8979733133
 40
0.9245191187
 40
0.9503674097
 40
1.0
 40
1.0
 40
1.0
 40
1.0
 10
5.5834431729
 20
5.5715444499
 30
0.0
 10
5.5834431729
 20
5.5752666519
 30
0.0
 10
5.5831641527
 20
5.5828005283
 30
0.0
 10
5.5819896238
 20
5.594158859
 30
0.0
 10
5.5800963489
 20
5.6056311921
 30
0.0
 10
5.577526701
 20
5.6171253946
 30
0.0
 10
5.5743229426
 20
5.6285501232
 30
0.0
 10
5.5705273011
 20
5.6398135623
 30
0.0
 10
5.5661819976
 20
5.6508238831
 30
0.0
 10
5.5613292366
 20
5.6614892369
 30
0.0
 10
5.5560112075
 20
5.6717178085
 30
0.0
 10
5.5502699158
 20
5.681418074
 30
0.0
 10
5.5441474628
 20
5.690498204
 30
0.0
 10
5.5387076034
 20
5.6975434794
 30
0.0
 10
5.5341913192
 20
5.7027776055
 30
0.0
 10
5.5307689139
 20
5.7064498133
 30
0.0
 10
5.5272823626
 20
5.7098968514
 30
0.0
 10
5.5237369049
 20
5.7131071279
 30
0.0
 10
5.5201372824
 20
5.7160693902
 30
0.0
 10
5.5153392417
 20
5.7196234939
 30
0.0
 10
5.5115760245
 20
5.7219615005
 30
0.0
 10
5.5090129911
 20
5.7233269267
 30
0.0
 11
5.5834431729
 21
5.5715444499
 31
0.0
 11
5.5830462093
 21
5.5827039978
 31
0.0
 11
5.5818836438
 21
5.5940734109
 31
0.0
 11
5.579997965
 21
5.6055599141
 31
0.0
 11
5.5774316609
 21
5.6170707321
 31
0.0
 11
5.57422722
 21
5.6285130896
 31
0.0
 11
5.5704271306
 21
5.6397942116
 31
0.0
 11
5.5660738808
 21
5.6508213228
 31
0.0
 11
5.5612099592
 21
5.6615016479
 31
0.0
 11
5.5558778538
 21
5.6717424118
 31
0.0
 11
5.5501200531
 21
5.6814508392
 31
0.0
 11
5.5439790453
 21
5.690534155
 31
0.0
 11
5.5374973188
 21
5.6988995839
 31
0.0
 11
5.5341419636
 21
5.7027840985
 31
0.0
 11
5.5307173618
 21
5.7064543507
 31
0.0
 11
5.5272288245
 21
5.7098987436
 31
0.0
 11
5.5236816627
 21
5.7131056803
 31
0.0
 11
5.5200811874
 21
5.7160635638
 31
0.0
 11
5.5164327097
 21
5.7187607974
 31
0.0
 11
5.5090129911
 21
5.7233269267
 31
0.0
  0
SPLINE
  5
4C2
100
AcDbEntity
  8
0
100
AcDbSpline
 62
6
  6
CONTINUOUS
 70
0
 71
3
 72
21
 73
17
 74
15
 42
0.0000001
 43
0.0000001
 44
0.0000000001
 12
-0.1782105913
 22
-0.0007349579
 32
0.0
 13
-0.1118138845
 23
-0.1387703508
 33
0.0
 40
0.0
 40
0.0
 40
0.0
 40
0.0
 40
0.0627605279
 40
0.1247405964
 40
0.1554939253
 40
0.1861131676
 40
0.247047888
 40
0.3077664726
 40
0.3684511015
 40
0.4292698352
 40
0.4903725411
 40
0.551874373
 40
0.6138727664
 40
0.7396688163
 40
0.8682947034
 40
1.0
 40
1.0
 40
1.0
 40
1.0
 10
5.5834431729
 20
5.5715444499
 30
0.0
 10
5.579714976
 20
5.5715290744
 30
0.0
 10
5.5723033781
 20
5.571235639
 30
0.0
 10
5.5631154478
 20
5.570208052
 30
0.0
 10
5.5558864384
 20
5.5690011627
 30
0.0
 10
5.5487663956
 20
5.5675476277
 30
0.0
 10
5.5400047184
 20
5.5652667847
 30
0.0
 10
5.5297274935
 20
5.5618205624
 30
0.0
 10
5.5197075969
 20
5.5577046099
 30
0.0
 10
5.5099474378
 20
5.5529552876
 30
0.0
 10
5.5004458128
 20
5.5476097502
 30
0.0
 10
5.4911990738
 20
5.5417042242
 30
0.0
 10
5.4791492706
 20
5.5330855318
 30
0.0
 10
5.4646979782
 20
5.5210176685
 30
0.0
 10
5.4484317014
 20
5.5048119538
 30
0.0
 10
5.4383310993
 20
5.4930812318
 30
0.0
 10
5.4334222723
 20
5.4869889684
 30
0.0
 11
5.5834431729
 21
5.5715444499
 31
0.0
 11
5.5722673447
 21
5.5710994077
 31
0.0
 11
5.5612903619
 21
5.5698701413
 31
0.0
 11
5.5558845909
 21
5.5689674857
 31
0.0
 11
5.5505381038
 21
5.567876218
 31
0.0
 11
5.5400281701
 21
5.5651438571
 31
0.0
 11
5.5297673747
 21
5.5617079429
 31
0.0
 11
5.5197615878
 21
5.5576039528
 31
0.0
 11
5.5100126025
 21
5.5528675737
 31
0.0
 11
5.5005186142
 21
5.547534678
 31
0.0
 11
5.4912776854
 21
5.5416410401
 31
0.0
 11
5.4822874765
 21
5.5352181478
 31
0.0
 11
5.4650476801
 21
5.5208873019
 31
0.0
 11
5.4487729082
 21
5.504744764
 31
0.0
 11
5.4334222723
 21
5.4869889684
 31
0.0
  0
SPLINE
  5
4C3
100
AcDbEntity
  8
0
100
AcDbSpline
 62
9
  6
CONTINUOUS
 70
0
 71
3
 72
29
 73
25
 74
23
 42
0.0000001
 43
0.0000001
 44
0.0000000001
 12
-0.133841144
 22
0.2324282996
 32
0.0
 13
-0.2439105969
 23
0.1115526199
 33
0.0
 40
0.0
 40
0.0
 40
0.0
 40
0.0
 40
0.0749666224
 40
0.1494228045
 40
0.2230945835
 40
0.2957121368
 40
0.3670107096
 40
0.4367318064
 40
0.5046247387
 40
0.5704486599
 40
0.633974761
 40
0.6949881934
 40
0.7244923214
 40
0.7532974126
 40
0.7813834836
 40
0.8087328234
 40
0.8353303656
 40
0.8611641306
 40
0.8862257504
 40
0.9105110909
 40
0.9340209865
 40
0.9567621035
 40
0.9787479444
 40
1.0
 40
1.0
 40
1.0
 40
1.0
 10
5.4334222723
 20
5.4869889684
 30
0.0
 10
5.4300777328
 20
5.4927970899
 30
0.0
 10
5.4233369869
 20
5.5043311419
 30
0.0
 10
5.4130335205
 20
5.5214098773
 30
0.0
 10
5.4025824811
 20
5.5381518327
 30
0.0
 10
5.3920067145
 20
5.5544801218
 30
0.0
 10
5.3813290371
 20
5.5703179609
 30
0.0
 10
5.3705722582
 20
5.5855886318
 30
0.0
 10
5.3597591687
 20
5.6002154894
 30
0.0
 10
5.348912512
 20
5.6141220562
 30
0.0
 10
5.3380552152
 20
5.6272315281
 30
0.0
 10
5.3289190661
 20
5.6375412482
 30
0.0
 10
5.321613057
 20
5.6453154586
 30
0.0
 10
5.3162070006
 20
5.6508331082
 30
0.0
 10
5.310816216
 20
5.6560934511
 30
0.0
 10
5.3054436605
 20
5.661086926
 30
0.0
 10
5.3000923246
 20
5.6658039793
 30
0.0
 10
5.2947651696
 20
5.6702350602
 30
0.0
 10
5.2894651408
 20
5.6743706186
 30
0.0
 10
5.2841951509
 20
5.6782011046
 30
0.0
 10
5.2789581028
 20
5.6817169507
 30
0.0
 10
5.2737567851
 20
5.6849086073
 30
0.0
 10
5.2685942205
 20
5.6877663707
 30
0.0
 10
5.265122407
 20
5.6894708617
 30
0.0
 10
5.2633945398
 20
5.6902611026
 30
0.0
 11
5.4334222723
 21
5.4869889684
 31
0.0
 11
5.4232736255
 21
5.5043465877
 31
0.0
 11
5.4129538804
 21
5.5214433171
 31
0.0
 11
5.4024858114
 21
5.5382020876
 31
0.0
 11
5.3918921929
 21
5.5545458307
 31
0.0
 11
5.3811957992
 21
5.5703974776
 31
0.0
 11
5.3704194048
 21
5.5856799595
 31
0.0
 11
5.3595857839
 21
5.6003162076
 31
0.0
 11
5.348717711
 21
5.6142291534
 31
0.0
 11
5.3378382113
 21
5.6273417582
 31
0.0
 11
5.3269713161
 21
5.6395771048
 31
0.0
 11
5.321550184
 21
5.6453417792
 31
0.0
 11
5.3161413094
 21
5.6508583065
 31
0.0
 11
5.310747728
 21
5.6561170758
 31
0.0
 11
5.3053724751
 21
5.6611084764
 31
0.0
 11
5.3000185864
 21
5.6658228973
 31
0.0
 11
5.2946890971
 21
5.6702507277
 31
0.0
 11
5.289387043
 21
5.6743823568
 31
0.0
 11
5.2841154593
 21
5.6782081737
 31
0.0
 11
5.2788773817
 21
5.6817185676
 31
0.0
 11
5.2736758456
 21
5.6849039276
 31
0.0
 11
5.2685138865
 21
5.6877546429
 31
0.0
 11
5.2633945398
 21
5.6902611026
 31
0.0
  0
SPLINE
  5
4C4
100
AcDbEntity
  8
0
100
AcDbSpline
 62
9
  6
CONTINUOUS
 70
0
 71
3
 72
16
 73
12
 74
10
 42
0.0000001
 43
0.0000001
 44
0.0000000001
 12
-0.2480118762
 22
-0.0094947714
 32
0.0
 13
-0.2417978714
 23
-0.0559806289
 33
0.0
 40
0.0
 40
0.0
 40
0.0
 40
0.0
 40
0.106438163
 40
0.2210566262
 40
0.3424108072
 40
0.4690739774
 40
0.5339563882
 40
0.5996308762
 40
0.7326173137
 40
0.8665631821
 40
1.0
 40
1.0
 40
1.0
 40
1.0
 10
5.5090129911
 20
5.7233269267
 30
0.0
 10
5.5002136816
 20
5.722990058
 30
0.0
 10
5.4819461501
 20
5.7220853869
 30
0.0
 10
5.4536869638
 20
5.720081329
 30
0.0
 10
5.4238123042
 20
5.7173006121
 30
0.0
 10
5.3980973594
 20
5.7143004119
 30
0.0
 10
5.3770102642
 20
5.7114369946
 30
0.0
 10
5.3554427344
 20
5.7082364008
 30
0.0
 10
5.3282992354
 20
5.7037003542
 30
0.0
 10
5.2957670332
 20
5.6974564337
 30
0.0
 10
5.2741494527
 20
5.6927510616
 30
0.0
 10
5.2633945398
 20
5.6902611026
 30
0.0
 11
5.5090129911
 21
5.7233269267
 31
0.0
 11
5.4826276461
 21
5.7220286497
 31
0.0
 11
5.4542511069
 21
5.7200196888
 31
0.0
 11
5.4242615032
 21
5.7172272974
 31
0.0
 11
5.3930369643
 21
5.713578729
 31
0.0
 11
5.3770798427
 21
5.7114131711
 31
0.0
 11
5.3609562838
 21
5.7090214455
 31
0.0
 11
5.3284009108
 21
5.7035837432
 31
0.0
 11
5.2957529585
 21
5.6973141273
 31
0.0
 11
5.2633945398
 21
5.6902611026
 31
0.0
  0
SPLINE
  5
4C5
100
AcDbEntity
  8
0
100
AcDbSpline
 62
6
  6
CONTINUOUS
 70
0
 71
3
 72
11
 73
7
 74
5
 42
0.0000001
 43
0.0000001
 44
0.0000000001
 12
-0.0326451801
 22
-0.0404158437
 32
0.0
 13
-0.0272901662
 23
-0.0442085403
 33
0.0
 40
0.0
 40
0.0
 40
0.0
 40
0.0
 40
0.2438839488
 40
0.4919658878
 40
0.7440717045
 40
1.0
 40
1.0
 40
1.0
 40
1.0
 10
5.4334112
 20
5.4870051076
 30
0.0
 10
5.4307573215
 20
5.4837195157
 30
0.0
 10
5.4255210078
 20
5.4769963586
 30
0.0
 10
5.4179437379
 20
5.4665713746
 30
0.0
 10
5.4105807802
 20
5.4557409313
 30
0.0
 10
5.4058531589
 20
5.4483193131
 30
0.0
 10
5.4035250503
 20
5.4445479076
 30
0.0
 11
5.4334112
 21
5.4870051076
 31
0.0
 11
5.4256213202
 21
5.4770120382
 31
0.0
 11
5.4180395498
 21
5.4665892322
 31
0.0
 11
5.410672067
 21
5.455760064
 31
0.0
 11
5.4035250503
 21
5.4445479076
 31
0.0
  0
SPLINE
  5
4C6
100
AcDbEntity
  8
0
100
AcDbSpline
 62
6
  6
CONTINUOUS
 70
0
 71
3
 72
13
 73
9
 74
7
 42
0.0000001
 43
0.0000001
 44
0.0000000001
 12
-0.0501899713
 22
-0.0813663502
 32
0.0
 13
-0.0363608944
 23
-0.0884160705
 33
0.0
 40
0.0
 40
0.0
 40
0.0
 40
0.0
 40
0.1205244169
 40
0.2421113315
 40
0.3648483989
 40
0.4888578211
 40
0.7411691867
 40
1.0
 40
1.0
 40
1.0
 40
1.0
 10
5.4035209155
 20
5.4445534106
 30
0.0
 10
5.4015045432
 20
5.4412845333
 30
0.0
 10
5.3975336091
 20
5.4346685476
 30
0.0
 10
5.3917772149
 20
5.4245659726
 30
0.0
 10
5.3861859044
 20
5.4142445709
 30
0.0
 10
5.3789044244
 20
5.4001048719
 30
0.0
 10
5.370189169
 20
5.3818308866
 30
0.0
 10
5.3637351028
 20
5.3668711937
 30
0.0
 10
5.3605979961
 20
5.3592429259
 30
0.0
 11
5.4035209155
 21
5.4445534106
 31
0.0
 11
5.3975884606
 21
5.4346757679
 31
0.0
 11
5.3918315128
 21
5.4245777249
 31
0.0
 11
5.3862412135
 21
5.4142612445
 31
0.0
 11
5.3808119161
 21
5.4037221132
 31
0.0
 11
5.3704149773
 21
5.3819566674
 31
0.0
 11
5.3605979961
 21
5.3592429259
 31
0.0
  0
SPLINE
  5
4C7
100
AcDbEntity
  8
0
100
AcDbSpline
 62
9
  6
CONTINUOUS
 70
0
 71
3
 72
23
 73
19
 74
17
 42
0.0000001
 43
0.0000001
 44
0.0000000001
 12
-0.2362599891
 22
0.2108720312
 32
0.0
 13
-0.3050583578
 23
0.085001143
 33
0.0
 40
0.0
 40
0.0
 40
0.0
 40
0.0
 40
0.0739524672
 40
0.1471096868
 40
0.2192995814
 40
0.2903530084
 40
0.3601043157
 40
0.4283920287
 40
0.4950597068
 40
0.5599570194
 40
0.6229395349
 40
0.6838654912
 40
0.7426023437
 40
0.7990310871
 40
0.8530499131
 40
0.9045790489
 40
0.9535671837
 40
1.0
 40
1.0
 40
1.0
 40
1.0
 10
5.3605921625
 20
5.3592486307
 30
0.0
 10
5.3547681594
 20
5.3644467997
 30
0.0
 10
5.3431280873
 20
5.3747261943
 30
0.0
 10
5.3255989663
 20
5.3898470918
 30
0.0
 10
5.3081122638
 20
5.404546007
 30
0.0
 10
5.2906989452
 20
5.4187702166
 30
0.0
 10
5.2733899306
 20
5.4324670548
 30
0.0
 10
5.2562161269
 20
5.445583882
 30
0.0
 10
5.2392084099
 20
5.4580680992
 30
0.0
 10
5.2223977466
 20
5.4698670645
 30
0.0
 10
5.2058157731
 20
5.4809277115
 30
0.0
 10
5.1894963293
 20
5.4911986249
 30
0.0
 10
5.1734737751
 20
5.5006280126
 30
0.0
 10
5.1577824016
 20
5.5091640742
 30
0.0
 10
5.1424563532
 20
5.516755047
 30
0.0
 10
5.1275290406
 20
5.5233493051
 30
0.0
 10
5.1130346579
 20
5.5288947863
 30
0.0
 10
5.1034246528
 20
5.5319393803
 30
0.0
 10
5.0987030799
 20
5.5332549945
 30
0.0
 11
5.3605921625
 21
5.3592486307
 31
0.0
 11
5.3430351554
 21
5.3747473807
 31
0.0
 11
5.3254894337
 21
5.3898759993
 31
0.0
 11
5.3079859534
 21
5.404581633
 31
0.0
 11
5.2905556708
 21
5.4188114279
 31
0.0
 11
5.2732295419
 21
5.4325125305
 31
0.0
 11
5.2560385228
 21
5.445632087
 31
0.0
 11
5.2390135696
 21
5.4581172439
 31
0.0
 11
5.2221856384
 21
5.4699151473
 31
0.0
 11
5.2055863366
 21
5.4809730223
 31
0.0
 11
5.1892498758
 21
5.4912384074
 31
0.0
 11
5.1732111186
 21
5.5006589198
 31
0.0
 11
5.1575049278
 21
5.5091821769
 31
0.0
 11
5.1421661659
 21
5.5167557957
 31
0.0
 11
5.1272296955
 21
5.5233273934
 31
0.0
 11
5.1127303793
 21
5.5288445873
 31
0.0
 11
5.0987030799
 21
5.5332549945
 31
0.0
  0
SPLINE
  5
4C8
100
AcDbEntity
  8
0
100
AcDbSpline
 62
9
  6
CONTINUOUS
 70
0
 71
3
 72
22
 73
18
 74
16
 42
0.0000001
 43
0.0000001
 44
0.0000000001
 12
-0.2297891176
 22
-0.0532003828
 32
0.0
 13
-0.0933772778
 23
-0.2165964064
 33
0.0
 40
0.0
 40
0.0
 40
0.0
 40
0.0
 40
0.104632533
 40
0.1592111009
 40
0.2152812537
 40
0.2728496798
 40
0.3319295234
 40
0.3925431784
 40
0.4547247139
 40
0.5184993109
 40
0.583798772
 40
0.6505078446
 40
0.7184905722
 40
0.7875957702
 40
0.8576616972
 40
0.9285201272
 40
1.0
 40
1.0
 40
1.0
 40
1.0
 10
5.2633945398
 20
5.6902611026
 30
0.0
 10
5.2553800674
 20
5.6884056056
 30
0.0
 10
5.243377242
 20
5.6846684799
 30
0.0
 10
5.2277928273
 20
5.6780457786
 30
0.0
 10
5.2159788697
 20
5.6720770035
 30
0.0
 10
5.2042723139
 20
5.6651773261
 30
0.0
 10
5.1927334277
 20
5.6573446863
 30
0.0
 10
5.181424797
 20
5.6485778825
 30
0.0
 10
5.1704098413
 20
5.638876284
 30
0.0
 10
5.1597591438
 20
5.6282485427
 30
0.0
 10
5.149506324
 20
5.6167563519
 30
0.0
 10
5.139690183
 20
5.6044634973
 30
0.0
 10
5.130350842
 20
5.5914352985
 30
0.0
 10
5.1215285962
 20
5.5777370089
 30
0.0
 10
5.1132637953
 20
5.5634337982
 30
0.0
 10
5.1055971091
 20
5.5485913997
 30
0.0
 10
5.1009279452
 20
5.5384157557
 30
0.0
 10
5.0987030799
 20
5.5332549945
 30
0.0
 11
5.2633945398
 21
5.6902611026
 31
0.0
 11
5.239809888
 21
5.6829922692
 31
0.0
 11
5.2279589696
 21
5.6779646075
 31
0.0
 11
5.2161519333
 21
5.6720066402
 31
0.0
 11
5.2044509868
 21
5.6651172606
 31
0.0
 11
5.1929183378
 21
5.657295362
 31
0.0
 11
5.181616194
 21
5.6485398377
 31
0.0
 11
5.1706067633
 21
5.638849581
 31
0.0
 11
5.1599486774
 21
5.6282346388
 31
0.0
 11
5.1496862649
 21
5.6167496723
 31
0.0
 11
5.1398602785
 21
5.6044604964
 31
0.0
 11
5.1305114707
 21
5.5914329258
 31
0.0
 11
5.1216805944
 21
5.5777327756
 31
0.0
 11
5.113408402
 21
5.5634258603
 31
0.0
 11
5.1057356463
 21
5.548577995
 31
0.0
 11
5.0987030799
 21
5.5332549945
 31
0.0
  0
SPLINE
  5
4C9
100
AcDbEntity
  8
0
100
AcDbSpline
 62
6
  6
CONTINUOUS
 70
0
 71
3
 72
16
 73
12
 74
10
 42
0.0000001
 43
0.0000001
 44
0.0000000001
 12
-0.2752923614
 22
0.0177133465
 32
0.0
 13
-0.2757905273
 23
0.0062635413
 33
0.0
 40
0.0
 40
0.0
 40
0.0
 40
0.0
 40
0.0509540332
 40
0.1046834608
 40
0.2194290071
 40
0.3421572521
 40
0.4707878525
 40
0.6031976911
 40
0.7370935668
 40
0.8701396086
 40
1.0
 40
1.0
 40
1.0
 40
1.0
 10
5.3048204115
 20
5.1474591369
 30
0.0
 10
5.3001446595
 20
5.1477599923
 30
0.0
 10
5.2905371542
 20
5.1483577049
 30
0.0
 10
5.2703942914
 20
5.1495374597
 30
0.0
 10
5.2436552378
 20
5.1509708532
 30
0.0
 10
5.2100293314
 20
5.1525898306
 30
0.0
 10
5.1747730594
 20
5.1541129999
 30
0.0
 10
5.1384838976
 20
5.155510238
 30
0.0
 10
5.1017831689
 20
5.1567617561
 30
0.0
 10
5.0653116871
 20
5.1578469234
 30
0.0
 10
5.0411440089
 20
5.1584569032
 30
0.0
 10
5.0292059203
 20
5.1587280318
 30
0.0
 11
5.3048204115
 21
5.1474591369
 31
0.0
 11
5.290791375
 21
5.1483335934
 31
0.0
 11
5.2759949264
 21
5.1492016258
 31
0.0
 11
5.2443868329
 21
5.15090383
 31
0.0
 11
5.2105702106
 21
5.1525365723
 31
0.0
 11
5.1751191394
 21
5.1540706756
 31
0.0
 11
5.1386194795
 21
5.1554783826
 31
0.0
 11
5.1017042139
 21
5.1567376159
 31
0.0
 11
5.0650181063
 21
5.1578277181
 31
0.0
 11
5.0292059203
 21
5.1587280318
 31
0.0
  0
SPLINE
  5
4CA
100
AcDbEntity
  8
0
100
AcDbSpline
 62
9
  6
CONTINUOUS
 70
0
 71
3
 72
15
 73
11
 74
9
 42
0.0000001
 43
0.0000001
 44
0.0000000001
 12
-0.1519083821
 22
-0.3523641985
 32
0.0
 13
0.0079543772
 23
-0.3836318715
 33
0.0
 40
0.0
 40
0.0
 40
0.0
 40
0.0
 40
0.1193059327
 40
0.2407591601
 40
0.364128099
 40
0.4891510449
 40
0.6155456757
 40
0.7430175072
 40
0.8712676262
 40
1.0
 40
1.0
 40
1.0
 40
1.0
 10
5.0987030799
 20
5.5332549945
 30
0.0
 10
5.0926618895
 20
5.519241948
 30
0.0
 10
5.081344839
 20
5.4905791901
 30
0.0
 10
5.066776526
 20
5.4463179082
 30
0.0
 10
5.0544921295
 20
5.4006113328
 30
0.0
 10
5.0445335078
 20
5.3536976799
 30
0.0
 10
5.0369416823
 20
5.3058126895
 30
0.0
 10
5.0317582876
 20
5.2571924126
 30
0.0
 10
5.029025043
 20
5.2080749296
 30
0.0
 10
5.0288645756
 20
5.1751891686
 30
0.0
 10
5.0292059042
 20
5.1587272214
 30
0.0
 11
5.0987030799
 21
5.5332549945
 31
0.0
 11
5.0818594392
 21
5.4906868745
 31
0.0
 11
5.0672625063
 21
5.4464285287
 31
0.0
 11
5.0549541408
 21
5.4007182341
 31
0.0
 11
5.044976202
 21
5.3537942675
 31
0.0
 11
5.0373705495
 21
5.305894906
 31
0.0
 11
5.0321790427
 21
5.2572584266
 31
0.0
 11
5.0294435412
 21
5.208123106
 31
0.0
 11
5.0292059042
 21
5.1587272214
 31
0.0
  0
SPLINE
  5
4CB
100
AcDbEntity
  8
0
100
AcDbSpline
 62
6
  6
CONTINUOUS
 70
0
 71
3
 72
14
 73
10
 74
8
 42
0.0000001
 43
0.0000001
 44
0.0000000001
 12
-0.0493140861
 22
-0.1524129644
 32
0.0
 13
-0.021998063
 23
-0.1586747492
 33
0.0
 40
0.0
 40
0.0
 40
0.0
 40
0.0
 40
0.2404440336
 40
0.3632479889
 40
0.4876766561
 40
0.6136706644
 40
0.7411715528
 40
0.8700344754
 40
1.0
 40
1.0
 40
1.0
 40
1.0
 10
5.3402064589
 20
5.303493272
 30
0.0
 10
5.336254033
 20
5.291277676
 30
0.0
 10
5.3307178237
 20
5.2726788643
 30
0.0
 10
5.3241143508
 20
5.2474880493
 30
0.0
 10
5.3194795672
 20
5.228103358
 30
0.0
 10
5.3152102423
 20
5.2083784491
 30
0.0
 10
5.3113189672
 20
5.1883341489
 30
0.0
 10
5.307821434
 20
5.168002278
 30
0.0
 10
5.305773395
 20
5.1543327698
 30
0.0
 10
5.3048203984
 20
5.1474586875
 30
0.0
 11
5.3402064589
 21
5.303493272
 31
0.0
 11
5.3291954826
 21
5.2665833749
 31
0.0
 11
5.3242048232
 21
5.2475546879
 31
0.0
 11
5.319568334
 21
5.2281689102
 31
0.0
 11
5.3152973864
 21
5.2084426922
 31
0.0
 11
5.3114040914
 21
5.1883925226
 31
0.0
 11
5.3079045881
 21
5.1680484584
 31
0.0
 11
5.3048203984
 21
5.1474586875
 31
0.0
  0
SPLINE
  5
4CC
100
AcDbEntity
  8
0
100
AcDbSpline
 62
9
  6
CONTINUOUS
 70
0
 71
3
 72
10
 73
6
 74
4
 42
0.0000001
 43
0.0000001
 44
0.0000000001
 12
-0.0129335173
 22
0.006890181
 32
0.0
 13
-0.0143015908
 23
0.0031960857
 33
0.0
 40
0.0
 40
0.0
 40
0.0
 40
0.0
 40
0.5099167038
 40
0.7571077966
 40
1.0
 40
1.0
 40
1.0
 40
1.0
 10
5.5090129911
 20
5.7233269267
 30
0.0
 10
5.5068146523
 20
5.7244980662
 30
0.0
 10
5.5034447142
 20
5.7260532639
 30
0.0
 10
5.4988212106
 20
5.7276382823
 30
0.0
 10
5.4965040236
 20
5.7282505353
 30
0.0
 10
5.4953461087
 20
5.7285093034
 30
0.0
 11
5.5090129911
 21
5.7233269267
 31
0.0
 11
5.5022160848
 21
5.7264318286
 31
0.0
 11
5.4987882875
 21
5.7276032368
 31
0.0
 11
5.4953461087
 21
5.7285093034
 31
0.0
  0
SPLINE
  5
4CD
100
AcDbEntity
  8
0
100
AcDbSpline
 62
9
  6
CONTINUOUS
 70
0
 71
3
 72
9
 73
5
 74
3
 42
0.0000001
 43
0.0000001
 44
0.0000000001
 12
-0.009185949
 22
0.0020528542
 32
0.0
 13
-0.0094125379
 23
0.0
 33
0.0
 40
0.0
 40
0.0
 40
0.0
 40
0.0
 40
0.5025924168
 40
1.0
 40
1.0
 40
1.0
 40
1.0
 10
5.4953461087
 20
5.7285093034
 30
0.0
 10
5.4938071792
 20
5.7288532198
 30
0.0
 10
5.4907077295
 20
5.7293812985
 30
0.0
 10
5.4875678217
 20
5.7295639035
 30
0.0
 10
5.4860071991
 20
5.7295639035
 30
0.0
 11
5.4953461087
 21
5.7285093034
 31
0.0
 11
5.4906814397
 21
5.7292967701
 31
0.0
 11
5.4860071991
 21
5.7295639035
 31
0.0
  0
LINE
  5
4CE
100
AcDbEntity
  8
0
100
AcDbLine
 62
9
  6
CONTINUOUS
 10
5.4971010074
 20
5.7299732037
 11
5.4957698214
 21
5.7299277935
  0
SPLINE
  5
4CF
100
AcDbEntity
  8
0
100
AcDbSpline
 62
9
  6
CONTINUOUS
 70
0
 71
3
 72
11
 73
7
 74
5
 42
0.0000001
 43
0.0000001
 44
0.0000000001
 12
-0.0275266978
 22
0.0125893475
 32
0.0
 13
-0.0302689736
 23
0.0
 33
0.0
 40
0.0
 40
0.0
 40
0.0
 40
0.0
 40
0.2715449169
 40
0.527832589
 40
0.7700206389
 40
1.0
 40
1.0
 40
1.0
 40
1.0
 10
5.2633945398
 20
5.6902611026
 30
0.0
 10
5.2609029616
 20
5.691400627
 30
0.0
 10
5.2559712065
 20
5.6934302238
 30
0.0
 10
5.2485346603
 20
5.6957218396
 30
0.0
 10
5.2413071324
 20
5.6971359898
 30
0.0
 10
5.2365389236
 20
5.6974753045
 30
0.0
 10
5.2342185105
 20
5.6974753045
 30
0.0
 11
5.2633945398
 21
5.6902611026
 31
0.0
 11
5.255784761
 21
5.6933674785
 31
0.0
 11
5.2483636882
 21
5.6956274541
 31
0.0
 11
5.2411640339
 21
5.6970078044
 31
0.0
 11
5.2342185105
 21
5.6974753045
 31
0.0
  0
LINE
  5
4D0
100
AcDbEntity
  8
0
100
AcDbLine
 62
9
  6
CONTINUOUS
 10
5.4860071991
 20
5.7295639035
 11
5.4843907816
 21
5.729498486
  0
SPLINE
  5
4D1
100
AcDbEntity
  8
0
100
AcDbSpline
 62
9
  6
CONTINUOUS
 70
0
 71
3
 72
16
 73
12
 74
10
 42
0.0000001
 43
0.0000001
 44
0.0000000001
 12
-0.2523052753
 22
-0.0103599432
 32
0.0
 13
-0.2468262724
 23
-0.0533110837
 33
0.0
 40
0.0
 40
0.0
 40
0.0
 40
0.0
 40
0.1049087104
 40
0.2185184019
 40
0.3393381361
 40
0.465894848
 40
0.5308700715
 40
0.596729609
 40
0.7303527478
 40
0.8652728597
 40
1.0
 40
1.0
 40
1.0
 40
1.0
 10
5.4843907816
 20
5.729498486
 30
0.0
 10
5.4755677746
 20
5.7291362032
 30
0.0
 10
5.4571968328
 20
5.7282056749
 30
0.0
 10
5.4287007166
 20
5.7262279374
 30
0.0
 10
5.3984338888
 20
5.7235255599
 30
0.0
 10
5.3723000697
 20
5.7206287036
 30
0.0
 10
5.3508110059
 20
5.7178673955
 30
0.0
 10
5.3287657136
 20
5.7147793864
 30
0.0
 10
5.3009573503
 20
5.7104063124
 30
0.0
 10
5.2675471061
 20
5.7043940933
 30
0.0
 10
5.2453032431
 20
5.6998694545
 30
0.0
 10
5.2342185105
 20
5.6974753045
 30
0.0
 11
5.4843907816
 21
5.729498486
 31
0.0
 11
5.4579331069
 21
5.7281636592
 31
0.0
 11
5.4293133818
 21
5.7261786801
 31
0.0
 11
5.3989253443
 21
5.7234629851
 31
0.0
 11
5.3671627321
 21
5.7199360116
 31
0.0
 11
5.3508889513
 21
5.7178462697
 31
0.0
 11
5.334418901
 21
5.7155401928
 31
0.0
 11
5.3010858187
 21
5.7103015062
 31
0.0
 11
5.2675551377
 21
5.7042648955
 31
0.0
 11
5.2342185105
 21
5.6974753045
 31
0.0
  0
SPLINE
  5
4D2
100
AcDbEntity
  8
0
100
AcDbSpline
 62
9
  6
CONTINUOUS
 70
0
 71
3
 72
14
 73
10
 74
8
 42
0.0000001
 43
0.0000001
 44
0.0000000001
 12
-0.0366200691
 22
0.0102037779
 32
0.0
 13
-0.0380150832
 23
-0.0
 33
0.0
 40
0.0
 40
0.0
 40
0.0
 40
0.0
 40
0.276015026
 40
0.4078317234
 40
0.5353284383
 40
0.6583844464
 40
0.7768971905
 40
0.8907865207
 40
1.0
 40
1.0
 40
1.0
 40
1.0
 10
5.0987030799
 20
5.5332549945
 30
0.0
 10
5.0953338501
 20
5.5341937932
 30
0.0
 10
5.0903203898
 20
5.535461228
 30
0.0
 10
5.0836777006
 20
5.5368399865
 30
0.0
 10
5.0789049849
 20
5.537680228
 30
0.0
 10
5.0742741422
 20
5.5383397779
 30
0.0
 10
5.0697940384
 20
5.5388157757
 30
0.0
 10
5.0654737715
 20
5.5391053671
 30
0.0
 10
5.0626463607
 20
5.5391736794
 30
0.0
 10
5.0612624408
 20
5.5391736794
 30
0.0
 11
5.0987030799
 21
5.5332549945
 31
0.0
 11
5.0885261592
 21
5.5358099418
 31
0.0
 11
5.0836191823
 21
5.5368257792
 31
0.0
 11
5.0788453045
 21
5.5376633616
 31
0.0
 11
5.0742136088
 21
5.538319816
 31
0.0
 11
5.0697331777
 21
5.5387922691
 31
0.0
 11
5.0654130942
 21
5.539077848
 31
0.0
 11
5.0612624408
 21
5.5391736794
 31
0.0
  0
SPLINE
  5
4D3
100
AcDbEntity
  8
0
100
AcDbSpline
 62
9
  6
CONTINUOUS
 70
0
 71
3
 72
25
 73
21
 74
19
 42
0.0000001
 43
0.0000001
 44
0.0000000001
 12
-0.2253321168
 22
-0.0613229086
 32
0.0
 13
-0.0970280827
 23
-0.212416132
 33
0.0
 40
0.0
 40
0.0
 40
0.0
 40
0.0
 40
0.1064287742
 40
0.1617438333
 40
0.2184392951
 40
0.276518765
 40
0.3359926969
 40
0.3662616007
 40
0.3968872518
 40
0.427873806
 40
0.459225073
 40
0.4909361792
 40
0.522996734
 40
0.5881115197
 40
0.6544649182
 40
0.7219296709
 40
0.7903661982
 40
0.8596262697
 40
0.9295562433
 40
1.0
 40
1.0
 40
1.0
 40
1.0
 10
5.2250688757
 20
5.6952417253
 30
0.0
 10
5.2170749353
 20
5.6930662179
 30
0.0
 10
5.2051355812
 20
5.6889273228
 30
0.0
 10
5.1896495005
 20
5.6818893684
 30
0.0
 10
5.1779471661
 20
5.6756762577
 30
0.0
 10
5.1663677601
 20
5.6685974851
 30
0.0
 10
5.1569210961
 20
5.6620141085
 30
0.0
 10
5.1494780794
 20
5.6563206981
 30
0.0
 10
5.1439277823
 20
5.6518079753
 30
0.0
 10
5.1384496359
 20
5.6470780578
 30
0.0
 10
5.1330516237
 20
5.6421309584
 30
0.0
 10
5.1277382273
 20
5.6369723613
 30
0.0
 10
5.1207363331
 20
5.6297853711
 30
0.0
 10
5.1122272093
 20
5.6203091511
 30
0.0
 10
5.1024785508
 20
5.6082694574
 30
0.0
 10
5.0931752909
 20
5.5955606619
 30
0.0
 10
5.0843537202
 20
5.5822411361
 30
0.0
 10
5.0760498859
 20
5.5683688119
 30
0.0
 10
5.0683001891
 20
5.5540022068
 30
0.0
 10
5.0635407817
 20
5.5441614761
 30
0.0
 10
5.0612624408
 20
5.5391736794
 30
0.0
 11
5.2250688757
 21
5.6952417253
 31
0.0
 11
5.2015671956
 21
5.6871550533
 31
0.0
 11
5.1898045469
 21
5.6818161335
 31
0.0
 11
5.178108133
 21
5.6756120976
 31
0.0
 11
5.1665335344
 21
5.6685419001
 31
0.0
 11
5.1551363316
 21
5.6606044959
 31
0.0
 11
5.1495216225
 21
5.6563102646
 31
0.0
 11
5.1439721051
 21
5.6517988397
 31
0.0
 11
5.1384947269
 21
5.6470700904
 31
0.0
 11
5.1330962419
 21
5.6421244885
 31
0.0
 11
5.1277819066
 21
5.636967165
 31
0.0
 11
5.1225562796
 21
5.6316054231
 31
0.0
 11
5.1123893688
 21
5.620297945
 31
0.0
 11
5.1026319462
 21
5.608260577
 31
0.0
 11
5.0933204485
 21
5.5955518416
 31
0.0
 11
5.0844913123
 21
5.5822302615
 31
0.0
 11
5.0761809745
 21
5.5683543594
 31
0.0
 11
5.0684258718
 21
5.5539826578
 31
0.0
 11
5.0612624408
 21
5.5391736794
 31
0.0
  0
SPLINE
  5
4D4
100
AcDbEntity
  8
0
100
AcDbSpline
 62
9
  6
CONTINUOUS
 70
0
 71
3
 72
13
 73
9
 74
7
 42
0.0000001
 43
0.0000001
 44
0.0000000001
 12
-0.0471421778
 22
0.0010706373
 32
0.0
 13
-0.0471543338
 23
0.0
 33
0.0
 40
0.0
 40
0.0
 40
0.0
 40
0.0
 40
0.1767626777
 40
0.328995834
 40
0.4619486774
 40
0.5808698962
 40
0.7949593578
 40
1.0
 40
1.0
 40
1.0
 40
1.0
 10
5.029205914
 20
5.158727588
 30
0.0
 10
5.0264282548
 20
5.1587906709
 30
0.0
 10
5.0212582551
 20
5.1589021022
 30
0.0
 10
5.0139985597
 20
5.1590381615
 30
0.0
 10
5.0076475394
 20
5.1591384705
 30
0.0
 10
5.0003240908
 20
5.1592338499
 30
0.0
 10
4.9918673312
 20
5.1593191225
 30
0.0
 10
4.9852793735
 20
5.1593417637
 30
0.0
 10
4.9820565218
 20
5.1593417637
 30
0.0
 11
5.029205914
 21
5.158727588
 31
0.0
 11
5.0208727019
 21
5.1589062157
 31
0.0
 11
5.0136954971
 21
5.1590400769
 31
0.0
 11
5.0074269732
 21
5.1591388985
 31
0.0
 11
5.0018198042
 21
5.1592124072
 31
0.0
 11
4.9917250216
 21
5.1593091328
 31
0.0
 11
4.9820565218
 21
5.1593417637
 31
0.0
  0
SPLINE
  5
4D5
100
AcDbEntity
  8
0
100
AcDbSpline
 62
9
  6
CONTINUOUS
 70
0
 71
3
 72
15
 73
11
 74
9
 42
0.0000001
 43
0.0000001
 44
0.0000000001
 12
-0.162397684
 22
-0.3555247811
 32
0.0
 13
-0.0
 23
-0.3908591533
 33
0.0
 40
0.0
 40
0.0
 40
0.0
 40
0.0
 40
0.1197519177
 40
0.2415251265
 40
0.3650850999
 40
0.4901691267
 40
0.6164955804
 40
0.7437722371
 40
0.8717039542
 40
1.0
 40
1.0
 40
1.0
 40
1.0
 10
5.0612624408
 20
5.5391736794
 30
0.0
 10
5.0547799628
 20
5.5249820879
 30
0.0
 10
5.0425821799
 20
5.4959511352
 30
0.0
 10
5.0267102607
 20
5.4510865549
 30
0.0
 10
5.0131443944
 20
5.4047470817
 30
0.0
 10
5.00193395
 20
5.3571740771
 30
0.0
 10
4.9931273944
 20
5.3086064299
 30
0.0
 10
4.986773812
 20
5.2592832856
 30
0.0
 10
4.9829224176
 20
5.2094458918
 30
0.0
 10
4.9820565218
 20
5.1760566238
 30
0.0
 10
4.9820565218
 20
5.1593413959
 30
0.0
 11
5.0612624408
 21
5.5391736794
 31
0.0
 11
5.043101583
 21
5.4960344009
 31
0.0
 11
5.0272020578
 21
5.4511723812
 31
0.0
 11
5.0136132158
 21
5.4048290257
 31
0.0
 11
5.0023844074
 21
5.3572457396
 31
0.0
 11
4.9935649833
 21
5.3086639282
 31
0.0
 11
4.987204294
 21
5.2593249969
 31
0.0
 11
4.98335169
 21
5.209470351
 31
0.0
 11
4.9820565218
 21
5.1593413959
 31
0.0
  0
SPLINE
  5
4D6
100
AcDbEntity
  8
0
100
AcDbSpline
 62
9
  6
CONTINUOUS
 70
0
 71
3
 72
9
 73
5
 74
3
 42
0.0000001
 43
0.0000001
 44
0.0000000001
 12
-0.0084361391
 22
0.0
 32
0.0
 13
-0.0082979649
 23
-0.0015205986
 33
0.0
 40
0.0
 40
0.0
 40
0.0
 40
0.0
 40
0.5055298957
 40
1.0
 40
1.0
 40
1.0
 40
1.0
 10
5.2342185105
 20
5.6974753045
 30
0.0
 10
5.232796937
 20
5.6974753045
 30
0.0
 10
5.2299833604
 20
5.6973527057
 30
0.0
 10
5.2271922531
 20
5.6969751404
 30
0.0
 10
5.2258245545
 20
5.6967245102
 30
0.0
 11
5.2342185105
 21
5.6974753045
 31
0.0
 11
5.2299579851
 21
5.6972861904
 31
0.0
 11
5.2258245545
 21
5.6967245102
 31
0.0
  0
SPLINE
  5
4D7
100
AcDbEntity
  8
0
100
AcDbSpline
 62
9
  6
CONTINUOUS
 70
0
 71
3
 72
14
 73
10
 74
8
 42
0.0000001
 43
0.0000001
 44
0.0000000001
 12
-0.0270417186
 22
0.0
 32
0.0
 13
-0.0230606041
 23
-0.01412314
 33
0.0
 40
0.0
 40
0.0
 40
0.0
 40
0.0
 40
0.1469211095
 40
0.2872605023
 40
0.4211079167
 40
0.5486010355
 40
0.6699376899
 40
0.7853905164
 40
1.0
 40
1.0
 40
1.0
 40
1.0
 10
5.0612624408
 20
5.5391736794
 30
0.0
 10
5.0599381077
 20
5.5391736794
 30
0.0
 10
5.057348238
 20
5.5391137716
 30
0.0
 10
5.0535611521
 20
5.5388323249
 30
0.0
 10
5.0499687519
 20
5.5383641339
 30
0.0
 10
5.0465793497
 20
5.5377120385
 30
0.0
 10
5.0434000592
 20
5.5368783412
 30
0.0
 10
5.0395485207
 20
5.5355614291
 30
0.0
 10
5.0368476171
 20
5.5342653144
 30
0.0
 10
5.0351979424
 20
5.5332549945
 30
0.0
 11
5.0612624408
 21
5.5391736794
 31
0.0
 11
5.0572905975
 21
5.539077848
 31
0.0
 11
5.0535063394
 21
5.5387922691
 31
0.0
 11
5.0499178427
 21
5.538319816
 31
0.0
 11
5.0465332834
 21
5.5376633616
 31
0.0
 11
5.0433608377
 21
5.5368257792
 31
0.0
 11
5.0404086816
 21
5.5358099418
 31
0.0
 11
5.0351979424
 21
5.5332549945
 31
0.0
  0
SPLINE
  5
4D8
100
AcDbEntity
  8
0
100
AcDbSpline
 62
9
  6
CONTINUOUS
 70
0
 71
3
 72
15
 73
11
 74
9
 42
0.0000001
 43
0.0000001
 44
0.0000000001
 12
-0.0288801533
 22
0.0
 32
0.0
 13
-0.0288094801
 23
-0.002019185
 33
0.0
 40
0.0
 40
0.0
 40
0.0
 40
0.0
 40
0.159761748
 40
0.3011532747
 40
0.4297259525
 40
0.5510312439
 40
0.6694531834
 40
0.784711038
 40
0.895367016
 40
1.0
 40
1.0
 40
1.0
 40
1.0
 10
4.9820565218
 20
5.1593417039
 30
0.0
 10
4.9805185406
 20
5.1593417039
 30
0.0
 10
4.9776194185
 20
5.1593372354
 30
0.0
 10
4.9734826228
 20
5.1593133509
 30
0.0
 10
4.9697161823
 20
5.1592727654
 30
0.0
 10
4.9661711097
 20
5.1592156402
 30
0.0
 10
4.9627544983
 20
5.1591441241
 30
0.0
 10
4.9594410083
 20
5.159048085
 30
0.0
 10
4.9562615091
 20
5.1589177554
 30
0.0
 10
4.9541922748
 20
5.1587979528
 30
0.0
 10
4.9531874675
 20
5.1587275284
 30
0.0
 11
4.9820565218
 21
5.1593417039
 31
0.0
 11
4.9774425853
 21
5.1593335097
 31
0.0
 11
4.9733592495
 21
5.159309073
 31
0.0
 11
4.9696462713
 21
5.1592686126
 31
0.0
 11
4.9661434077
 21
5.1592123475
 31
0.0
 11
4.962724154
 21
5.1591388387
 31
0.0
 11
4.9593969568
 21
5.1590400172
 31
0.0
 11
4.9562039999
 21
5.158906156
 31
0.0
 11
4.9531874675
 21
5.1587275284
 31
0.0
  0
SPLINE
  5
4D9
100
AcDbEntity
  8
0
100
AcDbSpline
 62
9
  6
CONTINUOUS
 70
0
 71
3
 72
15
 73
11
 74
9
 42
0.0000001
 43
0.0000001
 44
0.0000000001
 12
0.1651600325
 22
-0.3492699123
 32
0.0
 13
0.0015378353
 23
-0.3863482148
 33
0.0
 40
0.0
 40
0.0
 40
0.0
 40
0.0
 40
0.1202169548
 40
0.2423069719
 40
0.3660392554
 40
0.4911579846
 40
0.6173915223
 40
0.7444607966
 40
0.87208716
 40
1.0
 40
1.0
 40
1.0
 40
1.0
 10
6.8854795648
 20
5.5332549945
 30
0.0
 10
6.8920979102
 20
5.5192589394
 30
0.0
 10
6.9045709808
 20
5.4906309248
 30
0.0
 10
6.9208610486
 20
5.4463694672
 30
0.0
 10
6.9348338298
 20
5.4006617817
 30
0.0
 10
6.946431722
 20
5.3537461339
 30
0.0
 10
6.9555980638
 20
5.3058583193
 30
0.0
 10
6.9622755642
 20
5.2572343133
 30
0.0
 10
6.9664067774
 20
5.2081123141
 30
0.0
 10
6.9674244737
 20
5.1752001872
 30
0.0
 10
6.9674900433
 20
5.1587272214
 30
0.0
 11
6.8854795648
 21
5.5332549945
 31
0.0
 11
6.9040586834
 21
5.4906868745
 31
0.0
 11
6.9203734983
 21
5.4464285287
 31
0.0
 11
6.9343664743
 21
5.4007182341
 31
0.0
 11
6.9459800764
 21
5.3537942675
 31
0.0
 11
6.9551567695
 21
5.305894906
 31
0.0
 11
6.9618390184
 21
5.2572584266
 31
0.0
 11
6.965969288
 21
5.208123106
 31
0.0
 11
6.9674900433
 21
5.1587272214
 31
0.0
  0
LINE
  5
4DA
100
AcDbEntity
  8
0
100
AcDbLine
 62
9
  6
CONTINUOUS
 10
6.4235764998
 20
5.7299732037
 11
6.4249057307
 21
5.729927861
  0
LINE
  5
4DB
100
AcDbEntity
  8
0
100
AcDbLine
 62
9
  6
CONTINUOUS
 10
6.4346703081
 20
5.7295639035
 11
6.4362867308
 21
5.7294984858
  0
SPLINE
  5
4DC
100
AcDbEntity
  8
0
100
AcDbSpline
 62
9
  6
CONTINUOUS
 70
0
 71
3
 72
16
 73
12
 74
10
 42
0.0000001
 43
0.0000001
 44
0.0000000001
 12
0.2523052701
 22
-0.0103599439
 32
0.0
 13
0.2468262673
 23
-0.0533110826
 33
0.0
 40
0.0
 40
0.0
 40
0.0
 40
0.0
 40
0.1049087117
 40
0.218518404
 40
0.3393381384
 40
0.4658948502
 40
0.5308700736
 40
0.5967296109
 40
0.7303527491
 40
0.8652728604
 40
1.0
 40
1.0
 40
1.0
 40
1.0
 10
6.4362867308
 20
5.7294984858
 30
0.0
 10
6.4451097377
 20
5.729136203
 30
0.0
 10
6.4634806793
 20
5.7282056746
 30
0.0
 10
6.4919767951
 20
5.726227937
 30
0.0
 10
6.5222436224
 20
5.7235255595
 30
0.0
 10
6.5483774409
 20
5.7206287032
 30
0.0
 10
6.5698665043
 20
5.7178673951
 30
0.0
 10
6.591911796
 20
5.714779386
 30
0.0
 10
6.6197201586
 20
5.7104063121
 30
0.0
 10
6.653130402
 20
5.7043940931
 30
0.0
 10
6.6753742644
 20
5.6998694544
 30
0.0
 10
6.6864589967
 20
5.6974753045
 30
0.0
 11
6.4362867308
 21
5.7294984858
 31
0.0
 11
6.4627444053
 21
5.7281636589
 31
0.0
 11
6.4913641299
 21
5.7261786797
 31
0.0
 11
6.5217521669
 21
5.7234629847
 31
0.0
 11
6.5535147784
 21
5.7199360112
 31
0.0
 11
6.5697885589
 21
5.7178462693
 31
0.0
 11
6.5862586087
 21
5.7155401925
 31
0.0
 11
6.6195916902
 21
5.7103015059
 31
0.0
 11
6.6531223703
 21
5.7042648953
 31
0.0
 11
6.6864589967
 21
5.6974753045
 31
0.0
  0
SPLINE
  5
4DD
100
AcDbEntity
  8
0
100
AcDbSpline
 62
9
  6
CONTINUOUS
 70
0
 71
3
 72
14
 73
10
 74
8
 42
0.0000001
 43
0.0000001
 44
0.0000000001
 12
-0.0230606041
 22
0.01412314
 32
0.0
 13
-0.0270417186
 23
-0.0
 33
0.0
 40
0.0
 40
0.0
 40
0.0
 40
0.0
 40
0.2146094836
 40
0.3300623101
 40
0.4513989645
 40
0.5788920833
 40
0.7127394977
 40
0.8530788905
 40
1.0
 40
1.0
 40
1.0
 40
1.0
 10
6.8854795648
 20
5.5332549945
 30
0.0
 10
6.8838298901
 20
5.5342653144
 30
0.0
 10
6.8811289865
 20
5.5355614291
 30
0.0
 10
6.877277448
 20
5.5368783412
 30
0.0
 10
6.8740981575
 20
5.5377120385
 30
0.0
 10
6.8707087553
 20
5.5383641339
 30
0.0
 10
6.8671163551
 20
5.5388323249
 30
0.0
 10
6.8633292692
 20
5.5391137716
 30
0.0
 10
6.8607393995
 20
5.5391736794
 30
0.0
 10
6.8594150664
 20
5.5391736794
 30
0.0
 11
6.8854795648
 21
5.5332549945
 31
0.0
 11
6.8802688256
 21
5.5358099418
 31
0.0
 11
6.8773166695
 21
5.5368257792
 31
0.0
 11
6.8741442238
 21
5.5376633616
 31
0.0
 11
6.8707596645
 21
5.538319816
 31
0.0
 11
6.8671711678
 21
5.5387922691
 31
0.0
 11
6.8633869097
 21
5.539077848
 31
0.0
 11
6.8594150664
 21
5.5391736794
 31
0.0
  0
SPLINE
  5
4DE
100
AcDbEntity
  8
0
100
AcDbSpline
 62
9
  6
CONTINUOUS
 70
0
 71
3
 72
25
 73
21
 74
19
 42
0.0000001
 43
0.0000001
 44
0.0000000001
 12
0.2253321606
 22
-0.0613228758
 32
0.0
 13
0.0970280967
 23
-0.2124161626
 33
0.0
 40
0.0
 40
0.0
 40
0.0
 40
0.0
 40
0.1064287701
 40
0.1617438276
 40
0.2184392881
 40
0.2765187569
 40
0.3359926881
 40
0.3662615915
 40
0.3968872424
 40
0.4278737964
 40
0.4592250633
 40
0.4909361694
 40
0.5229967243
 40
0.5881115105
 40
0.6544649099
 40
0.7219296638
 40
0.7903661925
 40
0.8596262658
 40
0.9295562412
 40
1.0
 40
1.0
 40
1.0
 40
1.0
 10
6.695608599
 20
5.6952417341
 30
0.0
 10
6.7036025406
 20
5.693066228
 30
0.0
 10
6.7155418967
 20
5.6889273345
 30
0.0
 10
6.7310279802
 20
5.6818893815
 30
0.0
 10
6.7427303169
 20
5.6756762716
 30
0.0
 10
6.7543097251
 20
5.6685974994
 30
0.0
 10
6.7637563911
 20
5.662014123
 30
0.0
 10
6.7711994094
 20
5.6563207126
 30
0.0
 10
6.7767497077
 20
5.6518079898
 30
0.0
 10
6.7822278553
 20
5.6470780721
 30
0.0
 10
6.7876258686
 20
5.6421309724
 30
0.0
 10
6.7929392662
 20
5.6369723751
 30
0.0
 10
6.7999411619
 20
5.6297853842
 30
0.0
 10
6.8084502876
 20
5.6203091633
 30
0.0
 10
6.8181989482
 20
5.6082694682
 30
0.0
 10
6.82750221
 20
5.595560671
 30
0.0
 10
6.8363237826
 20
5.5822411432
 30
0.0
 10
6.8446276185
 20
5.5683688168
 30
0.0
 10
6.8523773168
 20
5.5540022094
 30
0.0
 10
6.8571367251
 20
5.544161477
 30
0.0
 10
6.8594150664
 20
5.5391736794
 30
0.0
 11
6.695608599
 21
5.6952417341
 31
0.0
 11
6.7191102829
 21
5.6871550653
 31
0.0
 11
6.7308729338
 21
5.6818161466
 31
0.0
 11
6.7425693499
 21
5.6756121114
 31
0.0
 11
6.7541439509
 21
5.6685419145
 31
0.0
 11
6.765541156
 21
5.6606045105
 31
0.0
 11
6.7711558662
 21
5.6563102792
 31
0.0
 11
6.7767053848
 21
5.6517988541
 31
0.0
 11
6.7821827642
 21
5.6470701047
 31
0.0
 11
6.7875812504
 21
5.6421245026
 31
0.0
 11
6.7928955868
 21
5.6369671788
 31
0.0
 11
6.7981212149
 21
5.6316054364
 31
0.0
 11
6.808288128
 21
5.6202979572
 31
0.0
 11
6.8180455527
 21
5.6082605877
 31
0.0
 11
6.8273570524
 21
5.5955518507
 31
0.0
 11
6.8361861904
 21
5.5822302686
 31
0.0
 11
6.8444965299
 21
5.5683543643
 31
0.0
 11
6.8522516341
 21
5.5539826603
 31
0.0
 11
6.8594150664
 21
5.5391736794
 31
0.0
  0
SPLINE
  5
4DF
100
AcDbEntity
  8
0
100
AcDbSpline
 62
9
  6
CONTINUOUS
 70
0
 71
3
 72
17
 73
13
 74
11
 42
0.0000001
 43
0.0000001
 44
0.0000000001
 12
-0.1209755825
 22
-0.0909951067
 32
0.0
 13
-0.0647119438
 23
-0.1368486951
 33
0.0
 40
0.0
 40
0.0
 40
0.0
 40
0.0
 40
0.1157938615
 40
0.1748921542
 40
0.2347749864
 40
0.2954124813
 40
0.3567698992
 40
0.4814715714
 40
0.6085458804
 40
0.7376037154
 40
0.8682307857
 40
1.0
 40
1.0
 40
1.0
 40
1.0
 10
5.1275601461
 20
5.6514002188
 30
0.0
 10
5.1228907361
 20
5.6478879939
 30
0.0
 10
5.1160260592
 20
5.6423266471
 30
0.0
 10
5.1072272898
 20
5.6343918955
 30
0.0
 10
5.1007081941
 20
5.6280926095
 30
0.0
 10
5.0943219249
 20
5.621499409
 30
0.0
 10
5.0859502884
 20
5.612284459
 30
0.0
 10
5.0758756231
 20
5.6000988924
 30
0.0
 10
5.0645115563
 20
5.5845900871
 30
0.0
 10
5.0538713864
 20
5.5682181977
 30
0.0
 10
5.0440201429
 20
5.551087178
 30
0.0
 10
5.0380402897
 20
5.5392658095
 30
0.0
 10
5.0351979424
 20
5.5332549945
 30
0.0
 11
5.1275601461
 21
5.6514002188
 31
0.0
 11
5.1139366696
 21
5.6403705811
 31
0.0
 11
5.107291429
 21
5.6343810405
 31
0.0
 11
5.1007707268
 21
5.6280839546
 31
0.0
 11
5.0943827091
 21
5.6214922732
 31
0.0
 11
5.0881355095
 21
5.6146189839
 31
0.0
 11
5.0760960999
 21
5.6000795337
 31
0.0
 11
5.0647175683
 21
5.5845695068
 31
0.0
 11
5.0540649847
 21
5.5681928061
 31
0.0
 11
5.0442034194
 21
5.5510533344
 31
0.0
 11
5.0351979424
 21
5.5332549945
 31
0.0
  0
SPLINE
  5
4E0
100
AcDbEntity
  8
0
100
AcDbSpline
 62
9
  6
CONTINUOUS
 70
0
 71
3
 72
15
 73
11
 74
9
 42
0.0000001
 43
0.0000001
 44
0.0000000001
 12
-0.0288094795
 22
0.0020191858
 32
0.0
 13
-0.0288801527
 23
0.0
 33
0.0
 40
0.0
 40
0.0
 40
0.0
 40
0.0
 40
0.1046329918
 40
0.2152889767
 40
0.3305468364
 40
0.4489687784
 40
0.5702740673
 40
0.6988467382
 40
0.8402382572
 40
1.0
 40
1.0
 40
1.0
 40
1.0
 10
6.9674900391
 20
5.1587275777
 30
0.0
 10
6.9664852318
 20
5.1587980022
 30
0.0
 10
6.9644159973
 20
5.1589178048
 30
0.0
 10
6.961236498
 20
5.1590481345
 30
0.0
 10
6.957923008
 20
5.1591441736
 30
0.0
 10
6.9545063966
 20
5.1592156896
 30
0.0
 10
6.9509613241
 20
5.1592728148
 30
0.0
 10
6.9471948839
 20
5.1593134003
 30
0.0
 10
6.9430580885
 20
5.1593372848
 30
0.0
 10
6.9401589665
 20
5.1593417534
 30
0.0
 10
6.9386209854
 20
5.1593417534
 30
0.0
 11
6.9674900391
 21
5.1587275777
 31
0.0
 11
6.9644735065
 21
5.1589062054
 31
0.0
 11
6.9612805496
 21
5.1590400666
 31
0.0
 11
6.9579533522
 21
5.1591388882
 31
0.0
 11
6.9545340985
 21
5.1592123969
 31
0.0
 11
6.9510312351
 21
5.1592686621
 31
0.0
 11
6.9473182572
 21
5.1593091224
 31
0.0
 11
6.9432349216
 21
5.1593335592
 31
0.0
 11
6.9386209854
 21
5.1593417534
 31
0.0
  0
SPLINE
  5
4E1
100
AcDbEntity
  8
0
100
AcDbSpline
 62
9
  6
CONTINUOUS
 70
0
 71
3
 72
15
 73
11
 74
9
 42
0.0000001
 43
0.0000001
 44
0.0000000001
 12
0.162397684
 22
-0.3555247811
 32
0.0
 13
0.0
 23
-0.3908591533
 33
0.0
 40
0.0
 40
0.0
 40
0.0
 40
0.0
 40
0.1197519177
 40
0.2415251265
 40
0.3650850999
 40
0.4901691267
 40
0.6164955804
 40
0.7437722371
 40
0.8717039542
 40
1.0
 40
1.0
 40
1.0
 40
1.0
 10
6.8594150664
 20
5.5391736794
 30
0.0
 10
6.8658975444
 20
5.5249820879
 30
0.0
 10
6.8780953273
 20
5.4959511352
 30
0.0
 10
6.8939672465
 20
5.4510865549
 30
0.0
 10
6.9075331128
 20
5.4047470817
 30
0.0
 10
6.9187435572
 20
5.3571740771
 30
0.0
 10
6.9275501128
 20
5.3086064299
 30
0.0
 10
6.9339036952
 20
5.2592832856
 30
0.0
 10
6.9377550896
 20
5.2094458918
 30
0.0
 10
6.9386209854
 20
5.1760566238
 30
0.0
 10
6.9386209854
 20
5.1593413959
 30
0.0
 11
6.8594150664
 21
5.5391736794
 31
0.0
 11
6.8775759242
 21
5.4960344009
 31
0.0
 11
6.8934754494
 21
5.4511723812
 31
0.0
 11
6.9070642914
 21
5.4048290257
 31
0.0
 11
6.9182930998
 21
5.3572457396
 31
0.0
 11
6.9271125239
 21
5.3086639282
 31
0.0
 11
6.9334732132
 21
5.2593249969
 31
0.0
 11
6.9373258172
 21
5.209470351
 31
0.0
 11
6.9386209854
 21
5.1593413959
 31
0.0
  0
SPLINE
  5
4E2
100
AcDbEntity
  8
0
100
AcDbSpline
 62
9
  6
CONTINUOUS
 70
0
 71
3
 72
9
 73
5
 74
3
 42
0.0000001
 43
0.0000001
 44
0.0000000001
 12
-0.009411784
 22
0.0
 32
0.0
 13
-0.0091852468
 23
-0.00205254
 33
0.0
 40
0.0
 40
0.0
 40
0.0
 40
0.0
 40
0.4974079721
 40
1.0
 40
1.0
 40
1.0
 40
1.0
 10
6.4346703081
 20
5.7295639035
 30
0.0
 10
6.4331098093
 20
5.7295639035
 30
0.0
 10
6.4299701533
 20
5.7293813277
 30
0.0
 10
6.4268709459
 20
5.7288533315
 30
0.0
 10
6.4253321353
 20
5.7285094681
 30
0.0
 11
6.4346703081
 21
5.7295639035
 31
0.0
 11
6.429996437
 21
5.7292968121
 31
0.0
 11
6.4253321353
 21
5.7285094681
 31
0.0
  0
SPLINE
  5
4E3
100
AcDbEntity
  8
0
100
AcDbSpline
 62
9
  6
CONTINUOUS
 70
0
 71
3
 72
10
 73
6
 74
4
 42
0.0000001
 43
0.0000001
 44
0.0000000001
 12
-0.0143023786
 22
-0.003196017
 32
0.0
 13
-0.0129341826
 23
-0.0068905354
 33
0.0
 40
0.0
 40
0.0
 40
0.0
 40
0.0
 40
0.2428919598
 40
0.4900829107
 40
1.0
 40
1.0
 40
1.0
 40
1.0
 10
6.4253321353
 20
5.7285094681
 30
0.0
 10
6.4241741577
 20
5.7282507058
 30
0.0
 10
6.4218568445
 20
5.7276384536
 30
0.0
 10
6.4172330881
 20
5.7260533962
 30
0.0
 10
6.4138629697
 20
5.7244981273
 30
0.0
 10
6.4116645161
 20
5.7233269267
 30
0.0
 11
6.4253321353
 21
5.7285094681
 31
0.0
 11
6.4218897703
 21
5.7276034035
 31
0.0
 11
6.4184617878
 21
5.7264319676
 31
0.0
 11
6.4116645161
 21
5.7233269267
 31
0.0
  0
SPLINE
  5
4E4
100
AcDbEntity
  8
0
100
AcDbSpline
 62
9
  6
CONTINUOUS
 70
0
 71
3
 72
11
 73
7
 74
5
 42
0.0000001
 43
0.0000001
 44
0.0000000001
 12
-0.0302689736
 22
0.0
 32
0.0
 13
-0.0275266978
 23
-0.0125893475
 33
0.0
 40
0.0
 40
0.0
 40
0.0
 40
0.0
 40
0.2299793611
 40
0.472167411
 40
0.7284550831
 40
1.0
 40
1.0
 40
1.0
 40
1.0
 10
6.6864589967
 20
5.6974753045
 30
0.0
 10
6.6841385836
 20
5.6974753045
 30
0.0
 10
6.6793703748
 20
5.6971359898
 30
0.0
 10
6.6721428469
 20
5.6957218396
 30
0.0
 10
6.6647063007
 20
5.6934302238
 30
0.0
 10
6.6597745456
 20
5.691400627
 30
0.0
 10
6.6572829674
 20
5.6902611026
 30
0.0
 11
6.6864589967
 21
5.6974753045
 31
0.0
 11
6.6795134733
 21
5.6970078044
 31
0.0
 11
6.672313819
 21
5.6956274541
 31
0.0
 11
6.6648927462
 21
5.6933674785
 31
0.0
 11
6.6572829674
 21
5.6902611026
 31
0.0
  0
SPLINE
  5
4E5
100
AcDbEntity
  8
0
100
AcDbSpline
 62
9
  6
CONTINUOUS
 70
0
 71
3
 72
62
 73
58
 74
56
 42
0.0000001
 43
0.0000001
 44
0.0000000001
 12
0.1796999772
 22
-0.1687552381
 32
0.0
 13
0.0014744898
 23
0.2465121459
 33
0.0
 40
0.0
 40
0.0
 40
0.0
 40
0.0
 40
0.0328261729
 40
0.0652642891
 40
0.081326845
 40
0.0972719663
 40
0.1130873599
 40
0.1287634314
 40
0.1442936591
 40
0.1596690132
 40
0.1748499798
 40
0.1897938633
 40
0.2044713883
 40
0.2188698914
 40
0.2329923796
 40
0.2468393163
 40
0.2604161969
 40
0.2737403527
 40
0.280318786
 40
0.2868474888
 40
0.2998001356
 40
0.3127066812
 40
0.325645391
 40
0.3386641793
 40
0.34521178
 40
0.3517857114
 40
0.365019488
 40
0.378382992
 40
0.4055356826
 40
0.4193384099
 40
0.4332933441
 40
0.4616758568
 40
0.4761097551
 40
0.4907032869
 40
0.5054552221
 40
0.5203661174
 40
0.5506659725
 40
0.5816096783
 40
0.6132014865
 40
0.6292426861
 40
0.6454438874
 40
0.6618036792
 40
0.6783213462
 40
0.7117938076
 40
0.7458269612
 40
0.7804153519
 40
0.7979238964
 40
0.8155776569
 40
0.8333792537
 40
0.851331864
 40
0.8694390338
 40
0.8877020407
 40
0.9061188722
 40
0.9246816722
 40
0.9621815039
 40
0.9810685122
 40
1.0
 40
1.0
 40
1.0
 40
1.0
 10
5.4868355703
 20
5.4538025949
 30
0.0
 10
5.4888018578
 20
5.4519560654
 30
0.0
 10
5.4927944203
 20
5.4483722046
 30
0.0
 10
5.4979808739
 20
5.4441531015
 30
0.0
 10
5.502217525
 20
5.4409749496
 30
0.0
 10
5.5054259457
 20
5.4387048837
 30
0.0
 10
5.5086745705
 20
5.4365495569
 30
0.0
 10
5.5119619517
 20
5.4345177493
 30
0.0
 10
5.5152863664
 20
5.4326188503
 30
0.0
 10
5.5186426734
 20
5.4308626793
 30
0.0
 10
5.5220268609
 20
5.4292702401
 30
0.0
 10
5.5254320049
 20
5.4278663751
 30
0.0
 10
5.5288500745
 20
5.4266762036
 30
0.0
 10
5.5322729136
 20
5.4257250785
 30
0.0
 10
5.5356895585
 20
5.4250394199
 30
0.0
 10
5.5390821769
 20
5.4246272816
 30
0.0
 10
5.5424318499
 20
5.4244966315
 30
0.0
 10
5.5451838126
 20
5.4246300782
 30
0.0
 10
5.5473411741
 20
5.4248873872
 30
0.0
 10
5.5494534534
 20
5.4252438809
 30
0.0
 10
5.5520428115
 20
5.425876766
 30
0.0
 10
5.5550646209
 20
5.4269040379
 30
0.0
 10
5.5580015517
 20
5.4281654137
 30
0.0
 10
5.5603809181
 20
5.429383009
 30
0.0
 10
5.5622499661
 20
5.4304419807
 30
0.0
 10
5.5641063783
 20
5.4315576705
 30
0.0
 10
5.5663903382
 20
5.4330474719
 30
0.0
 10
5.5699769801
 20
5.4356270143
 30
0.0
 10
5.5734329008
 20
5.4384602179
 30
0.0
 10
5.5767679802
 20
5.441500096
 30
0.0
 10
5.5800759732
 20
5.4447164806
 30
0.0
 10
5.5832731988
 20
5.4481173839
 30
0.0
 10
5.5863738576
 20
5.4516731076
 30
0.0
 10
5.5886761565
 20
5.4544377681
 30
0.0
 10
5.590943081
 20
5.4572817514
 30
0.0
 10
5.593931205
 20
5.4611999358
 30
0.0
 10
5.5975662886
 20
5.46629613
 30
0.0
 10
5.6017345674
 20
5.4726876597
 30
0.0
 10
5.6050292446
 20
5.4782432049
 30
0.0
 10
5.6075561682
 20
5.4828402428
 30
0.0
 10
5.6093966486
 20
5.4863850853
 30
0.0
 10
5.6111639294
 20
5.4900106914
 30
0.0
 10
5.6134207978
 20
5.494974276
 30
0.0
 10
5.615995801
 20
5.5013865323
 30
0.0
 10
5.6185540717
 20
5.5093837151
 30
0.0
 10
5.6202401591
 20
5.5162633146
 30
0.0
 10
5.6213325595
 20
5.5218905868
 30
0.0
 10
5.6220290737
 20
5.5261873603
 30
0.0
 10
5.6226052903
 20
5.5305385801
 30
0.0
 10
5.6230700685
 20
5.5349404693
 30
0.0
 10
5.6234376733
 20
5.5393894567
 30
0.0
 10
5.62372103
 20
5.5438827375
 30
0.0
 10
5.6239330058
 20
5.5484173574
 30
0.0
 10
5.6241373223
 20
5.5545342299
 30
0.0
 10
5.6242432898
 20
5.5606924416
 30
0.0
 10
5.624296372
 20
5.5668812697
 30
0.0
 10
5.6243138195
 20
5.5699888553
 30
0.0
 10
5.6243231243
 20
5.5715444692
 30
0.0
 11
5.4868355703
 21
5.4538025949
 31
0.0
 11
5.4928610489
 21
5.4484009999
 31
0.0
 11
5.499067862
 21
5.4433591743
 31
0.0
 11
5.5022361241
 21
5.4409840473
 31
0.0
 11
5.5054458093
 21
5.4387149926
 31
0.0
 11
5.5086954578
 21
5.4365609067
 31
0.0
 11
5.5119836092
 21
5.4345307013
 31
0.0
 11
5.5153088031
 21
5.432633288
 31
0.0
 11
5.5186688312
 21
5.4308793129
 31
0.0
 11
5.5220569356
 21
5.4292899721
 31
0.0
 11
5.5254646481
 21
5.4278904282
 31
0.0
 11
5.5288834973
 21
5.4267058506
 31
0.0
 11
5.532305012
 21
5.425761409
 31
0.0
 11
5.5357190279
 21
5.4250796241
 31
0.0
 11
5.5391080463
 21
5.4246715423
 31
0.0
 11
5.542452583
 21
5.4245451039
 31
0.0
 11
5.5457331539
 21
5.4247082486
 31
0.0
 11
5.5473433633
 21
5.424900896
 31
0.0
 11
5.5489303381
 21
5.4251688258
 31
0.0
 11
5.5520331164
 21
5.4259226714
 31
0.0
 11
5.5550471851
 21
5.4269417198
 31
0.0
 11
5.5579802179
 21
5.4281950777
 31
0.0
 11
5.5608398887
 21
5.4296518517
 31
0.0
 11
5.5622446113
 21
5.4304468656
 31
0.0
 11
5.5636338164
 21
5.4312813704
 31
0.0
 11
5.5663674109
 21
5.4330619198
 31
0.0
 11
5.5690431637
 21
5.434983618
 31
0.0
 11
5.5742303101
 21
5.4392141771
 31
0.0
 11
5.5767462921
 21
5.4415049251
 31
0.0
 11
5.5792138574
 21
5.4439019155
 31
0.0
 11
5.584015318
 21
5.4489911804
 31
0.0
 11
5.5863550413
 21
5.4516719351
 31
0.0
 11
5.5886579119
 21
5.4544358331
 31
0.0
 11
5.5909247446
 21
5.4572794755
 31
0.0
 11
5.5931539987
 21
5.4602021119
 31
0.0
 11
5.5974930818
 21
5.4662819583
 31
0.0
 11
5.6016599888
 21
5.4726714294
 31
0.0
 11
5.6056321657
 21
5.4793701797
 31
0.0
 11
5.6075361277
 21
5.4828360673
 31
0.0
 11
5.6093756565
 21
5.4863810758
 31
0.0
 11
5.6111420079
 21
5.4900066469
 31
0.0
 11
5.6128257032
 21
5.4937141209
 31
0.0
 11
5.6158858674
 21
5.5013772084
 31
0.0
 11
5.6184476296
 21
5.509366266
 31
0.0
 11
5.620484621
 21
5.5176459858
 31
0.0
 11
5.6213083961
 21
5.5218827902
 31
0.0
 11
5.6220063694
 21
5.5261783986
 31
0.0
 11
5.6225845182
 21
5.5305285361
 31
0.0
 11
5.6230520915
 21
5.5349293825
 31
0.0
 11
5.6234222394
 21
5.5393777262
 31
0.0
 11
5.6237080969
 21
5.5438707755
 31
0.0
 11
5.6239224122
 21
5.5484057681
 31
0.0
 11
5.6240772022
 21
5.5529791869
 31
0.0
 11
5.6242519218
 21
5.562221865
 31
0.0
 11
5.6242940446
 21
5.5668776347
 31
0.0
 11
5.6243231243
 21
5.5715444692
 31
0.0
  0
SPLINE
  5
4E6
100
AcDbEntity
  8
0
100
AcDbSpline
 62
9
  6
CONTINUOUS
 70
0
 71
3
 72
16
 73
12
 74
10
 42
0.0000001
 43
0.0000001
 44
0.0000000001
 12
0.2480118762
 22
-0.0094947714
 32
0.0
 13
0.2417978714
 23
-0.0559806289
 33
0.0
 40
0.0
 40
0.0
 40
0.0
 40
0.0
 40
0.106438163
 40
0.2210566262
 40
0.3424108072
 40
0.4690739774
 40
0.5339563882
 40
0.5996308762
 40
0.7326173137
 40
0.8665631821
 40
1.0
 40
1.0
 40
1.0
 40
1.0
 10
6.4116645161
 20
5.7233269267
 30
0.0
 10
6.4204638256
 20
5.722990058
 30
0.0
 10
6.4387313571
 20
5.7220853869
 30
0.0
 10
6.4669905434
 20
5.720081329
 30
0.0
 10
6.496865203
 20
5.7173006121
 30
0.0
 10
6.5225801478
 20
5.7143004119
 30
0.0
 10
6.543667243
 20
5.7114369946
 30
0.0
 10
6.5652347728
 20
5.7082364008
 30
0.0
 10
6.5923782718
 20
5.7037003542
 30
0.0
 10
6.624910474
 20
5.6974564337
 30
0.0
 10
6.6465280545
 20
5.6927510616
 30
0.0
 10
6.6572829674
 20
5.6902611026
 30
0.0
 11
6.4116645161
 21
5.7233269267
 31
0.0
 11
6.4380498611
 21
5.7220286497
 31
0.0
 11
6.4664264003
 21
5.7200196888
 31
0.0
 11
6.496416004
 21
5.7172272974
 31
0.0
 11
6.5276405429
 21
5.713578729
 31
0.0
 11
6.5435976645
 21
5.7114131711
 31
0.0
 11
6.5597212234
 21
5.7090214455
 31
0.0
 11
6.5922765964
 21
5.7035837432
 31
0.0
 11
6.6249245487
 21
5.6973141273
 31
0.0
 11
6.6572829674
 21
5.6902611026
 31
0.0
  0
SPLINE
  5
4E7
100
AcDbEntity
  8
0
100
AcDbSpline
 62
9
  6
CONTINUOUS
 70
0
 71
3
 72
14
 73
10
 74
8
 42
0.0000001
 43
0.0000001
 44
0.0000000001
 12
-0.0380150832
 22
0.0
 32
0.0
 13
-0.0366200691
 23
-0.0102037779
 33
0.0
 40
0.0
 40
0.0
 40
0.0
 40
0.0
 40
0.1092134793
 40
0.2231028095
 40
0.3416155536
 40
0.4646715617
 40
0.5921682766
 40
0.723984974
 40
1.0
 40
1.0
 40
1.0
 40
1.0
 10
6.8594150664
 20
5.5391736794
 30
0.0
 10
6.8580311465
 20
5.5391736794
 30
0.0
 10
6.8552037357
 20
5.5391053671
 30
0.0
 10
6.8508834688
 20
5.5388157757
 30
0.0
 10
6.846403365
 20
5.5383397779
 30
0.0
 10
6.8417725223
 20
5.537680228
 30
0.0
 10
6.8369998066
 20
5.5368399865
 30
0.0
 10
6.8303571174
 20
5.535461228
 30
0.0
 10
6.8253436571
 20
5.5341937932
 30
0.0
 10
6.8219744273
 20
5.5332549945
 30
0.0
 11
6.8594150664
 21
5.5391736794
 31
0.0
 11
6.855264413
 21
5.539077848
 31
0.0
 11
6.8509443295
 21
5.5387922691
 31
0.0
 11
6.8464638984
 21
5.538319816
 31
0.0
 11
6.8418322027
 21
5.5376633616
 31
0.0
 11
6.8370583249
 21
5.5368257792
 31
0.0
 11
6.832151348
 21
5.5358099418
 31
0.0
 11
6.8219744273
 21
5.5332549945
 31
0.0
  0
SPLINE
  5
4E8
100
AcDbEntity
  8
0
100
AcDbSpline
 62
9
  6
CONTINUOUS
 70
0
 71
3
 72
22
 73
18
 74
16
 42
0.0000001
 43
0.0000001
 44
0.0000000001
 12
0.2297891176
 22
-0.0532003828
 32
0.0
 13
0.0933772778
 23
-0.2165964064
 33
0.0
 40
0.0
 40
0.0
 40
0.0
 40
0.0
 40
0.104632533
 40
0.1592111009
 40
0.2152812537
 40
0.2728496798
 40
0.3319295234
 40
0.3925431784
 40
0.4547247139
 40
0.5184993109
 40
0.583798772
 40
0.6505078446
 40
0.7184905722
 40
0.7875957702
 40
0.8576616972
 40
0.9285201272
 40
1.0
 40
1.0
 40
1.0
 40
1.0
 10
6.6572829674
 20
5.6902611026
 30
0.0
 10
6.6652974398
 20
5.6884056056
 30
0.0
 10
6.6773002652
 20
5.6846684799
 30
0.0
 10
6.6928846799
 20
5.6780457786
 30
0.0
 10
6.7046986375
 20
5.6720770035
 30
0.0
 10
6.7164051933
 20
5.6651773261
 30
0.0
 10
6.7279440795
 20
5.6573446863
 30
0.0
 10
6.7392527102
 20
5.6485778825
 30
0.0
 10
6.7502676659
 20
5.638876284
 30
0.0
 10
6.7609183634
 20
5.6282485427
 30
0.0
 10
6.7711711832
 20
5.6167563519
 30
0.0
 10
6.7809873242
 20
5.6044634973
 30
0.0
 10
6.7903266652
 20
5.5914352985
 30
0.0
 10
6.799148911
 20
5.5777370089
 30
0.0
 10
6.8074137119
 20
5.5634337982
 30
0.0
 10
6.8150803981
 20
5.5485913997
 30
0.0
 10
6.819749562
 20
5.5384157557
 30
0.0
 10
6.8219744273
 20
5.5332549945
 30
0.0
 11
6.6572829674
 21
5.6902611026
 31
0.0
 11
6.6808676192
 21
5.6829922692
 31
0.0
 11
6.6927185376
 21
5.6779646075
 31
0.0
 11
6.7045255739
 21
5.6720066402
 31
0.0
 11
6.7162265204
 21
5.6651172606
 31
0.0
 11
6.7277591694
 21
5.657295362
 31
0.0
 11
6.7390613132
 21
5.6485398377
 31
0.0
 11
6.7500707439
 21
5.638849581
 31
0.0
 11
6.7607288298
 21
5.6282346388
 31
0.0
 11
6.7709912423
 21
5.6167496723
 31
0.0
 11
6.7808172287
 21
5.6044604964
 31
0.0
 11
6.7901660365
 21
5.5914329258
 31
0.0
 11
6.7989969128
 21
5.5777327756
 31
0.0
 11
6.8072691052
 21
5.5634258603
 31
0.0
 11
6.8149418609
 21
5.548577995
 31
0.0
 11
6.8219744273
 21
5.5332549945
 31
0.0
  0
SPLINE
  5
4E9
100
AcDbEntity
  8
0
100
AcDbSpline
 62
9
  6
CONTINUOUS
 70
0
 71
3
 72
13
 73
9
 74
7
 42
0.0000001
 43
0.0000001
 44
0.0000000001
 12
-0.047154332
 22
0.0
 32
0.0
 13
-0.0471421761
 23
-0.0010706368
 33
0.0
 40
0.0
 40
0.0
 40
0.0
 40
0.0
 40
0.2050406698
 40
0.4191301617
 40
0.538051388
 40
0.6710042274
 40
0.8232373634
 40
1.0
 40
1.0
 40
1.0
 40
1.0
 10
6.9386209854
 20
5.1593416965
 30
0.0
 10
6.9353981334
 20
5.1593416965
 30
0.0
 10
6.9288101751
 20
5.1593190553
 30
0.0
 10
6.9203534147
 20
5.1592337827
 30
0.0
 10
6.9130299658
 20
5.1591384034
 30
0.0
 10
6.906678946
 20
5.1590380943
 30
0.0
 10
6.899419252
 20
5.1589020352
 30
0.0
 10
6.8942492535
 20
5.1587906039
 30
0.0
 10
6.891471595
 20
5.158727521
 30
0.0
 11
6.9386209854
 21
5.1593416965
 31
0.0
 11
6.9289524846
 21
5.1593090656
 31
0.0
 11
6.918857701
 21
5.1592123401
 31
0.0
 11
6.9132505319
 21
5.1591388313
 31
0.0
 11
6.9069820084
 21
5.1590400098
 31
0.0
 11
6.8998048048
 21
5.1589061487
 31
0.0
 11
6.891471595
 21
5.158727521
 31
0.0
  0
SPLINE
  5
4EA
100
AcDbEntity
  8
0
100
AcDbSpline
 62
9
  6
CONTINUOUS
 70
0
 71
3
 72
15
 73
11
 74
9
 42
0.0000001
 43
0.0000001
 44
0.0000000001
 12
0.1519083821
 22
-0.3523641985
 32
0.0
 13
-0.0079543772
 23
-0.3836318715
 33
0.0
 40
0.0
 40
0.0
 40
0.0
 40
0.0
 40
0.1193059327
 40
0.2407591601
 40
0.364128099
 40
0.4891510449
 40
0.6155456757
 40
0.7430175072
 40
0.8712676262
 40
1.0
 40
1.0
 40
1.0
 40
1.0
 10
6.8219744273
 20
5.5332549945
 30
0.0
 10
6.8280156177
 20
5.519241948
 30
0.0
 10
6.8393326682
 20
5.4905791901
 30
0.0
 10
6.8539009812
 20
5.4463179082
 30
0.0
 10
6.8661853777
 20
5.4006113328
 30
0.0
 10
6.8761439994
 20
5.3536976799
 30
0.0
 10
6.8837358249
 20
5.3058126895
 30
0.0
 10
6.8889192196
 20
5.2571924126
 30
0.0
 10
6.8916524642
 20
5.2080749296
 30
0.0
 10
6.8918129316
 20
5.1751891686
 30
0.0
 10
6.891471603
 20
5.1587272214
 30
0.0
 11
6.8219744273
 21
5.5332549945
 31
0.0
 11
6.838818068
 21
5.4906868745
 31
0.0
 11
6.8534150009
 21
5.4464285287
 31
0.0
 11
6.8657233664
 21
5.4007182341
 31
0.0
 11
6.8757013052
 21
5.3537942675
 31
0.0
 11
6.8833069577
 21
5.305894906
 31
0.0
 11
6.8884984645
 21
5.2572584266
 31
0.0
 11
6.891233966
 21
5.208123106
 31
0.0
 11
6.891471603
 21
5.1587272214
 31
0.0
  0
SPLINE
  5
4EB
100
AcDbEntity
  8
0
100
AcDbSpline
 62
9
  6
CONTINUOUS
 70
0
 71
3
 72
26
 73
22
 74
20
 42
0.0000001
 43
0.0000001
 44
0.0000000001
 12
-0.1549203886
 22
-0.0825320357
 32
0.0
 13
0.0
 23
-0.1755330844
 33
0.0
 40
0.0
 40
0.0
 40
0.0
 40
0.0
 40
0.0496325903
 40
0.0754808813
 40
0.1020266867
 40
0.1292689828
 40
0.1571977426
 40
0.1857953462
 40
0.2150377931
 40
0.2753266158
 40
0.3377901931
 40
0.4020938498
 40
0.467869261
 40
0.5347268458
 40
0.6022656387
 40
0.6700817172
 40
0.7377760317
 40
0.8049623625
 40
0.8712761015
 40
0.9363846078
 40
1.0
 40
1.0
 40
1.0
 40
1.0
 10
6.4116645161
 20
5.7233269267
 30
0.0
 10
6.4091014827
 20
5.7219615005
 30
0.0
 10
6.4053382655
 20
5.7196234939
 30
0.0
 10
6.4005402248
 20
5.7160693902
 30
0.0
 10
6.3969406023
 20
5.7131071279
 30
0.0
 10
6.3933951446
 20
5.7098968514
 30
0.0
 10
6.3899085933
 20
5.7064498133
 30
0.0
 10
6.386486188
 20
5.7027776055
 30
0.0
 10
6.3819699038
 20
5.6975434794
 30
0.0
 10
6.3765300444
 20
5.690498204
 30
0.0
 10
6.3704075914
 20
5.681418074
 30
0.0
 10
6.3646662997
 20
5.6717178085
 30
0.0
 10
6.3593482706
 20
5.6614892369
 30
0.0
 10
6.3544955096
 20
5.6508238831
 30
0.0
 10
6.3501502061
 20
5.6398135623
 30
0.0
 10
6.3463545646
 20
5.6285501232
 30
0.0
 10
6.3431508062
 20
5.6171253946
 30
0.0
 10
6.3405811583
 20
5.6056311921
 30
0.0
 10
6.3386878834
 20
5.594158859
 30
0.0
 10
6.3375133545
 20
5.5828005283
 30
0.0
 10
6.3372343343
 20
5.5752666519
 30
0.0
 10
6.3372343343
 20
5.5715444499
 30
0.0
 11
6.4116645161
 21
5.7233269267
 31
0.0
 11
6.4042447975
 21
5.7187607974
 31
0.0
 11
6.4005963198
 21
5.7160635638
 31
0.0
 11
6.3969958445
 21
5.7131056803
 31
0.0
 11
6.3934486827
 21
5.7098987436
 31
0.0
 11
6.3899601454
 21
5.7064543507
 31
0.0
 11
6.3865355436
 21
5.7027840985
 31
0.0
 11
6.3831801884
 21
5.6988995839
 31
0.0
 11
6.3766984619
 21
5.690534155
 31
0.0
 11
6.3705574541
 21
5.6814508392
 31
0.0
 11
6.3647996534
 21
5.6717424118
 31
0.0
 11
6.359467548
 21
5.6615016479
 31
0.0
 11
6.3546036264
 21
5.6508213228
 31
0.0
 11
6.3502503766
 21
5.6397942116
 31
0.0
 11
6.3464502872
 21
5.6285130896
 31
0.0
 11
6.3432458463
 21
5.6170707321
 31
0.0
 11
6.3406795422
 21
5.6055599141
 31
0.0
 11
6.3387938634
 21
5.5940734109
 31
0.0
 11
6.3376312979
 21
5.5827039978
 31
0.0
 11
6.3372343343
 21
5.5715444499
 31
0.0
  0
SPLINE
  5
4EC
100
AcDbEntity
  8
0
100
AcDbSpline
 62
9
  6
CONTINUOUS
 70
0
 71
3
 72
29
 73
25
 74
23
 42
0.0000001
 43
0.0000001
 44
0.0000000001
 12
-0.2438966583
 22
-0.1115462451
 32
0.0
 13
-0.1338357743
 23
-0.2324137049
 33
0.0
 40
0.0
 40
0.0
 40
0.0
 40
0.0
 40
0.0212522427
 40
0.0432382417
 40
0.0659794866
 40
0.0894894794
 40
0.1137748871
 40
0.1388365452
 40
0.1646703209
 40
0.1912678483
 40
0.21861715
 40
0.246703162
 40
0.2755081758
 40
0.3050122111
 40
0.3660254228
 40
0.4295512766
 40
0.495374948
 40
0.5632676526
 40
0.6329885694
 40
0.7042870357
 40
0.7769045819
 40
0.8505764791
 40
0.9250329308
 40
1.0
 40
1.0
 40
1.0
 40
1.0
 10
6.6572829674
 20
5.6902611026
 30
0.0
 10
6.6555551837
 20
5.6894708999
 30
0.0
 10
6.6520835388
 20
5.6877664973
 30
0.0
 10
6.6469212226
 20
5.6849088946
 30
0.0
 10
6.6417201565
 20
5.6817174294
 30
0.0
 10
6.636483363
 20
5.6782018041
 30
0.0
 10
6.6312136302
 20
5.6743715668
 30
0.0
 10
6.6259138607
 20
5.670236284
 30
0.0
 10
6.6205869666
 20
5.6658055038
 30
0.0
 10
6.6152358929
 20
5.6610887752
 30
0.0
 10
6.6098636006
 20
5.6560956477
 30
0.0
 10
6.6044730795
 20
5.6508356733
 30
0.0
 10
6.5990672867
 20
5.6453184122
 30
0.0
 10
6.5917616336
 20
5.6375447517
 30
0.0
 10
6.5826259249
 20
5.6272357603
 30
0.0
 10
6.5717691425
 20
5.6141272087
 30
0.0
 10
6.5609229904
 20
5.6002216088
 30
0.0
 10
6.5501103927
 20
5.5855957533
 30
0.0
 10
6.5393540894
 20
5.5703261092
 30
0.0
 10
6.5286768682
 20
5.5544893106
 30
0.0
 10
6.5181015353
 20
5.5381620647
 30
0.0
 10
6.5076509037
 20
5.5214211442
 30
0.0
 10
6.4973478159
 20
5.5043434243
 30
0.0
 10
6.490607309
 20
5.4928100428
 30
0.0
 10
6.4872628838
 20
5.4870022513
 30
0.0
 11
6.6572829674
 21
5.6902611026
 31
0.0
 11
6.6521638651
 21
5.6877547703
 31
0.0
 11
6.6470021543
 21
5.6849042147
 31
0.0
 11
6.64180087
 21
5.6817190453
 31
0.0
 11
6.6365630473
 21
5.6782088716
 31
0.0
 11
6.6312917211
 21
5.6743833029
 31
0.0
 11
6.6259899265
 21
5.6702519489
 31
0.0
 11
6.6206606987
 21
5.665824419
 31
0.0
 11
6.6153070726
 21
5.6611103227
 31
0.0
 11
6.6099320833
 21
5.6561192693
 31
0.0
 11
6.6045387658
 21
5.6508608686
 31
0.0
 11
6.5991301553
 21
5.6453447298
 31
0.0
 11
6.5937092868
 21
5.6395804624
 31
0.0
 11
6.5828429158
 21
5.6273459802
 31
0.0
 11
6.5719639333
 21
5.6142342975
 31
0.0
 11
6.5610963677
 21
5.6003223208
 31
0.0
 11
6.5502632411
 21
5.5856870774
 31
0.0
 11
6.5394873246
 21
5.5704056251
 31
0.0
 11
6.5287913894
 21
5.5545550216
 31
0.0
 11
6.5181982066
 21
5.5382123248
 31
0.0
 11
6.5077305473
 21
5.5214545923
 31
0.0
 11
6.4974111827
 21
5.5043588819
 31
0.0
 11
6.4872628838
 21
5.4870022513
 31
0.0
  0
SPLINE
  5
4ED
100
AcDbEntity
  8
0
100
AcDbSpline
 62
9
  6
CONTINUOUS
 70
0
 71
3
 72
23
 73
19
 74
17
 42
0.0000001
 43
0.0000001
 44
0.0000000001
 12
-0.3050583578
 22
-0.085001143
 32
0.0
 13
-0.2362599891
 23
-0.2108720312
 33
0.0
 40
0.0
 40
0.0
 40
0.0
 40
0.0
 40
0.0464328163
 40
0.0954209511
 40
0.1469500869
 40
0.2009689129
 40
0.2573976563
 40
0.3161345088
 40
0.3770604651
 40
0.4400429806
 40
0.5049402932
 40
0.5716079713
 40
0.6398956843
 40
0.7096469916
 40
0.7807004186
 40
0.8528903132
 40
0.9260475328
 40
1.0
 40
1.0
 40
1.0
 40
1.0
 10
6.8219744273
 20
5.5332549945
 30
0.0
 10
6.8172528544
 20
5.5319393803
 30
0.0
 10
6.8076428493
 20
5.5288947863
 30
0.0
 10
6.7931484666
 20
5.5233493051
 30
0.0
 10
6.778221154
 20
5.516755047
 30
0.0
 10
6.7628951056
 20
5.5091640742
 30
0.0
 10
6.7472037321
 20
5.5006280126
 30
0.0
 10
6.7311811779
 20
5.4911986249
 30
0.0
 10
6.7148617341
 20
5.4809277115
 30
0.0
 10
6.6982797606
 20
5.4698670645
 30
0.0
 10
6.6814690973
 20
5.4580680992
 30
0.0
 10
6.6644613803
 20
5.445583882
 30
0.0
 10
6.6472875766
 20
5.4324670548
 30
0.0
 10
6.629978562
 20
5.4187702166
 30
0.0
 10
6.6125652434
 20
5.404546007
 30
0.0
 10
6.5950785409
 20
5.3898470917
 30
0.0
 10
6.5775494199
 20
5.3747261943
 30
0.0
 10
6.5659093478
 20
5.3644467997
 30
0.0
 10
6.5600853447
 20
5.3592486307
 30
0.0
 11
6.8219744273
 21
5.5332549945
 31
0.0
 11
6.8079471279
 21
5.5288445873
 31
0.0
 11
6.7934478117
 21
5.5233273934
 31
0.0
 11
6.7785113413
 21
5.5167557957
 31
0.0
 11
6.7631725794
 21
5.5091821769
 31
0.0
 11
6.7474663886
 21
5.5006589198
 31
0.0
 11
6.7314276314
 21
5.4912384074
 31
0.0
 11
6.7150911706
 21
5.4809730223
 31
0.0
 11
6.6984918688
 21
5.4699151473
 31
0.0
 11
6.6816639376
 21
5.4581172439
 31
0.0
 11
6.6646389844
 21
5.445632087
 31
0.0
 11
6.6474479653
 21
5.4325125305
 31
0.0
 11
6.6301218364
 21
5.4188114279
 31
0.0
 11
6.6126915537
 21
5.404581633
 31
0.0
 11
6.5951880735
 21
5.3898759993
 31
0.0
 11
6.5776423518
 21
5.3747473807
 31
0.0
 11
6.5600853447
 21
5.3592486307
 31
0.0
  0
SPLINE
  5
4EE
100
AcDbEntity
  8
0
100
AcDbSpline
 62
6
  6
CONTINUOUS
 70
0
 71
3
 72
30
 73
26
 74
24
 42
0.0000001
 43
0.0000001
 44
0.0000000001
 12
0.0022568605
 22
0.0353255454
 32
0.0
 13
-0.035324522
 23
0.002272822
 33
0.0
 40
0.0
 40
0.0
 40
0.0
 40
0.0
 40
0.001527761
 40
0.003161541
 40
0.0050044848
 40
0.0071307492
 40
0.0095900715
 40
0.0124156014
 40
0.0192464533
 40
0.0277438
 40
0.0379746788
 40
0.0499844775
 40
0.0638075165
 40
0.079471941
 40
0.0970022029
 40
0.1164204177
 40
0.1377480588
 40
0.1862255729
 40
0.2426222621
 40
0.3071186797
 40
0.3798914867
 40
0.461114913
 40
0.550961592
 40
0.7572093116
 40
1.0
 40
1.0
 40
1.0
 40
1.0
 10
5.339760989
 20
5.1433159751
 30
0.0
 10
5.3397621383
 20
5.1433339648
 30
0.0
 10
5.3397589357
 20
5.1433717496
 30
0.0
 10
5.3397376409
 20
5.1434274741
 30
0.0
 10
5.3397005876
 20
5.1434827417
 30
0.0
 10
5.3396480823
 20
5.1435378499
 30
0.0
 10
5.3395800909
 20
5.1435931178
 30
0.0
 10
5.3394608453
 20
5.1436722622
 30
0.0
 10
5.3392694713
 20
5.14376977
 30
0.0
 10
5.3389895089
 20
5.1438823845
 30
0.0
 10
5.3386451438
 20
5.1439967849
 30
0.0
 10
5.3382356821
 20
5.1441129283
 30
0.0
 10
5.3377603506
 20
5.1442307108
 30
0.0
 10
5.3372185224
 20
5.1443500702
 30
0.0
 10
5.3366095779
 20
5.1444709487
 30
0.0
 10
5.3359329148
 20
5.1445933157
 30
0.0
 10
5.3348943604
 20
5.1447658727
 30
0.0
 10
5.3334210085
 20
5.1449825744
 30
0.0
 10
5.3314389658
 20
5.1452385601
 30
0.0
 10
5.3291688131
 20
5.1455000279
 30
0.0
 10
5.3266045746
 20
5.1457667879
 30
0.0
 10
5.323740265
 20
5.1460386391
 30
0.0
 10
5.3193050434
 20
5.1464256949
 30
0.0
 10
5.3129653854
 20
5.1469155437
 30
0.0
 10
5.307679172
 20
5.1472739564
 30
0.0
 10
5.3048203503
 20
5.1474578964
 30
0.0
 11
5.339760989
 21
5.1433159751
 31
0.0
 11
5.3397566495
 21
5.1433698797
 31
0.0
 11
5.3397367206
 21
5.1434241693
 31
0.0
 11
5.3397011312
 21
5.1434788419
 31
0.0
 11
5.33964981
 21
5.1435338955
 31
0.0
 11
5.3395826861
 21
5.1435893282
 31
0.0
 11
5.3394996882
 21
5.1436451379
 31
0.0
 11
5.3392857861
 21
5.1437578808
 31
0.0
 11
5.3390075346
 21
5.1438721084
 31
0.0
 11
5.3386643646
 21
5.143987805
 31
0.0
 11
5.3382557072
 21
5.1441049548
 31
0.0
 11
5.3377809932
 21
5.1442235422
 31
0.0
 11
5.3372396535
 21
5.1443435514
 31
0.0
 11
5.3366311192
 21
5.1444649666
 31
0.0
 11
5.335954821
 21
5.1445877721
 31
0.0
 11
5.3352101576
 21
5.1447119519
 31
0.0
 11
5.3335128378
 21
5.1449643667
 31
0.0
 11
5.3315332363
 21
5.1452220747
 31
0.0
 11
5.3292654037
 21
5.1454849391
 31
0.0
 11
5.3267033905
 21
5.1457528235
 31
0.0
 11
5.3238412473
 21
5.1460255911
 31
0.0
 11
5.3206730246
 21
5.1463031053
 31
0.0
 11
5.313394543
 21
5.1468718272
 31
0.0
 11
5.3048203503
 21
5.1474578964
 31
0.0
  0
SPLINE
  5
4EF
100
AcDbEntity
  8
0
100
AcDbSpline
 62
6
  6
CONTINUOUS
 70
0
 71
3
 72
16
 73
12
 74
10
 42
0.0000001
 43
0.0000001
 44
0.0000000001
 12
-0.2757905273
 22
-0.0062635407
 32
0.0
 13
-0.2752923616
 23
-0.0177133437
 33
0.0
 40
0.0
 40
0.0
 40
0.0
 40
0.0
 40
0.1298603918
 40
0.2629064339
 40
0.3968023099
 40
0.5292121486
 40
0.657842749
 40
0.7805709938
 40
0.8953165398
 40
0.9490459671
 40
1.0
 40
1.0
 40
1.0
 40
1.0
 10
6.891471587
 20
5.1587280282
 30
0.0
 10
6.8795334984
 20
5.1584568995
 30
0.0
 10
6.85536582
 20
5.1578469198
 30
0.0
 10
6.8188943382
 20
5.1567617527
 30
0.0
 10
6.7821936095
 20
5.1555102348
 30
0.0
 10
6.7459044476
 20
5.1541129969
 30
0.0
 10
6.7106481756
 20
5.1525898277
 30
0.0
 10
6.6770222693
 20
5.1509708506
 30
0.0
 10
6.6502832158
 20
5.1495374573
 30
0.0
 10
6.630140353
 20
5.1483577027
 30
0.0
 10
6.6205328478
 20
5.1477599902
 30
0.0
 10
6.6158570957
 20
5.1474591348
 30
0.0
 11
6.891471587
 21
5.1587280282
 31
0.0
 11
6.8556594009
 21
5.1578277145
 31
0.0
 11
6.8189732932
 21
5.1567376124
 31
0.0
 11
6.7820580275
 21
5.1554783793
 31
0.0
 11
6.7455583676
 21
5.1540706725
 31
0.0
 11
6.7101072963
 21
5.1525365695
 31
0.0
 11
6.6762906742
 21
5.1509038274
 31
0.0
 11
6.6446825807
 21
5.1492016235
 31
0.0
 11
6.6298861322
 21
5.1483335912
 31
0.0
 11
6.6158570957
 21
5.1474591348
 31
0.0
  0
SPLINE
  5
4F0
100
AcDbEntity
  8
0
100
AcDbSpline
 62
6
  6
CONTINUOUS
 70
0
 71
3
 72
21
 73
17
 74
15
 42
0.0000001
 43
0.0000001
 44
0.0000000001
 12
0.1782074375
 22
-0.0000927831
 32
0.0
 13
0.1119949311
 23
-0.1386183062
 33
0.0
 40
0.0
 40
0.0
 40
0.0
 40
0.0
 40
0.0627355544
 40
0.1246727482
 40
0.1860033446
 40
0.2469236024
 40
0.3076457746
 40
0.3683504792
 40
0.4291969116
 40
0.4903259024
 40
0.5518507707
 40
0.6138719661
 40
0.73970833
 40
0.8036643872
 40
0.8683530329
 40
1.0
 40
1.0
 40
1.0
 40
1.0
 10
6.3372343343
 20
5.5715444499
 30
0.0
 10
6.3409609818
 20
5.5715425096
 30
0.0
 10
6.3483697271
 20
5.5712606072
 30
0.0
 10
6.3593584818
 20
5.5700204933
 30
0.0
 10
6.3701223462
 20
5.5680061174
 30
0.0
 10
6.3806465744
 20
5.565255418
 30
0.0
 10
6.3909230864
 20
5.5618061863
 30
0.0
 10
6.4009480666
 20
5.557696046
 30
0.0
 10
6.4107182885
 20
5.5529581426
 30
0.0
 10
6.4202306132
 20
5.5476227026
 30
0.0
 10
6.4294835825
 20
5.5417190126
 30
0.0
 10
6.441531976
 20
5.5330902396
 30
0.0
 10
6.4530225353
 20
5.5234727903
 30
0.0
 10
6.4639684043
 20
5.5130424395
 30
0.0
 10
6.4747244293
 20
5.5019299046
 30
0.0
 10
6.4823533252
 20
5.4930913136
 30
0.0
 10
6.4872679228
 20
5.4870084204
 30
0.0
 11
6.3372343343
 21
5.5715444499
 31
0.0
 11
6.3484062071
 21
5.5711197099
 31
0.0
 11
6.3593744407
 21
5.5698835823
 31
0.0
 11
6.3701179697
 21
5.5678755772
 31
0.0
 11
6.3806225442
 21
5.5651339897
 31
0.0
 11
6.3908828605
 21
5.5616955205
 31
0.0
 11
6.4008942796
 21
5.5575965829
 31
0.0
 11
6.4106532622
 21
5.552870151
 31
0.0
 11
6.4201572595
 21
5.5475461038
 31
0.0
 11
6.4294038362
 21
5.54165422
 31
0.0
 11
6.4383939672
 21
5.5352247263
 31
0.0
 11
6.4556277247
 21
5.5208763017
 31
0.0
 11
6.4638831734
 21
5.5130182259
 31
0.0
 11
6.4719049411
 21
5.504738974
 31
0.0
 11
6.4872679228
 21
5.4870084204
 31
0.0
  0
SPLINE
  5
4F1
100
AcDbEntity
  8
0
100
AcDbSpline
 62
6
  6
CONTINUOUS
 70
0
 71
3
 72
11
 73
7
 74
5
 42
0.0000001
 43
0.0000001
 44
0.0000000001
 12
0.0326449604
 22
-0.0404156406
 32
0.0
 13
0.02729001
 23
-0.0442082888
 33
0.0
 40
0.0
 40
0.0
 40
0.0
 40
0.0
 40
0.2438839898
 40
0.4919659413
 40
0.7440717436
 40
1.0
 40
1.0
 40
1.0
 40
1.0
 10
6.4872664888
 20
5.4870048683
 30
0.0
 10
6.4899203499
 20
5.4837192924
 30
0.0
 10
6.4951566296
 20
5.4769961692
 30
0.0
 10
6.5027338517
 20
5.4665712405
 30
0.0
 10
6.5100967641
 20
5.4557408574
 30
0.0
 10
6.5148243572
 20
5.4483192819
 30
0.0
 10
6.5171524521
 20
5.4445478984
 30
0.0
 11
6.4872664888
 21
5.4870048683
 31
0.0
 11
6.4950563184
 21
5.4770118487
 31
0.0
 11
6.502638041
 21
5.4665890979
 31
0.0
 11
6.5100054784
 21
5.4557599899
 31
0.0
 11
6.5171524521
 21
5.4445478984
 31
0.0
  0
SPLINE
  5
4F2
100
AcDbEntity
  8
0
100
AcDbSpline
 62
9
  6
CONTINUOUS
 70
0
 71
3
 72
34
 73
30
 74
28
 42
0.0000001
 43
0.0000001
 44
0.0000000001
 12
0.0109191746
 22
0.0268343472
 32
0.0
 13
-0.0289528464
 23
0.0010213952
 33
0.0
 40
0.0
 40
0.0
 40
0.0
 40
0.0
 40
0.0003057792
 40
0.0006104006
 40
0.0013589178
 40
0.0024435571
 40
0.0039312391
 40
0.0058484016
 40
0.0082081417
 40
0.0110182645
 40
0.0142841164
 40
0.0180097595
 40
0.022198523
 40
0.0319764796
 40
0.0436383557
 40
0.0572019164
 40
0.0726837387
 40
0.0900997208
 40
0.1094653874
 40
0.1307977904
 40
0.1794400267
 40
0.2361810442
 40
0.3011743732
 40
0.3745729122
 40
0.4565291696
 40
0.5471954
 40
0.6467236853
 40
0.7552659867
 40
1.0
 40
1.0
 40
1.0
 40
1.0
 10
5.3189916648
 20
5.074948831
 30
0.0
 10
5.3189927777
 20
5.0749515662
 30
0.0
 10
5.3189941444
 20
5.0749574662
 30
0.0
 10
5.3189917874
 20
5.0749707073
 30
0.0
 10
5.3189777176
 20
5.0749871549
 30
0.0
 10
5.3189505695
 20
5.075004216
 30
0.0
 10
5.3189107802
 20
5.0750218391
 30
0.0
 10
5.3188580284
 20
5.0750396751
 30
0.0
 10
5.3187920201
 20
5.0750578823
 30
0.0
 10
5.3187126677
 20
5.0750763615
 30
0.0
 10
5.3186198795
 20
5.0750951171
 30
0.0
 10
5.3185135928
 20
5.0751141306
 30
0.0
 10
5.318344895
 20
5.0751412348
 30
0.0
 10
5.3180997039
 20
5.0751751155
 30
0.0
 10
5.3177640323
 20
5.0752150425
 30
0.0
 10
5.3173730522
 20
5.0752559907
 30
0.0
 10
5.3169263376
 20
5.0752979569
 30
0.0
 10
5.3164234593
 20
5.0753409247
 30
0.0
 10
5.3158639766
 20
5.075384899
 30
0.0
 10
5.3150035034
 20
5.0754476562
 30
0.0
 10
5.3137824268
 20
5.0755277776
 30
0.0
 10
5.3121399399
 20
5.0756244063
 30
0.0
 10
5.3102582443
 20
5.0757252526
 30
0.0
 10
5.3081329466
 20
5.0758303764
 30
0.0
 10
5.305759652
 20
5.0759398247
 30
0.0
 10
5.3031339687
 20
5.0760536605
 30
0.0
 10
5.3002515055
 20
5.0761719537
 30
0.0
 10
5.2958821236
 20
5.0763426401
 30
0.0
 10
5.2924728076
 20
5.0764668931
 30
0.0
 10
5.2901108922
 20
5.0765502165
 30
0.0
 11
5.3189916648
 21
5.074948831
 31
0.0
 11
5.3189935384
 21
5.0749574893
 31
0.0
 11
5.3189921302
 21
5.0749662014
 31
0.0
 11
5.3189794427
 21
5.0749837876
 31
0.0
 11
5.3189535499
 21
5.075001591
 31
0.0
 11
5.3189143992
 21
5.0750196128
 31
0.0
 11
5.3188619384
 21
5.0750378546
 31
0.0
 11
5.3187961151
 21
5.0750563176
 31
0.0
 11
5.3187168768
 21
5.0750750031
 31
0.0
 11
5.3186241711
 21
5.0750939125
 31
0.0
 11
5.3185179457
 21
5.0751130472
 31
0.0
 11
5.3183981481
 21
5.0751324085
 31
0.0
 11
5.3181176268
 21
5.0751718164
 31
0.0
 11
5.317782188
 21
5.0752121469
 31
0.0
 11
5.3173914126
 21
5.0752534108
 31
0.0
 11
5.3169448814
 21
5.0752956189
 31
0.0
 11
5.3164421751
 21
5.075338782
 31
0.0
 11
5.3158828733
 21
5.075382911
 31
0.0
 11
5.3152665035
 21
5.0754280161
 31
0.0
 11
5.3138603801
 21
5.0755211942
 31
0.0
 11
5.3122194204
 21
5.0756183947
 31
0.0
 11
5.310339235
 21
5.0757196961
 31
0.0
 11
5.3082154342
 21
5.0758251768
 31
0.0
 11
5.3058436285
 21
5.0759349152
 31
0.0
 11
5.3032194283
 21
5.0760489897
 31
0.0
 11
5.3003384442
 21
5.0761674786
 31
0.0
 11
5.2971962865
 21
5.0762904605
 31
0.0
 11
5.2901108922
 21
5.0765502165
 31
0.0
  0
LINE
  5
4F3
100
AcDbEntity
  8
0
100
AcDbLine
 62
9
  6
CONTINUOUS
 10
5.2729240373
 20
4.9994391273
 11
5.2502846944
 21
5.0000619772
  0
LINE
  5
4F4
100
AcDbEntity
  8
0
100
AcDbLine
 62
9
  6
CONTINUOUS
 10
5.2754978046
 20
5.002492194
 11
5.2525362163
 21
5.0031035393
  0
SPLINE
  5
4F5
100
AcDbEntity
  8
0
100
AcDbSpline
 62
6
  6
CONTINUOUS
 70
0
 71
3
 72
13
 73
9
 74
7
 42
0.0000001
 43
0.0000001
 44
0.0000000001
 12
0.0501898635
 22
-0.0813661757
 32
0.0
 13
0.0363608415
 23
-0.0884158705
 33
0.0
 40
0.0
 40
0.0
 40
0.0
 40
0.0
 40
0.1205244281
 40
0.2421113516
 40
0.3648484252
 40
0.4888578504
 40
0.7411692105
 40
1.0
 40
1.0
 40
1.0
 40
1.0
 10
6.5171565915
 20
5.4445534103
 30
0.0
 10
6.5191729597
 20
5.4412845397
 30
0.0
 10
6.5231438858
 20
5.4346685678
 30
0.0
 10
6.5289002686
 20
5.4245660141
 30
0.0
 10
6.5344915685
 20
5.4142446346
 30
0.0
 10
6.541773035
 20
5.400104967
 30
0.0
 10
6.5504882751
 20
5.3818310234
 30
0.0
 10
6.556942331
 20
5.3668713652
 30
0.0
 10
6.5600794328
 20
5.3592431153
 30
0.0
 11
6.5171565915
 21
5.4445534103
 31
0.0
 11
6.5230890344
 21
5.434675788
 31
0.0
 11
6.528845971
 21
5.4245777664
 31
0.0
 11
6.5344362597
 21
5.4142613081
 31
0.0
 11
6.5398655471
 21
5.4037222
 31
0.0
 11
6.5502624678
 21
5.3819568034
 31
0.0
 11
6.5600794328
 21
5.3592431153
 31
0.0
  0
SPLINE
  5
4F6
100
AcDbEntity
  8
0
100
AcDbSpline
 62
9
  6
CONTINUOUS
 70
0
 71
3
 72
34
 73
30
 74
28
 42
0.0000001
 43
0.0000001
 44
0.0000000001
 12
0.0141670509
 22
0.0102622215
 32
0.0
 13
-0.0174901786
 23
0.0003349253
 33
0.0
 40
0.0
 40
0.0
 40
0.0
 40
0.0
 40
0.0005001581
 40
0.0007008613
 40
0.0009473903
 40
0.0012785638
 40
0.0017111089
 40
0.0029060579
 40
0.0045605848
 40
0.0066846596
 40
0.0092835702
 40
0.0123607649
 40
0.0159188282
 40
0.0199598874
 40
0.0294981934
 40
0.0409890661
 40
0.0544444847
 40
0.0698758139
 40
0.0872940783
 40
0.106710099
 40
0.1281345678
 40
0.1515781662
 40
0.1770535578
 40
0.2341591554
 40
0.2995706327
 40
0.3734070433
 40
0.5468299907
 40
0.7553779911
 40
1.0
 40
1.0
 40
1.0
 40
1.0
 10
5.2353650733
 20
4.964874285
 30
0.0
 10
5.2353674353
 20
4.9648759959
 30
0.0
 10
5.2353710299
 20
4.9648792749
 30
0.0
 10
5.2353702189
 20
4.9648851073
 30
0.0
 10
5.2353672442
 20
4.9648887036
 30
0.0
 10
5.235362454
 20
4.9648921609
 30
0.0
 10
5.235352235
 20
4.9648973424
 30
0.0
 10
5.2353340248
 20
4.9649034261
 30
0.0
 10
5.2353058686
 20
4.9649103934
 30
0.0
 10
5.2352693448
 20
4.9649174728
 30
0.0
 10
5.2352244317
 20
4.9649246756
 30
0.0
 10
5.2351710778
 20
4.9649319675
 30
0.0
 10
5.2351092595
 20
4.9649393456
 30
0.0
 10
5.2350098832
 20
4.9649498769
 30
0.0
 10
5.234864272
 20
4.9649629407
 30
0.0
 10
5.2346637657
 20
4.9649782174
 30
0.0
 10
5.2344288314
 20
4.9649937954
 30
0.0
 10
5.2341592861
 20
4.965009668
 30
0.0
 10
5.2338549456
 20
4.9650258224
 30
0.0
 10
5.233515628
 20
4.9650422535
 30
0.0
 10
5.2331411508
 20
4.9650589569
 30
0.0
 10
5.2327313199
 20
4.9650759316
 30
0.0
 10
5.2321135389
 20
4.9650998436
 30
0.0
 10
5.2312511047
 20
4.9651301303
 30
0.0
 10
5.2301067129
 20
4.9651663225
 30
0.0
 10
5.2282842445
 20
4.9652188684
 30
0.0
 10
5.2256272186
 20
4.9652861832
 30
0.0
 10
5.2219743778
 20
4.9653675685
 30
0.0
 10
5.2193324101
 20
4.9654203415
 30
0.0
 10
5.2179062492
 20
4.9654476516
 30
0.0
 11
5.2353650733
 21
4.964874285
 31
0.0
 11
5.2353704296
 21
4.9648812034
 31
0.0
 11
5.235369991
 21
4.9648846868
 31
0.0
 11
5.2353674709
 21
4.9648881865
 31
0.0
 11
5.2353628664
 21
4.9648917024
 31
0.0
 11
5.2353561747
 21
4.9648952345
 31
0.0
 11
5.2353365183
 21
4.9649023473
 31
0.0
 11
5.2353084791
 21
4.9649095249
 31
0.0
 11
5.2352720346
 21
4.9649167674
 31
0.0
 11
5.2352271619
 21
4.9649240748
 31
0.0
 11
5.2351738386
 21
4.9649314471
 31
0.0
 11
5.2351120419
 21
4.9649388843
 31
0.0
 11
5.2350417493
 21
4.9649463864
 31
0.0
 11
5.2348755857
 21
4.9649615854
 31
0.0
 11
5.2346751668
 21
4.9649770444
 31
0.0
 11
5.2344403114
 21
4.9649927634
 31
0.0
 11
5.2341708386
 21
4.9650087426
 31
0.0
 11
5.2338665673
 21
4.9650249822
 31
0.0
 11
5.2335273163
 21
4.9650414821
 31
0.0
 11
5.2331529048
 21
4.9650582427
 31
0.0
 11
5.2327431503
 21
4.965075264
 31
0.0
 11
5.2322978347
 21
4.9650925458
 31
0.0
 11
5.2312994899
 21
4.9651278894
 31
0.0
 11
5.2301558002
 21
4.9651642698
 31
0.0
 11
5.2288646934
 21
4.9652016832
 31
0.0
 11
5.2258319396
 21
4.9652795945
 31
0.0
 11
5.2221846508
 21
4.9653615939
 31
0.0
 11
5.2179062492
 21
4.9654476516
 31
0.0
  0
SPLINE
  5
4F7
100
AcDbEntity
  8
0
100
AcDbSpline
 62
6
  6
CONTINUOUS
 70
0
 71
3
 72
14
 73
10
 74
8
 42
0.0000001
 43
0.0000001
 44
0.0000000001
 12
0.0493141438
 22
-0.1524131429
 32
0.0
 13
0.0219980887
 23
-0.1586749351
 33
0.0
 40
0.0
 40
0.0
 40
0.0
 40
0.0
 40
0.2404439371
 40
0.3632476138
 40
0.4876758102
 40
0.6136696689
 40
0.7411711326
 40
0.8700344552
 40
1.0
 40
1.0
 40
1.0
 40
1.0
 10
6.580470632
 20
5.3034933475
 30
0.0
 10
6.584423061
 20
5.2912777421
 30
0.0
 10
6.5899594449
 20
5.2726789832
 30
0.0
 10
6.5965631311
 20
5.2474882377
 30
0.0
 10
6.6011979487
 20
5.2281035791
 30
0.0
 10
6.6054672407
 20
5.2083786411
 30
0.0
 10
6.6093585078
 20
5.1883342704
 30
0.0
 10
6.6128560615
 20
5.1680023247
 30
0.0
 10
6.614904111
 20
5.1543327789
 30
0.0
 10
6.6158571088
 20
5.1474586875
 30
0.0
 11
6.580470632
 21
5.3034933475
 31
0.0
 11
6.5914818414
 21
5.266583489
 31
0.0
 11
6.59647264
 21
5.2475548608
 31
0.0
 11
6.6011091653
 21
5.2281691453
 31
0.0
 11
6.6053800915
 21
5.208442923
 31
0.0
 11
6.6092733897
 21
5.1883926357
 31
0.0
 11
6.6127729103
 21
5.1680484851
 31
0.0
 11
6.6158571088
 21
5.1474586875
 31
0.0
  0
SPLINE
  5
4F8
100
AcDbEntity
  8
0
100
AcDbSpline
 62
6
  6
CONTINUOUS
 70
0
 71
3
 72
30
 73
26
 74
24
 42
0.0000001
 43
0.0000001
 44
0.0000000001
 12
-0.0353245174
 22
-0.0022728217
 32
0.0
 13
0.0022560251
 23
-0.0353255941
 33
0.0
 40
0.0
 40
0.0
 40
0.0
 40
0.0
 40
0.2427904311
 40
0.4490379807
 40
0.5388846059
 40
0.6201079983
 40
0.6928807908
 40
0.7573772124
 40
0.8137739235
 40
0.8622514768
 40
0.8835791437
 40
0.9029973884
 40
0.9205276841
 40
0.9361921463
 40
0.9500152267
 40
0.9620250703
 40
0.9722559969
 40
0.9807533939
 40
0.9875842971
 40
0.9904098521
 40
0.9928691984
 40
0.9949954845
 40
0.996838446
 40
0.998472237
 40
1.0
 40
1.0
 40
1.0
 40
1.0
 10
6.6158571569
 20
5.1474578951
 30
0.0
 10
6.6129983387
 20
5.1472739553
 30
0.0
 10
6.6077121309
 20
5.1469155431
 30
0.0
 10
6.6013724794
 20
5.1464256949
 30
0.0
 10
6.5969372614
 20
5.1460386396
 30
0.0
 10
6.5940729534
 20
5.1457667887
 30
0.0
 10
6.5915087157
 20
5.145500029
 30
0.0
 10
6.5892385631
 20
5.1452385615
 30
0.0
 10
6.5872565199
 20
5.1449825761
 30
0.0
 10
6.5857831671
 20
5.1447658746
 30
0.0
 10
6.5847446117
 20
5.1445933178
 30
0.0
 10
6.5840679476
 20
5.1444709509
 30
0.0
 10
6.5834590019
 20
5.1443500725
 30
0.0
 10
6.5829171724
 20
5.1442307132
 30
0.0
 10
6.5824418394
 20
5.1441129308
 30
0.0
 10
6.5820323761
 20
5.1439967875
 30
0.0
 10
6.5816880093
 20
5.1438823872
 30
0.0
 10
6.581408045
 20
5.1437697728
 30
0.0
 10
6.5812166693
 20
5.1436722651
 30
0.0
 10
6.5810974223
 20
5.1435931208
 30
0.0
 10
6.5810294298
 20
5.143537853
 30
0.0
 10
6.5809769233
 20
5.1434827448
 30
0.0
 10
6.5809398688
 20
5.1434274774
 30
0.0
 10
6.5809185728
 20
5.1433717529
 30
0.0
 10
6.5809153692
 20
5.143333968
 30
0.0
 10
6.5809165181
 20
5.1433159783
 30
0.0
 11
6.6158571569
 21
5.1474578951
 31
0.0
 11
6.6072829744
 21
5.1468718267
 31
0.0
 11
6.6000044998
 21
5.1463031055
 31
0.0
 11
6.5968362794
 21
5.1460255916
 31
0.0
 11
6.5939741378
 21
5.1457528243
 31
0.0
 11
6.5914121254
 21
5.1454849403
 31
0.0
 11
6.5891442929
 21
5.1452220761
 31
0.0
 11
6.5871646908
 21
5.1449643685
 31
0.0
 11
6.5854673698
 21
5.1447119539
 31
0.0
 11
6.5847227055
 21
5.1445877742
 31
0.0
 11
6.5840464064
 21
5.1444649688
 31
0.0
 11
6.5834378709
 21
5.1443435537
 31
0.0
 11
6.5828965299
 21
5.1442235447
 31
0.0
 11
6.5824218144
 21
5.1441049574
 31
0.0
 11
6.5820131553
 21
5.1439878077
 31
0.0
 11
6.5816699836
 21
5.1438721112
 31
0.0
 11
6.5813917302
 21
5.1437578836
 31
0.0
 11
6.581177826
 21
5.1436451409
 31
0.0
 11
6.581094827
 21
5.1435893312
 31
0.0
 11
6.581027702
 21
5.1435338986
 31
0.0
 11
6.5809763797
 21
5.143478845
 31
0.0
 11
6.580940789
 21
5.1434241725
 31
0.0
 11
6.5809208589
 21
5.1433698829
 31
0.0
 11
6.5809165181
 21
5.1433159783
 31
0.0
  0
SPLINE
  5
4F9
100
AcDbEntity
  8
0
100
AcDbSpline
 62
9
  6
CONTINUOUS
 70
0
 71
3
 72
12
 73
8
 74
6
 42
0.0000001
 43
0.0000001
 44
0.0000000001
 12
0.0062644182
 22
-0.0752033415
 32
0.0
 13
-0.0158178123
 23
-0.073787413
 33
0.0
 40
0.0
 40
0.0
 40
0.0
 40
0.0
 40
0.2529344546
 40
0.3787748564
 40
0.5041351959
 40
0.7532312562
 40
1.0
 40
1.0
 40
1.0
 40
1.0
 10
6.9674900433
 20
5.1587272214
 30
0.0
 10
6.9680182057
 20
5.1523867161
 30
0.0
 10
6.9684670814
 20
5.1428583954
 30
0.0
 10
6.9683744591
 20
5.1301754362
 30
0.0
 10
6.9678253761
 20
5.1176000817
 30
0.0
 10
6.9662900659
 20
5.1020344718
 30
0.0
 10
6.9641436254
 20
5.0897333038
 30
0.0
 10
6.9628425115
 20
5.0836638281
 30
0.0
 11
6.9674900433
 21
5.1587272214
 31
0.0
 11
6.9683865043
 21
5.139660889
 31
0.0
 11
6.9683167652
 21
5.1301647498
 31
0.0
 11
6.9679035175
 21
5.1207136121
 31
0.0
 11
6.9660519106
 21
5.1020072916
 31
0.0
 11
6.9628425115
 21
5.0836638281
 31
0.0
  0
SPLINE
  5
4FA
100
AcDbEntity
  8
0
100
AcDbSpline
 62
9
  6
CONTINUOUS
 70
0
 71
3
 72
14
 73
10
 74
8
 42
0.0000001
 43
0.0000001
 44
0.0000000001
 12
-0.0323244998
 22
0.001984635
 32
0.0
 13
-0.0323853681
 23
0.0
 33
0.0
 40
0.0
 40
0.0
 40
0.0
 40
0.0
 40
0.0930594899
 40
0.1956015257
 40
0.3065293457
 40
0.4247372121
 40
0.5499244976
 40
0.6850304738
 40
1.0
 40
1.0
 40
1.0
 40
1.0
 10
6.9628425115
 20
5.0836638281
 30
0.0
 10
6.961839811
 20
5.0837253911
 30
0.0
 10
6.9597308828
 20
5.0838328497
 30
0.0
 10
6.9564240996
 20
5.0839560884
 30
0.0
 10
6.9528449178
 20
5.0840548499
 30
0.0
 10
6.9490207762
 20
5.0841347425
 30
0.0
 10
6.9449353416
 20
5.0842015744
 30
0.0
 10
6.9387256845
 20
5.0842719195
 30
0.0
 10
6.9338670038
 20
5.0842890695
 30
0.0
 10
6.9304668691
 20
5.0842890695
 30
0.0
 11
6.9628425115
 21
5.0836638281
 31
0.0
 11
6.9598328529
 21
5.0838211174
 31
0.0
 11
6.9565144002
 21
5.0839475804
 31
0.0
 11
6.9529233882
 21
5.0840488004
 31
0.0
 11
6.9490960518
 21
5.0841303609
 31
0.0
 11
6.9450423559
 21
5.0841965546
 31
0.0
 11
6.9406671843
 21
5.0842465111
 31
0.0
 11
6.9304668691
 21
5.0842890695
 31
0.0
  0
SPLINE
  5
4FB
100
AcDbEntity
  8
0
100
AcDbSpline
 62
9
  6
CONTINUOUS
 70
0
 71
3
 72
11
 73
7
 74
5
 42
0.0000001
 43
0.0000001
 44
0.0000000001
 12
0.0
 22
-0.0756344071
 32
0.0
 13
-0.0164301359
 23
-0.0738282749
 33
0.0
 40
0.0
 40
0.0
 40
0.0
 40
0.0
 40
0.2518047309
 40
0.5028810236
 40
0.7525135779
 40
1.0
 40
1.0
 40
1.0
 40
1.0
 10
6.9386209854
 20
5.1593413959
 30
0.0
 10
6.9386209854
 20
5.1529930287
 30
0.0
 10
6.9382771295
 20
5.1403120415
 30
0.0
 10
6.9367407457
 20
5.1213934547
 30
0.0
 10
6.9341960142
 20
5.1026937091
 30
0.0
 10
6.9318222809
 20
5.090379568
 30
0.0
 10
6.9304668691
 20
5.0842890695
 30
0.0
 11
6.9386209854
 21
5.1593413959
 31
0.0
 11
6.9381054213
 21
5.1403032739
 31
0.0
 11
6.936566638
 21
5.1213757148
 31
0.0
 11
6.9340164994
 21
5.1026679146
 31
0.0
 11
6.9304668691
 21
5.0842890695
 31
0.0
  0
SPLINE
  5
4FC
100
AcDbEntity
  8
0
100
AcDbSpline
 62
9
  6
CONTINUOUS
 70
0
 71
3
 72
12
 73
8
 74
6
 42
0.0000001
 43
0.0000001
 44
0.0000000001
 12
-0.054934146
 22
0.0
 32
0.0
 13
-0.0549249042
 23
-0.0010076186
 33
0.0
 40
0.0
 40
0.0
 40
0.0
 40
0.0
 40
0.2098833497
 40
0.4341458007
 40
0.5565803006
 40
0.6895649042
 40
1.0
 40
1.0
 40
1.0
 40
1.0
 10
6.9304668691
 20
5.0842890695
 30
0.0
 10
6.9266236149
 20
5.0842890695
 30
0.0
 10
6.9186737923
 20
5.0842563224
 30
0.0
 10
6.9084825208
 20
5.0841545722
 30
0.0
 10
6.8996995289
 20
5.0840483767
 30
0.0
 10
6.8893389476
 20
5.0839046692
 30
0.0
 10
6.8812204451
 20
5.0837680948
 30
0.0
 10
6.8755369058
 20
5.0836638281
 30
0.0
 11
6.9304668691
 21
5.0842890695
 31
0.0
 11
6.9189371851
 21
5.0842465111
 31
0.0
 11
6.9066180664
 21
5.0841303609
 31
0.0
 11
6.8998927262
 21
5.0840488004
 31
0.0
 11
6.8925880318
 21
5.0839475804
 31
0.0
 11
6.8755369058
 21
5.0836638281
 31
0.0
  0
SPLINE
  5
4FD
100
AcDbEntity
  8
0
100
AcDbSpline
 62
9
  6
CONTINUOUS
 70
0
 71
3
 72
11
 73
7
 74
5
 42
0.0000001
 43
0.0000001
 44
0.0000000001
 12
-0.0146699076
 22
-0.0753253328
 32
0.0
 13
-0.0175813934
 23
-0.0746994415
 33
0.0
 40
0.0
 40
0.0
 40
0.0
 40
0.0
 40
0.2532897066
 40
0.5053988597
 40
0.7548055163
 40
1.0
 40
1.0
 40
1.0
 40
1.0
 10
6.891471603
 20
5.1587272214
 30
0.0
 10
6.8902330241
 20
5.152367511
 30
0.0
 10
6.8877215309
 20
5.1396854858
 30
0.0
 10
6.8838224534
 20
5.1207749647
 30
0.0
 10
6.8797875036
 20
5.1021046973
 30
0.0
 10
6.8769738594
 20
5.0897691251
 30
0.0
 10
6.8755369058
 20
5.0836638281
 30
0.0
 11
6.891471603
 21
5.1587272214
 31
0.0
 11
6.8876907405
 21
5.139660889
 31
0.0
 11
6.8837783352
 21
5.1207136121
 31
0.0
 11
6.8797288895
 21
5.1020072916
 31
0.0
 11
6.8755369058
 21
5.0836638281
 31
0.0
  0
SPLINE
  5
4FE
100
AcDbEntity
  8
0
100
AcDbSpline
 62
9
  6
CONTINUOUS
 70
0
 71
3
 72
19
 73
15
 74
13
 42
0.0000001
 43
0.0000001
 44
0.0000000001
 12
-0.2450357443
 22
-0.0044952756
 32
0.0
 13
-0.2449246141
 23
-0.0086404227
 33
0.0
 40
0.0
 40
0.0
 40
0.0
 40
0.0
 40
0.0894397729
 40
0.1440862796
 40
0.204453212
 40
0.2696626715
 40
0.3387512209
 40
0.4845075423
 40
0.5587984947
 40
0.6323716924
 40
0.7728109968
 40
0.8973757129
 40
0.9516728952
 40
1.0
 40
1.0
 40
1.0
 40
1.0
 10
6.8755369058
 20
5.0836638281
 30
0.0
 10
6.868231592
 20
5.0835298092
 30
0.0
 10
6.8564631034
 20
5.0832986983
 30
0.0
 10
6.8397646791
 20
5.0829406872
 30
0.0
 10
6.8250456914
 20
5.082604214
 30
0.0
 10
6.8091477404
 20
5.0822181818
 30
0.0
 10
6.7862770172
 20
5.0816295493
 30
0.0
 10
6.7626661578
 20
5.0809645856
 30
0.0
 10
6.7386905868
 20
5.080239131
 30
0.0
 10
6.7151502149
 20
5.0794931792
 30
0.0
 10
6.6875066627
 20
5.0785634324
 30
0.0
 10
6.6614382851
 20
5.0776475959
 30
0.0
 10
6.6428904339
 20
5.0769873818
 30
0.0
 10
6.6345121142
 20
5.0766894053
 30
0.0
 10
6.630566615
 20
5.0765502165
 30
0.0
 11
6.8755369058
 21
5.0836638281
 31
0.0
 11
6.8536214773
 21
5.0832347245
 31
0.0
 11
6.840231953
 21
5.0829476943
 31
0.0
 11
6.825441265
 21
5.0826098864
 31
0.0
 11
6.8094646331
 21
5.082222113
 31
0.0
 11
6.7925382302
 21
5.081786295
 31
0.0
 11
6.7568307838
 21
5.0807837283
 31
0.0
 11
6.738632113
 21
5.0802330031
 31
0.0
 11
6.7206100542
 21
5.0796621746
 31
0.0
 11
6.6862108797
 21
5.0785107444
 31
0.0
 11
6.6557016222
 21
5.0774427751
 31
0.0
 11
6.6424030305
 21
5.076970103
 31
0.0
 11
6.630566615
 21
5.0765502165
 31
0.0
  0
SPLINE
  5
4FF
100
AcDbEntity
  8
0
100
AcDbSpline
 62
9
  6
CONTINUOUS
 70
0
 71
3
 72
34
 73
30
 74
28
 42
0.0000001
 43
0.0000001
 44
0.0000000001
 12
-0.0289528464
 22
-0.0010213952
 32
0.0
 13
0.0109191746
 23
-0.0268343472
 33
0.0
 40
0.0
 40
0.0
 40
0.0
 40
0.0
 40
0.2447340133
 40
0.3532763147
 40
0.4528046
 40
0.5434708304
 40
0.6254270878
 40
0.6988256268
 40
0.7638189558
 40
0.8205599733
 40
0.8692022096
 40
0.8905346126
 40
0.9099002792
 40
0.9273162613
 40
0.9427980836
 40
0.9563616443
 40
0.9680235204
 40
0.977801477
 40
0.9819902405
 40
0.9857158836
 40
0.9889817355
 40
0.9917918583
 40
0.9941515984
 40
0.9960687609
 40
0.9975564429
 40
0.9986410822
 40
0.9993895994
 40
0.9996942208
 40
1.0
 40
1.0
 40
1.0
 40
1.0
 10
6.630566615
 20
5.0765502165
 30
0.0
 10
6.6282046996
 20
5.0764668931
 30
0.0
 10
6.6247953836
 20
5.0763426401
 30
0.0
 10
6.6204260017
 20
5.0761719537
 30
0.0
 10
6.6175435385
 20
5.0760536605
 30
0.0
 10
6.6149178552
 20
5.0759398247
 30
0.0
 10
6.6125445606
 20
5.0758303764
 30
0.0
 10
6.6104192629
 20
5.0757252526
 30
0.0
 10
6.6085375673
 20
5.0756244063
 30
0.0
 10
6.6068950804
 20
5.0755277776
 30
0.0
 10
6.6056740038
 20
5.0754476562
 30
0.0
 10
6.6048135306
 20
5.075384899
 30
0.0
 10
6.6042540479
 20
5.0753409247
 30
0.0
 10
6.6037511696
 20
5.0752979569
 30
0.0
 10
6.603304455
 20
5.0752559907
 30
0.0
 10
6.6029134749
 20
5.0752150425
 30
0.0
 10
6.6025778033
 20
5.0751751155
 30
0.0
 10
6.6023326122
 20
5.0751412348
 30
0.0
 10
6.6021639144
 20
5.0751141306
 30
0.0
 10
6.6020576277
 20
5.0750951171
 30
0.0
 10
6.6019648395
 20
5.0750763615
 30
0.0
 10
6.6018854871
 20
5.0750578823
 30
0.0
 10
6.6018194788
 20
5.0750396751
 30
0.0
 10
6.601766727
 20
5.0750218391
 30
0.0
 10
6.6017269377
 20
5.075004216
 30
0.0
 10
6.6016997896
 20
5.0749871549
 30
0.0
 10
6.6016857198
 20
5.0749707073
 30
0.0
 10
6.6016833628
 20
5.0749574662
 30
0.0
 10
6.6016847295
 20
5.0749515662
 30
0.0
 10
6.6016858424
 20
5.074948831
 30
0.0
 11
6.630566615
 21
5.0765502165
 31
0.0
 11
6.6234812207
 21
5.0762904605
 31
0.0
 11
6.620339063
 21
5.0761674786
 31
0.0
 11
6.6174580789
 21
5.0760489897
 31
0.0
 11
6.6148338787
 21
5.0759349152
 31
0.0
 11
6.612462073
 21
5.0758251768
 31
0.0
 11
6.6103382722
 21
5.0757196961
 31
0.0
 11
6.6084580868
 21
5.0756183947
 31
0.0
 11
6.6068171271
 21
5.0755211942
 31
0.0
 11
6.6054110037
 21
5.0754280161
 31
0.0
 11
6.6047946339
 21
5.075382911
 31
0.0
 11
6.6042353321
 21
5.075338782
 31
0.0
 11
6.6037326258
 21
5.0752956189
 31
0.0
 11
6.6032860946
 21
5.0752534108
 31
0.0
 11
6.6028953192
 21
5.0752121469
 31
0.0
 11
6.6025598804
 21
5.0751718164
 31
0.0
 11
6.6022793591
 21
5.0751324085
 31
0.0
 11
6.6021595615
 21
5.0751130472
 31
0.0
 11
6.6020533361
 21
5.0750939125
 31
0.0
 11
6.6019606304
 21
5.0750750031
 31
0.0
 11
6.6018813921
 21
5.0750563176
 31
0.0
 11
6.6018155688
 21
5.0750378546
 31
0.0
 11
6.601763108
 21
5.0750196128
 31
0.0
 11
6.6017239573
 21
5.075001591
 31
0.0
 11
6.6016980645
 21
5.0749837876
 31
0.0
 11
6.601685377
 21
5.0749662014
 31
0.0
 11
6.6016839688
 21
5.0749574893
 31
0.0
 11
6.6016858424
 21
5.074948831
 31
0.0
  0
LINE
  5
500
100
AcDbEntity
  8
0
100
AcDbLine
 62
9
  6
CONTINUOUS
 10
5.1287002475
 20
4.9295471083
 11
5.1290526325
 21
4.9295444499
  0
SPLINE
  5
501
100
AcDbEntity
  8
0
100
AcDbSpline
 62
9
  6
CONTINUOUS
 70
0
 71
3
 72
11
 73
7
 74
5
 42
0.0000001
 43
0.0000001
 44
0.0000000001
 12
-0.0177193361
 22
-0.0826576991
 32
0.0
 13
-0.0469235079
 23
-0.0703168152
 33
0.0
 40
0.0
 40
0.0
 40
0.0
 40
0.0
 40
0.253660027
 40
0.5048242029
 40
0.7535652806
 40
1.0
 40
1.0
 40
1.0
 40
1.0
 10
6.9628425115
 20
5.0836638281
 30
0.0
 10
6.9613442824
 20
5.0766748433
 30
0.0
 10
6.9577220428
 20
5.0628939148
 30
0.0
 10
6.9504374057
 20
5.0429166205
 30
0.0
 10
6.9414024922
 20
5.0238921485
 30
0.0
 10
6.9342263332
 20
5.0118954378
 30
0.0
 10
6.9303718061
 20
5.0061192696
 30
0.0
 11
6.9628425115
 21
5.0836638281
 31
0.0
 11
6.9573865565
 21
5.0629262309
 31
0.0
 11
6.9501062364
 21
5.0429810996
 31
0.0
 11
6.9410763775
 21
5.0239911929
 31
0.0
 11
6.9303718061
 21
5.0061192696
 31
0.0
  0
LINE
  5
502
100
AcDbEntity
  8
0
100
AcDbLine
 62
9
  6
CONTINUOUS
 10
6.9303718061
 20
5.0061192696
 11
6.9015399967
 21
5.0061414641
  0
SPLINE
  5
503
100
AcDbEntity
  8
0
100
AcDbSpline
 62
9
  6
CONTINUOUS
 70
0
 71
3
 72
11
 73
7
 74
5
 42
0.0000001
 43
0.0000001
 44
0.0000000001
 12
-0.0181576822
 22
-0.0815909472
 32
0.0
 13
-0.0401883808
 23
-0.0732917331
 33
0.0
 40
0.0
 40
0.0
 40
0.0
 40
0.0
 40
0.257223579
 40
0.5101306951
 40
0.7579536004
 40
1.0
 40
1.0
 40
1.0
 40
1.0
 10
6.9304668691
 20
5.0842890695
 30
0.0
 10
6.9289100078
 20
5.0772933643
 30
0.0
 10
6.9253650353
 20
5.0635163011
 30
0.0
 10
6.9187307631
 20
5.0434502084
 30
0.0
 10
6.9108751173
 20
5.0242856108
 30
0.0
 10
6.904782481
 20
5.0120547974
 30
0.0
 10
6.9015399967
 20
5.0061414641
 30
0.0
 11
6.9304668691
 21
5.0842890695
 31
0.0
 11
6.9251010959
 21
5.0634688426
 31
0.0
 11
6.9184533728
 21
5.0434015427
 31
0.0
 11
6.9105806796
 21
5.0242411048
 31
0.0
 11
6.9015399967
 21
5.0061414641
 31
0.0
  0
LINE
  5
504
100
AcDbEntity
  8
0
100
AcDbLine
 62
9
  6
CONTINUOUS
 10
6.9015399967
 20
5.0061414641
 11
6.8534684448
 21
5.0061192696
  0
SPLINE
  5
505
100
AcDbEntity
  8
0
100
AcDbSpline
 62
9
  6
CONTINUOUS
 70
0
 71
3
 72
13
 73
9
 74
7
 42
0.0000001
 43
0.0000001
 44
0.0000000001
 12
-0.0184793925
 22
-0.0785148403
 32
0.0
 13
-0.0268068618
 23
-0.076075359
 33
0.0
 40
0.0
 40
0.0
 40
0.0
 40
0.0
 40
0.2647550334
 40
0.5208518134
 40
0.6450949134
 40
0.7665080308
 40
0.8848785775
 40
1.0
 40
1.0
 40
1.0
 40
1.0
 10
6.8755369058
 20
5.0836638281
 30
0.0
 10
6.8739060684
 20
5.0767347617
 30
0.0
 10
6.8705707349
 20
5.0631326597
 30
0.0
 10
6.8660704592
 20
5.0463802824
 30
0.0
 10
6.8623144635
 20
5.033422802
 30
0.0
 10
6.8594557301
 20
5.024061713
 30
0.0
 10
6.8565265614
 20
5.0149797635
 30
0.0
 10
6.8544971262
 20
5.0090385708
 30
0.0
 10
6.8534684448
 20
5.0061192696
 30
0.0
 11
6.8755369058
 21
5.0836638281
 31
0.0
 11
6.8704382405
 21
5.0629262309
 31
0.0
 11
6.8650627535
 21
5.0429810996
 31
0.0
 11
6.8622701964
 21
5.0333565707
 31
0.0
 11
6.8594072273
 21
5.0239911929
 31
0.0
 11
6.8564734442
 21
5.0149053109
 31
0.0
 11
6.8534684448
 21
5.0061192696
 31
0.0
  0
SPLINE
  5
506
100
AcDbEntity
  8
0
100
AcDbSpline
 62
9
  6
CONTINUOUS
 70
0
 71
3
 72
26
 73
22
 74
20
 42
0.0000001
 43
0.0000001
 44
0.0000000001
 12
-0.0827818038
 22
0.0491288804
 32
0.0
 13
0.022087039
 23
0.0936943789
 33
0.0
 40
0.0
 40
0.0
 40
0.0
 40
0.0
 40
0.0549421946
 40
0.0824992859
 40
0.1101522457
 40
0.1658570947
 40
0.2223047514
 40
0.2508783256
 40
0.2797108245
 40
0.3088239071
 40
0.3382378299
 40
0.3980187207
 40
0.4591690671
 40
0.5217583494
 40
0.5858312967
 40
0.6514042065
 40
0.7184668196
 40
0.7869880985
 40
0.8568698857
 40
0.9279380619
 40
1.0
 40
1.0
 40
1.0
 40
1.0
 10
6.4197410174
 20
5.7313028746
 30
0.0
 10
6.4182249461
 20
5.7322026241
 30
0.0
 10
6.416014089
 20
5.7336690506
 30
0.0
 10
6.4132216201
 20
5.7358374764
 30
0.0
 10
6.4105209892
 20
5.738157515
 30
0.0
 10
6.4073388467
 20
5.7413302364
 30
0.0
 10
6.4044569117
 20
5.7448157408
 30
0.0
 10
6.4023291916
 20
5.7477867646
 30
0.0
 10
6.400817074
 20
5.7501161861
 30
0.0
 10
6.399397645
 20
5.7525344959
 30
0.0
 10
6.3976224442
 20
5.7558912387
 30
0.0
 10
6.3956472287
 20
5.7602994498
 30
0.0
 10
6.3936870924
 20
5.7658588681
 30
0.0
 10
6.3921338845
 20
5.7716879316
 30
0.0
 10
6.3909982552
 20
5.777756487
 30
0.0
 10
6.3902837192
 20
5.7840329666
 30
0.0
 10
6.3899933372
 20
5.7904859043
 30
0.0
 10
6.3901314077
 20
5.7970819158
 30
0.0
 10
6.39069616
 20
5.8037838803
 30
0.0
 10
6.3916802385
 20
5.8105515496
 30
0.0
 10
6.3926065343
 20
5.8150529569
 30
0.0
 10
6.3931370793
 20
5.8173035565
 30
0.0
 11
6.4197410174
 21
5.7313028746
 31
0.0
 11
6.4153331735
 21
5.7342257336
 31
0.0
 11
6.413237837
 21
5.735852529
 31
0.0
 11
6.4112185782
 21
5.7375870429
 31
0.0
 11
6.4074188971
 21
5.7413707675
 31
0.0
 11
6.4039531929
 21
5.7455558615
 31
0.0
 11
6.4023512527
 21
5.7477917936
 31
0.0
 11
6.4008396114
 21
5.7501195137
 31
0.0
 11
6.3994205369
 21
5.7525361699
 31
0.0
 11
6.3980962084
 21
5.7550388308
 31
0.0
 11
6.3957378333
 21
5.7602880377
 31
0.0
 11
6.3937753135
 21
5.7658377443
 31
0.0
 11
6.3922192216
 21
5.7716583312
 31
0.0
 11
6.3910791572
 21
5.7777198742
 31
0.0
 11
6.3903600908
 21
5.7839909975
 31
0.0
 11
6.3900656168
 21
5.7904398943
 31
0.0
 11
6.3901991586
 21
5.7970345738
 31
0.0
 11
6.3907596129
 21
5.8037381836
 31
0.0
 11
6.3917409953
 21
5.8105086293
 31
0.0
 11
6.3931370793
 21
5.8173035565
 31
0.0
  0
SPLINE
  5
507
100
AcDbEntity
  8
0
100
AcDbSpline
 62
9
  6
CONTINUOUS
 70
0
 71
3
 72
19
 73
15
 74
13
 42
0.0000001
 43
0.0000001
 44
0.0000000001
 12
-0.1853531171
 22
-0.0006399438
 32
0.0
 13
-0.1853194374
 23
-0.0035907787
 33
0.0
 40
0.0
 40
0.0
 40
0.0
 40
0.0
 40
0.0444609215
 40
0.0951980715
 40
0.1516036009
 40
0.2130449944
 40
0.2787146142
 40
0.3477291263
 40
0.4920787426
 40
0.6375740661
 40
0.7755349141
 40
0.8982360273
 40
0.9519717928
 40
1.0
 40
1.0
 40
1.0
 40
1.0
 10
6.8534684448
 20
5.0061192696
 30
0.0
 10
6.8507214547
 20
5.0061097855
 30
0.0
 10
6.8448397267
 20
5.0060819375
 30
0.0
 10
6.8354731478
 20
5.006018365
 30
0.0
 10
6.8250576122
 20
5.0059277593
 30
0.0
 10
6.8137197175
 20
5.0058079085
 30
0.0
 10
6.8016030645
 20
5.005658801
 30
0.0
 10
6.7843647085
 20
5.0054181668
 30
0.0
 10
6.7621956593
 20
5.0050517516
 30
0.0
 10
6.7357686357
 20
5.0045443291
 30
0.0
 10
6.7106800055
 20
5.0040094665
 30
0.0
 10
6.6912597002
 20
5.0035832591
 30
0.0
 10
6.677394314
 20
5.0032885531
 30
0.0
 10
6.6711081444
 20
5.0031610255
 30
0.0
 10
6.6681412909
 20
5.0031035393
 30
0.0
 11
6.8534684448
 21
5.0061192696
 31
0.0
 11
6.8452275135
 21
5.0060811403
 31
0.0
 11
6.8358233812
 21
5.006017904
 31
0.0
 11
6.8253687704
 21
5.0059273442
 31
0.0
 11
6.8139809795
 21
5.0058074866
 31
0.0
 11
6.8018097552
 21
5.0056580742
 31
0.0
 11
6.7890188692
 21
5.0054795925
 31
0.0
 11
6.7622666525
 21
5.005041056
 31
0.0
 11
6.7353034061
 21
5.0045256255
 31
0.0
 11
6.7097374634
 21
5.003986542
 31
0.0
 11
6.6869996409
 21
5.0034934116
 31
0.0
 11
6.6770417178
 21
5.003282755
 31
0.0
 11
6.6681412909
 21
5.0031035393
 31
0.0
  0
SPLINE
  5
508
100
AcDbEntity
  8
0
100
AcDbSpline
 62
9
  6
CONTINUOUS
 70
0
 71
3
 72
11
 73
7
 74
5
 42
0.0000001
 43
0.0000001
 44
0.0000000001
 12
0.0261724579
 22
-0.0785506077
 32
0.0
 13
0.0487187543
 23
-0.0669453397
 33
0.0
 40
0.0
 40
0.0
 40
0.0
 40
0.0
 40
0.2536994214
 40
0.4427156241
 40
0.630319687
 40
1.0
 40
1.0
 40
1.0
 40
1.0
 10
6.630566615
 20
5.0765502165
 30
0.0
 10
6.6327799275
 20
5.0699074686
 30
0.0
 10
6.6370841304
 20
5.0584569537
 30
0.0
 10
6.6442724157
 20
5.0426057329
 30
0.0
 10
6.6538346339
 20
5.0243547227
 30
0.0
 10
6.6621378362
 20
5.0113529974
 30
0.0
 10
6.6681412909
 20
5.0031035393
 30
0.0
 11
6.630566615
 21
5.0765502165
 31
0.0
 11
6.6379575206
 21
5.0568881163
 31
0.0
 11
6.6444221466
 21
5.0426359222
 31
0.0
 11
6.6516335005
 21
5.0288784903
 31
0.0
 11
6.6681412909
 21
5.0031035393
 31
0.0
  0
LINE
  5
509
100
AcDbEntity
  8
0
100
AcDbLine
 62
9
  6
CONTINUOUS
 10
6.6681412909
 20
5.0031035393
 11
6.6451797026
 21
5.002492194
  0
LINE
  5
50A
100
AcDbEntity
  8
0
100
AcDbLine
 62
9
  6
CONTINUOUS
 10
6.9281810181
 20
5.0029008226
 11
6.8997173671
 21
5.0028740533
  0
LINE
  5
50B
100
AcDbEntity
  8
0
100
AcDbLine
 62
9
  6
CONTINUOUS
 10
6.8997173671
 20
5.0028740533
 11
6.8523208412
 21
5.0029008226
  0
SPLINE
  5
50C
100
AcDbEntity
  8
0
100
AcDbSpline
 62
9
  6
CONTINUOUS
 70
0
 71
3
 72
19
 73
15
 74
13
 42
0.0000001
 43
0.0000001
 44
0.0000000001
 12
-0.1819525533
 22
-0.0003864314
 32
0.0
 13
-0.1819183606
 23
-0.0035483898
 33
0.0
 40
0.0
 40
0.0
 40
0.0
 40
0.0
 40
0.044557105
 40
0.0953620344
 40
0.1518091959
 40
0.2132684533
 40
0.2789354181
 40
0.347930381
 40
0.4922056171
 40
0.6376106494
 40
0.7755023961
 40
0.898187305
 40
0.9519395683
 40
1.0
 40
1.0
 40
1.0
 40
1.0
 10
6.8523208412
 20
5.0029008226
 30
0.0
 10
6.8496184149
 20
5.0028950832
 30
0.0
 10
6.8438346419
 20
5.0028749704
 30
0.0
 10
6.8346274044
 20
5.0028230933
 30
0.0
 10
6.8243951858
 20
5.0027449792
 30
0.0
 10
6.8132617834
 20
5.0026382816
 30
0.0
 10
6.8013676049
 20
5.0025028353
 30
0.0
 10
6.7844512347
 20
5.0022811568
 30
0.0
 10
6.7626998892
 20
5.0019382457
 30
0.0
 10
6.7367716607
 20
5.0014571086
 30
0.0
 10
6.7121537897
 20
5.0009448026
 30
0.0
 10
6.693093894
 20
5.0005323093
 30
0.0
 10
6.679480938
 20
5.0002443245
 30
0.0
 10
6.6733071711
 20
5.0001188229
 30
0.0
 10
6.6703928128
 20
5.0000619772
 30
0.0
 11
6.8523208412
 21
5.0029008226
 31
0.0
 11
6.8442135897
 21
5.0028735647
 31
0.0
 11
6.8349696255
 21
5.0028221027
 31
0.0
 11
6.8246991933
 21
5.002744105
 31
0.0
 11
6.8135170077
 21
5.0026374767
 31
0.0
 11
6.8015694792
 21
5.0025018002
 31
0.0
 11
6.7890167179
 21
5.0023373831
 31
0.0
 11
6.7627686164
 21
5.0019271657
 31
0.0
 11
6.7363162539
 21
5.0014384582
 31
0.0
 11
6.7112317593
 21
5.0009219352
 31
0.0
 11
6.6889139856
 21
5.0004443658
 31
0.0
 11
6.67913577
 21
5.0002384455
 31
0.0
 11
6.6703928128
 21
5.0000619772
 31
0.0
  0
LINE
  5
50D
100
AcDbEntity
  8
0
100
AcDbLine
 62
9
  6
CONTINUOUS
 10
6.6703928128
 20
5.0000619772
 11
6.6477534699
 21
4.9994391273
  0
SPLINE
  5
50E
100
AcDbEntity
  8
0
100
AcDbSpline
 62
9
  6
CONTINUOUS
 70
0
 71
3
 72
11
 73
7
 74
5
 42
0.0000001
 43
0.0000001
 44
0.0000000001
 12
-0.02237378
 22
-0.00074021
 32
0.0
 13
-0.0223860211
 23
-0.0
 33
0.0
 40
0.0
 40
0.0
 40
0.0
 40
0.0
 40
0.1892812618
 40
0.419308242
 40
0.6854069639
 40
1.0
 40
1.0
 40
1.0
 40
1.0
 10
6.8947325311
 20
4.9665896168
 30
0.0
 10
6.8933208853
 20
4.9665429141
 30
0.0
 10
6.8901935359
 20
4.966444623
 30
0.0
 10
6.8850804285
 20
4.966321519
 30
0.0
 10
6.879031271
 20
4.9662403732
 30
0.0
 10
6.8746981071
 20
4.9662249257
 30
0.0
 10
6.8723506117
 20
4.9662249257
 30
0.0
 11
6.8947325311
 21
4.9665896168
 31
0.0
 11
6.8904972949
 21
4.9664588571
 31
0.0
 11
6.8853493604
 21
4.9663364782
 31
0.0
 11
6.8793930372
 21
4.9662541882
 31
0.0
 11
6.8723506117
 21
4.9662249257
 31
0.0
  0
SPLINE
  5
50F
100
AcDbEntity
  8
0
100
AcDbSpline
 62
9
  6
CONTINUOUS
 70
0
 71
3
 72
11
 73
7
 74
5
 42
0.0000001
 43
0.0000001
 44
0.0000000001
 12
-0.0226337334
 22
-0.0398879717
 32
0.0
 13
-0.0322131842
 23
-0.0326442481
 33
0.0
 40
0.0
 40
0.0
 40
0.0
 40
0.0
 40
0.2585595146
 40
0.511485138
 40
0.7586496696
 40
1.0
 40
1.0
 40
1.0
 40
1.0
 10
6.8997173671
 20
5.0028740533
 30
0.0
 10
6.8977666447
 20
4.9994362485
 30
0.0
 10
6.8937037091
 20
4.992748697
 30
0.0
 10
6.8870703175
 20
4.9832258909
 30
0.0
 10
6.87999452
 20
4.9743607936
 30
0.0
 10
6.8749421659
 20
4.9688511591
 30
0.0
 10
6.8723506117
 20
4.9662249257
 30
0.0
 11
6.8997173671
 21
5.0028740533
 31
0.0
 11
6.8935543581
 21
4.9927433228
 31
0.0
 11
6.886917656
 21
4.9832297807
 31
0.0
 11
6.8798391207
 21
4.974376093
 31
0.0
 11
6.8723506117
 21
4.9662249257
 31
0.0
  0
LINE
  5
510
100
AcDbEntity
  8
0
100
AcDbLine
 62
9
  6
CONTINUOUS
 10
6.8723506117
 20
4.9662249257
 11
6.8360174624
 21
4.9665896168
  0
SPLINE
  5
511
100
AcDbEntity
  8
0
100
AcDbSpline
 62
9
  6
CONTINUOUS
 70
0
 71
3
 72
11
 73
7
 74
5
 42
0.0000001
 43
0.0000001
 44
0.0000000001
 12
-0.0135248332
 22
-0.0374815504
 32
0.0
 13
-0.0196523788
 23
-0.0346636948
 33
0.0
 40
0.0
 40
0.0
 40
0.0
 40
0.0
 40
0.2682182049
 40
0.5246533819
 40
0.7687418299
 40
1.0
 40
1.0
 40
1.0
 40
1.0
 10
6.8523208412
 20
5.0029008226
 30
0.0
 10
6.851111639
 20
4.9995497445
 30
0.0
 10
6.8486364932
 20
4.9930336577
 30
0.0
 10
6.844655133
 20
4.9836283283
 30
0.0
 10
6.8404969152
 20
4.974839714
 30
0.0
 10
6.8375323868
 20
4.9692617043
 30
0.0
 10
6.8360174624
 20
4.9665896168
 30
0.0
 11
6.8523208412
 21
5.0029008226
 31
0.0
 11
6.8485176395
 21
4.9929126945
 31
0.0
 11
6.8445250702
 21
4.9835068068
 31
0.0
 11
6.8403545417
 21
4.9747201255
 31
0.0
 11
6.8360174624
 21
4.9665896168
 31
0.0
  0
SPLINE
  5
512
100
AcDbEntity
  8
0
100
AcDbSpline
 62
9
  6
CONTINUOUS
 70
0
 71
3
 72
17
 73
13
 74
11
 42
0.0000001
 43
0.0000001
 44
0.0000000001
 12
-0.1332483214
 22
0.0013986369
 32
0.0
 13
-0.1332312361
 23
-0.0025512895
 33
0.0
 40
0.0
 40
0.0
 40
0.0
 40
0.0
 40
0.045508469
 40
0.0969628063
 40
0.2153692263
 40
0.2809513043
 40
0.3496908662
 40
0.49311522
 40
0.6375579156
 40
0.7747836464
 40
0.8974487285
 40
1.0
 40
1.0
 40
1.0
 40
1.0
 10
6.8360174624
 20
4.9665896168
 30
0.0
 10
6.8339961533
 20
4.9666108334
 30
0.0
 10
6.8296893544
 20
4.9666477688
 30
0.0
 10
6.820123102
 20
4.9667008946
 30
0.0
 10
6.8096650224
 20
4.9667140784
 30
0.0
 10
6.7984392297
 20
4.966689307
 30
0.0
 10
6.7861022668
 20
4.9666340467
 30
0.0
 10
6.7702627643
 20
4.966508266
 30
0.0
 10
6.751382024
 20
4.9662861752
 30
0.0
 10
6.733424155
 20
4.9660135594
 30
0.0
 10
6.717327521
 20
4.9657281189
 30
0.0
 10
6.7073256022
 20
4.9655348642
 30
0.0
 10
6.702771258
 20
4.9654476516
 30
0.0
 11
6.8360174624
 21
4.9665896168
 31
0.0
 11
6.829953433
 21
4.9666426364
 31
0.0
 11
6.8230969609
 21
4.9666814073
 31
0.0
 11
6.8073186531
 21
4.9667053005
 31
0.0
 11
6.7985794904
 21
4.9666863842
 31
0.0
 11
6.7894196459
 21
4.9666454816
 31
0.0
 11
6.7703081195
 21
4.966496496
 31
0.0
 11
6.7510616316
 21
4.9662711619
 31
0.0
 11
6.7327776035
 21
4.9659955318
 31
0.0
 11
6.7164343236
 21
4.9657075657
 31
0.0
 11
6.702771258
 21
4.9654476516
 31
0.0
  0
SPLINE
  5
513
100
AcDbEntity
  8
0
100
AcDbSpline
 62
9
  6
CONTINUOUS
 70
0
 71
3
 72
9
 73
5
 74
3
 42
0.0000001
 43
0.0000001
 44
0.0000000001
 12
0.0285520698
 22
-0.0379200405
 32
0.0
 13
0.0360675833
 23
-0.0308590277
 33
0.0
 40
0.0
 40
0.0
 40
0.0
 40
0.0
 40
0.5057672305
 40
1.0
 40
1.0
 40
1.0
 40
1.0
 10
6.6703928128
 20
5.0000619772
 30
0.0
 10
6.6752063799
 20
4.9936690726
 30
0.0
 10
6.6853902906
 20
4.9815162064
 30
0.0
 10
6.6968293308
 20
4.9705314991
 30
0.0
 10
6.702771258
 20
4.9654476516
 30
0.0
 11
6.6703928128
 21
5.0000619772
 31
0.0
 11
6.6858288193
 21
4.9816748453
 31
0.0
 11
6.702771258
 21
4.9654476516
 31
0.0
  0
SPLINE
  5
514
100
AcDbEntity
  8
0
100
AcDbSpline
 62
9
  6
CONTINUOUS
 70
0
 71
3
 72
34
 73
30
 74
28
 42
0.0000001
 43
0.0000001
 44
0.0000000001
 12
-0.0174901786
 22
-0.0003349253
 32
0.0
 13
0.0141670509
 23
-0.0102622215
 33
0.0
 40
0.0
 40
0.0
 40
0.0
 40
0.0
 40
0.2446220089
 40
0.4531700093
 40
0.6265929567
 40
0.7004293673
 40
0.7658408446
 40
0.8229464422
 40
0.8484218338
 40
0.8718654322
 40
0.893289901
 40
0.9127059217
 40
0.9301241861
 40
0.9455555153
 40
0.9590109339
 40
0.9705018066
 40
0.9800401126
 40
0.9840811718
 40
0.9876392351
 40
0.9907164298
 40
0.9933153404
 40
0.9954394152
 40
0.9970939421
 40
0.9982888911
 40
0.9987214362
 40
0.9990526097
 40
0.9992991387
 40
0.9994998419
 40
1.0
 40
1.0
 40
1.0
 40
1.0
 10
6.702771258
 20
4.9654476516
 30
0.0
 10
6.7013450971
 20
4.9654203415
 30
0.0
 10
6.6987031294
 20
4.9653675685
 30
0.0
 10
6.6950502886
 20
4.9652861832
 30
0.0
 10
6.6923932627
 20
4.9652188684
 30
0.0
 10
6.6905707943
 20
4.9651663225
 30
0.0
 10
6.6894264025
 20
4.9651301303
 30
0.0
 10
6.6885639683
 20
4.9650998436
 30
0.0
 10
6.6879461873
 20
4.9650759316
 30
0.0
 10
6.6875363564
 20
4.9650589569
 30
0.0
 10
6.6871618792
 20
4.9650422535
 30
0.0
 10
6.6868225616
 20
4.9650258224
 30
0.0
 10
6.6865182211
 20
4.965009668
 30
0.0
 10
6.6862486758
 20
4.9649937954
 30
0.0
 10
6.6860137415
 20
4.9649782174
 30
0.0
 10
6.6858132352
 20
4.9649629407
 30
0.0
 10
6.685667624
 20
4.9649498769
 30
0.0
 10
6.6855682477
 20
4.9649393456
 30
0.0
 10
6.6855064294
 20
4.9649319675
 30
0.0
 10
6.6854530755
 20
4.9649246756
 30
0.0
 10
6.6854081624
 20
4.9649174728
 30
0.0
 10
6.6853716386
 20
4.9649103934
 30
0.0
 10
6.6853434824
 20
4.9649034261
 30
0.0
 10
6.6853252722
 20
4.9648973424
 30
0.0
 10
6.6853150532
 20
4.9648921609
 30
0.0
 10
6.685310263
 20
4.9648887036
 30
0.0
 10
6.6853072883
 20
4.9648851073
 30
0.0
 10
6.6853064773
 20
4.9648792749
 30
0.0
 10
6.6853100719
 20
4.9648759959
 30
0.0
 10
6.6853124339
 20
4.964874285
 30
0.0
 11
6.702771258
 21
4.9654476516
 31
0.0
 11
6.6984928564
 21
4.9653615939
 31
0.0
 11
6.6948455676
 21
4.9652795945
 31
0.0
 11
6.6918128138
 21
4.9652016832
 31
0.0
 11
6.690521707
 21
4.9651642698
 31
0.0
 11
6.6893780173
 21
4.9651278894
 31
0.0
 11
6.6883796725
 21
4.9650925458
 31
0.0
 11
6.6879343569
 21
4.965075264
 31
0.0
 11
6.6875246024
 21
4.9650582427
 31
0.0
 11
6.6871501909
 21
4.9650414821
 31
0.0
 11
6.6868109399
 21
4.9650249822
 31
0.0
 11
6.6865066686
 21
4.9650087426
 31
0.0
 11
6.6862371958
 21
4.9649927634
 31
0.0
 11
6.6860023404
 21
4.9649770444
 31
0.0
 11
6.6858019215
 21
4.9649615854
 31
0.0
 11
6.6856357579
 21
4.9649463864
 31
0.0
 11
6.6855654653
 21
4.9649388843
 31
0.0
 11
6.6855036686
 21
4.9649314471
 31
0.0
 11
6.6854503453
 21
4.9649240748
 31
0.0
 11
6.6854054726
 21
4.9649167674
 31
0.0
 11
6.6853690281
 21
4.9649095249
 31
0.0
 11
6.6853409889
 21
4.9649023473
 31
0.0
 11
6.6853213325
 21
4.9648952345
 31
0.0
 11
6.6853146408
 21
4.9648917024
 31
0.0
 11
6.6853100363
 21
4.9648881865
 31
0.0
 11
6.6853075162
 21
4.9648846868
 31
0.0
 11
6.6853070776
 21
4.9648812034
 31
0.0
 11
6.6853124339
 21
4.964874285
 31
0.0
  0
SPLINE
  5
515
100
AcDbEntity
  8
0
100
AcDbSpline
 62
9
  6
CONTINUOUS
 70
0
 71
3
 72
15
 73
11
 74
9
 42
0.0000001
 43
0.0000001
 44
0.0000000001
 12
-0.0797468864
 22
-0.0654138921
 32
0.0
 13
-0.1029674598
 23
-0.0060204148
 33
0.0
 40
0.0
 40
0.0
 40
0.0
 40
0.0
 40
0.1251988682
 40
0.2501214117
 40
0.3749054057
 40
0.4996576529
 40
0.6244646058
 40
0.7494031687
 40
0.8745515417
 40
1.0
 40
1.0
 40
1.0
 40
1.0
 10
6.8947325311
 20
4.9665896168
 30
0.0
 10
6.8914044578
 20
4.9638597017
 30
0.0
 10
6.8845306049
 20
4.958673982
 30
0.0
 10
6.8736409874
 20
4.9517535138
 30
0.0
 10
6.8622518222
 20
4.9457218359
 30
0.0
 10
6.8504300033
 20
4.9406008163
 30
0.0
 10
6.8382413032
 20
4.9364115574
 30
0.0
 10
6.8257513491
 20
4.9331755372
 30
0.0
 10
6.8130269785
 20
4.930914409
 30
0.0
 10
6.8044418926
 20
4.9300725548
 30
0.0
 10
6.8001361896
 20
4.9298208042
 30
0.0
 11
6.8947325311
 21
4.9665896168
 31
0.0
 11
6.8844249821
 21
4.9588107346
 31
0.0
 11
6.8735514251
 21
4.9518979165
 31
0.0
 11
6.8621781508
 21
4.9458728135
 31
0.0
 11
6.8503714497
 21
4.9407570763
 31
0.0
 11
6.8381976124
 21
4.9365723559
 31
0.0
 11
6.8257229296
 21
4.9333403032
 31
0.0
 11
6.8130136918
 21
4.931082569
 31
0.0
 11
6.8001361896
 21
4.9298208042
 31
0.0
  0
SPLINE
  5
516
100
AcDbEntity
  8
0
100
AcDbSpline
 62
9
  6
CONTINUOUS
 70
0
 71
3
 72
15
 73
11
 74
9
 42
0.0000001
 43
0.0000001
 44
0.0000000001
 12
-0.1651600325
 22
-0.3492699123
 32
0.0
 13
-0.0015378353
 23
-0.3863482148
 33
0.0
 40
0.0
 40
0.0
 40
0.0
 40
0.0
 40
0.1202169548
 40
0.2423069719
 40
0.3660392554
 40
0.4911579846
 40
0.6173915223
 40
0.7444607966
 40
0.87208716
 40
1.0
 40
1.0
 40
1.0
 40
1.0
 10
5.0351979424
 20
5.5332549945
 30
0.0
 10
5.028579597
 20
5.5192589394
 30
0.0
 10
5.0161065264
 20
5.4906309248
 30
0.0
 10
4.9998164586
 20
5.4463694672
 30
0.0
 10
4.9858436774
 20
5.4006617817
 30
0.0
 10
4.9742457852
 20
5.3537461339
 30
0.0
 10
4.9650794434
 20
5.3058583193
 30
0.0
 10
4.958401943
 20
5.2572343133
 30
0.0
 10
4.9542707298
 20
5.2081123141
 30
0.0
 10
4.9532530335
 20
5.1752001872
 30
0.0
 10
4.9531874639
 20
5.1587272214
 30
0.0
 11
5.0351979424
 21
5.5332549945
 31
0.0
 11
5.0166188238
 21
5.4906868745
 31
0.0
 11
5.0003040089
 21
5.4464285287
 31
0.0
 11
4.9863110329
 21
5.4007182341
 31
0.0
 11
4.9746974308
 21
5.3537942675
 31
0.0
 11
4.9655207377
 21
5.305894906
 31
0.0
 11
4.9588384888
 21
5.2572584266
 31
0.0
 11
4.9547082192
 21
5.208123106
 31
0.0
 11
4.9531874639
 21
5.1587272214
 31
0.0
  0
SPLINE
  5
517
100
AcDbEntity
  8
0
100
AcDbSpline
 62
9
  6
CONTINUOUS
 70
0
 71
3
 72
16
 73
12
 74
10
 42
0.0000001
 43
0.0000001
 44
0.0000000001
 12
-0.0256618146
 22
-0.0452633911
 32
0.0
 13
-0.0498383748
 23
-0.0149478996
 33
0.0
 40
0.0
 40
0.0
 40
0.0
 40
0.0
 40
0.1568386003
 40
0.3036064676
 40
0.4405553597
 40
0.5680837811
 40
0.6867830773
 40
0.7974941188
 40
0.9013701923
 40
0.9512374088
 40
1.0
 40
1.0
 40
1.0
 40
1.0
 10
6.8360174624
 20
4.9665896168
 30
0.0
 10
6.8346758747
 20
4.9642232678
 30
0.0
 10
6.8319657383
 20
4.95970502
 30
0.0
 10
6.8276601091
 20
4.9533869621
 30
0.0
 10
6.8232557929
 20
4.9477688064
 30
0.0
 10
6.8187585191
 20
4.942865508
 30
0.0
 10
6.814172668
 20
4.9386920533
 30
0.0
 10
6.8095030057
 20
4.9352649815
 30
0.0
 10
6.8054887619
 20
4.9330156888
 30
0.0
 10
6.8022576112
 20
4.931632394
 30
0.0
 10
6.8006377049
 20
4.9310765287
 30
0.0
 10
6.7998276221
 20
4.9308335626
 30
0.0
 11
6.8360174624
 21
4.9665896168
 31
0.0
 11
6.8318072415
 21
4.9595989641
 31
0.0
 11
6.8274930422
 21
4.9532977593
 31
0.0
 11
6.8230820666
 21
4.9477014422
 31
0.0
 11
6.8185815171
 21
4.9428254524
 31
0.0
 11
6.8139985956
 21
4.9386852298
 31
0.0
 11
6.8093405046
 21
4.9352962141
 31
0.0
 11
6.804614446
 21
4.9326738452
 31
0.0
 11
6.8022281796
 21
4.9316549781
 31
0.0
 11
6.7998276221
 21
4.9308335626
 31
0.0
  0
SPLINE
  5
518
100
AcDbEntity
  8
0
100
AcDbSpline
 62
9
  6
CONTINUOUS
 70
0
 71
3
 72
8
 73
4
 74
2
 42
0.0000001
 43
0.0000001
 44
0.0000000001
 12
-0.0000506875
 22
-0.0000151575
 32
0.0
 13
-0.0000506875
 23
-0.0000151575
 33
0.0
 40
0.0
 40
0.0
 40
0.0
 40
0.0
 40
1.0
 40
1.0
 40
1.0
 40
1.0
 10
6.7998276221
 20
4.9308335626
 30
0.0
 10
6.7998107263
 20
4.9308285101
 30
0.0
 10
6.7997938304
 20
4.9308234576
 30
0.0
 10
6.7997769346
 20
4.9308184051
 30
0.0
 11
6.7998276221
 21
4.9308335626
 31
0.0
 11
6.7997769346
 21
4.9308184051
 31
0.0
  0
SPLINE
  5
519
100
AcDbEntity
  8
0
100
AcDbSpline
 62
9
  6
CONTINUOUS
 70
0
 71
3
 72
9
 73
5
 74
3
 42
0.0000001
 43
0.0000001
 44
0.0000000001
 12
-0.0076120595
 22
-0.0022695262
 32
0.0
 13
-0.0079403721
 23
-0.0002114034
 33
0.0
 40
0.0
 40
0.0
 40
0.0
 40
0.0
 40
0.5033613772
 40
1.0
 40
1.0
 40
1.0
 40
1.0
 10
6.7997769346
 20
4.9308184051
 30
0.0
 10
6.798499729
 20
4.9304376079
 30
0.0
 10
6.7959124489
 20
4.9298375828
 30
0.0
 10
6.7932674923
 20
4.9295863304
 30
0.0
 10
6.7919529938
 20
4.9295513334
 30
0.0
 11
6.7997769346
 21
4.9308184051
 31
0.0
 11
6.7958804416
 21
4.9299219184
 31
0.0
 11
6.7919529938
 21
4.9295513334
 31
0.0
  0
SPLINE
  5
51A
100
AcDbEntity
  8
0
100
AcDbSpline
 62
9
  6
CONTINUOUS
 70
0
 71
3
 72
15
 73
11
 74
9
 42
0.0000001
 43
0.0000001
 44
0.0000000001
 12
0.0742756678
 22
-0.0635494447
 32
0.0
 13
0.0977482527
 23
-0.0008281525
 33
0.0
 40
0.0
 40
0.0
 40
0.0
 40
0.0
 40
0.1337371487
 40
0.2648379548
 40
0.393339955
 40
0.5192921596
 40
0.6427723788
 40
0.7639062019
 40
0.8828875014
 40
1.0
 40
1.0
 40
1.0
 40
1.0
 10
6.702771258
 20
4.9654476516
 30
0.0
 10
6.7060823967
 20
4.9626146777
 30
0.0
 10
6.712858626
 20
4.9572546176
 30
0.0
 10
6.7235172696
 20
4.9501139167
 30
0.0
 10
6.7344960423
 20
4.9439781154
 30
0.0
 10
6.7457195797
 20
4.9388752024
 30
0.0
 10
6.757113498
 20
4.9348326175
 30
0.0
 10
6.7686038685
 20
4.93187839
 30
0.0
 10
6.7801147552
 20
4.9300409689
 30
0.0
 10
6.7878090273
 20
4.9295767789
 30
0.0
 10
6.7916248747
 20
4.9295444499
 30
0.0
 11
6.702771258
 21
4.9654476516
 31
0.0
 11
6.7130281561
 21
4.9573420694
 31
0.0
 11
6.723678888
 21
4.9502150284
 31
0.0
 11
6.7346479373
 21
4.9440940698
 31
0.0
 11
6.7458597877
 21
4.9390067345
 31
0.0
 11
6.7572389229
 21
4.9349805638
 31
0.0
 11
6.7687098267
 21
4.9320430987
 31
0.0
 11
6.7801969827
 21
4.9302218804
 31
0.0
 11
6.7916248747
 21
4.9295444499
 31
0.0
  0
SPLINE
  5
51B
100
AcDbEntity
  8
0
100
AcDbSpline
 62
9
  6
CONTINUOUS
 70
0
 71
3
 72
15
 73
11
 74
9
 42
0.0000001
 43
0.0000001
 44
0.0000000001
 12
-0.0087769668
 22
0.0181990129
 32
0.0
 13
-0.0172303362
 23
0.0105524751
 33
0.0
 40
0.0
 40
0.0
 40
0.0
 40
0.0
 40
0.1285911914
 40
0.2551768281
 40
0.3802297402
 40
0.5042402146
 40
0.6277114064
 40
0.7511540422
 40
0.8750806985
 40
1.0
 40
1.0
 40
1.0
 40
1.0
 10
6.8987801825
 20
5.5184142864
 30
0.0
 10
6.898403969
 20
5.519194364
 30
0.0
 10
6.8976057924
 20
5.5207181405
 30
0.0
 10
6.8962629076
 20
5.5229009751
 30
0.0
 10
6.8947870133
 20
5.5249585429
 30
0.0
 10
6.89318024
 20
5.5268884242
 30
0.0
 10
6.8914446825
 20
5.5286883637
 30
0.0
 10
6.8895824424
 20
5.5303561062
 30
0.0
 10
6.8875958192
 20
5.5318893227
 30
0.0
 10
6.886197032
 20
5.5328155919
 30
0.0
 10
6.8854795648
 20
5.5332549945
 30
0.0
 11
6.8987801825
 21
5.5184142864
 31
0.0
 11
6.8975733501
 21
5.520715172
 31
0.0
 11
6.8962322048
 21
5.5228929973
 31
0.0
 11
6.8947587965
 21
5.5249456072
 31
0.0
 11
6.8931551755
 21
5.5268708465
 31
0.0
 11
6.8914233917
 21
5.52866656
 31
0.0
 11
6.8895654953
 21
5.5303305926
 31
0.0
 11
6.8875835363
 21
5.5318607891
 31
0.0
 11
6.8854795648
 21
5.5332549945
 31
0.0
  0
SPLINE
  5
51C
100
AcDbEntity
  8
0
100
AcDbSpline
 62
9
  6
CONTINUOUS
 70
0
 71
3
 72
17
 73
13
 74
11
 42
0.0000001
 43
0.0000001
 44
0.0000000001
 12
0.1209048594
 22
-0.0909888618
 32
0.0
 13
0.0646861797
 23
-0.136794211
 33
0.0
 40
0.0
 40
0.0
 40
0.0
 40
0.0
 40
0.1157998338
 40
0.1749005909
 40
0.2347853686
 40
0.2954242823
 40
0.3567826014
 40
0.4814846183
 40
0.6085575022
 40
0.7376124462
 40
0.868235515
 40
1.0
 40
1.0
 40
1.0
 40
1.0
 10
6.793165541
 20
5.6513639696
 30
0.0
 10
6.7978324619
 20
5.6478518046
 30
0.0
 10
6.8046934405
 20
5.642290818
 30
0.0
 10
6.8134874493
 20
5.6343570525
 30
0.0
 10
6.8200030064
 20
5.6280588791
 30
0.0
 10
6.8263858082
 20
5.6214671112
 30
0.0
 10
6.8347528777
 20
5.6122545303
 30
0.0
 10
6.8448220936
 20
5.6000726527
 30
0.0
 10
6.8561801682
 20
5.5845692074
 30
0.0
 10
6.8668148909
 20
5.5682035612
 30
0.0
 10
6.8766613167
 20
5.5510795326
 30
0.0
 10
6.8826384511
 20
5.5392632007
 30
0.0
 10
6.8854795648
 20
5.5332549945
 30
0.0
 11
6.793165541
 21
5.6513639696
 31
0.0
 11
6.8067817388
 21
5.6403349969
 31
0.0
 11
6.8134233761
 21
5.6343462218
 31
0.0
 11
6.8199405367
 21
5.6280502404
 31
0.0
 11
6.826325086
 21
5.6214599879
 31
0.0
 11
6.8325689008
 21
5.6145884353
 31
0.0
 11
6.8446018346
 21
5.600053313
 31
0.0
 11
6.8559743531
 21
5.5845486408
 31
0.0
 11
6.866621471
 21
5.5681781855
 31
0.0
 11
6.8764782033
 21
5.5510457144
 31
0.0
 11
6.8854795648
 21
5.5332549945
 31
0.0
  0
SPLINE
  5
51D
100
AcDbEntity
  8
0
100
AcDbSpline
 62
9
  6
CONTINUOUS
 70
0
 71
3
 72
9
 73
5
 74
3
 42
0.0000001
 43
0.0000001
 44
0.0000000001
 12
-0.0082645586
 22
0.0015077378
 32
0.0
 13
-0.0084009643
 23
0.0
 33
0.0
 40
0.0
 40
0.0
 40
0.0
 40
0.0
 40
0.4944883824
 40
1.0
 40
1.0
 40
1.0
 40
1.0
 10
6.6948183151
 20
5.6967308434
 30
0.0
 10
6.6934560724
 20
5.696979363
 30
0.0
 10
6.6906764234
 20
5.697353732
 30
0.0
 10
6.6878745917
 20
5.6974753045
 30
0.0
 10
6.6864589967
 20
5.6974753045
 30
0.0
 11
6.6948183151
 21
5.6967308434
 31
0.0
 11
6.69070164
 21
5.6972877918
 31
0.0
 11
6.6864589967
 21
5.6974753045
 31
0.0
  0
SPLINE
  5
51E
100
AcDbEntity
  8
0
100
AcDbSpline
 62
9
  6
CONTINUOUS
 70
0
 71
3
 72
66
 73
62
 74
60
 42
0.0000001
 43
0.0000001
 44
0.0000000001
 12
-0.1797150035
 22
-0.1687263893
 32
0.0
 13
-0.0014744057
 23
0.246503353
 33
0.0
 40
0.0
 40
0.0
 40
0.0
 40
0.0
 40
0.0328441094
 40
0.0491265965
 40
0.0653087947
 40
0.0973291087
 40
0.1288246879
 40
0.1443424479
 40
0.1596849154
 40
0.174827054
 40
0.1897484854
 40
0.2044252712
 40
0.2188368456
 40
0.2329621491
 40
0.239912503
 40
0.2467867227
 40
0.2535856822
 40
0.2603114246
 40
0.2669675863
 40
0.2735631328
 40
0.2866177036
 40
0.299564492
 40
0.3124774565
 40
0.3254129464
 40
0.3384155234
 40
0.3515152978
 40
0.378081043
 40
0.40522193
 40
0.4190249422
 40
0.432983445
 40
0.4470998716
 40
0.4613754943
 40
0.4758097879
 40
0.4904032522
 40
0.5200704371
 40
0.5503824196
 40
0.5813420313
 40
0.5970668152
 40
0.6129534694
 40
0.6290018416
 40
0.6452126056
 40
0.6615822949
 40
0.6781056273
 40
0.6947806894
 40
0.7116033655
 40
0.728565085
 40
0.7370967238
 40
0.7456621019
 40
0.7628969385
 40
0.7802751199
 40
0.7977973991
 40
0.8154625471
 40
0.8332731622
 40
0.8512360767
 40
0.8693545374
 40
0.8876291255
 40
0.9060573322
 40
0.9246321285
 40
0.9621563867
 40
0.9810559831
 40
1.0
 40
1.0
 40
1.0
 40
1.0
 10
6.4338312743
 20
5.4537947706
 30
0.0
 10
6.4318637479
 20
5.4519475479
 30
0.0
 10
6.428857443
 20
5.4492507306
 30
0.0
 10
6.4247353349
 20
5.4458140752
 30
0.0
 10
6.4205818686
 20
5.4425231671
 30
0.0
 10
6.4152897596
 20
5.4386600224
 30
0.0
 10
6.4098232386
 20
5.4351449704
 30
0.0
 10
6.405372234
 20
5.4326049349
 30
0.0
 10
6.4020188824
 20
5.4308581554
 30
0.0
 10
6.3986378128
 20
5.4292776263
 30
0.0
 10
6.3952353271
 20
5.4278813327
 30
0.0
 10
6.3918188807
 20
5.4266898515
 30
0.0
 10
6.3883989247
 20
5.4257259641
 30
0.0
 10
6.3855416113
 20
5.4251294594
 30
0.0
 10
6.3832690024
 20
5.4247943354
 30
0.0
 10
6.3815830678
 20
5.4246177461
 30
0.0
 10
6.3799094148
 20
5.4245163742
 30
0.0
 10
6.3782507429
 20
5.4244919305
 30
0.0
 10
6.3766094481
 20
5.4245468156
 30
0.0
 10
6.3744544741
 20
5.4247243267
 30
0.0
 10
6.3718031725
 20
5.4251329476
 30
0.0
 10
6.3686949747
 20
5.4258995568
 30
0.0
 10
6.3656697125
 20
5.426914712
 30
0.0
 10
6.3627244509
 20
5.42815302
 30
0.0
 10
6.3598554481
 20
5.429592508
 30
0.0
 10
6.3561077637
 20
5.4317609313
 30
0.0
 10
6.3515840654
 20
5.4348868494
 30
0.0
 10
6.3472972603
 20
5.4384156813
 30
0.0
 10
6.3439661987
 20
5.441458915
 30
0.0
 10
6.3414988504
 20
5.4438582943
 30
0.0
 10
6.3390750734
 20
5.4463559306
 30
0.0
 10
6.3366928614
 20
5.4489465328
 30
0.0
 10
6.3343497024
 20
5.4516247665
 30
0.0
 10
6.3312598279
 20
5.4553283869
 30
0.0
 10
6.3274953175
 20
5.4601658843
 30
0.0
 10
6.323153027
 20
5.4662494959
 30
0.0
 10
6.3196929104
 20
5.4715486115
 30
0.0
 10
6.3170172482
 20
5.4759393072
 30
0.0
 10
6.3150526664
 20
5.4793274463
 30
0.0
 10
6.3131462517
 20
5.4827942972
 30
0.0
 10
6.3113030209
 20
5.4863399921
 30
0.0
 10
6.3095322931
 20
5.4899660203
 30
0.0
 10
6.3078468748
 20
5.4936745353
 30
0.0
 10
6.3062594123
 20
5.4974665286
 30
0.0
 10
6.3047826516
 20
5.501341638
 30
0.0
 10
6.3036566069
 20
5.5046321804
 30
0.0
 10
6.3028234046
 20
5.5073039996
 30
0.0
 10
6.30203342
 20
5.5100122983
 30
0.0
 10
6.3011309286
 20
5.5134443182
 30
0.0
 10
6.3001781941
 20
5.5176216623
 30
0.0
 10
6.2993492101
 20
5.5218613599
 30
0.0
 10
6.2986485592
 20
5.5261601693
 30
0.0
 10
6.2980748563
 20
5.5305141448
 30
0.0
 10
6.2976102903
 20
5.5349183914
 30
0.0
 10
6.2972410603
 20
5.5393698219
 30
0.0
 10
6.2969571584
 20
5.5438657357
 30
0.0
 10
6.296745488
 20
5.5484030808
 30
0.0
 10
6.2965402185
 20
5.5545236309
 30
0.0
 10
6.2964343564
 20
5.5606856591
 30
0.0
 10
6.296381191
 20
5.5668783353
 30
0.0
 10
6.2963636339
 20
5.5699878736
 30
0.0
 10
6.2963543235
 20
5.5715444615
 30
0.0
 11
6.4338312743
 21
5.4537947706
 31
0.0
 11
6.4278017467
 21
5.448391501
 31
0.0
 11
6.424718449
 21
5.4458217655
 31
0.0
 11
6.4215911761
 21
5.4433453601
 31
0.0
 11
6.4152102816
 21
5.4386991062
 31
0.0
 11
6.408671391
 21
5.4345132816
 31
0.0
 11
6.4053479044
 21
5.4326193542
 31
0.0
 11
6.4019921734
 21
5.43087497
 31
0.0
 11
6.3986092779
 21
5.4292973995
 31
0.0
 11
6.3952048392
 21
5.4279048081
 31
0.0
 11
6.3917871003
 21
5.4267179794
 31
0.0
 11
6.3883662541
 21
5.4257595802
 31
0.0
 11
6.3849563963
 21
5.4250544757
 31
0.0
 11
6.3832612816
 21
5.4248053998
 31
0.0
 11
6.3815758853
 21
5.4246295193
 31
0.0
 11
6.3799029148
 21
5.4245288556
 31
0.0
 11
6.3782451355
 21
5.4245052276
 31
0.0
 11
6.3766052664
 21
5.424560357
 31
0.0
 11
6.3749848783
 21
5.4246935548
 31
0.0
 11
6.3718039959
 21
5.4251812563
 31
0.0
 11
6.3687045407
 21
5.4259421419
 31
0.0
 11
6.3656854747
 21
5.4269509327
 31
0.0
 11
6.3627444788
 21
5.4281831428
 31
0.0
 11
6.3598777234
 21
5.4296167579
 31
0.0
 11
6.3570808526
 21
5.4312308277
 31
0.0
 11
6.35167839
 21
5.4349319596
 31
0.0
 11
6.3465011727
 21
5.4391696948
 31
0.0
 11
6.3439876757
 21
5.4414630933
 31
0.0
 11
6.3415198579
 21
5.4438609102
 31
0.0
 11
6.339095459
 21
5.4463571791
 31
0.0
 11
6.3367124388
 21
5.4489465691
 31
0.0
 11
6.3343688473
 21
5.4516239036
 31
0.0
 11
6.332063755
 21
5.4543857603
 31
0.0
 11
6.3275679504
 21
5.4601538197
 31
0.0
 11
6.3232261029
 21
5.4662350384
 31
0.0
 11
6.3190529681
 21
5.4726248023
 31
0.0
 11
6.3170362244
 21
5.4759351348
 31
0.0
 11
6.315072169
 21
5.4793231992
 31
0.0
 11
6.3131661955
 21
5.4827898378
 31
0.0
 11
6.3113239114
 21
5.4863359114
 31
0.0
 11
6.3095546062
 21
5.4899625966
 31
0.0
 11
6.3078706711
 21
5.493671336
 31
0.0
 11
6.3062845966
 21
5.4974635442
 31
0.0
 11
6.3048089689
 21
5.5013390404
 31
0.0
 11
6.3034565052
 21
5.5052954577
 31
0.0
 11
6.3028304178
 21
5.5073032197
 31
0.0
 11
6.302238903
 21
5.509330103
 31
0.0
 11
6.3011564705
 21
5.5134384203
 31
0.0
 11
6.3002024934
 21
5.5176147051
 31
0.0
 11
6.2993737147
 21
5.5218538266
 31
0.0
 11
6.2986723377
 21
5.5261515676
 31
0.0
 11
6.2980952495
 21
5.5305039305
 31
0.0
 11
6.297627974
 21
5.5349072042
 31
0.0
 11
6.2972566809
 21
5.5393580856
 31
0.0
 11
6.2969702327
 21
5.543853797
 31
0.0
 11
6.2967559147
 21
5.5483914345
 31
0.0
 11
6.2966006691
 21
5.5529676334
 31
0.0
 11
6.2964256884
 21
5.5622159992
 31
0.0
 11
6.2963835015
 21
5.5668747054
 31
0.0
 11
6.2963543235
 21
5.5715444615
 31
0.0
  0
SPLINE
  5
51F
100
AcDbEntity
  8
0
100
AcDbSpline
 62
9
  6
CONTINUOUS
 70
0
 71
3
 72
32
 73
28
 74
26
 42
0.0000001
 43
0.0000001
 44
0.0000000001
 12
-0.1751900136
 22
-0.0658743708
 32
0.0
 13
-0.0
 23
0.1871656315
 33
0.0
 40
0.0
 40
0.0
 40
0.0
 40
0.0
 40
0.0300136834
 40
0.0598477573
 40
0.0895247233
 40
0.1190763869
 40
0.148545004
 40
0.163266796
 40
0.1779889394
 40
0.207460163
 40
0.2370165233
 40
0.2666997944
 40
0.2965413485
 40
0.3567522902
 40
0.4177666811
 40
0.4795810908
 40
0.5421386783
 40
0.6053636381
 40
0.6691934947
 40
0.7336098342
 40
0.7986677767
 40
0.8314959248
 40
0.8645530811
 40
0.8978787099
 40
0.9315213861
 40
0.9655392005
 40
1.0
 40
1.0
 40
1.0
 40
1.0
 10
6.4644287198
 20
5.4736629338
 30
0.0
 10
6.4626760206
 20
5.4730038896
 30
0.0
 10
6.4591405265
 20
5.4717946635
 30
0.0
 10
6.4537502696
 20
5.4703180567
 30
0.0
 10
6.4483043069
 20
5.4691953363
 30
0.0
 10
6.4428186203
 20
5.4684379127
 30
0.0
 10
6.4382248947
 20
5.4681204713
 30
0.0
 10
6.4345492363
 20
5.4680607372
 30
0.0
 10
6.4308736216
 20
5.4681319286
 30
0.0
 10
6.4262804098
 20
5.4684633551
 30
0.0
 10
6.4207961747
 20
5.469237055
 30
0.0
 10
6.4153522272
 20
5.4703755992
 30
0.0
 10
6.4081489602
 20
5.4723702539
 30
0.0
 10
6.399316387
 20
5.4757302577
 30
0.0
 10
6.3891712049
 20
5.4810253257
 30
0.0
 10
6.3795637067
 20
5.4875076094
 30
0.0
 10
6.3706170044
 20
5.495088844
 30
0.0
 10
6.3624536009
 20
5.5036820849
 30
0.0
 10
6.3551973852
 20
5.5132013607
 30
0.0
 10
6.3489737413
 20
5.5235598535
 30
0.0
 10
6.34476456
 20
5.5327963846
 30
0.0
 10
6.3420396414
 20
5.5405020927
 30
0.0
 10
6.3403265554
 20
5.5464539952
 30
0.0
 10
6.3389667741
 20
5.5525484252
 30
0.0
 10
6.3379760025
 20
5.5587745915
 30
0.0
 10
6.3373701212
 20
5.5651209407
 30
0.0
 10
6.3372343343
 20
5.5693944908
 30
0.0
 10
6.3372343343
 20
5.5715444499
 30
0.0
 11
6.4644287198
 21
5.4736629338
 31
0.0
 11
6.4591128336
 21
5.4718468949
 31
0.0
 11
6.4537267839
 21
5.4703736143
 31
0.0
 11
6.448286239
 21
5.4692542255
 31
0.0
 11
6.4428068673
 21
5.4684998624
 31
0.0
 11
6.4373043372
 21
5.4681216586
 31
0.0
 11
6.434549284
 21
5.4680770956
 31
0.0
 11
6.4317943169
 21
5.4681302199
 31
0.0
 11
6.426292475
 21
5.4685251798
 31
0.0
 11
6.4208144797
 21
5.4692958099
 31
0.0
 11
6.4153759994
 21
5.4704309765
 31
0.0
 11
6.4099927025
 21
5.4719195461
 31
0.0
 11
6.3994543323
 21
5.4759123592
 31
0.0
 11
6.389324716
 21
5.4811851798
 31
0.0
 11
6.3797292005
 21
5.4876489385
 31
0.0
 11
6.3707931327
 21
5.4952145658
 31
0.0
 11
6.3626418595
 21
5.5037929924
 31
0.0
 11
6.3554007278
 21
5.5132951488
 31
0.0
 11
6.3491950846
 21
5.5236319658
 31
0.0
 11
6.3441502767
 21
5.5347143737
 31
0.0
 11
6.3421023569
 21
5.5405073402
 31
0.0
 11
6.3403916511
 21
5.5464533033
 31
0.0
 11
6.3390338275
 21
5.5525411296
 31
0.0
 11
6.3380445546
 21
5.5587596852
 31
0.0
 11
6.3374395008
 21
5.5650978365
 31
0.0
 11
6.3372343343
 21
5.5715444499
 31
0.0
  0
SPLINE
  5
520
100
AcDbEntity
  8
0
100
AcDbSpline
 62
9
  6
CONTINUOUS
 70
0
 71
3
 72
15
 73
11
 74
9
 42
0.0000001
 43
0.0000001
 44
0.0000000001
 12
-0.0155158722
 22
0.0293590256
 32
0.0
 13
0.0071503795
 23
0.0324278699
 33
0.0
 40
0.0
 40
0.0
 40
0.0
 40
0.0
 40
0.1043323468
 40
0.21275221
 40
0.3259204873
 40
0.4447179663
 40
0.5702313635
 40
0.703704665
 40
0.8464874422
 40
1.0
 40
1.0
 40
1.0
 40
1.0
 10
6.5205859721
 20
5.41222714
 30
0.0
 10
6.5200463696
 20
5.413248172
 30
0.0
 10
6.5190303679
 20
5.4153761715
 30
0.0
 10
6.5177589543
 20
5.4187570888
 30
0.0
 10
6.5167539843
 20
5.4223938417
 30
0.0
 10
6.5160575774
 20
5.4262948475
 30
0.0
 10
6.5157092787
 20
5.4304679851
 30
0.0
 10
6.5157454422
 20
5.4349210388
 30
0.0
 10
6.516202479
 20
5.4396617521
 30
0.0
 10
6.5167888038
 20
5.4428928472
 30
0.0
 10
6.5171546948
 20
5.4445522089
 30
0.0
 11
6.5205859721
 21
5.41222714
 31
0.0
 11
6.5190946319
 21
5.4153542792
 31
0.0
 11
6.5178277967
 21
5.4187243173
 31
0.0
 11
6.5168260549
 21
5.4223463042
 31
0.0
 11
6.5161299374
 21
5.4262292896
 31
0.0
 11
6.5157781728
 21
5.430382323
 31
0.0
 11
6.515807379
 21
5.4348144543
 31
0.0
 11
6.5162540538
 21
5.439534733
 31
0.0
 11
6.5171546948
 21
5.4445522089
 31
0.0
  0
SPLINE
  5
521
100
AcDbEntity
  8
0
100
AcDbSpline
 62
9
  6
CONTINUOUS
 70
0
 71
3
 72
22
 73
18
 74
16
 42
0.0000001
 43
0.0000001
 44
0.0000000001
 12
-0.0052267044
 22
0.0302780265
 32
0.0
 13
0.0214787303
 23
0.0219713785
 33
0.0
 40
0.0
 40
0.0
 40
0.0
 40
0.0
 40
0.0352569161
 40
0.0724292115
 40
0.1538982719
 40
0.1990080755
 40
0.2475187651
 40
0.2998123749
 40
0.3562674503
 40
0.4172568036
 40
0.4831445292
 40
0.5542772745
 40
0.6309889099
 40
0.7136040733
 40
0.8024392046
 40
0.8978035357
 40
1.0
 40
1.0
 40
1.0
 40
1.0
 10
6.5664578832
 20
5.2772308908
 30
0.0
 10
6.5663964573
 20
5.2775867274
 30
0.0
 10
6.5663066977
 20
5.2783244834
 30
0.0
 10
6.5662626843
 20
5.2799018301
 30
0.0
 10
6.5664434623
 20
5.2815785942
 30
0.0
 10
6.5668379784
 20
5.2833289268
 30
0.0
 10
6.5672729481
 20
5.2847601477
 30
0.0
 10
6.5678453192
 20
5.2862668236
 30
0.0
 10
6.5685634113
 20
5.2878511833
 30
0.0
 10
6.5694355334
 20
5.2895150871
 30
0.0
 10
6.5704699683
 20
5.2912604089
 30
0.0
 10
6.5716743394
 20
5.2930892298
 30
0.0
 10
6.5730562434
 20
5.2950035724
 30
0.0
 10
6.5746232789
 20
5.2970054193
 30
0.0
 10
6.576383059
 20
5.2990967534
 30
0.0
 10
6.5783431794
 20
5.3012795264
 30
0.0
 10
6.5797389486
 20
5.3027448818
 30
0.0
 10
6.580470632
 20
5.3034933475
 30
0.0
 11
6.5664578832
 21
5.2772308908
 31
0.0
 11
6.5663254319
 21
5.2783060615
 31
0.0
 11
6.5662915413
 21
5.2794477086
 31
0.0
 11
6.5665438632
 21
5.2819381646
 31
0.0
 11
6.566846134
 21
5.2832908397
 31
0.0
 11
6.5672770478
 21
5.2847177238
 31
0.0
 11
6.5678450324
 21
5.28622075
 31
0.0
 11
6.5685585158
 21
5.2878018514
 31
0.0
 11
6.5694259257
 21
5.2894629612
 31
0.0
 11
6.5704555827
 21
5.2912060125
 31
0.0
 11
6.5716552692
 21
5.2930329384
 31
0.0
 11
6.5730325993
 21
5.2949456721
 31
0.0
 11
6.5745951867
 21
5.2969461467
 31
0.0
 11
6.5763506454
 21
5.2990362954
 31
0.0
 11
6.5783065892
 21
5.3012180513
 31
0.0
 11
6.580470632
 21
5.3034933475
 31
0.0
  0
SPLINE
  5
522
100
AcDbEntity
  8
0
100
AcDbSpline
 62
9
  6
CONTINUOUS
 70
0
 71
3
 72
25
 73
21
 74
19
 42
0.0000001
 43
0.0000001
 44
0.0000000001
 12
0.0027427001
 22
0.0110242209
 32
0.0
 13
-0.0113389235
 23
0.0006961786
 33
0.0
 40
0.0
 40
0.0
 40
0.0
 40
0.0
 40
0.0067659317
 40
0.0140199363
 40
0.0227940641
 40
0.0336111317
 40
0.0466837986
 40
0.0620757348
 40
0.0797787233
 40
0.0997474178
 40
0.1462008821
 40
0.2007940102
 40
0.2627871604
 40
0.3313664539
 40
0.405587264
 40
0.484469412
 40
0.5670243676
 40
0.6522582629
 40
0.8267697392
 40
1.0
 40
1.0
 40
1.0
 40
1.0
 10
6.9738894628
 20
5.081956879
 30
0.0
 10
6.9738956484
 20
5.081981742
 30
0.0
 10
6.9738968021
 20
5.0820371356
 30
0.0
 10
6.9738582649
 20
5.0821168628
 30
0.0
 10
6.9737872482
 20
5.0821909145
 30
0.0
 10
6.973685764
 20
5.0822624402
 30
0.0
 10
6.9735541773
 20
5.0823323507
 30
0.0
 10
6.9733931961
 20
5.0824009109
 30
0.0
 10
6.9732037358
 20
5.0824681338
 30
0.0
 10
6.9728988114
 20
5.082560634
 30
0.0
 10
6.9724533487
 20
5.0826694164
 30
0.0
 10
6.971847565
 20
5.082789125
 30
0.0
 10
6.9711556148
 20
5.0829030979
 30
0.0
 10
6.9703876179
 20
5.0830110876
 30
0.0
 10
6.9695543517
 20
5.083113139
 30
0.0
 10
6.9686671405
 20
5.0832092522
 30
0.0
 10
6.9677374071
 20
5.0832994615
 30
0.0
 10
6.9664461487
 20
5.0834127977
 30
0.0
 10
6.9648112749
 20
5.0835375357
 30
0.0
 10
6.9634972597
 20
5.0836236283
 30
0.0
 10
6.9628425115
 20
5.0836638281
 30
0.0
 11
6.9738894628
 21
5.081956879
 31
0.0
 11
6.9738909729
 21
5.082033727
 31
0.0
 11
6.9738577005
 21
5.0821091189
 31
0.0
 11
6.9737908391
 21
5.0821830443
 31
0.0
 11
6.9736915823
 21
5.0822554927
 31
0.0
 11
6.9735611235
 21
5.0823264537
 31
0.0
 11
6.9734006564
 21
5.0823959169
 31
0.0
 11
6.9732113744
 21
5.0824638719
 31
0.0
 11
6.9729944709
 21
5.0825303081
 31
0.0
 11
6.9724825741
 21
5.0826585826
 31
0.0
 11
6.9718745139
 21
5.082780657
 31
0.0
 11
6.9711798388
 21
5.0828964478
 31
0.0
 11
6.9704084869
 21
5.0830059074
 31
0.0
 11
6.9695716571
 21
5.0831091042
 31
0.0
 11
6.9686808023
 21
5.0832061299
 31
0.0
 11
6.9677473754
 21
5.0832970762
 31
0.0
 11
6.9667828294
 21
5.0833820349
 31
0.0
 11
6.9648061913
 21
5.0835343563
 31
0.0
 11
6.9628425115
 21
5.0836638281
 31
0.0
  0
SPLINE
  5
523
100
AcDbEntity
  8
0
100
AcDbSpline
 62
6
  6
CONTINUOUS
 70
0
 71
3
 72
24
 73
20
 74
18
 42
0.0000001
 43
0.0000001
 44
0.0000000001
 12
-0.0007031743
 22
0.0140354673
 32
0.0
 13
-0.0140186801
 23
0.0009825509
 33
0.0
 40
0.0
 40
0.0
 40
0.0
 40
0.0
 40
0.0066234328
 40
0.0137888017
 40
0.0219049438
 40
0.0312563121
 40
0.0420295177
 40
0.0543463298
 40
0.0838976159
 40
0.1203203741
 40
0.1638142879
 40
0.214492536
 40
0.2724235923
 40
0.3376507756
 40
0.4102022553
 40
0.4900965666
 40
0.5773458388
 40
0.7739343071
 40
1.0
 40
1.0
 40
1.0
 40
1.0
 10
6.9811001079
 20
5.156289795
 30
0.0
 10
6.9810985554
 20
5.1563207826
 30
0.0
 10
6.9810855862
 20
5.1563851039
 30
0.0
 10
6.9810388367
 20
5.156477501
 30
0.0
 10
6.9809658137
 20
5.1565676924
 30
0.0
 10
6.9808669591
 20
5.156656214
 30
0.0
 10
6.9807422612
 20
5.1567435451
 30
0.0
 10
6.980528018
 20
5.1568661511
 30
0.0
 10
6.980190985
 20
5.1570130361
 30
0.0
 10
6.9797048616
 20
5.1571771856
 30
0.0
 10
6.9791143282
 20
5.1573380329
 30
0.0
 10
6.9784192754
 20
5.1574954454
 30
0.0
 10
6.9776194909
 20
5.1576491939
 30
0.0
 10
6.9767149816
 20
5.1577991286
 30
0.0
 10
6.9757057682
 20
5.1579451097
 30
0.0
 10
6.9745919125
 20
5.1580870382
 30
0.0
 10
6.9728987957
 20
5.158278404
 30
0.0
 10
6.9705205898
 20
5.1585027399
 30
0.0
 10
6.9685464314
 20
5.1586539747
 30
0.0
 10
6.9674900505
 20
5.1587280151
 30
0.0
 11
6.9811001079
 21
5.156289795
 31
0.0
 11
6.9810822983
 21
5.1563811548
 31
0.0
 11
6.9810380763
 21
5.1564716202
 31
0.0
 11
6.9809674542
 21
5.1565611828
 31
0.0
 11
6.9808704441
 21
5.1566498341
 31
0.0
 11
6.9807470581
 21
5.1567375658
 31
0.0
 11
6.9805973085
 21
5.1568243694
 31
0.0
 11
6.9802187671
 21
5.1569951589
 31
0.0
 11
6.979734917
 21
5.1571621356
 31
0.0
 11
6.9791458558
 21
5.1573252321
 31
0.0
 11
6.9784516808
 21
5.1574843814
 31
0.0
 11
6.9776524893
 21
5.1576395163
 31
0.0
 11
6.9767483787
 21
5.1577905695
 31
0.0
 11
6.9757394465
 21
5.157937474
 31
0.0
 11
6.97462579
 21
5.1580801625
 31
0.0
 11
6.9734075065
 21
5.158218568
 31
0.0
 11
6.9706574481
 21
5.1584822608
 31
0.0
 11
6.9674900505
 21
5.1587280151
 31
0.0
  0
SPLINE
  5
524
100
AcDbEntity
  8
0
100
AcDbSpline
 62
9
  6
CONTINUOUS
 70
0
 71
3
 72
29
 73
25
 74
23
 42
0.0000001
 43
0.0000001
 44
0.0000000001
 12
0.0048684092
 22
0.0066975927
 32
0.0
 13
-0.0082795089
 23
0.0000942791
 33
0.0
 40
0.0
 40
0.0
 40
0.0
 40
0.0
 40
0.0020112067
 40
0.0037803524
 40
0.0077249574
 40
0.0103833793
 40
0.0136146645
 40
0.0219230285
 40
0.032768193
 40
0.0461396801
 40
0.0619871526
 40
0.0802430949
 40
0.1008314635
 40
0.1236715252
 40
0.1486797619
 40
0.1757709006
 40
0.235853203
 40
0.3031596565
 40
0.3768509904
 40
0.4560791474
 40
0.539993528
 40
0.6277419272
 40
0.8113265646
 40
1.0
 40
1.0
 40
1.0
 40
1.0
 10
6.9385596595
 20
5.0055874379
 30
0.0
 10
6.9385629233
 20
5.005591928
 30
0.0
 10
6.9385681377
 20
5.0056012236
 30
0.0
 10
6.9385703709
 20
5.0056232016
 30
0.0
 10
6.9385560381
 20
5.0056440679
 30
0.0
 10
6.9385348173
 20
5.0056606394
 30
0.0
 10
6.9385008304
 20
5.0056805592
 30
0.0
 10
6.9384432554
 20
5.0057034498
 30
0.0
 10
6.9383570753
 20
5.005728796
 30
0.0
 10
6.9382492249
 20
5.0057534361
 30
0.0
 10
6.9381203855
 20
5.0057774226
 30
0.0
 10
6.937971216
 20
5.0058006523
 30
0.0
 10
6.9378024432
 20
5.0058231078
 30
0.0
 10
6.9376147945
 20
5.0058447612
 30
0.0
 10
6.9374090076
 20
5.0058656007
 30
0.0
 10
6.9371006155
 20
5.0058932447
 30
0.0
 10
6.9366754128
 20
5.00592503
 30
0.0
 10
6.9361214441
 20
5.0059587753
 30
0.0
 10
6.9355143774
 20
5.005989349
 30
0.0
 10
6.934861283
 20
5.0060167993
 30
0.0
 10
6.9341692453
 20
5.006041186
 30
0.0
 10
6.9331891802
 20
5.0060701338
 30
0.0
 10
6.9319198504
 20
5.0060982905
 30
0.0
 10
6.9308925139
 20
5.0061133403
 30
0.0
 10
6.9303718061
 20
5.0061192696
 30
0.0
 11
6.9385596595
 21
5.0055874379
 31
0.0
 11
6.938567305
 21
5.005602232
 31
0.0
 11
6.9385686458
 21
5.0056168191
 31
0.0
 11
6.9385527855
 21
5.0056453712
 31
0.0
 11
6.9385357703
 21
5.0056593356
 31
0.0
 11
6.9385128224
 21
5.0056730919
 31
0.0
 11
6.9384495005
 21
5.0056999788
 31
0.0
 11
6.9383635638
 21
5.0057260295
 31
0.0
 11
6.9382557561
 21
5.0057512416
 31
0.0
 11
6.9381268214
 21
5.0057756129
 31
0.0
 11
6.9379775037
 21
5.0057991408
 31
0.0
 11
6.9378085468
 21
5.0058218231
 31
0.0
 11
6.9376206947
 21
5.0058436575
 31
0.0
 11
6.9374146913
 21
5.0058646414
 31
0.0
 11
6.9371912806
 21
5.0058847726
 31
0.0
 11
6.9366952266
 21
5.0059224686
 31
0.0
 11
6.9361389829
 21
5.0059567723
 31
0.0
 11
6.935529603
 21
5.0059877663
 31
0.0
 11
6.9348741783
 21
5.0060155364
 31
0.0
 11
6.9341798001
 21
5.0060401687
 31
0.0
 11
6.9334535599
 21
5.006061749
 31
0.0
 11
6.9319338589
 21
5.0060960976
 31
0.0
 11
6.9303718061
 21
5.0061192696
 31
0.0
  0
SPLINE
  5
525
100
AcDbEntity
  8
0
100
AcDbSpline
 62
9
  6
CONTINUOUS
 70
0
 71
3
 72
29
 73
25
 74
23
 42
0.0000001
 43
0.0000001
 44
0.0000000001
 12
0.0049006143
 22
0.0064736864
 32
0.0
 13
-0.0081192003
 23
0.0000567741
 33
0.0
 40
0.0
 40
0.0
 40
0.0
 40
0.0
 40
0.0018903677
 40
0.0035385771
 40
0.0073063542
 40
0.0099106967
 40
0.0131022666
 40
0.0213571647
 40
0.0321665787
 40
0.045510898
 40
0.0613354803
 40
0.0795706786
 40
0.1001394178
 40
0.1229605427
 40
0.1479504772
 40
0.1750241198
 40
0.2350750563
 40
0.3023565447
 40
0.3760347449
 40
0.4552681105
 40
0.5392128835
 40
0.6270239099
 40
0.8108594003
 40
1.0
 40
1.0
 40
1.0
 40
1.0
 10
6.9362200168
 20
5.0024389972
 30
0.0
 10
6.9362231048
 20
5.0024430764
 30
0.0
 10
6.9362280657
 20
5.0024515432
 30
0.0
 10
6.9362298516
 20
5.0024720587
 30
0.0
 10
6.9362151836
 20
5.002490987
 30
0.0
 10
6.9361943769
 20
5.0025059077
 30
0.0
 10
6.9361607126
 20
5.0025240626
 30
0.0
 10
6.9361040295
 20
5.0025448116
 30
0.0
 10
6.9360193092
 20
5.0025677662
 30
0.0
 10
6.9359133803
 20
5.0025900167
 30
0.0
 10
6.935786895
 20
5.0026116231
 30
0.0
 10
6.9356405091
 20
5.0026324823
 30
0.0
 10
6.9354749293
 20
5.0026525806
 30
0.0
 10
6.9352908655
 20
5.0026718917
 30
0.0
 10
6.9350890352
 20
5.0026904058
 30
0.0
 10
6.9347865837
 20
5.002714864
 30
0.0
 10
6.934369603
 20
5.002742777
 30
0.0
 10
6.9338263555
 20
5.0027720997
 30
0.0
 10
6.9332309802
 20
5.0027983369
 30
0.0
 10
6.9325903516
 20
5.0028215436
 30
0.0
 10
6.9319113556
 20
5.0028417857
 30
0.0
 10
6.9309492427
 20
5.0028652702
 30
0.0
 10
6.9297023114
 20
5.0028869797
 30
0.0
 10
6.9286929083
 20
5.0028972432
 30
0.0
 10
6.9281810181
 20
5.0029008226
 30
0.0
 11
6.9362200168
 21
5.0024389972
 31
0.0
 11
6.9362272362
 21
5.0024525419
 31
0.0
 11
6.9362282935
 21
5.0024658826
 31
0.0
 11
6.9362122833
 21
5.0024919507
 31
0.0
 11
6.9361953967
 21
5.0025046779
 31
0.0
 11
6.9361727095
 21
5.0025172001
 31
0.0
 11
6.9361102952
 21
5.0025416293
 31
0.0
 11
6.9360257639
 21
5.0025652368
 31
0.0
 11
6.9359198387
 21
5.0025880211
 31
0.0
 11
6.9357932431
 21
5.0026099806
 31
0.0
 11
6.9356467003
 21
5.002631114
 31
0.0
 11
6.9354809335
 21
5.0026514196
 31
0.0
 11
6.9352966661
 21
5.0026708961
 31
0.0
 11
6.9350946214
 21
5.0026895418
 31
0.0
 11
6.9348755227
 21
5.0027073554
 31
0.0
 11
6.9343890718
 21
5.0027404815
 31
0.0
 11
6.9338436014
 21
5.0027703085
 31
0.0
 11
6.9332459711
 21
5.0027969231
 31
0.0
 11
6.9326030729
 21
5.0028204153
 31
0.0
 11
6.9319217989
 21
5.0028408747
 31
0.0
 11
6.9312090414
 21
5.0028583911
 31
0.0
 11
6.9297166441
 21
5.0028849541
 31
0.0
 11
6.9281810181
 21
5.0029008226
 31
0.0
  0
LINE
  5
526
100
AcDbEntity
  8
0
100
AcDbLine
 62
9
  6
CONTINUOUS
 10
6.7919666057
 20
4.9295470168
 11
6.7916248747
 21
4.9295444499
  0
LINE
  5
527
100
AcDbEntity
  8
0
100
AcDbLine
 62
9
  6
CONTINUOUS
 10
6.9008507696
 20
4.9666764232
 11
6.8947325311
 21
4.9665896168
  0
ENDSEC
  0
SECTION
  2
OBJECTS
  0
DICTIONARY
  5
C
100
AcDbDictionary
280
0
281
1
  3
ACAD_GROUP
350
D
  3
ACAD_MLINESTYLE
350
17
  3
ACAD_LAYOUT
350
1A
  3
ACAD_PLOTSETTINGS
350
19
  3
ACAD_PLOTSTYLENAME
350
E
  0
DICTIONARY
  5
D
102
{ACAD_REACTORS
330
C
102
}
100
AcDbDictionary
280
0
281
1
  0
ACDBDICTIONARYWDFLT
  5
E
102
{ACAD_REACTORS
330
C
102
}
100
AcDbDictionary
281
1
  3
Normal
350
F
100
AcDbDictionaryWithDefault
340
F
  0
DICTIONARY
  5
17
102
{ACAD_REACTORS
330
C
102
}
100
AcDbDictionary
280
0
281
1
  3
Standard
350
18
  0
DICTIONARY
  5
19
102
{ACAD_REACTORS
330
C
102
}
100
AcDbDictionary
281
1
  0
DICTIONARY
  5
1A
102
{ACAD_REACTORS
330
C
102
}
100
AcDbDictionary
281
1
  3
Model
350
528
  3
Layout1
350
529
  0
ACDBPLACEHOLDER
  5
F
102
{ACAD_REACTORS
330
E
102
}
  0
MLINESTYLE
  5
18
102
{ACAD_REACTORS
330
17
102
}
100
AcDbMlineStyle
  2
STANDARD
 70
0
  3

 62
256
 51
90.0
 52
90.0
 71
2
 49
0.5
 62
256
  6
BYLAYER
 49
-0.5
 62
256
  6
BYLAYER
  0
LAYOUT
  5
528
102
{ACAD_REACTORS
330
1A
102
}
100
AcDbPlotSettings
  1

  2
none_device
  4
ISO_A4_(297.00_x_210.00_MM)
  6

 40
0.0
 41
0.0
 42
0.0
 43
0.0
 44
297.0
 45
210.0
 46
0.0
 47
0.0
 48
0.0
 49
0.0
140
0.0
141
0.0
142
1.0
143
1.0
 70
1024
 72
0
 73
0
 74
0
  7

 75
0
147
1.0
148
0.0
149
0.0
100
AcDbLayout
  1
Model
 70
0
 71
0
 10
0.0
 20
0.0
 11
11.6929133858
 21
8.2677165354
 12
0.0
 22
0.0
 32
0.0
 14
0.0
 24
0.0
 34
0.0
 15
0.0
 25
0.0
 35
0.0
146
0.0
 13
0.0
 23
0.0
 33
0.0
 16
1.0
 26
0.0
 36
0.0
 17
0.0
 27
1.0
 37
0.0
 76
0
330
203
345
0
346
0
  0
LAYOUT
  5
529
102
{ACAD_REACTORS
330
1A
102
}
100
AcDbPlotSettings
  1

  2
none_device
  4
ISO_A4_(297.00_x_210.00_MM)
  6

 40
0.0
 41
0.0
 42
0.0
 43
0.0
 44
297.0
 45
210.0
 46
0.0
 47
0.0
 48
0.0
 49
0.0
140
0.0
141
0.0
142
1.0
143
1.0
 70
0
 72
0
 73
0
 74
0
  7

 75
0
147
1.0
148
0.0
149
0.0
100
AcDbLayout
  1
Layout1
 70
0
 71
1
 10
0.0
 20
0.0
 11
11.6929133858
 21
8.2677165354
 12
0.0
 22
0.0
 32
0.0
 14
0.0
 24
0.0
 34
0.0
 15
0.0
 25
0.0
 35
0.0
146
0.0
 13
0.0
 23
0.0
 33
0.0
 16
1.0
 26
0.0
 36
0.0
 17
0.0
 27
1.0
 37
0.0
 76
0
330
204
345
0
346
0
  0
ENDSEC
  0
EOF
