  0
SECTION
  2
HEADER
  9
$ACADVER
  1
AC1015
  9
$DWGCODEPAGE
  3
ANSI_1252
  9
$EXTMAX
 10
11.6929133858
 20
8.2677165354
 30
0.0
  9
$EXTMIN
 10
0.0
 20
0.0
 30
0.0
  9
$LIMMIN
 10
0.0
 20
0.0
  9
$LIMMAX
 10
11.6929133858
 20
8.2677165354
  9
$VIEWCTR
 10
5.8464566929
 20
4.1338582677
  9
$VIEWSIZE
 40
8.2677165354
  9
$CLAYER
  8
0
  9
$LTSCALE
 40
0.6431102362
  9
$CELTYPE
  6
BYLAYER
  9
$DIMSCALE
 40
1.0
  9
$DIMASZ
 40
0.1
  9
$DIMEXO
 40
0.0730807087
  9
$DIMDLI
 40
0.4443307087
  9
$DIMEXE
 40
0.2104724409
  9
$DIMCEN
 40
0.1052362205
  9
$DIMLFAC
 40
1.0
  9
$DIMBLK
  1
_FILLED
  9
$DIMTXT
 40
0.08
  9
$DIMTOL
 70
1
  9
$DIMLIM
 70
0
  9
$DIMTFAC
 40
1.0
  9
$DIMTP
 40
0.01
  9
$DIMTM
 40
0.01
  9
$PDMODE
 70
3
  9
$PDSIZE
 40
0.06
  9
$HANDSEED
  5
4C1
  9
$TILEMODE
 70
1
  9
$MEASUREMENT
 70
0
  9
$INSUNITS
 70
1
  0
ENDSEC
  0
SECTION
  2
CLASSES
  0
CLASS
  1
ACDBDICTIONARYWDFLT
  2
AcDbDictionaryWithDefault
  3
AutoCAD 2000
 90
0
280
0
281
0
  0
CLASS
  1
ACDBPLACEHOLDER
  2
AcDbPlaceHolder
  3
AutoCAD 2000
 90
0
280
0
281
0
  0
CLASS
  1
LAYOUT
  2
AcDbLayout
  3
AutoCAD 2000
 90
0
280
0
281
0
  0
ENDSEC
  0
SECTION
  2
TABLES
  0
TABLE
  2
VPORT
  5
8
100
AcDbSymbolTable
 70
2
  0
VPORT
  5
1F4
100
AcDbSymbolTableRecord
100
AcDbViewportTableRecord
  2
*ACTIVE
 70
0
 10
0.0
 20
0.0
 11
1.0
 21
1.0
 12
5.8464566929
 22
4.1338582677
 13
0.0
 23
0.0
 14
1.0
 24
1.0
 15
0.0
 25
0.0
 16
0.0
 26
0.0
 36
1.0
 17
0.0
 27
0.0
 37
0.0
 40
8.2677165354
 41
1.4142857143
 42
50.0
 43
0.0
 44
0.0
 50
0.0
 51
0.0
 71
0
 72
100
 73
1
 74
1
 75
0
 76
0
 77
0
 78
0
  0
ENDTAB
  0
TABLE
  2
LTYPE
  5
5
100
AcDbSymbolTable
 70
6
  0
LTYPE
  5
14
100
AcDbSymbolTableRecord
100
AcDbLinetypeTableRecord
  2
BYBLOCK
 70
0
  3

 72
65
 73
0
 40
0.0
  0
LTYPE
  5
15
100
AcDbSymbolTableRecord
100
AcDbLinetypeTableRecord
  2
BYLAYER
 70
0
  3

 72
65
 73
0
 40
0.0
  0
LTYPE
  5
16
100
AcDbSymbolTableRecord
100
AcDbLinetypeTableRecord
  2
CONTINUOUS
 70
64
  3
Solid line
 72
65
 73
0
 40
0.0
  0
LTYPE
  5
1F5
100
AcDbSymbolTableRecord
100
AcDbLinetypeTableRecord
  2
CENTER
 70
64
  3
____ _ ____ _ ____ _ ____ _ ____ _ ____ _ ____
 72
65
 73
4
 40
0.6
 49
0.375
 74
0
 49
-0.075
 74
0
 49
0.075
 74
0
 49
-0.075
 74
0
  0
LTYPE
  5
1F6
100
AcDbSymbolTableRecord
100
AcDbLinetypeTableRecord
  2
HIDDEN
 70
64
  3
- - - - - - - - - - - - - - - - - - - -
 72
65
 73
2
 40
0.2
 49
0.1
 74
0
 49
-0.1
 74
0
  0
LTYPE
  5
1F7
100
AcDbSymbolTableRecord
100
AcDbLinetypeTableRecord
  2
PHANTOM
 70
64
  3
_____ _ _ _____ _ _ _____ _ _ _____
 72
65
 73
6
 40
0.8
 49
0.45
 74
0
 49
-0.05
 74
0
 49
0.1
 74
0
 49
-0.05
 74
0
 49
0.1
 74
0
 49
-0.05
 74
0
  0
LTYPE
  5
1F8
100
AcDbSymbolTableRecord
100
AcDbLinetypeTableRecord
  2
DOT
 70
64
  3
. . . . . . . . . . . . . . . . . . . .
 72
65
 73
2
 40
0.2
 49
0.1
 74
0
 49
-0.1
 74
0
  0
LTYPE
  5
1F9
100
AcDbSymbolTableRecord
100
AcDbLinetypeTableRecord
  2
DASHED
 70
64
  3
- - - - - - - - - - - - - - - - - - - -
 72
65
 73
2
 40
0.2
 49
0.1
 74
0
 49
-0.1
 74
0
  0
ENDTAB
  0
TABLE
  2
LAYER
  5
2
100
AcDbSymbolTable
 70
36
  0
LAYER
  5
10
100
AcDbSymbolTableRecord
100
AcDbLayerTableRecord
  2
0
 70
0
 62
7
  6
CONTINUOUS
370
-3
390
F
  0
LAYER
  5
1FA
100
AcDbSymbolTableRecord
100
AcDbLayerTableRecord
  2
DEFAULT_1
 70
0
 62
7
  6
CENTER
370
-3
390
F
  0
LAYER
  5
1FB
100
AcDbSymbolTableRecord
100
AcDbLayerTableRecord
  2
DEFAULT_2
 70
0
 62
8
  6
HIDDEN
370
-3
390
F
  0
LAYER
  5
1FC
100
AcDbSymbolTableRecord
100
AcDbLayerTableRecord
  2
DEFAULT_3
 70
0
 62
7
  6
PHANTOM
370
-3
390
F
  0
LAYER
  5
1FD
100
AcDbSymbolTableRecord
100
AcDbLayerTableRecord
  2
DEFAULT_COORDINATE_SYSTEM
 70
0
 62
7
  6
CONTINUOUS
370
-3
390
F
  0
LAYER
  5
1FE
100
AcDbSymbolTableRecord
100
AcDbLayerTableRecord
  2
DEFAULT_DATUM_AXES
 70
0
 62
7
  6
CONTINUOUS
370
-3
390
F
  0
LAYER
  5
1FF
100
AcDbSymbolTableRecord
100
AcDbLayerTableRecord
  2
DEFAULT_DATUM_CURVES
 70
0
 62
7
  6
CONTINUOUS
370
-3
390
F
  0
LAYER
  5
200
100
AcDbSymbolTableRecord
100
AcDbLayerTableRecord
  2
DEFAULT_DATUM_PLANES
 70
0
 62
7
  6
CONTINUOUS
370
-3
390
F
  0
ENDTAB
  0
TABLE
  2
STYLE
  5
3
100
AcDbSymbolTable
 70
1
  0
STYLE
  5
11
100
AcDbSymbolTableRecord
100
AcDbTextStyleTableRecord
  2
STANDARD
 70
0
 40
0.0
 41
0.8
 50
0.0
 71
0
 42
0.2
  3
txt
  4

  0
STYLE
  5
201
100
AcDbSymbolTableRecord
100
AcDbTextStyleTableRecord
  2
TEXTSTYLE_1
 70
0
 40
0.0
 41
0.8
 50
0.0
 71
0
 42
0.2
  3
gdt
  4

  0
ENDTAB
  0
TABLE
  2
VIEW
  5
6
100
AcDbSymbolTable
 70
0
  0
ENDTAB
  0
TABLE
  2
UCS
  5
7
100
AcDbSymbolTable
 70
0
  0
ENDTAB
  0
TABLE
  2
APPID
  5
9
100
AcDbSymbolTable
 70
1
  0
APPID
  5
202
100
AcDbSymbolTableRecord
100
AcDbRegAppTableRecord
  2
ACAD
 70
0
  0
ENDTAB
  0
TABLE
  2
BLOCK_RECORD
  5
1
100
AcDbSymbolTable
 70
0
  0
BLOCK_RECORD
  5
203
100
AcDbSymbolTableRecord
100
AcDbBlockTableRecord
  2
*Model_Space
  0
BLOCK_RECORD
  5
204
100
AcDbSymbolTableRecord
100
AcDbBlockTableRecord
  2
*Paper_Space
  0
ENDTAB
  0
TABLE
  2
DIMSTYLE
  5
A
100
AcDbSymbolTable
 70
1
100
AcDbDimStyleTable
 71
0
  0
DIMSTYLE
105
205
100
AcDbSymbolTableRecord
100
AcDbDimStyleTableRecord
  2
STANDARD
 70
0
  3

  4

 40
1.0
 41
0.1
 42
0.0625
 43
0.38
 44
0.18
 45
0.0
 46
0.0
 47
0.01
 48
0.01
140
0.08
141
0.09
142
0.0
143
25.4
144
1.0
145
0.0
146
1.0
147
0.09
 71
1.0
 72
0.0
 73
1
 74
1
 75
0
 76
0
 77
0
 78
4
170
0
171
2
172
0
173
0
174
0
175
0
176
0
177
0
178
0
270
2
271
2
272
2
273
2
274
2
275
0
280
0
281
0
282
0
283
1
284
4
285
0
286
0
287
3
288
0
340
11
  0
ENDTAB
  0
ENDSEC
  0
SECTION
  2
BLOCKS
  0
BLOCK
  5
20
100
AcDbEntity
  8
0
100
AcDbBlockBegin
  2
*Model_Space
 70
0
 10
0.0
 20
0.0
 30
0.0
  3
*Model_Space
  1

  0
ENDBLK
  5
21
100
AcDbEntity
  8
0
100
AcDbBlockEnd
  0
BLOCK
  5
1C
100
AcDbEntity
  8
0
100
AcDbBlockBegin
  2
*Paper_Space
 70
0
 10
0.0
 20
0.0
 30
0.0
  3
*Paper_Space
  1

  0
ENDBLK
  5
1D
100
AcDbEntity
  8
0
100
AcDbBlockEnd
  0
ENDSEC
  0
SECTION
  2
ENTITIES
  0
LINE
  5
206
100
AcDbEntity
  8
0
100
AcDbLine
 62
6
  6
CONTINUOUS
 10
5.5290231376
 20
5.8931930279
 11
5.4710231376
 21
5.8743476855
  0
LINE
  5
207
100
AcDbEntity
  8
0
100
AcDbLine
 62
6
  6
CONTINUOUS
 10
7.0335231376
 20
2.1631930279
 11
4.9335231376
 21
2.1631930279
  0
LINE
  5
208
100
AcDbEntity
  8
0
100
AcDbLine
 62
6
  6
CONTINUOUS
 10
5.4710231376
 20
5.8743476855
 11
5.4560231376
 21
5.8593476855
  0
LWPOLYLINE
  5
209
100
AcDbEntity
  8
0
100
AcDbPolyline
 62
6
  6
CONTINUOUS
 90
5
 70
0
 10
5.1566086163
 20
5.4923234951
 10
5.1387342076
 20
5.4786059708
 10
5.116448296
 20
5.458064806
 10
5.0952183931
 20
5.434337169
 10
5.0756622723
 20
5.4081089616
  0
LINE
  5
20A
100
AcDbEntity
  8
0
100
AcDbLine
 62
9
  6
CONTINUOUS
 10
5.1566086163
 20
5.4923234951
 11
5.1565882724
 21
5.4923091278
  0
LINE
  5
20B
100
AcDbEntity
  8
0
100
AcDbLine
 62
6
  6
CONTINUOUS
 10
5.1740515322
 20
5.5036674682
 11
5.1565882724
 21
5.4923091278
  0
LINE
  5
20C
100
AcDbEntity
  8
0
100
AcDbLine
 62
6
  6
CONTINUOUS
 10
5.1986839471
 20
5.5166463407
 11
5.173588268
 21
5.5033903923
  0
LINE
  5
20D
100
AcDbEntity
  8
0
100
AcDbLine
 62
6
  6
CONTINUOUS
 10
5.2237928606
 20
5.5265721635
 11
5.1983613817
 21
5.5164977641
  0
LINE
  5
20E
100
AcDbEntity
  8
0
100
AcDbLine
 62
9
  6
CONTINUOUS
 10
7.090034844
 20
2.3996893374
 11
4.8770114312
 21
2.3996893374
  0
LINE
  5
20F
100
AcDbEntity
  8
0
100
AcDbLine
 62
6
  6
CONTINUOUS
 10
5.0757587889
 20
5.4082505279
 11
5.05857568
 21
5.3807377273
  0
LINE
  5
210
100
AcDbEntity
  8
0
100
AcDbLine
 62
6
  6
CONTINUOUS
 10
5.0951427742
 20
5.4342357979
 11
5.0950619722
 21
5.4341453392
  0
LINE
  5
211
100
AcDbEntity
  8
0
100
AcDbLine
 62
6
  6
CONTINUOUS
 10
5.4716481376
 20
5.7678180279
 11
5.4560231376
 21
5.7521930279
  0
LINE
  5
212
100
AcDbEntity
  8
0
100
AcDbLine
 62
9
  6
CONTINUOUS
 10
5.5241223752
 20
5.5679514373
 11
5.5241123065
 21
5.5679454639
  0
LWPOLYLINE
  5
213
100
AcDbEntity
  8
0
100
AcDbPolyline
 62
6
  6
CONTINUOUS
 90
3
 70
0
 10
5.5241118548
 20
5.5679462285
 10
5.5233306262
 20
5.5675645378
 10
5.521188649
 20
5.5668915139
  0
LWPOLYLINE
  5
214
100
AcDbEntity
  8
0
100
AcDbPolyline
 62
6
  6
CONTINUOUS
 90
3
 70
0
 10
5.0450817087
 20
5.3550628644
 10
5.0253537158
 20
5.3107854682
 10
5.007138683
 20
5.262096968
  0
LINE
  5
215
100
AcDbEntity
  8
0
100
AcDbLine
 62
6
  6
CONTINUOUS
 10
5.0586197105
 20
5.3808148585
 11
5.0450812741
 21
5.3550619632
  0
LINE
  5
216
100
AcDbEntity
  8
0
100
AcDbLine
 62
6
  6
CONTINUOUS
 10
4.9916510272
 20
5.2112268824
 11
4.9791593734
 21
5.1584133623
  0
LINE
  5
217
100
AcDbEntity
  8
0
100
AcDbLine
 62
6
  6
CONTINUOUS
 10
5.0071386879
 20
5.2620969811
 11
4.991651021
 21
5.2112268619
  0
LINE
  5
218
100
AcDbEntity
  8
0
100
AcDbLine
 62
7
  6
CONTINUOUS
 10
6.7335231376
 20
2.7881930279
 11
5.2335231376
 21
2.7881930279
  0
LINE
  5
219
100
AcDbEntity
  8
0
100
AcDbLine
 62
6
  6
CONTINUOUS
 10
4.9627616985
 20
4.9929386082
 11
4.9627613766
 21
4.9929225221
  0
LINE
  5
21A
100
AcDbEntity
  8
0
100
AcDbLine
 62
6
  6
CONTINUOUS
 10
4.964384799
 20
5.0479937042
 11
4.9627613736
 21
4.9929230303
  0
LINE
  5
21B
100
AcDbEntity
  8
0
100
AcDbLine
 62
6
  6
CONTINUOUS
 10
4.9699580213
 20
5.1038843973
 11
4.9643847947
 21
5.0479936605
  0
LINE
  5
21C
100
AcDbEntity
  8
0
100
AcDbLine
 62
6
  6
CONTINUOUS
 10
4.9791593801
 20
5.1584133906
 11
4.9699580152
 21
5.103884361
  0
LINE
  5
21D
100
AcDbEntity
  8
0
100
AcDbLine
 62
6
  6
CONTINUOUS
 10
5.4560231376
 20
5.7521930279
 11
5.4260231376
 21
5.6721930279
  0
LINE
  5
21E
100
AcDbEntity
  8
0
100
AcDbLine
 62
9
  6
CONTINUOUS
 10
5.4232762287
 20
5.2488761605
 11
5.4232753819
 21
5.2488745583
  0
LWPOLYLINE
  5
21F
100
AcDbEntity
  8
0
100
AcDbPolyline
 62
6
  6
CONTINUOUS
 90
10
 70
0
 10
5.4232753819
 20
5.2488745583
 10
5.4319552754
 20
5.2642572352
 10
5.4403978329
 20
5.2774269171
 10
5.4479715755
 20
5.287897445
 10
5.4548676646
 20
5.2963751836
 10
5.4610661214
 20
5.3031149606
 10
5.4661032723
 20
5.3078946443
 10
5.470484926
 20
5.3114226318
 10
5.47407031
 20
5.3138001276
 10
5.4751136779
 20
5.3143781698
  0
LWPOLYLINE
  5
220
100
AcDbEntity
  8
0
100
AcDbPolyline
 62
6
  6
CONTINUOUS
 90
3
 70
0
 10
6.4876131039
 20
5.3103115118
 10
6.4936573677
 20
5.3122010712
 10
6.4949989855
 20
5.3124594339
  0
LINE
  5
221
100
AcDbEntity
  8
0
100
AcDbLine
 62
6
  6
CONTINUOUS
 10
6.7310231376
 20
2.9181930279
 11
5.2360231376
 21
2.9181930279
  0
LINE
  5
222
100
AcDbEntity
  8
0
100
AcDbLine
 62
6
  6
CONTINUOUS
 10
4.9627709175
 20
4.9679840476
 11
4.9653462753
 21
4.9419141549
  0
LINE
  5
223
100
AcDbEntity
  8
0
100
AcDbLine
 62
6
  6
CONTINUOUS
 10
4.9627099612
 20
4.9929394293
 11
4.9627709178
 21
4.9679839392
  0
LWPOLYLINE
  5
224
100
AcDbEntity
  8
0
100
AcDbPolyline
 62
6
  6
CONTINUOUS
 90
5
 70
0
 10
5.3873641191
 20
5.1580131185
 10
5.3945943862
 20
5.1815788215
 10
5.4031590891
 20
5.2050327756
 10
5.41302837
 20
5.2281193924
 10
5.4232762287
 20
5.2488761605
  0
LINE
  5
225
100
AcDbEntity
  8
0
100
AcDbLine
 62
6
  6
CONTINUOUS
 10
5.3421760164
 20
4.9115973298
 11
5.3502904956
 21
4.9332911934
  0
LWPOLYLINE
  5
226
100
AcDbEntity
  8
0
100
AcDbPolyline
 62
6
  6
CONTINUOUS
 90
5
 70
0
 10
5.2986821624
 20
4.8391407406
 10
5.3111492012
 20
4.8553639966
 10
5.3233007579
 20
4.8739208254
 10
5.333910143
 20
4.8933033592
 10
5.3421760488
 20
4.911597409
  0
LWPOLYLINE
  5
227
100
AcDbEntity
  8
0
100
AcDbPolyline
 62
6
  6
CONTINUOUS
 90
4
 70
0
 10
5.2961084213
 20
4.8360877053
 10
5.2966208501
 20
4.8366866813
 10
5.2982744533
 20
4.8386495842
 10
5.2986821886
 20
4.839140772
  0
LWPOLYLINE
  5
228
100
AcDbEntity
  8
0
100
AcDbPolyline
 62
6
  6
CONTINUOUS
 90
4
 70
0
 10
5.2585494574
 20
4.801522863
 10
5.2712565989
 20
4.8114437176
 10
5.2847233173
 20
4.8238100417
 10
5.2961084147
 20
4.8360876977
  0
LWPOLYLINE
  5
229
100
AcDbEntity
  8
0
100
AcDbPolyline
 62
6
  6
CONTINUOUS
 90
3
 70
0
 10
5.2564206133
 20
4.8000096208
 10
5.258275023
 20
4.8013252926
 10
5.258549411
 20
4.8015228295
  0
LINE
  5
22A
100
AcDbEntity
  8
0
100
AcDbLine
 62
6
  6
CONTINUOUS
 10
5.2545749458
 20
4.7987329955
 11
5.2564587725
 21
4.8000363578
  0
LINE
  5
22B
100
AcDbEntity
  8
0
100
AcDbLine
 62
6
  6
CONTINUOUS
 10
5.2527382187
 20
4.797494255
 11
5.2546319122
 21
4.7987719168
  0
LINE
  5
22C
100
AcDbEntity
  8
0
100
AcDbLine
 62
6
  6
CONTINUOUS
 10
5.2509105979
 20
4.796292279
 11
5.2528138029
 21
4.7975446173
  0
LINE
  5
22D
100
AcDbEntity
  8
0
100
AcDbLine
 62
6
  6
CONTINUOUS
 10
5.2490921643
 20
4.7951259535
 11
5.2510046081
 21
4.7963533733
  0
LINE
  5
22E
100
AcDbEntity
  8
0
100
AcDbLine
 62
6
  6
CONTINUOUS
 10
5.2472829499
 20
4.7939941937
 11
5.249204409
 21
4.7951971035
  0
LINE
  5
22F
100
AcDbEntity
  8
0
100
AcDbLine
 62
6
  6
CONTINUOUS
 10
5.2454829449
 20
4.7928959477
 11
5.2474132391
 21
4.794074755
  0
LINE
  5
230
100
AcDbEntity
  8
0
100
AcDbLine
 62
6
  6
CONTINUOUS
 10
5.243692099
 20
4.7918301958
 11
5.2456310914
 21
4.7929853057
  0
LINE
  5
231
100
AcDbEntity
  8
0
100
AcDbLine
 62
6
  6
CONTINUOUS
 10
5.2419103235
 20
4.79079595
 11
5.2438579202
 21
4.7919277648
  0
LINE
  5
232
100
AcDbEntity
  8
0
100
AcDbLine
 62
6
  6
CONTINUOUS
 10
5.2401374933
 20
4.7897922542
 11
5.2420936426
 21
4.7909011719
  0
LINE
  5
233
100
AcDbEntity
  8
0
100
AcDbLine
 62
6
  6
CONTINUOUS
 10
5.2383734478
 20
4.7888181833
 11
5.2403381407
 21
4.789904597
  0
LINE
  5
234
100
AcDbEntity
  8
0
100
AcDbLine
 62
6
  6
CONTINUOUS
 10
5.2366179932
 20
4.7878728434
 11
5.2385912624
 21
4.7889371403
  0
LINE
  5
235
100
AcDbEntity
  8
0
100
AcDbLine
 62
6
  6
CONTINUOUS
 10
5.2348709037
 20
4.786955371
 11
5.2368528237
 21
4.7879979315
  0
LINE
  5
236
100
AcDbEntity
  8
0
100
AcDbLine
 62
6
  6
CONTINUOUS
 10
5.233131923
 20
4.7860649334
 11
5.2351226094
 21
4.78708613
  0
LINE
  5
237
100
AcDbEntity
  8
0
100
AcDbLine
 62
6
  6
CONTINUOUS
 10
5.2314007656
 20
4.785200728
 11
5.2334003753
 21
4.7862009243
  0
LINE
  5
238
100
AcDbEntity
  8
0
100
AcDbLine
 62
6
  6
CONTINUOUS
 10
5.2296771185
 20
4.7843619819
 11
5.2316858485
 21
4.7853415319
  0
LINE
  5
239
100
AcDbEntity
  8
0
100
AcDbLine
 62
6
  6
CONTINUOUS
 10
5.227960642
 20
4.7835479523
 11
5.2299787299
 21
4.7845071992
  0
LINE
  5
23A
100
AcDbEntity
  8
0
100
AcDbLine
 62
6
  6
CONTINUOUS
 10
5.2262509712
 20
4.7827579258
 11
5.2282786944
 21
4.7836972012
  0
LINE
  5
23B
100
AcDbEntity
  8
0
100
AcDbLine
 62
6
  6
CONTINUOUS
 10
5.2245477172
 20
4.7819912184
 11
5.2265853926
 21
4.7829108411
  0
LINE
  5
23C
100
AcDbEntity
  8
0
100
AcDbLine
 62
6
  6
CONTINUOUS
 10
5.2228504683
 20
4.7812471752
 11
5.2248984519
 21
4.7821474504
  0
LINE
  5
23D
100
AcDbEntity
  8
0
100
AcDbLine
 62
6
  6
CONTINUOUS
 10
5.2211587908
 20
4.7805251706
 11
5.2232174774
 21
4.7814063888
  0
LINE
  5
23E
100
AcDbEntity
  8
0
100
AcDbLine
 62
6
  6
CONTINUOUS
 10
5.2194722305
 20
4.7798246079
 11
5.2215420531
 21
4.7806870437
  0
LINE
  5
23F
100
AcDbEntity
  8
0
100
AcDbLine
 62
6
  6
CONTINUOUS
 10
5.2177903132
 20
4.7791449191
 11
5.2198717431
 21
4.7799888304
  0
LINE
  5
240
100
AcDbEntity
  8
0
100
AcDbLine
 62
6
  6
CONTINUOUS
 10
5.2161125464
 20
4.7784855652
 11
5.2182060921
 21
4.7793111921
  0
LINE
  5
241
100
AcDbEntity
  8
0
100
AcDbLine
 62
6
  6
CONTINUOUS
 10
5.2144399674
 20
4.7778466188
 11
5.2165446267
 21
4.7786535993
  0
LINE
  5
242
100
AcDbEntity
  8
0
100
AcDbLine
 62
9
  6
CONTINUOUS
 10
6.4876156143
 20
5.3103124558
 11
6.4876131039
 21
5.3103115118
  0
LINE
  5
243
100
AcDbEntity
  8
0
100
AcDbLine
 62
6
  6
CONTINUOUS
 10
5.2127835306
 20
4.7772317484
 11
5.2148873486
 21
4.7780157371
  0
LINE
  5
244
100
AcDbEntity
  8
0
100
AcDbLine
 62
6
  6
CONTINUOUS
 10
5.211158239
 20
4.7766456119
 11
5.2132421342
 21
4.7774002073
  0
LINE
  5
245
100
AcDbEntity
  8
0
100
AcDbLine
 62
6
  6
CONTINUOUS
 10
5.2095792815
 20
4.7760923425
 11
5.2116233134
 21
4.7768116049
  0
LINE
  5
246
100
AcDbEntity
  8
0
100
AcDbLine
 62
6
  6
CONTINUOUS
 10
5.2080618974
 20
4.7755755405
 11
5.2100455694
 21
4.776254081
  0
LINE
  5
247
100
AcDbEntity
  8
0
100
AcDbLine
 62
6
  6
CONTINUOUS
 10
5.2066124299
 20
4.7750954068
 11
5.2085237391
 21
4.7757312991
  0
LINE
  5
248
100
AcDbEntity
  8
0
100
AcDbLine
 62
6
  6
CONTINUOUS
 10
5.2052213
 20
4.7746469586
 11
5.2070687867
 21
4.7752451528
  0
LINE
  5
249
100
AcDbEntity
  8
0
100
AcDbLine
 62
6
  6
CONTINUOUS
 10
5.2038775075
 20
4.7742252005
 11
5.2056745051
 21
4.7747917297
  0
LINE
  5
24A
100
AcDbEntity
  8
0
100
AcDbLine
 62
6
  6
CONTINUOUS
 10
5.2025740369
 20
4.7738267733
 11
5.2043299726
 21
4.7743659591
  0
LINE
  5
24B
100
AcDbEntity
  8
0
100
AcDbLine
 62
6
  6
CONTINUOUS
 10
5.2013064396
 20
4.7734493452
 11
5.2030266927
 21
4.7739639468
  0
LINE
  5
24C
100
AcDbEntity
  8
0
100
AcDbLine
 62
6
  6
CONTINUOUS
 10
5.2000702492
 20
4.7730907549
 11
5.2017600727
 21
4.7735832809
  0
LINE
  5
24D
100
AcDbEntity
  8
0
100
AcDbLine
 62
6
  6
CONTINUOUS
 10
5.1993195209
 20
4.7728775408
 11
5.2005258035
 21
4.7732218133
  0
LINE
  5
24E
100
AcDbEntity
  8
0
100
AcDbLine
 62
6
  6
CONTINUOUS
 10
5.3629446002
 20
4.9799395833
 11
5.3629479199
 21
4.9799652844
  0
LINE
  5
24F
100
AcDbEntity
  8
0
100
AcDbLine
 62
6
  6
CONTINUOUS
 10
5.3720460987
 20
5.0785131099
 11
5.3774051925
 21
5.113874425
  0
LINE
  5
250
100
AcDbEntity
  8
0
100
AcDbLine
 62
9
  6
CONTINUOUS
 10
5.3774039676
 20
5.1138802064
 11
5.3774035182
 21
5.113877605
  0
LINE
  5
251
100
AcDbEntity
  8
0
100
AcDbLine
 62
6
  6
CONTINUOUS
 10
5.3774039676
 20
5.1138802064
 11
5.381600393
 21
5.1350406715
  0
LINE
  5
252
100
AcDbEntity
  8
0
100
AcDbLine
 62
6
  6
CONTINUOUS
 10
5.3576090241
 20
4.9573286031
 11
5.3629422093
 21
4.9799401444
  0
LINE
  5
253
100
AcDbEntity
  8
0
100
AcDbLine
 62
6
  6
CONTINUOUS
 10
5.3815171272
 20
5.1346749539
 11
5.3874442224
 21
5.1582742003
  0
LINE
  5
254
100
AcDbEntity
  8
0
100
AcDbLine
 62
6
  6
CONTINUOUS
 10
5.3502904961
 20
4.9332911952
 11
5.3576090232
 21
4.9573285992
  0
LINE
  5
255
100
AcDbEntity
  8
0
100
AcDbLine
 62
6
  6
CONTINUOUS
 10
6.5110231376
 20
5.7834430279
 11
6.4953981376
 21
5.7678180279
  0
LINE
  5
256
100
AcDbEntity
  8
0
100
AcDbLine
 62
6
  6
CONTINUOUS
 10
6.5410231376
 20
5.1031930279
 11
6.3270231376
 21
5.0336602129
  0
LWPOLYLINE
  5
257
100
AcDbEntity
  8
0
100
AcDbPolyline
 62
6
  6
CONTINUOUS
 90
5
 70
0
 10
4.9699724471
 20
4.9186053823
 10
4.975933171
 20
4.8986028875
 10
4.9843272924
 20
4.8779080811
 10
4.9945206409
 20
4.858596122
 10
5.0053022317
 20
4.8422360159
  0
LINE
  5
258
100
AcDbEntity
  8
0
100
AcDbLine
 62
6
  6
CONTINUOUS
 10
4.9653462704
 20
4.9419142048
 11
4.9699724285
 21
4.918605457
  0
LINE
  5
259
100
AcDbEntity
  8
0
100
AcDbLine
 62
6
  6
CONTINUOUS
 10
5.3629479199
 20
4.9799652844
 11
5.3653340325
 21
5.0139976753
  0
LINE
  5
25A
100
AcDbEntity
  8
0
100
AcDbLine
 62
6
  6
CONTINUOUS
 10
5.3653287642
 20
5.0139225353
 11
5.3682496397
 21
5.0460026161
  0
LINE
  5
25B
100
AcDbEntity
  8
0
100
AcDbLine
 62
6
  6
CONTINUOUS
 10
5.3682336192
 20
5.0458419193
 11
5.3720573324
 21
5.0786097722
  0
LWPOLYLINE
  5
25C
100
AcDbEntity
  8
0
100
AcDbPolyline
 62
6
  6
CONTINUOUS
 90
5
 70
0
 10
6.4570158984
 20
5.2904437756
 10
6.4617719188
 20
5.294675439
 10
6.4723887025
 20
5.3024994236
 10
6.4818242792
 20
5.3078118886
 10
6.4876156143
 20
5.3103124558
  0
LINE
  5
25D
100
AcDbEntity
  8
0
100
AcDbLine
 62
6
  6
CONTINUOUS
 10
5.4260231376
 20
5.6721930279
 11
5.4260231376
 21
5.5605495882
  0
LINE
  5
25E
100
AcDbEntity
  8
0
100
AcDbLine
 62
6
  6
CONTINUOUS
 10
5.4260231376
 20
5.2537441847
 11
5.4260231376
 21
5.1031930279
  0
LINE
  5
25F
100
AcDbEntity
  8
0
100
AcDbLine
 62
6
  6
CONTINUOUS
 10
5.4560231376
 20
5.8593476855
 11
5.4560231376
 21
5.7834430279
  0
LINE
  5
260
100
AcDbEntity
  8
0
100
AcDbLine
 62
6
  6
CONTINUOUS
 10
5.3994644649
 20
3.8816366411
 11
5.2360231376
 21
2.9181930279
  0
LINE
  5
261
100
AcDbEntity
  8
0
100
AcDbLine
 62
9
  6
CONTINUOUS
 10
6.4570825713
 20
5.2905063879
 11
6.4570171184
 21
5.290444916
  0
LINE
  5
262
100
AcDbEntity
  8
0
100
AcDbLine
 62
6
  6
CONTINUOUS
 10
6.864918174
 20
4.7735149471
 11
6.8662610982
 21
4.7739079729
  0
LINE
  5
263
100
AcDbEntity
  8
0
100
AcDbLine
 62
6
  6
CONTINUOUS
 10
6.864021205
 20
4.7732585789
 11
6.8653566441
 21
4.7736420559
  0
LINE
  5
264
100
AcDbEntity
  8
0
100
AcDbLine
 62
6
  6
CONTINUOUS
 10
5.6400231376
 20
5.0336602129
 11
5.6400231376
 21
4.6931930279
  0
LWPOLYLINE
  5
265
100
AcDbEntity
  8
0
100
AcDbPolyline
 62
6
  6
CONTINUOUS
 90
3
 70
0
 10
6.8883799072
 20
4.7820604964
 10
6.8895615884
 20
4.7825911256
 10
6.891056854
 20
4.7832774499
  0
LINE
  5
266
100
AcDbEntity
  8
0
100
AcDbLine
 62
6
  6
CONTINUOUS
 10
6.8872012641
 20
4.781541442
 11
6.8887100912
 21
4.7822077272
  0
LINE
  5
267
100
AcDbEntity
  8
0
100
AcDbLine
 62
6
  6
CONTINUOUS
 10
6.8860255093
 20
4.7810337032
 11
6.8875412881
 21
4.7816901432
  0
LINE
  5
268
100
AcDbEntity
  8
0
100
AcDbLine
 62
6
  6
CONTINUOUS
 10
6.8848524867
 20
4.7805370292
 11
6.8863753482
 21
4.7811837363
  0
LINE
  5
269
100
AcDbEntity
  8
0
100
AcDbLine
 62
6
  6
CONTINUOUS
 10
6.8836824737
 20
4.7800513581
 11
6.885212122
 21
4.7806882608
  0
LINE
  5
26A
100
AcDbEntity
  8
0
100
AcDbLine
 62
6
  6
CONTINUOUS
 10
6.8825171617
 20
4.7795771937
 11
6.8840515674
 21
4.7802035257
  0
LINE
  5
26B
100
AcDbEntity
  8
0
100
AcDbLine
 62
6
  6
CONTINUOUS
 10
6.8813585405
 20
4.7791151087
 11
6.8828948745
 21
4.7797298463
  0
LINE
  5
26C
100
AcDbEntity
  8
0
100
AcDbLine
 62
6
  6
CONTINUOUS
 10
6.880208617
 20
4.7786656254
 11
6.8817440032
 21
4.7792678103
  0
LINE
  5
26D
100
AcDbEntity
  8
0
100
AcDbLine
 62
6
  6
CONTINUOUS
 10
6.8790694132
 20
4.7782292169
 11
6.8806009412
 21
4.7788179605
  0
LINE
  5
26E
100
AcDbEntity
  8
0
100
AcDbLine
 62
6
  6
CONTINUOUS
 10
6.8779429654
 20
4.7778063086
 11
6.8794676921
 21
4.7783807903
  0
LINE
  5
26F
100
AcDbEntity
  8
0
100
AcDbLine
 62
6
  6
CONTINUOUS
 10
6.8768313223
 20
4.7773972795
 11
6.878346274
 21
4.7779567456
  0
LINE
  5
270
100
AcDbEntity
  8
0
100
AcDbLine
 62
6
  6
CONTINUOUS
 10
6.8757365442
 20
4.777002464
 11
6.8772387181
 21
4.7775462259
  0
LINE
  5
271
100
AcDbEntity
  8
0
100
AcDbLine
 62
6
  6
CONTINUOUS
 10
6.874660701
 20
4.776622154
 11
6.8761470673
 21
4.7771495861
  0
LINE
  5
272
100
AcDbEntity
  8
0
100
AcDbLine
 62
6
  6
CONTINUOUS
 10
6.8736058334
 20
4.7762565881
 11
6.8750733748
 21
4.7767671383
  0
LINE
  5
273
100
AcDbEntity
  8
0
100
AcDbLine
 62
6
  6
CONTINUOUS
 10
6.872572528
 20
4.7759054762
 11
6.8740197029
 21
4.7763991537
  0
LINE
  5
274
100
AcDbEntity
  8
0
100
AcDbLine
 62
6
  6
CONTINUOUS
 10
6.871559471
 20
4.7755679025
 11
6.8729875298
 21
4.7760456648
  0
LINE
  5
275
100
AcDbEntity
  8
0
100
AcDbLine
 62
6
  6
CONTINUOUS
 10
6.8705652026
 20
4.775242954
 11
6.8719760105
 21
4.775705908
  0
LINE
  5
276
100
AcDbEntity
  8
0
100
AcDbLine
 62
6
  6
CONTINUOUS
 10
6.8695882438
 20
4.7749297617
 11
6.8709837126
 21
4.7753789666
  0
LINE
  5
277
100
AcDbEntity
  8
0
100
AcDbLine
 62
6
  6
CONTINUOUS
 10
6.8686270975
 20
4.7746274992
 11
6.8700091843
 21
4.7750639676
  0
LINE
  5
278
100
AcDbEntity
  8
0
100
AcDbLine
 62
6
  6
CONTINUOUS
 10
6.8676803304
 20
4.7743354061
 11
6.8690509556
 21
4.7747600805
  0
LINE
  5
279
100
AcDbEntity
  8
0
100
AcDbLine
 62
6
  6
CONTINUOUS
 10
6.8667470432
 20
4.7740529238
 11
6.8681075505
 21
4.7744665188
  0
LINE
  5
27A
100
AcDbEntity
  8
0
100
AcDbLine
 62
6
  6
CONTINUOUS
 10
6.8658265543
 20
4.7737795863
 11
6.8671778354
 21
4.774182643
  0
LWPOLYLINE
  5
27B
100
AcDbEntity
  8
0
100
AcDbPolyline
 62
6
  6
CONTINUOUS
 90
4
 70
0
 10
5.005302274
 20
4.8422359578
 10
5.0056643977
 20
4.8417404327
 10
5.0071766593
 20
4.8397037706
 10
5.0076418951
 20
4.8390875479
  0
LINE
  5
27C
100
AcDbEntity
  8
0
100
AcDbLine
 62
6
  6
CONTINUOUS
 10
5.7070231376
 20
4.6631930279
 11
5.7070231376
 21
4.0381930279
  0
LINE
  5
27D
100
AcDbEntity
  8
0
100
AcDbLine
 62
6
  6
CONTINUOUS
 10
6.9077306723
 20
4.7921420829
 11
6.909128621
 21
4.7929947858
  0
LINE
  5
27E
100
AcDbEntity
  8
0
100
AcDbLine
 62
6
  6
CONTINUOUS
 10
6.9064906115
 20
4.7914008515
 11
6.9078953101
 21
4.7922415589
  0
LINE
  5
27F
100
AcDbEntity
  8
0
100
AcDbLine
 62
6
  6
CONTINUOUS
 10
6.9052548784
 20
4.7906761303
 11
6.9066662304
 21
4.7915049692
  0
LINE
  5
280
100
AcDbEntity
  8
0
100
AcDbLine
 62
6
  6
CONTINUOUS
 10
6.9040234546
 20
4.7899675264
 11
6.905441377
 21
4.7907846252
  0
LINE
  5
281
100
AcDbEntity
  8
0
100
AcDbLine
 62
6
  6
CONTINUOUS
 10
6.9027963103
 20
4.7892746565
 11
6.9042207341
 21
4.7900801447
  0
LINE
  5
282
100
AcDbEntity
  8
0
100
AcDbLine
 62
6
  6
CONTINUOUS
 10
6.9015734052
 20
4.7885971468
 11
6.903004275
 21
4.7893911545
  0
LINE
  5
283
100
AcDbEntity
  8
0
100
AcDbLine
 62
6
  6
CONTINUOUS
 10
6.9003546882
 20
4.7879346325
 11
6.9017919622
 21
4.7887172902
  0
LINE
  5
284
100
AcDbEntity
  8
0
100
AcDbLine
 62
6
  6
CONTINUOUS
 10
6.8991400983
 20
4.7872867582
 11
6.9005837484
 21
4.7880581968
  0
LINE
  5
285
100
AcDbEntity
  8
0
100
AcDbLine
 62
6
  6
CONTINUOUS
 10
6.8979295648
 20
4.7866531776
 11
6.8993795764
 21
4.7874135276
  0
LINE
  5
286
100
AcDbEntity
  8
0
100
AcDbLine
 62
6
  6
CONTINUOUS
 10
6.8967230077
 20
4.7860335533
 11
6.8981793797
 21
4.7867829451
  0
LINE
  5
287
100
AcDbEntity
  8
0
100
AcDbLine
 62
6
  6
CONTINUOUS
 10
6.8955203377
 20
4.7854275572
 11
6.8969830827
 21
4.7861661204
  0
LINE
  5
288
100
AcDbEntity
  8
0
100
AcDbLine
 62
6
  6
CONTINUOUS
 10
6.8943214572
 20
4.7848348697
 11
6.8957906011
 21
4.7855627331
  0
LINE
  5
289
100
AcDbEntity
  8
0
100
AcDbLine
 62
6
  6
CONTINUOUS
 10
6.89312626
 20
4.7842551804
 11
6.8946018421
 21
4.7849724714
  0
LINE
  5
28A
100
AcDbEntity
  8
0
100
AcDbLine
 62
6
  6
CONTINUOUS
 10
6.8919346319
 20
4.7836881872
 11
6.8934167049
 21
4.7843950322
  0
LINE
  5
28B
100
AcDbEntity
  8
0
100
AcDbLine
 62
6
  6
CONTINUOUS
 10
6.8907464512
 20
4.7831335972
 11
6.8922350809
 21
4.7838301205
  0
LINE
  5
28C
100
AcDbEntity
  8
0
100
AcDbLine
 62
6
  6
CONTINUOUS
 10
6.8887100912
 20
4.7822077272
 11
6.8898819009
 21
4.7827367421
  0
LINE
  5
28D
100
AcDbEntity
  8
0
100
AcDbLine
 62
9
  6
CONTINUOUS
 10
5.3994644649
 20
3.8816366411
 11
6.5675818104
 21
3.8816366411
  0
LWPOLYLINE
  5
28E
100
AcDbEntity
  8
0
100
AcDbPolyline
 62
6
  6
CONTINUOUS
 90
4
 70
0
 10
5.0076418744
 20
4.8390875752
 10
5.0179326875
 20
4.8266382537
 10
5.0306175654
 20
4.8138099944
 10
5.0430111517
 20
4.803324978
  0
LWPOLYLINE
  5
28F
100
AcDbEntity
  8
0
100
AcDbPolyline
 62
6
  6
CONTINUOUS
 90
3
 70
0
 10
6.9216492648
 20
4.8015070033
 10
6.9229377346
 20
4.8024803259
 10
6.9240351537
 20
4.8033250012
  0
LINE
  5
290
100
AcDbEntity
  8
0
100
AcDbLine
 62
6
  6
CONTINUOUS
 10
6.9203642251
 20
4.8005556029
 11
6.9216861737
 21
4.8015346123
  0
LINE
  5
291
100
AcDbEntity
  8
0
100
AcDbLine
 62
6
  6
CONTINUOUS
 10
6.9190827809
 20
4.7996256257
 11
6.9204132593
 21
4.8005915576
  0
LINE
  5
292
100
AcDbEntity
  8
0
100
AcDbLine
 62
6
  6
CONTINUOUS
 10
6.9178050801
 20
4.798716582
 11
6.9191438442
 21
4.7996695224
  0
LINE
  5
293
100
AcDbEntity
  8
0
100
AcDbLine
 62
6
  6
CONTINUOUS
 10
6.9165312538
 20
4.7978279909
 11
6.9178780728
 21
4.7987680314
  0
LINE
  5
294
100
AcDbEntity
  8
0
100
AcDbLine
 62
6
  6
CONTINUOUS
 10
6.9152614218
 20
4.7969593845
 11
6.9166160735
 21
4.7978866179
  0
LINE
  5
295
100
AcDbEntity
  8
0
100
AcDbLine
 62
6
  6
CONTINUOUS
 10
6.9139956931
 20
4.7961103071
 11
6.9153579636
 21
4.7970248276
  0
LINE
  5
296
100
AcDbEntity
  8
0
100
AcDbLine
 62
6
  6
CONTINUOUS
 10
6.912734142
 20
4.7952802985
 11
6.9141038511
 21
4.7961822181
  0
LINE
  5
297
100
AcDbEntity
  8
0
100
AcDbLine
 62
6
  6
CONTINUOUS
 10
6.9114768266
 20
4.794468908
 11
6.9128538091
 21
4.7953583427
  0
LINE
  5
298
100
AcDbEntity
  8
0
100
AcDbLine
 62
6
  6
CONTINUOUS
 10
6.9102237915
 20
4.7936756944
 11
6.9116078959
 21
4.7945527631
  0
LINE
  5
299
100
AcDbEntity
  8
0
100
AcDbLine
 62
6
  6
CONTINUOUS
 10
6.9089750674
 20
4.7929002265
 11
6.910366156
 21
4.7937650505
  0
LINE
  5
29A
100
AcDbEntity
  8
0
100
AcDbLine
 62
6
  6
CONTINUOUS
 10
5.5848162903
 20
4.0381930279
 11
6.382229985
 21
4.0381930279
  0
LWPOLYLINE
  5
29B
100
AcDbEntity
  8
0
100
AcDbPolyline
 62
6
  6
CONTINUOUS
 90
3
 70
0
 10
5.0430111216
 20
4.8033250012
 10
5.044287685
 20
4.8023438188
 10
5.0456637221
 20
4.8013079671
  0
LWPOLYLINE
  5
29C
100
AcDbEntity
  8
0
100
AcDbPolyline
 62
6
  6
CONTINUOUS
 90
4
 70
0
 10
6.9240351235
 20
4.803324978
 10
6.9364287099
 20
4.8138099944
 10
6.9491135877
 20
4.8266382537
 10
6.9594044008
 20
4.8390875752
  0
LINE
  5
29D
100
AcDbEntity
  8
0
100
AcDbLine
 62
6
  6
CONTINUOUS
 10
5.0617572427
 20
4.790695976
 11
5.0630972061
 21
4.7899251519
  0
LWPOLYLINE
  5
29E
100
AcDbEntity
  8
0
100
AcDbPolyline
 62
6
  6
CONTINUOUS
 90
3
 70
0
 10
5.0470349295
 20
4.800297659
 10
5.0484011032
 20
4.799312254
 10
5.0497620627
 20
4.7983511243
  0
LWPOLYLINE
  5
29F
100
AcDbEntity
  8
0
100
AcDbPolyline
 62
6
  6
CONTINUOUS
 90
13
 70
0
 10
5.0456732371
 20
4.8013008817
 10
5.0470473525
 20
4.8002886039
 10
5.0484162976
 20
4.7993014114
 10
5.0497798898
 20
4.7983386682
 10
5.0511379699
 20
4.7973997516
 10
5.0524904011
 20
4.7964840517
 10
5.0538370684
 20
4.7955909715
 10
5.0551778756
 20
4.7947199285
 10
5.056512749
 20
4.7938703514
 10
5.0578416448
 20
4.7930416753
 10
5.0591645378
 20
4.7922333486
 10
5.0604814202
 20
4.7914448334
 10
5.0617923012
 20
4.7906756049
  0
LINE
  5
2A0
100
AcDbEntity
  8
0
100
AcDbLine
 62
6
  6
CONTINUOUS
 10
6.2600231376
 20
4.6631930279
 11
6.2600231376
 21
4.0381930279
  0
LWPOLYLINE
  5
2A1
100
AcDbEntity
  8
0
100
AcDbPolyline
 62
6
  6
CONTINUOUS
 90
4
 70
0
 10
6.9594043802
 20
4.8390875479
 10
6.9598696159
 20
4.8397037706
 10
6.9613818775
 20
4.8417404327
 10
6.9617440013
 20
4.8422359578
  0
LWPOLYLINE
  5
2A2
100
AcDbEntity
  8
0
100
AcDbPolyline
 62
6
  6
CONTINUOUS
 90
18
 70
0
 10
5.0820093288
 20
4.7806144822
 10
5.0832266013
 20
4.7801078103
 10
5.0844357966
 20
4.7796148154
 10
5.0856359439
 20
4.7791355662
 10
5.0868260688
 20
4.7786701104
 10
5.0880051938
 20
4.7782184755
 10
5.0891723387
 20
4.7777806695
 10
5.0903265216
 20
4.7773566814
 10
5.0914667586
 20
4.776946482
 10
5.0925920652
 20
4.7765500248
 10
5.0937015046
 20
4.77616723
 10
5.0947948193
 20
4.7757977764
 10
5.0958722584
 20
4.7754411818
 10
5.0969340928
 20
4.7750969761
 10
5.0979806028
 20
4.7747647041
 10
5.0990120781
 20
4.774443926
 10
5.1000288169
 20
4.7741342165
 10
5.1010311314
 20
4.7738351627
  0
LINE
  5
2A3
100
AcDbEntity
  8
0
100
AcDbLine
 62
6
  6
CONTINUOUS
 10
5.0807473026
 20
4.7811509065
 11
5.0819731817
 21
4.7806296884
  0
LINE
  5
2A4
100
AcDbEntity
  8
0
100
AcDbLine
 62
6
  6
CONTINUOUS
 10
5.0795156457
 20
4.7816854691
 11
5.0807849455
 21
4.7811347413
  0
LINE
  5
2A5
100
AcDbEntity
  8
0
100
AcDbLine
 62
6
  6
CONTINUOUS
 10
5.0782792372
 20
4.7822332012
 11
5.0795544131
 21
4.7816684757
  0
LINE
  5
2A6
100
AcDbEntity
  8
0
100
AcDbLine
 62
6
  6
CONTINUOUS
 10
5.0770384978
 20
4.7827941757
 11
5.078318687
 21
4.7822155516
  0
LINE
  5
2A7
100
AcDbEntity
  8
0
100
AcDbLine
 62
6
  6
CONTINUOUS
 10
5.0757932686
 20
4.7833687292
 11
5.0770784191
 21
4.7827759481
  0
LINE
  5
2A8
100
AcDbEntity
  8
0
100
AcDbLine
 62
6
  6
CONTINUOUS
 10
5.0745433755
 20
4.7839572202
 11
5.0758335339
 21
4.7833499681
  0
LINE
  5
2A9
100
AcDbEntity
  8
0
100
AcDbLine
 62
6
  6
CONTINUOUS
 10
5.0732886545
 20
4.7845600187
 11
5.074583855
 21
4.7839379746
  0
LINE
  5
2AA
100
AcDbEntity
  8
0
100
AcDbLine
 62
6
  6
CONTINUOUS
 10
5.0720289516
 20
4.7851775065
 11
5.073329216
 21
4.7845403417
  0
LINE
  5
2AB
100
AcDbEntity
  8
0
100
AcDbLine
 62
6
  6
CONTINUOUS
 10
5.0707641236
 20
4.7858100771
 11
5.0720694611
 21
4.7851574559
  0
LINE
  5
2AC
100
AcDbEntity
  8
0
100
AcDbLine
 62
6
  6
CONTINUOUS
 10
5.0694940382
 20
4.7864581358
 11
5.0708044448
 21
4.7857897153
  0
LINE
  5
2AD
100
AcDbEntity
  8
0
100
AcDbLine
 62
6
  6
CONTINUOUS
 10
5.0682185749
 20
4.7871221002
 11
5.0695340334
 21
4.78643753
  0
LINE
  5
2AE
100
AcDbEntity
  8
0
100
AcDbLine
 62
6
  6
CONTINUOUS
 10
5.0669376252
 20
4.7878023999
 11
5.0682581044
 21
4.7871013225
  0
LINE
  5
2AF
100
AcDbEntity
  8
0
100
AcDbLine
 62
6
  6
CONTINUOUS
 10
5.0656510931
 20
4.7884994767
 11
5.0669765478
 21
4.7877815274
  0
LINE
  5
2B0
100
AcDbEntity
  8
0
100
AcDbLine
 62
6
  6
CONTINUOUS
 10
5.0643588958
 20
4.789213785
 11
5.0656892663
 21
4.7884785921
  0
LINE
  5
2B1
100
AcDbEntity
  8
0
100
AcDbLine
 62
6
  6
CONTINUOUS
 10
5.063060964
 20
4.7899457916
 11
5.0643961758
 21
4.7891929761
  0
LINE
  5
2B2
100
AcDbEntity
  8
0
100
AcDbLine
 62
6
  6
CONTINUOUS
 10
6.3270231376
 20
5.0336602129
 11
6.3270231376
 21
4.6931930279
  0
LWPOLYLINE
  5
2B3
100
AcDbEntity
  8
0
100
AcDbPolyline
 62
6
  6
CONTINUOUS
 90
5
 70
0
 10
6.9617440436
 20
4.8422360159
 10
6.9725256344
 20
4.858596122
 10
6.9827189828
 20
4.8779080811
 10
6.9911131043
 20
4.8986028875
 10
6.9970738282
 20
4.9186053823
  0
LINE
  5
2B4
100
AcDbEntity
  8
0
100
AcDbLine
 62
6
  6
CONTINUOUS
 10
6.8631349421
 20
4.7730100726
 11
6.8644637702
 21
4.7733844585
  0
LINE
  5
2B5
100
AcDbEntity
  8
0
100
AcDbLine
 62
6
  6
CONTINUOUS
 10
6.8622586731
 20
4.7727690373
 11
6.8635817656
 21
4.7731347659
  0
LINE
  5
2B6
100
AcDbEntity
  8
0
100
AcDbLine
 62
6
  6
CONTINUOUS
 10
6.8613916792
 20
4.7725350994
 11
6.8627099125
 21
4.7728925814
  0
LINE
  5
2B7
100
AcDbEntity
  8
0
100
AcDbLine
 62
6
  6
CONTINUOUS
 10
6.8605332352
 20
4.7723079023
 11
6.8618474862
 21
4.7726575258
  0
LINE
  5
2B8
100
AcDbEntity
  8
0
100
AcDbLine
 62
6
  6
CONTINUOUS
 10
6.8596826101
 20
4.7720871059
 11
6.8609937556
 21
4.772429237
  0
LINE
  5
2B9
100
AcDbEntity
  8
0
100
AcDbLine
 62
6
  6
CONTINUOUS
 10
6.8588390671
 20
4.7718723866
 11
6.8601479837
 21
4.7722073697
  0
LINE
  5
2BA
100
AcDbEntity
  8
0
100
AcDbLine
 62
6
  6
CONTINUOUS
 10
5.1067191396
 20
4.7722540101
 11
5.1076845389
 21
4.7720049328
  0
LINE
  5
2BB
100
AcDbEntity
  8
0
100
AcDbLine
 62
6
  6
CONTINUOUS
 10
5.1057946045
 20
4.772497744
 11
5.1067691869
 21
4.7722409616
  0
LINE
  5
2BC
100
AcDbEntity
  8
0
100
AcDbLine
 62
6
  6
CONTINUOUS
 10
5.1048588746
 20
4.7727496358
 11
5.105843031
 21
4.7724848507
  0
LINE
  5
2BD
100
AcDbEntity
  8
0
100
AcDbLine
 62
6
  6
CONTINUOUS
 10
5.1039114014
 20
4.7730100537
 11
5.1049055199
 21
4.7727369548
  0
LINE
  5
2BE
100
AcDbEntity
  8
0
100
AcDbLine
 62
6
  6
CONTINUOUS
 10
5.1029516434
 20
4.7732793814
 11
5.1039561088
 21
4.7729976439
  0
LINE
  5
2BF
100
AcDbEntity
  8
0
100
AcDbLine
 62
6
  6
CONTINUOUS
 10
5.1019790661
 20
4.7735580192
 11
5.1029942596
 21
4.7732673038
  0
LINE
  5
2C0
100
AcDbEntity
  8
0
100
AcDbLine
 62
6
  6
CONTINUOUS
 10
5.1009931425
 20
4.7738463843
 11
5.1020194415
 21
4.7735463371
  0
LINE
  5
2C1
100
AcDbEntity
  8
0
100
AcDbLine
 62
6
  6
CONTINUOUS
 10
5.0947705768
 20
4.7758058852
 11
5.095846375
 21
4.7754496616
  0
LINE
  5
2C2
100
AcDbEntity
  8
0
100
AcDbLine
 62
6
  6
CONTINUOUS
 10
6.5110231376
 20
5.8593476855
 11
6.5110231376
 21
5.7834430279
  0
LINE
  5
2C3
100
AcDbEntity
  8
0
100
AcDbLine
 62
6
  6
CONTINUOUS
 10
6.5410231376
 20
5.1031930279
 11
6.5410231376
 21
5.2537436962
  0
LINE
  5
2C4
100
AcDbEntity
  8
0
100
AcDbLine
 62
6
  6
CONTINUOUS
 10
6.5410231376
 20
5.5605495882
 11
6.5410231376
 21
5.6721930279
  0
LINE
  5
2C5
100
AcDbEntity
  8
0
100
AcDbLine
 62
6
  6
CONTINUOUS
 10
6.8580018642
 20
4.7716634363
 11
6.8593094276
 21
4.7719915948
  0
LINE
  5
2C6
100
AcDbEntity
  8
0
100
AcDbLine
 62
6
  6
CONTINUOUS
 10
6.8571702548
 20
4.7714599626
 11
6.8584773393
 21
4.7717815992
  0
LINE
  5
2C7
100
AcDbEntity
  8
0
100
AcDbLine
 62
6
  6
CONTINUOUS
 10
6.8563436576
 20
4.7712617288
 11
6.8576509657
 21
4.7715770853
  0
LINE
  5
2C8
100
AcDbEntity
  8
0
100
AcDbLine
 62
6
  6
CONTINUOUS
 10
6.855522095
 20
4.7710686514
 11
6.8568295869
 21
4.7713777801
  0
LINE
  5
2C9
100
AcDbEntity
  8
0
100
AcDbLine
 62
6
  6
CONTINUOUS
 10
6.8547057232
 20
4.7708806782
 11
6.8560129839
 21
4.7711835439
  0
LINE
  5
2CA
100
AcDbEntity
  8
0
100
AcDbLine
 62
6
  6
CONTINUOUS
 10
6.853894698
 20
4.7706977556
 11
6.8552012946
 21
4.7709943247
  0
LINE
  5
2CB
100
AcDbEntity
  8
0
100
AcDbLine
 62
6
  6
CONTINUOUS
 10
6.8530891744
 20
4.7705198281
 11
6.8543946643
 21
4.7708100712
  0
LINE
  5
2CC
100
AcDbEntity
  8
0
100
AcDbLine
 62
6
  6
CONTINUOUS
 10
6.8520065707
 20
4.7702865678
 11
6.8535932376
 21
4.7706307304
  0
LINE
  5
2CD
100
AcDbEntity
  8
0
100
AcDbLine
 62
6
  6
CONTINUOUS
 10
6.8507071579
 20
4.7700154405
 11
6.8522893072
 21
4.770346839
  0
LINE
  5
2CE
100
AcDbEntity
  8
0
100
AcDbLine
 62
6
  6
CONTINUOUS
 10
6.8496691832
 20
4.7698057648
 11
6.8512216172
 21
4.7701216332
  0
LINE
  5
2CF
100
AcDbEntity
  8
0
100
AcDbLine
 62
6
  6
CONTINUOUS
 10
6.8483801939
 20
4.7695538734
 11
6.8499251826
 21
4.7698569101
  0
LINE
  5
2D0
100
AcDbEntity
  8
0
100
AcDbLine
 62
6
  6
CONTINUOUS
 10
6.8473863394
 20
4.7693660508
 11
6.8489019865
 21
4.7696547105
  0
LINE
  5
2D1
100
AcDbEntity
  8
0
100
AcDbLine
 62
6
  6
CONTINUOUS
 10
6.846112392
 20
4.769133401
 11
6.8476174845
 21
4.769409238
  0
LINE
  5
2D2
100
AcDbEntity
  8
0
100
AcDbLine
 62
6
  6
CONTINUOUS
 10
6.8451618405
 20
4.7689657194
 11
6.8466381702
 21
4.7692283179
  0
LINE
  5
2D3
100
AcDbEntity
  8
0
100
AcDbLine
 62
6
  6
CONTINUOUS
 10
6.8439078273
 20
4.7687522
 11
6.8453703103
 21
4.7690020631
  0
LINE
  5
2D4
100
AcDbEntity
  8
0
100
AcDbLine
 62
6
  6
CONTINUOUS
 10
6.8429994598
 20
4.7686029808
 11
6.8444339589
 21
4.76884072
  0
LINE
  5
2D5
100
AcDbEntity
  8
0
100
AcDbLine
 62
6
  6
CONTINUOUS
 10
6.841771065
 20
4.7684084422
 11
6.8431877284
 21
4.7686335328
  0
LINE
  5
2D6
100
AcDbEntity
  8
0
100
AcDbLine
 62
6
  6
CONTINUOUS
 10
6.8409045431
 20
4.7682762123
 11
6.8422932209
 21
4.7684901179
  0
LINE
  5
2D7
100
AcDbEntity
  8
0
100
AcDbLine
 62
6
  6
CONTINUOUS
 10
6.8397103383
 20
4.7681007335
 11
6.8410752227
 21
4.7683019313
  0
LINE
  5
2D8
100
AcDbEntity
  8
0
100
AcDbLine
 62
6
  6
CONTINUOUS
 10
6.838886937
 20
4.7679842883
 11
6.840222892
 21
4.7681750917
  0
LINE
  5
2D9
100
AcDbEntity
  8
0
100
AcDbLine
 62
6
  6
CONTINUOUS
 10
6.8375900771
 20
4.7678083887
 11
6.8390420255
 21
4.7680059377
  0
LINE
  5
2DA
100
AcDbEntity
  8
0
100
AcDbLine
 62
6
  6
CONTINUOUS
 10
6.8363346096
 20
4.7676468187
 11
6.8377354833
 21
4.7678276549
  0
LINE
  5
2DB
100
AcDbEntity
  8
0
100
AcDbLine
 62
6
  6
CONTINUOUS
 10
6.8351187721
 20
4.7674984936
 11
6.8364705431
 21
4.7676638994
  0
LINE
  5
2DC
100
AcDbEntity
  8
0
100
AcDbLine
 62
6
  6
CONTINUOUS
 10
6.8339395987
 20
4.7673622727
 11
6.8352452993
 21
4.7675135563
  0
LINE
  5
2DD
100
AcDbEntity
  8
0
100
AcDbLine
 62
6
  6
CONTINUOUS
 10
6.8327941145
 20
4.7672371177
 11
6.8340568347
 21
4.7673754803
  0
LINE
  5
2DE
100
AcDbEntity
  8
0
100
AcDbLine
 62
6
  6
CONTINUOUS
 10
6.831679359
 20
4.767122089
 11
6.8329022235
 21
4.7672486281
  0
LINE
  5
2DF
100
AcDbEntity
  8
0
100
AcDbLine
 62
6
  6
CONTINUOUS
 10
6.8305925318
 20
4.767016352
 11
6.8317785515
 21
4.7671320543
  0
LINE
  5
2E0
100
AcDbEntity
  8
0
100
AcDbLine
 62
6
  6
CONTINUOUS
 10
6.2600231376
 20
4.6631930279
 11
5.7070231376
 21
4.6631930279
  0
LINE
  5
2E1
100
AcDbEntity
  8
0
100
AcDbLine
 62
6
  6
CONTINUOUS
 10
5.1355098565
 20
4.7671078214
 11
5.1368069247
 21
4.7669833505
  0
LINE
  5
2E2
100
AcDbEntity
  8
0
100
AcDbLine
 62
6
  6
CONTINUOUS
 10
5.1341837906
 20
4.7672443898
 11
5.1355098565
 21
4.7671078214
  0
LINE
  5
2E3
100
AcDbEntity
  8
0
100
AcDbLine
 62
6
  6
CONTINUOUS
 10
5.1328337885
 20
4.7673931303
 11
5.1341658344
 21
4.7672463038
  0
LINE
  5
2E4
100
AcDbEntity
  8
0
100
AcDbLine
 62
6
  6
CONTINUOUS
 10
5.1314621462
 20
4.7675543194
 11
5.1328337885
 21
4.7673931303
  0
LINE
  5
2E5
100
AcDbEntity
  8
0
100
AcDbLine
 62
6
  6
CONTINUOUS
 10
5.1300680168
 20
4.7677285826
 11
5.1314621462
 21
4.7675543194
  0
LINE
  5
2E6
100
AcDbEntity
  8
0
100
AcDbLine
 62
6
  6
CONTINUOUS
 10
5.1286504133
 20
4.7679166031
 11
5.1300680168
 21
4.7677285826
  0
LINE
  5
2E7
100
AcDbEntity
  8
0
100
AcDbLine
 62
6
  6
CONTINUOUS
 10
5.1272083309
 20
4.7681191113
 11
5.1286504133
 21
4.7679166031
  0
LINE
  5
2E8
100
AcDbEntity
  8
0
100
AcDbLine
 62
6
  6
CONTINUOUS
 10
5.1256996828
 20
4.7683431525
 11
5.1272083309
 21
4.7681191113
  0
LINE
  5
2E9
100
AcDbEntity
  8
0
100
AcDbLine
 62
6
  6
CONTINUOUS
 10
5.1242019433
 20
4.768577954
 11
5.1257407686
 21
4.7683368855
  0
LINE
  5
2EA
100
AcDbEntity
  8
0
100
AcDbLine
 62
6
  6
CONTINUOUS
 10
5.1226771085
 20
4.768829736
 11
5.1242467401
 21
4.7685707516
  0
LINE
  5
2EB
100
AcDbEntity
  8
0
100
AcDbLine
 62
6
  6
CONTINUOUS
 10
5.121175464
 20
4.7690903073
 11
5.1227252787
 21
4.768821585
  0
LINE
  5
2EC
100
AcDbEntity
  8
0
100
AcDbLine
 62
6
  6
CONTINUOUS
 10
5.1203373675
 20
4.769241206
 11
5.1219042725
 21
4.7689622736
  0
LINE
  5
2ED
100
AcDbEntity
  8
0
100
AcDbLine
 62
6
  6
CONTINUOUS
 10
5.1187961443
 20
4.7695289775
 11
5.1203897043
 21
4.7692316678
  0
LINE
  5
2EE
100
AcDbEntity
  8
0
100
AcDbLine
 62
6
  6
CONTINUOUS
 10
5.1179882139
 20
4.7696851707
 11
5.1195431734
 21
4.7693878292
  0
LINE
  5
2EF
100
AcDbEntity
  8
0
100
AcDbLine
 62
6
  6
CONTINUOUS
 10
5.1171727652
 20
4.7698465567
 11
5.1187417366
 21
4.7695393803
  0
LINE
  5
2F0
100
AcDbEntity
  8
0
100
AcDbLine
 62
6
  6
CONTINUOUS
 10
5.1163497366
 20
4.7700132644
 11
5.1179329975
 21
4.7696959799
  0
LINE
  5
2F1
100
AcDbEntity
  8
0
100
AcDbLine
 62
6
  6
CONTINUOUS
 10
5.1155190678
 20
4.7701854258
 11
5.1171168976
 21
4.7698577513
  0
LINE
  5
2F2
100
AcDbEntity
  8
0
100
AcDbLine
 62
6
  6
CONTINUOUS
 10
5.1146807003
 20
4.7703631754
 11
5.11629338
 21
4.7700248205
  0
LINE
  5
2F3
100
AcDbEntity
  8
0
100
AcDbLine
 62
6
  6
CONTINUOUS
 10
5.1138345774
 20
4.7705466509
 11
5.1154623891
 21
4.7701973162
  0
LINE
  5
2F4
100
AcDbEntity
  8
0
100
AcDbLine
 62
6
  6
CONTINUOUS
 10
5.112980644
 20
4.7707359928
 11
5.1146238712
 21
4.7703753698
  0
LINE
  5
2F5
100
AcDbEntity
  8
0
100
AcDbLine
 62
6
  6
CONTINUOUS
 10
5.1129240469
 20
4.7707486905
 11
5.1137777739
 21
4.7705591156
  0
LINE
  5
2F6
100
AcDbEntity
  8
0
100
AcDbLine
 62
6
  6
CONTINUOUS
 10
5.1120626415
 20
4.7709442345
 11
5.112980644
 21
4.7707359928
  0
LINE
  5
2F7
100
AcDbEntity
  8
0
100
AcDbLine
 62
6
  6
CONTINUOUS
 10
5.1111935113
 20
4.7711458903
 11
5.1121188472
 21
4.7709313446
  0
LINE
  5
2F8
100
AcDbEntity
  8
0
100
AcDbLine
 62
6
  6
CONTINUOUS
 10
5.1103165145
 20
4.7713538268
 11
5.1112491359
 21
4.7711328528
  0
LINE
  5
2F9
100
AcDbEntity
  8
0
100
AcDbLine
 62
6
  6
CONTINUOUS
 10
5.1094311531
 20
4.7715683055
 11
5.110371372
 21
4.7713406884
  0
LINE
  5
2FA
100
AcDbEntity
  8
0
100
AcDbLine
 62
6
  6
CONTINUOUS
 10
5.1085368503
 20
4.7717896209
 11
5.1094850658
 21
4.7715551138
  0
LINE
  5
2FB
100
AcDbEntity
  8
0
100
AcDbLine
 62
6
  6
CONTINUOUS
 10
5.1076330346
 20
4.7720180816
 11
5.1085896443
 21
4.7717764251
  0
LINE
  5
2FC
100
AcDbEntity
  8
0
100
AcDbLine
 62
6
  6
CONTINUOUS
 10
5.5053025937
 20
5.2946502143
 11
5.5100199183
 21
5.2904512078
  0
LINE
  5
2FD
100
AcDbEntity
  8
0
100
AcDbLine
 62
9
  6
CONTINUOUS
 10
5.5099549395
 20
5.2905124033
 11
5.5100193683
 21
5.290451887
  0
LINE
  5
2FE
100
AcDbEntity
  8
0
100
AcDbLine
 62
6
  6
CONTINUOUS
 10
6.5675818104
 20
3.8816366411
 11
6.7310231376
 21
2.9181930279
  0
LINE
  5
2FF
100
AcDbEntity
  8
0
100
AcDbLine
 62
6
  6
CONTINUOUS
 10
6.5987951318
 20
5.0460161782
 11
6.6017173543
 21
5.0139214336
  0
LINE
  5
300
100
AcDbEntity
  8
0
100
AcDbLine
 62
6
  6
CONTINUOUS
 10
6.6017104171
 20
5.0140203666
 11
6.6040983551
 21
4.9799652883
  0
LINE
  5
301
100
AcDbEntity
  8
0
100
AcDbLine
 62
6
  6
CONTINUOUS
 10
6.8295325772
 20
4.7669193077
 11
6.830683103
 21
4.7670249223
  0
LINE
  5
302
100
AcDbEntity
  8
0
100
AcDbLine
 62
6
  6
CONTINUOUS
 10
5.1656323958
 20
4.7667629413
 11
5.1666182865
 21
4.7668470551
  0
LINE
  5
303
100
AcDbEntity
  8
0
100
AcDbLine
 62
6
  6
CONTINUOUS
 10
6.8284988331
 20
4.7668304267
 11
6.8296147721
 21
4.7669266188
  0
LINE
  5
304
100
AcDbEntity
  8
0
100
AcDbLine
 62
6
  6
CONTINUOUS
 10
5.1648655253
 20
4.7667014704
 11
5.1658277383
 21
4.7667791531
  0
LINE
  5
305
100
AcDbEntity
  8
0
100
AcDbLine
 62
6
  6
CONTINUOUS
 10
6.8274903341
 20
4.766749181
 11
6.8285727276
 21
4.7668365916
  0
LINE
  5
306
100
AcDbEntity
  8
0
100
AcDbLine
 62
6
  6
CONTINUOUS
 10
5.1641118509
 20
4.7666444341
 11
5.1650493052
 21
4.7667158863
  0
LINE
  5
307
100
AcDbEntity
  8
0
100
AcDbLine
 62
6
  6
CONTINUOUS
 10
6.8265061549
 20
4.7666750736
 11
6.8275558647
 21
4.7667542967
  0
LINE
  5
308
100
AcDbEntity
  8
0
100
AcDbLine
 62
6
  6
CONTINUOUS
 10
5.1633727192
 20
4.7665917527
 11
5.164283962
 21
4.766657164
  0
LINE
  5
309
100
AcDbEntity
  8
0
100
AcDbLine
 62
6
  6
CONTINUOUS
 10
6.8255446824
 20
4.7666075799
 11
6.8265631705
 21
4.7666792277
  0
LINE
  5
30A
100
AcDbEntity
  8
0
100
AcDbLine
 62
6
  6
CONTINUOUS
 10
6.8246369301
 20
4.7665482442
 11
6.8255927891
 21
4.7666108425
  0
LINE
  5
30B
100
AcDbEntity
  8
0
100
AcDbLine
 62
6
  6
CONTINUOUS
 10
5.1620803937
 20
4.7665073963
 11
5.1635330886
 21
4.7666029091
  0
LINE
  5
30C
100
AcDbEntity
  8
0
100
AcDbLine
 62
6
  6
CONTINUOUS
 10
6.8235688818
 20
4.7664836536
 11
6.8246770237
 21
4.7665507765
  0
LINE
  5
30D
100
AcDbEntity
  8
0
100
AcDbLine
 62
6
  6
CONTINUOUS
 10
5.1612562196
 20
4.7664587583
 11
5.1626494953
 21
4.7665433278
  0
LINE
  5
30E
100
AcDbEntity
  8
0
100
AcDbLine
 62
9
  6
CONTINUOUS
 10
6.8233205736
 20
4.7664693822
 11
6.8233003261
 21
4.7664681996
  0
LINE
  5
30F
100
AcDbEntity
  8
0
100
AcDbLine
 62
6
  6
CONTINUOUS
 10
6.8232680229
 20
4.7664663234
 11
6.823547424
 21
4.7664824085
  0
LINE
  5
310
100
AcDbEntity
  8
0
100
AcDbLine
 62
6
  6
CONTINUOUS
 10
5.1600388854
 20
4.7663942842
 11
5.1613814185
 21
4.7664658876
  0
LINE
  5
311
100
AcDbEntity
  8
0
100
AcDbLine
 62
6
  6
CONTINUOUS
 10
5.1592981646
 20
4.7663593604
 11
5.1605871759
 21
4.7664222351
  0
LINE
  5
312
100
AcDbEntity
  8
0
100
AcDbLine
 62
6
  6
CONTINUOUS
 10
5.1580653897
 20
4.7663084812
 11
5.1593923983
 21
4.7663636222
  0
LINE
  5
313
100
AcDbEntity
  8
0
100
AcDbLine
 62
6
  6
CONTINUOUS
 10
5.1568815695
 20
4.7662681689
 11
5.1581418616
 21
4.7663113736
  0
LWPOLYLINE
  5
314
100
AcDbEntity
  8
0
100
AcDbPolyline
 62
6
  6
CONTINUOUS
 90
4
 70
0
 10
6.8167306186
 20
4.7662103915
 10
6.8189514202
 20
4.7662670185
 10
6.8214679733
 20
4.7663702724
 10
6.8233205736
 20
4.7664693822
  0
LINE
  5
315
100
AcDbEntity
  8
0
100
AcDbLine
 62
6
  6
CONTINUOUS
 10
5.1557440821
 20
4.7662373635
 11
5.1569415873
 21
4.7662700106
  0
LINE
  5
316
100
AcDbEntity
  8
0
100
AcDbLine
 62
6
  6
CONTINUOUS
 10
5.1546828826
 20
4.7662156893
 11
5.1557890141
 21
4.7662384322
  0
LINE
  5
317
100
AcDbEntity
  8
0
100
AcDbLine
 62
6
  6
CONTINUOUS
 10
5.1536376636
 20
4.7662011254
 11
5.1546828826
 21
4.7662156893
  0
LINE
  5
318
100
AcDbEntity
  8
0
100
AcDbLine
 62
6
  6
CONTINUOUS
 10
6.8148483043
 20
4.7661934496
 11
6.8167289572
 21
4.7662103762
  0
LINE
  5
319
100
AcDbEntity
  8
0
100
AcDbLine
 62
6
  6
CONTINUOUS
 10
5.1526800099
 20
4.7661939987
 11
5.1536376636
 21
4.7662011254
  0
LINE
  5
31A
100
AcDbEntity
  8
0
100
AcDbLine
 62
6
  6
CONTINUOUS
 10
5.1522781229
 20
4.7661930379
 11
5.1531472162
 21
4.7661966918
  0
LINE
  5
31B
100
AcDbEntity
  8
0
100
AcDbLine
 62
6
  6
CONTINUOUS
 10
6.8148511737
 20
4.7661930371
 11
6.8148092587
 21
4.7661930279
  0
LINE
  5
31C
100
AcDbEntity
  8
0
100
AcDbLine
 62
9
  6
CONTINUOUS
 10
5.1522767751
 20
4.7661930376
 11
5.1522370165
 21
4.7661930279
  0
LINE
  5
31D
100
AcDbEntity
  8
0
100
AcDbLine
 62
6
  6
CONTINUOUS
 10
6.3270231376
 20
4.6931930279
 11
5.6400231376
 21
4.6931930279
  0
LINE
  5
31E
100
AcDbEntity
  8
0
100
AcDbLine
 62
6
  6
CONTINUOUS
 10
5.1521951016
 20
4.7661930371
 11
5.1522370165
 21
4.7661930279
  0
LINE
  5
31F
100
AcDbEntity
  8
0
100
AcDbLine
 62
9
  6
CONTINUOUS
 10
6.8147695002
 20
4.7661930376
 11
6.8148092587
 21
4.7661930279
  0
LINE
  5
320
100
AcDbEntity
  8
0
100
AcDbLine
 62
6
  6
CONTINUOUS
 10
6.8139094894
 20
4.7661966149
 11
6.8147681524
 21
4.7661930379
  0
LINE
  5
321
100
AcDbEntity
  8
0
100
AcDbLine
 62
6
  6
CONTINUOUS
 10
5.1503173181
 20
4.7662103762
 11
5.15219497
 21
4.7661930372
  0
LINE
  5
322
100
AcDbEntity
  8
0
100
AcDbLine
 62
9
  6
CONTINUOUS
 10
5.1522017233
 20
4.7661934106
 11
5.1522370165
 21
4.7661930279
  0
LINE
  5
323
100
AcDbEntity
  8
0
100
AcDbLine
 62
6
  6
CONTINUOUS
 10
6.812919359
 20
4.7662070918
 11
6.8139094894
 21
4.7661966149
  0
LINE
  5
324
100
AcDbEntity
  8
0
100
AcDbLine
 62
6
  6
CONTINUOUS
 10
6.8118542314
 20
4.7662252321
 11
6.812919359
 21
4.7662070918
  0
LINE
  5
325
100
AcDbEntity
  8
0
100
AcDbLine
 62
6
  6
CONTINUOUS
 10
5.148103087
 20
4.7662668086
 11
5.1503189497
 21
4.7662103347
  0
LINE
  5
326
100
AcDbEntity
  8
0
100
AcDbLine
 62
6
  6
CONTINUOUS
 10
6.8106865872
 20
4.7662530674
 11
6.811816535
 21
4.7662260016
  0
LINE
  5
327
100
AcDbEntity
  8
0
100
AcDbLine
 62
6
  6
CONTINUOUS
 10
6.8095109221
 20
4.7662893946
 11
6.8107389324
 21
4.7662516432
  0
LINE
  5
328
100
AcDbEntity
  8
0
100
AcDbLine
 62
6
  6
CONTINUOUS
 10
6.8082857661
 20
4.7663360561
 11
6.8095790195
 21
4.7662870642
  0
LINE
  5
329
100
AcDbEntity
  8
0
100
AcDbLine
 62
6
  6
CONTINUOUS
 10
5.1456194272
 20
4.7663682854
 11
5.1481113168
 21
4.7662664723
  0
LINE
  5
32A
100
AcDbEntity
  8
0
100
AcDbLine
 62
6
  6
CONTINUOUS
 10
6.8070073899
 20
4.7663942842
 11
6.8083708698
 21
4.7663325253
  0
LINE
  5
32B
100
AcDbEntity
  8
0
100
AcDbLine
 62
6
  6
CONTINUOUS
 10
6.8057900557
 20
4.7664587583
 11
6.8071113085
 21
4.7663891879
  0
LINE
  5
32C
100
AcDbEntity
  8
0
100
AcDbLine
 62
9
  6
CONTINUOUS
 10
5.1437257016
 20
4.7664693822
 11
5.1437509156
 21
4.7664679099
  0
LINE
  5
32D
100
AcDbEntity
  8
0
100
AcDbLine
 62
6
  6
CONTINUOUS
 10
5.143103346
 20
4.766505667
 11
5.1455951676
 21
4.7663695804
  0
LINE
  5
32E
100
AcDbEntity
  8
0
100
AcDbLine
 62
6
  6
CONTINUOUS
 10
6.8049658816
 20
4.7665073963
 11
6.8063448805
 21
4.7664282824
  0
LINE
  5
32F
100
AcDbEntity
  8
0
100
AcDbLine
 62
6
  6
CONTINUOUS
 10
5.1421529154
 20
4.7665645799
 11
5.1434888722
 21
4.7664829873
  0
LINE
  5
330
100
AcDbEntity
  8
0
100
AcDbLine
 62
6
  6
CONTINUOUS
 10
6.803673556
 20
4.7665917527
 11
6.8051027123
 21
4.7664990429
  0
LINE
  5
331
100
AcDbEntity
  8
0
100
AcDbLine
 62
6
  6
CONTINUOUS
 10
5.1410579963
 20
4.7666381205
 11
5.1421529154
 21
4.7665645799
  0
LINE
  5
332
100
AcDbEntity
  8
0
100
AcDbLine
 62
6
  6
CONTINUOUS
 10
6.8029344243
 20
4.7666444341
 11
6.8042481845
 21
4.7665530251
  0
LINE
  5
333
100
AcDbEntity
  8
0
100
AcDbLine
 62
6
  6
CONTINUOUS
 10
5.1398920572
 20
4.7667232982
 11
5.1410506207
 21
4.766638637
  0
LINE
  5
334
100
AcDbEntity
  8
0
100
AcDbLine
 62
6
  6
CONTINUOUS
 10
6.80218075
 20
4.7667014704
 11
6.8035131866
 21
4.7666029091
  0
LINE
  5
335
100
AcDbEntity
  8
0
100
AcDbLine
 62
6
  6
CONTINUOUS
 10
6.8014138795
 20
4.7667629413
 11
6.8027623133
 21
4.766657164
  0
LINE
  5
336
100
AcDbEntity
  8
0
100
AcDbLine
 62
6
  6
CONTINUOUS
 10
5.1386862706
 20
4.7668189227
 11
5.1398920572
 21
4.7667232982
  0
LINE
  5
337
100
AcDbEntity
  8
0
100
AcDbLine
 62
6
  6
CONTINUOUS
 10
6.8006349519
 20
4.7668289233
 11
6.80199697
 21
4.7667158863
  0
LINE
  5
338
100
AcDbEntity
  8
0
100
AcDbLine
 62
6
  6
CONTINUOUS
 10
6.8004279888
 20
4.7668470551
 11
6.8012185369
 21
4.7667791531
  0
LWPOLYLINE
  5
339
100
AcDbEntity
  8
0
100
AcDbPolyline
 62
6
  6
CONTINUOUS
 90
3
 70
0
 10
5.1367980804
 20
4.7669841688
 10
5.1374367144
 20
4.7669261542
 10
5.1386862706
 20
4.7668189227
  0
LINE
  5
33A
100
AcDbEntity
  8
0
100
AcDbLine
 62
6
  6
CONTINUOUS
 10
6.5896410851
 20
5.1138744113
 11
6.5949995634
 21
5.0785173139
  0
LINE
  5
33B
100
AcDbEntity
  8
0
100
AcDbLine
 62
6
  6
CONTINUOUS
 10
6.6040983551
 20
4.9799652883
 11
6.6041016754
 21
4.9799395808
  0
LINE
  5
33C
100
AcDbEntity
  8
0
100
AcDbLine
 62
6
  6
CONTINUOUS
 10
6.594989088
 20
5.0786070135
 11
6.5988142132
 21
5.045826751
  0
LINE
  5
33D
100
AcDbEntity
  8
0
100
AcDbLine
 62
6
  6
CONTINUOUS
 10
6.9970738468
 20
4.918605457
 11
7.0016999961
 21
4.941914129
  0
LINE
  5
33E
100
AcDbEntity
  8
0
100
AcDbLine
 62
6
  6
CONTINUOUS
 10
5.1981368106
 20
4.7725485986
 11
5.2000702492
 21
4.7730907549
  0
LINE
  5
33F
100
AcDbEntity
  8
0
100
AcDbLine
 62
6
  6
CONTINUOUS
 10
5.1969732234
 20
4.7722332568
 11
5.1988609439
 21
4.7727489895
  0
LINE
  5
340
100
AcDbEntity
  8
0
100
AcDbLine
 62
6
  6
CONTINUOUS
 10
5.195825595
 20
4.7719302585
 11
5.1976739517
 21
4.7724221777
  0
LINE
  5
341
100
AcDbEntity
  8
0
100
AcDbLine
 62
6
  6
CONTINUOUS
 10
5.1946933516
 20
4.7716391009
 11
5.1965048491
 21
4.7721086357
  0
LINE
  5
342
100
AcDbEntity
  8
0
100
AcDbLine
 62
6
  6
CONTINUOUS
 10
5.1935762165
 20
4.7713593783
 11
5.1953516411
 21
4.7718074419
  0
LINE
  5
343
100
AcDbEntity
  8
0
100
AcDbLine
 62
6
  6
CONTINUOUS
 10
5.1924739063
 20
4.7710906979
 11
5.1942140135
 21
4.7715181609
  0
LINE
  5
344
100
AcDbEntity
  8
0
100
AcDbLine
 62
6
  6
CONTINUOUS
 10
5.1913861306
 20
4.7708326794
 11
5.1930916781
 21
4.7712403798
  0
LINE
  5
345
100
AcDbEntity
  8
0
100
AcDbLine
 62
6
  6
CONTINUOUS
 10
5.1903125925
 20
4.7705849554
 11
5.1919843392
 21
4.7709736993
  0
LINE
  5
346
100
AcDbEntity
  8
0
100
AcDbLine
 62
6
  6
CONTINUOUS
 10
5.1892529889
 20
4.7703471706
 11
5.1908916942
 21
4.7707177332
  0
LINE
  5
347
100
AcDbEntity
  8
0
100
AcDbLine
 62
6
  6
CONTINUOUS
 10
5.1882070107
 20
4.7701189818
 11
5.1898134339
 21
4.7704721084
  0
LINE
  5
348
100
AcDbEntity
  8
0
100
AcDbLine
 62
6
  6
CONTINUOUS
 10
5.1871743433
 20
4.7699000574
 11
5.1887492428
 21
4.7702364641
  0
LINE
  5
349
100
AcDbEntity
  8
0
100
AcDbLine
 62
6
  6
CONTINUOUS
 10
5.1861546662
 20
4.7696900775
 11
5.1876987992
 21
4.7700104524
  0
LINE
  5
34A
100
AcDbEntity
  8
0
100
AcDbLine
 62
6
  6
CONTINUOUS
 10
5.1851476335
 20
4.7694887297
 11
5.186661776
 21
4.7697937372
  0
LINE
  5
34B
100
AcDbEntity
  8
0
100
AcDbLine
 62
6
  6
CONTINUOUS
 10
5.184152876
 20
4.7692957095
 11
5.1856378339
 21
4.7695859934
  0
LINE
  5
34C
100
AcDbEntity
  8
0
100
AcDbLine
 62
6
  6
CONTINUOUS
 10
5.1831700198
 20
4.7691107244
 11
5.1846266009
 21
4.7693869023
  0
LINE
  5
34D
100
AcDbEntity
  8
0
100
AcDbLine
 62
6
  6
CONTINUOUS
 10
5.1821986874
 20
4.7689334936
 11
5.1836276941
 21
4.7691961564
  0
LINE
  5
34E
100
AcDbEntity
  8
0
100
AcDbLine
 62
6
  6
CONTINUOUS
 10
5.1812384977
 20
4.7687637479
 11
5.1826407267
 21
4.7690134607
  0
LINE
  5
34F
100
AcDbEntity
  8
0
100
AcDbLine
 62
6
  6
CONTINUOUS
 10
5.1802890661
 20
4.7686012293
 11
5.181665308
 21
4.768838532
  0
LINE
  5
350
100
AcDbEntity
  8
0
100
AcDbLine
 62
6
  6
CONTINUOUS
 10
5.1793500048
 20
4.7684456908
 11
5.1807010439
 21
4.7686710994
  0
LINE
  5
351
100
AcDbEntity
  8
0
100
AcDbLine
 62
6
  6
CONTINUOUS
 10
5.1784209228
 20
4.7682968962
 11
5.1797475367
 21
4.7685109031
  0
LINE
  5
352
100
AcDbEntity
  8
0
100
AcDbLine
 62
6
  6
CONTINUOUS
 10
5.1775014265
 20
4.7681546202
 11
5.1788043852
 21
4.7683576951
  0
LINE
  5
353
100
AcDbEntity
  8
0
100
AcDbLine
 62
6
  6
CONTINUOUS
 10
5.1765911193
 20
4.7680186475
 11
5.1778711854
 21
4.7682112381
  0
LINE
  5
354
100
AcDbEntity
  8
0
100
AcDbLine
 62
6
  6
CONTINUOUS
 10
5.1756896412
 20
4.7678887789
 11
5.1769475304
 21
4.7680713062
  0
LINE
  5
355
100
AcDbEntity
  8
0
100
AcDbLine
 62
6
  6
CONTINUOUS
 10
5.1747970143
 20
4.7677648767
 11
5.1760330135
 21
4.7679376844
  0
LINE
  5
356
100
AcDbEntity
  8
0
100
AcDbLine
 62
6
  6
CONTINUOUS
 10
5.173913475
 20
4.7676468325
 11
5.1751274602
 21
4.7678102005
  0
LINE
  5
357
100
AcDbEntity
  8
0
100
AcDbLine
 62
6
  6
CONTINUOUS
 10
5.1730392644
 20
4.7675345358
 11
5.1742310803
 21
4.7676887393
  0
LINE
  5
358
100
AcDbEntity
  8
0
100
AcDbLine
 62
6
  6
CONTINUOUS
 10
5.1721746271
 20
4.7674278734
 11
5.1733441212
 21
4.7675731877
  0
LINE
  5
359
100
AcDbEntity
  8
0
100
AcDbLine
 62
6
  6
CONTINUOUS
 10
5.1713198106
 20
4.7673267292
 11
5.1724668335
 21
4.7674634301
  0
LINE
  5
35A
100
AcDbEntity
  8
0
100
AcDbLine
 62
6
  6
CONTINUOUS
 10
5.1704750648
 20
4.7672309847
 11
5.171599471
 21
4.767359348
  0
LINE
  5
35B
100
AcDbEntity
  8
0
100
AcDbLine
 62
6
  6
CONTINUOUS
 10
5.1696406423
 20
4.7671405187
 11
5.1707422905
 21
4.76726082
  0
LINE
  5
35C
100
AcDbEntity
  8
0
100
AcDbLine
 62
6
  6
CONTINUOUS
 10
5.1688167981
 20
4.7670552071
 11
5.1698955513
 21
4.767167722
  0
LINE
  5
35D
100
AcDbEntity
  8
0
100
AcDbLine
 62
6
  6
CONTINUOUS
 10
5.1680037895
 20
4.7669749237
 11
5.1690595154
 21
4.7670799273
  0
LINE
  5
35E
100
AcDbEntity
  8
0
100
AcDbLine
 62
6
  6
CONTINUOUS
 10
5.1672018768
 20
4.7668995395
 11
5.1682344472
 21
4.7669973064
  0
LINE
  5
35F
100
AcDbEntity
  8
0
100
AcDbLine
 62
6
  6
CONTINUOUS
 10
5.1664113234
 20
4.7668289233
 11
5.1674206141
 21
4.7669197272
  0
LINE
  5
360
100
AcDbEntity
  8
0
100
AcDbLine
 62
6
  6
CONTINUOUS
 10
6.7996256612
 20
4.7669197272
 11
6.8006349519
 21
4.7668289233
  0
LINE
  5
361
100
AcDbEntity
  8
0
100
AcDbLine
 62
6
  6
CONTINUOUS
 10
6.798811828
 20
4.7669973064
 11
6.7998443985
 21
4.7668995395
  0
LINE
  5
362
100
AcDbEntity
  8
0
100
AcDbLine
 62
6
  6
CONTINUOUS
 10
6.7979867598
 20
4.7670799273
 11
6.7990424858
 21
4.7669749237
  0
LINE
  5
363
100
AcDbEntity
  8
0
100
AcDbLine
 62
6
  6
CONTINUOUS
 10
6.7971507239
 20
4.767167722
 11
6.7982294772
 21
4.7670552071
  0
LINE
  5
364
100
AcDbEntity
  8
0
100
AcDbLine
 62
6
  6
CONTINUOUS
 10
6.7963039848
 20
4.76726082
 11
6.7974056329
 21
4.7671405187
  0
LINE
  5
365
100
AcDbEntity
  8
0
100
AcDbLine
 62
6
  6
CONTINUOUS
 10
6.7954468043
 20
4.767359348
 11
6.7965712104
 21
4.7672309847
  0
LINE
  5
366
100
AcDbEntity
  8
0
100
AcDbLine
 62
6
  6
CONTINUOUS
 10
6.7945794418
 20
4.7674634301
 11
6.7957264647
 21
4.7673267292
  0
LINE
  5
367
100
AcDbEntity
  8
0
100
AcDbLine
 62
6
  6
CONTINUOUS
 10
6.7937021541
 20
4.7675731877
 11
6.7948716481
 21
4.7674278734
  0
LINE
  5
368
100
AcDbEntity
  8
0
100
AcDbLine
 62
6
  6
CONTINUOUS
 10
6.7928151949
 20
4.7676887393
 11
6.7940070108
 21
4.7675345358
  0
LINE
  5
369
100
AcDbEntity
  8
0
100
AcDbLine
 62
6
  6
CONTINUOUS
 10
6.7919188151
 20
4.7678102005
 11
6.7931328003
 21
4.7676468325
  0
LINE
  5
36A
100
AcDbEntity
  8
0
100
AcDbLine
 62
6
  6
CONTINUOUS
 10
6.7910132617
 20
4.7679376844
 11
6.7922492609
 21
4.7677648767
  0
LINE
  5
36B
100
AcDbEntity
  8
0
100
AcDbLine
 62
6
  6
CONTINUOUS
 10
6.7900987448
 20
4.7680713062
 11
6.7913566341
 21
4.7678887789
  0
LINE
  5
36C
100
AcDbEntity
  8
0
100
AcDbLine
 62
6
  6
CONTINUOUS
 10
6.7891750899
 20
4.7682112381
 11
6.790455156
 21
4.7680186475
  0
LINE
  5
36D
100
AcDbEntity
  8
0
100
AcDbLine
 62
6
  6
CONTINUOUS
 10
6.7882418901
 20
4.7683576951
 11
6.7895448488
 21
4.7681546202
  0
LINE
  5
36E
100
AcDbEntity
  8
0
100
AcDbLine
 62
6
  6
CONTINUOUS
 10
6.7872987386
 20
4.7685109031
 11
6.7886253524
 21
4.7682968962
  0
LINE
  5
36F
100
AcDbEntity
  8
0
100
AcDbLine
 62
6
  6
CONTINUOUS
 10
6.7863452313
 20
4.7686710994
 11
6.7876962705
 21
4.7684456908
  0
LINE
  5
370
100
AcDbEntity
  8
0
100
AcDbLine
 62
6
  6
CONTINUOUS
 10
6.7853809672
 20
4.768838532
 11
6.7867572091
 21
4.7686012293
  0
LINE
  5
371
100
AcDbEntity
  8
0
100
AcDbLine
 62
6
  6
CONTINUOUS
 10
6.7844055486
 20
4.7690134607
 11
6.7858077775
 21
4.7687637479
  0
LINE
  5
372
100
AcDbEntity
  8
0
100
AcDbLine
 62
6
  6
CONTINUOUS
 10
6.7834185812
 20
4.7691961564
 11
6.7848475878
 21
4.7689334936
  0
LINE
  5
373
100
AcDbEntity
  8
0
100
AcDbLine
 62
6
  6
CONTINUOUS
 10
6.7824196743
 20
4.7693869023
 11
6.7838762555
 21
4.7691107244
  0
LINE
  5
374
100
AcDbEntity
  8
0
100
AcDbLine
 62
6
  6
CONTINUOUS
 10
6.7814084413
 20
4.7695859934
 11
6.7828933993
 21
4.7692957095
  0
LINE
  5
375
100
AcDbEntity
  8
0
100
AcDbLine
 62
6
  6
CONTINUOUS
 10
6.7803844993
 20
4.7697937372
 11
6.7818986418
 21
4.7694887297
  0
LINE
  5
376
100
AcDbEntity
  8
0
100
AcDbLine
 62
6
  6
CONTINUOUS
 10
6.779347476
 20
4.7700104524
 11
6.7808916091
 21
4.7696900775
  0
LINE
  5
377
100
AcDbEntity
  8
0
100
AcDbLine
 62
6
  6
CONTINUOUS
 10
6.7782970325
 20
4.7702364641
 11
6.7798719319
 21
4.7699000574
  0
LINE
  5
378
100
AcDbEntity
  8
0
100
AcDbLine
 62
6
  6
CONTINUOUS
 10
6.7772328413
 20
4.7704721084
 11
6.7788392646
 21
4.7701189818
  0
LINE
  5
379
100
AcDbEntity
  8
0
100
AcDbLine
 62
6
  6
CONTINUOUS
 10
6.776154581
 20
4.7707177332
 11
6.7777932864
 21
4.7703471706
  0
LINE
  5
37A
100
AcDbEntity
  8
0
100
AcDbLine
 62
6
  6
CONTINUOUS
 10
6.775061936
 20
4.7709736993
 11
6.7767336828
 21
4.7705849554
  0
LINE
  5
37B
100
AcDbEntity
  8
0
100
AcDbLine
 62
6
  6
CONTINUOUS
 10
6.7739545971
 20
4.7712403798
 11
6.7756601446
 21
4.7708326794
  0
LINE
  5
37C
100
AcDbEntity
  8
0
100
AcDbLine
 62
6
  6
CONTINUOUS
 10
6.7728322617
 20
4.7715181609
 11
6.7745723689
 21
4.7710906979
  0
LINE
  5
37D
100
AcDbEntity
  8
0
100
AcDbLine
 62
6
  6
CONTINUOUS
 10
6.7716946342
 20
4.7718074419
 11
6.7734700587
 21
4.7713593783
  0
LINE
  5
37E
100
AcDbEntity
  8
0
100
AcDbLine
 62
6
  6
CONTINUOUS
 10
6.7705414262
 20
4.7721086357
 11
6.7723529237
 21
4.7716391009
  0
LINE
  5
37F
100
AcDbEntity
  8
0
100
AcDbLine
 62
6
  6
CONTINUOUS
 10
6.7693723235
 20
4.7724221777
 11
6.7712206802
 21
4.7719302585
  0
LINE
  5
380
100
AcDbEntity
  8
0
100
AcDbLine
 62
6
  6
CONTINUOUS
 10
6.7681853314
 20
4.7727489895
 11
6.7700730518
 21
4.7722332568
  0
LINE
  5
381
100
AcDbEntity
  8
0
100
AcDbLine
 62
6
  6
CONTINUOUS
 10
6.7669760261
 20
4.7730907549
 11
6.7689094646
 21
4.7725485986
  0
LINE
  5
382
100
AcDbEntity
  8
0
100
AcDbLine
 62
6
  6
CONTINUOUS
 10
6.7657398357
 20
4.7734493452
 11
6.7677267544
 21
4.7728775408
  0
LINE
  5
383
100
AcDbEntity
  8
0
100
AcDbLine
 62
6
  6
CONTINUOUS
 10
6.7652862025
 20
4.7735832809
 11
6.7665204717
 21
4.7732218133
  0
LINE
  5
384
100
AcDbEntity
  8
0
100
AcDbLine
 62
6
  6
CONTINUOUS
 10
6.7640195826
 20
4.7739639468
 11
6.7657398357
 21
4.7734493452
  0
LINE
  5
385
100
AcDbEntity
  8
0
100
AcDbLine
 62
6
  6
CONTINUOUS
 10
6.7627163027
 20
4.7743659591
 11
6.7644722383
 21
4.7738267733
  0
LINE
  5
386
100
AcDbEntity
  8
0
100
AcDbLine
 62
6
  6
CONTINUOUS
 10
6.7613717701
 20
4.7747917297
 11
6.7631687678
 21
4.7742252005
  0
LINE
  5
387
100
AcDbEntity
  8
0
100
AcDbLine
 62
6
  6
CONTINUOUS
 10
5.6400231376
 20
5.0336602129
 11
5.4260231376
 21
5.1031930279
  0
LINE
  5
388
100
AcDbEntity
  8
0
100
AcDbLine
 62
6
  6
CONTINUOUS
 10
6.7599774886
 20
4.7752451528
 11
6.7618249753
 21
4.7746469586
  0
LINE
  5
389
100
AcDbEntity
  8
0
100
AcDbLine
 62
6
  6
CONTINUOUS
 10
5.4560231376
 20
5.7834430279
 11
5.4716481376
 21
5.7678180279
  0
LINE
  5
38A
100
AcDbEntity
  8
0
100
AcDbLine
 62
6
  6
CONTINUOUS
 10
6.5795975139
 20
5.1582922458
 11
6.5855236368
 21
5.1346993062
  0
LWPOLYLINE
  5
38B
100
AcDbEntity
  8
0
100
AcDbPolyline
 62
6
  6
CONTINUOUS
 90
4
 70
0
 10
6.6041040651
 20
4.9799401484
 10
6.6094372507
 20
4.9573286042
 10
6.6167557788
 20
4.9332911959
 10
6.6248702588
 20
4.9115973298
  0
LINE
  5
38C
100
AcDbEntity
  8
0
100
AcDbLine
 62
6
  6
CONTINUOUS
 10
6.5854458823
 20
5.1350406715
 11
6.5896406436
 21
5.113876967
  0
LINE
  5
38D
100
AcDbEntity
  8
0
100
AcDbLine
 62
9
  6
CONTINUOUS
 10
6.5896427092
 20
5.1138769098
 11
6.5896422672
 21
5.1138794688
  0
LINE
  5
38E
100
AcDbEntity
  8
0
100
AcDbLine
 62
6
  6
CONTINUOUS
 10
7.0042848976
 20
4.9929223529
 11
7.0026614854
 21
5.0479935858
  0
LINE
  5
38F
100
AcDbEntity
  8
0
100
AcDbLine
 62
6
  6
CONTINUOUS
 10
7.0042848976
 20
4.9929223529
 11
7.0042845018
 21
4.9929400006
  0
LINE
  5
390
100
AcDbEntity
  8
0
100
AcDbLine
 62
6
  6
CONTINUOUS
 10
7.0042753551
 20
4.9679839686
 11
7.0043363354
 21
4.9929389412
  0
LINE
  5
391
100
AcDbEntity
  8
0
100
AcDbLine
 62
6
  6
CONTINUOUS
 10
7.0016999998
 20
4.9419141669
 11
7.0042753549
 21
4.9679838863
  0
LINE
  5
392
100
AcDbEntity
  8
0
100
AcDbLine
 62
6
  6
CONTINUOUS
 10
6.3270231376
 20
5.0336602129
 11
5.6400231376
 21
5.0336602129
  0
LINE
  5
393
100
AcDbEntity
  8
0
100
AcDbLine
 62
6
  6
CONTINUOUS
 10
6.5410231376
 20
5.1031930279
 11
5.4260231376
 21
5.1031930279
  0
LINE
  5
394
100
AcDbEntity
  8
0
100
AcDbLine
 62
6
  6
CONTINUOUS
 10
6.7585225361
 20
4.7757312991
 11
6.7604338454
 21
4.7750954068
  0
LINE
  5
395
100
AcDbEntity
  8
0
100
AcDbLine
 62
6
  6
CONTINUOUS
 10
6.7570007059
 20
4.776254081
 11
6.7589843778
 21
4.7755755405
  0
LINE
  5
396
100
AcDbEntity
  8
0
100
AcDbLine
 62
6
  6
CONTINUOUS
 10
6.7554229618
 20
4.7768116049
 11
6.7574669937
 21
4.7760923425
  0
LINE
  5
397
100
AcDbEntity
  8
0
100
AcDbLine
 62
6
  6
CONTINUOUS
 10
6.7538041411
 20
4.7774002073
 11
6.7558880363
 21
4.7766456119
  0
LINE
  5
398
100
AcDbEntity
  8
0
100
AcDbLine
 62
6
  6
CONTINUOUS
 10
6.7521589267
 20
4.7780157371
 11
6.7542627446
 21
4.7772317484
  0
LINE
  5
399
100
AcDbEntity
  8
0
100
AcDbLine
 62
9
  6
CONTINUOUS
 10
5.4794335662
 20
5.3103113634
 11
5.4794305843
 21
5.3103124847
  0
LINE
  5
39A
100
AcDbEntity
  8
0
100
AcDbLine
 62
6
  6
CONTINUOUS
 10
6.7505016485
 20
4.7786535993
 11
6.7526063079
 21
4.7778466188
  0
LINE
  5
39B
100
AcDbEntity
  8
0
100
AcDbLine
 62
6
  6
CONTINUOUS
 10
6.7488401831
 20
4.7793111921
 11
6.7509337289
 21
4.7784855652
  0
LINE
  5
39C
100
AcDbEntity
  8
0
100
AcDbLine
 62
6
  6
CONTINUOUS
 10
6.7471745321
 20
4.7799888304
 11
6.749255962
 21
4.7791449191
  0
LINE
  5
39D
100
AcDbEntity
  8
0
100
AcDbLine
 62
6
  6
CONTINUOUS
 10
6.7455042221
 20
4.7806870437
 11
6.7475740448
 21
4.7798246079
  0
LINE
  5
39E
100
AcDbEntity
  8
0
100
AcDbLine
 62
6
  6
CONTINUOUS
 10
6.7438287979
 20
4.7814063888
 11
6.7458874844
 21
4.7805251706
  0
LWPOLYLINE
  5
39F
100
AcDbEntity
  8
0
100
AcDbPolyline
 62
6
  6
CONTINUOUS
 90
4
 70
0
 10
5.4794305843
 20
5.3103124847
 10
5.4852152754
 20
5.3078151616
 10
5.494673531
 20
5.3024888534
 10
5.5053025937
 20
5.2946502143
  0
LINE
  5
3A0
100
AcDbEntity
  8
0
100
AcDbLine
 62
6
  6
CONTINUOUS
 10
6.7421478234
 20
4.7821474504
 11
6.7441958069
 21
4.7812471752
  0
LINE
  5
3A1
100
AcDbEntity
  8
0
100
AcDbLine
 62
6
  6
CONTINUOUS
 10
6.7404608826
 20
4.7829108411
 11
6.742498558
 21
4.7819912184
  0
LINE
  5
3A2
100
AcDbEntity
  8
0
100
AcDbLine
 62
6
  6
CONTINUOUS
 10
6.7387675808
 20
4.7836972012
 11
6.740795304
 21
4.7827579258
  0
LINE
  5
3A3
100
AcDbEntity
  8
0
100
AcDbLine
 62
6
  6
CONTINUOUS
 10
6.7370675453
 20
4.7845071992
 11
6.7390856332
 21
4.7835479523
  0
LINE
  5
3A4
100
AcDbEntity
  8
0
100
AcDbLine
 62
6
  6
CONTINUOUS
 10
6.7353604267
 20
4.7853415319
 11
6.7373691567
 21
4.7843619819
  0
LINE
  5
3A5
100
AcDbEntity
  8
0
100
AcDbLine
 62
6
  6
CONTINUOUS
 10
6.7336459
 20
4.7862009243
 11
6.7356455096
 21
4.785200728
  0
LINE
  5
3A6
100
AcDbEntity
  8
0
100
AcDbLine
 62
6
  6
CONTINUOUS
 10
6.7319236658
 20
4.78708613
 11
6.7339143523
 21
4.7860649334
  0
LINE
  5
3A7
100
AcDbEntity
  8
0
100
AcDbLine
 62
6
  6
CONTINUOUS
 10
6.7301934516
 20
4.7879979315
 11
6.7321753716
 21
4.786955371
  0
LINE
  5
3A8
100
AcDbEntity
  8
0
100
AcDbLine
 62
6
  6
CONTINUOUS
 10
6.7284550128
 20
4.7889371403
 11
6.7304282821
 21
4.7878728434
  0
LINE
  5
3A9
100
AcDbEntity
  8
0
100
AcDbLine
 62
6
  6
CONTINUOUS
 10
6.7267081346
 20
4.789904597
 11
6.7286728275
 21
4.7888181833
  0
LINE
  5
3AA
100
AcDbEntity
  8
0
100
AcDbLine
 62
6
  6
CONTINUOUS
 10
6.7249526326
 20
4.7909011719
 11
6.726908782
 21
4.7897922542
  0
LINE
  5
3AB
100
AcDbEntity
  8
0
100
AcDbLine
 62
6
  6
CONTINUOUS
 10
6.7231883551
 20
4.7919277648
 11
6.7251359517
 21
4.79079595
  0
LINE
  5
3AC
100
AcDbEntity
  8
0
100
AcDbLine
 62
6
  6
CONTINUOUS
 10
6.7214151838
 20
4.7929853057
 11
6.7233541763
 21
4.7918301958
  0
LINE
  5
3AD
100
AcDbEntity
  8
0
100
AcDbLine
 62
6
  6
CONTINUOUS
 10
6.7196330361
 20
4.794074755
 11
6.7215633304
 21
4.7928959477
  0
LINE
  5
3AE
100
AcDbEntity
  8
0
100
AcDbLine
 62
6
  6
CONTINUOUS
 10
6.7178418663
 20
4.7951971035
 11
6.7197633253
 21
4.7939941937
  0
LINE
  5
3AF
100
AcDbEntity
  8
0
100
AcDbLine
 62
6
  6
CONTINUOUS
 10
6.7160416672
 20
4.7963533733
 11
6.717954111
 21
4.7951259535
  0
LINE
  5
3B0
100
AcDbEntity
  8
0
100
AcDbLine
 62
6
  6
CONTINUOUS
 10
6.7142324723
 20
4.7975446173
 11
6.7161356774
 21
4.796292279
  0
LINE
  5
3B1
100
AcDbEntity
  8
0
100
AcDbLine
 62
6
  6
CONTINUOUS
 10
6.7124143631
 20
4.7987719168
 11
6.7143080565
 21
4.797494255
  0
LINE
  5
3B2
100
AcDbEntity
  8
0
100
AcDbLine
 62
6
  6
CONTINUOUS
 10
6.7105875027
 20
4.8000363578
 11
6.7124713295
 21
4.7987329955
  0
LWPOLYLINE
  5
3B3
100
AcDbEntity
  8
0
100
AcDbPolyline
 62
6
  6
CONTINUOUS
 90
3
 70
0
 10
6.7084968643
 20
4.8015228295
 10
6.7087712523
 20
4.8013252926
 10
6.7106256619
 20
4.8000096208
  0
LWPOLYLINE
  5
3B4
100
AcDbEntity
  8
0
100
AcDbPolyline
 62
6
  6
CONTINUOUS
 90
4
 70
0
 10
6.6709378605
 20
4.8360876977
 10
6.682322958
 20
4.8238100417
 10
6.6957896764
 20
4.8114437176
 10
6.7084968179
 20
4.801522863
  0
LWPOLYLINE
  5
3B5
100
AcDbEntity
  8
0
100
AcDbPolyline
 62
6
  6
CONTINUOUS
 90
4
 70
0
 10
6.6683640866
 20
4.839140772
 10
6.668771822
 20
4.8386495842
 10
6.6704254251
 20
4.8366866813
 10
6.670937854
 20
4.8360877053
  0
LINE
  5
3B6
100
AcDbEntity
  8
0
100
AcDbLine
 62
9
  6
CONTINUOUS
 10
6.5437712227
 20
5.2488740784
 11
6.5437703561
 21
5.248875718
  0
LWPOLYLINE
  5
3B7
100
AcDbEntity
  8
0
100
AcDbPolyline
 62
6
  6
CONTINUOUS
 90
5
 70
0
 10
6.5437703561
 20
5.248875718
 10
6.554010765
 20
5.228135054
 10
6.5638757624
 20
5.2050618242
 10
6.572439511
 20
5.1816158336
 10
6.5796720928
 20
5.1580492384
  0
LWPOLYLINE
  5
3B8
100
AcDbEntity
  8
0
100
AcDbPolyline
 62
6
  6
CONTINUOUS
 90
5
 70
0
 10
6.6248702264
 20
4.911597409
 10
6.6331361323
 20
4.8933033592
 10
6.6437455174
 20
4.8739208254
 10
6.6558970741
 20
4.8553639966
 10
6.6683641128
 20
4.8391407406
  0
LINE
  5
3B9
100
AcDbEntity
  8
0
100
AcDbLine
 62
6
  6
CONTINUOUS
 10
7.0026614865
 20
5.047993548
 11
6.9970882684
 21
5.1038842997
  0
LWPOLYLINE
  5
3BA
100
AcDbEntity
  8
0
100
AcDbPolyline
 62
6
  6
CONTINUOUS
 90
3
 70
0
 10
5.4720482175
 20
5.3124592624
 10
5.4733829347
 20
5.3122024542
 10
5.4794335662
 20
5.3103113634
  0
LINE
  5
3BB
100
AcDbEntity
  8
0
100
AcDbLine
 62
6
  6
CONTINUOUS
 10
6.5110231376
 20
5.7521930279
 11
6.5410231376
 21
5.6721930279
  0
LINE
  5
3BC
100
AcDbEntity
  8
0
100
AcDbLine
 62
6
  6
CONTINUOUS
 10
6.9970882714
 20
5.1038842691
 11
6.9878869116
 21
5.1584133143
  0
LINE
  5
3BD
100
AcDbEntity
  8
0
100
AcDbLine
 62
9
  6
CONTINUOUS
 10
6.3195386951
 20
5.408193041
 11
6.3604187183
 21
5.4081930279
  0
LINE
  5
3BE
100
AcDbEntity
  8
0
100
AcDbLine
 62
9
  6
CONTINUOUS
 10
5.6475000323
 20
5.408193045
 11
5.6066275569
 21
5.4081930279
  0
LWPOLYLINE
  5
3BF
100
AcDbEntity
  8
0
100
AcDbPolyline
 62
6
  6
CONTINUOUS
 90
11
 70
0
 10
6.4914560173
 20
5.3146183796
 10
6.4913509482
 20
5.3146586586
 10
6.49299422
 20
5.3137881445
 10
6.4965534203
 20
5.3114291917
 10
6.5009217828
 20
5.3079134356
 10
6.505959639
 20
5.3031354805
 10
6.5121552485
 20
5.2964019007
 10
6.5190486534
 20
5.2879312181
 10
6.5266236304
 20
5.2774632439
 10
6.5350745232
 20
5.2642846649
 10
6.5437712227
 20
5.2488740784
  0
LWPOLYLINE
  5
3C0
100
AcDbEntity
  8
0
100
AcDbPolyline
 62
6
  6
CONTINUOUS
 90
3
 70
0
 10
6.9599076034
 20
5.2620969339
 10
6.9416925639
 20
5.3107854574
 10
6.9219645665
 20
5.3550628644
  0
LINE
  5
3C1
100
AcDbEntity
  8
0
100
AcDbLine
 62
6
  6
CONTINUOUS
 10
6.9753952679
 20
5.2112268093
 11
6.9599075999
 21
5.2620969454
  0
LINE
  5
3C2
100
AcDbEntity
  8
0
100
AcDbLine
 62
6
  6
CONTINUOUS
 10
6.9878869156
 20
5.1584132903
 11
6.9753952637
 21
5.2112268269
  0
LINE
  5
3C3
100
AcDbEntity
  8
0
100
AcDbLine
 62
9
  6
CONTINUOUS
 10
5.5091915831
 20
5.5662124815
 11
5.5075706963
 21
5.5661801047
  0
LINE
  5
3C4
100
AcDbEntity
  8
0
100
AcDbLine
 62
9
  6
CONTINUOUS
 10
5.5202853917
 20
5.5666217622
 11
5.5189533483
 21
5.566599784
  0
LINE
  5
3C5
100
AcDbEntity
  8
0
100
AcDbLine
 62
9
  6
CONTINUOUS
 10
6.4467608833
 20
5.5666217509
 11
6.4480909707
 21
5.5665998192
  0
LINE
  5
3C6
100
AcDbEntity
  8
0
100
AcDbLine
 62
9
  6
CONTINUOUS
 10
6.459475579
 20
5.5661801047
 11
6.4578546921
 21
5.5662124815
  0
LINE
  5
3C7
100
AcDbEntity
  8
0
100
AcDbLine
 62
6
  6
CONTINUOUS
 10
6.9084705952
 20
5.3807377273
 11
6.8912874864
 21
5.4082505278
  0
LINE
  5
3C8
100
AcDbEntity
  8
0
100
AcDbLine
 62
6
  6
CONTINUOUS
 10
6.9219650012
 20
5.3550619632
 11
6.9084265648
 21
5.3808148585
  0
LINE
  5
3C9
100
AcDbEntity
  8
0
100
AcDbLine
 62
6
  6
CONTINUOUS
 10
5.2476667758
 20
5.533105722
 11
5.223625721
 21
5.526516569
  0
LINE
  5
3CA
100
AcDbEntity
  8
0
100
AcDbLine
 62
9
  6
CONTINUOUS
 10
5.2476629861
 20
5.5331049059
 11
5.2476667758
 21
5.533105722
  0
LINE
  5
3CB
100
AcDbEntity
  8
0
100
AcDbLine
 62
6
  6
CONTINUOUS
 10
5.3333510115
 20
5.5490251835
 11
5.2476629861
 21
5.5331049059
  0
LINE
  5
3CC
100
AcDbEntity
  8
0
100
AcDbLine
 62
6
  6
CONTINUOUS
 10
5.521188649
 20
5.5668915139
 11
5.5189530034
 21
5.5665997724
  0
LWPOLYLINE
  5
3CD
100
AcDbEntity
  8
0
100
AcDbPolyline
 62
6
  6
CONTINUOUS
 90
3
 70
0
 10
5.5075703031
 20
5.566180089
 10
5.4207470803
 20
5.5601852978
 10
5.3333510115
 20
5.5490251835
  0
LWPOLYLINE
  5
3CE
100
AcDbEntity
  8
0
100
AcDbPolyline
 62
6
  6
CONTINUOUS
 90
3
 70
0
 10
5.5189322009
 20
5.5665990902
 10
5.5172348978
 20
5.5665410509
 10
5.5075706963
 20
5.5661801047
  0
LINE
  5
3CF
100
AcDbEntity
  8
0
100
AcDbLine
 62
9
  6
CONTINUOUS
 10
5.5189533483
 20
5.566599784
 11
5.5189321766
 21
5.5665990765
  0
LINE
  5
3D0
100
AcDbEntity
  8
0
100
AcDbLine
 62
6
  6
CONTINUOUS
 10
6.5410231376
 20
5.6721930279
 11
5.4260231376
 21
5.6721930279
  0
LINE
  5
3D1
100
AcDbEntity
  8
0
100
AcDbLine
 62
9
  6
CONTINUOUS
 10
6.4480909707
 20
5.5665998192
 11
6.4481140613
 21
5.5665990479
  0
LWPOLYLINE
  5
3D2
100
AcDbEntity
  8
0
100
AcDbPolyline
 62
6
  6
CONTINUOUS
 90
3
 70
0
 10
6.459475579
 20
5.5661801047
 10
6.4552208115
 20
5.5663451529
 10
6.4481140313
 20
5.5665990916
  0
LINE
  5
3D3
100
AcDbEntity
  8
0
100
AcDbLine
 62
6
  6
CONTINUOUS
 10
6.5462991949
 20
5.5601852978
 11
6.4594759722
 21
5.566180089
  0
LINE
  5
3D4
100
AcDbEntity
  8
0
100
AcDbLine
 62
6
  6
CONTINUOUS
 10
6.4480909371
 20
5.5665998203
 11
6.4458769406
 21
5.5668872846
  0
LWPOLYLINE
  5
3D5
100
AcDbEntity
  8
0
100
AcDbPolyline
 62
6
  6
CONTINUOUS
 90
3
 70
0
 10
6.7193832891
 20
5.5331049059
 10
6.6336952637
 20
5.5490251835
 10
6.5462991949
 20
5.5601852978
  0
LINE
  5
3D6
100
AcDbEntity
  8
0
100
AcDbLine
 62
9
  6
CONTINUOUS
 10
6.7193832891
 20
5.5331049059
 11
6.7193794995
 21
5.533105722
  0
LINE
  5
3D7
100
AcDbEntity
  8
0
100
AcDbLine
 62
6
  6
CONTINUOUS
 10
6.7434205542
 20
5.526516569
 11
6.7193795329
 21
5.5331057148
  0
LWPOLYLINE
  5
3D8
100
AcDbEntity
  8
0
100
AcDbPolyline
 62
6
  6
CONTINUOUS
 90
3
 70
0
 10
6.4458769406
 20
5.5668872846
 10
6.4437215627
 20
5.5675620477
 10
6.4429348352
 20
5.5679459698
  0
LINE
  5
3D9
100
AcDbEntity
  8
0
100
AcDbLine
 62
6
  6
CONTINUOUS
 10
6.7686848936
 20
5.5164977641
 11
6.7432534146
 21
5.5265721635
  0
LINE
  5
3DA
100
AcDbEntity
  8
0
100
AcDbLine
 62
6
  6
CONTINUOUS
 10
6.7934580072
 20
5.5033903923
 11
6.7683623282
 21
5.5166463407
  0
LINE
  5
3DB
100
AcDbEntity
  8
0
100
AcDbLine
 62
9
  6
CONTINUOUS
 10
6.4429347983
 20
5.5679459081
 11
6.4429254146
 21
5.5679514749
  0
LINE
  5
3DC
100
AcDbEntity
  8
0
100
AcDbLine
 62
6
  6
CONTINUOUS
 10
6.8104580029
 20
5.4923091278
 11
6.7929947431
 21
5.5036674682
  0
LINE
  5
3DD
100
AcDbEntity
  8
0
100
AcDbLine
 62
9
  6
CONTINUOUS
 10
6.8104383286
 20
5.4923230223
 11
6.8104575229
 21
5.4923094668
  0
LINE
  5
3DE
100
AcDbEntity
  8
0
100
AcDbLine
 62
6
  6
CONTINUOUS
 10
6.8286062867
 20
5.4783609247
 11
6.8104383286
 21
5.4923230223
  0
LINE
  5
3DF
100
AcDbEntity
  8
0
100
AcDbLine
 62
6
  6
CONTINUOUS
 10
6.4953981376
 20
5.7678180279
 11
6.5110231376
 21
5.7521930279
  0
LINE
  5
3E0
100
AcDbEntity
  8
0
100
AcDbLine
 62
6
  6
CONTINUOUS
 10
6.4960231376
 20
5.8743476855
 11
6.5110231376
 21
5.8593476855
  0
LWPOLYLINE
  5
3E1
100
AcDbEntity
  8
0
100
AcDbPolyline
 62
6
  6
CONTINUOUS
 90
3
 70
0
 10
6.8719843031
 20
5.4341453392
 10
6.8508209502
 20
5.4578379107
 10
6.8284356789
 20
5.478492037
  0
LINE
  5
3E2
100
AcDbEntity
  8
0
100
AcDbLine
 62
6
  6
CONTINUOUS
 10
6.891384003
 20
5.4081089616
 11
6.8719035011
 21
5.4342357979
  0
LINE
  5
3E3
100
AcDbEntity
  8
0
100
AcDbLine
 62
6
  6
CONTINUOUS
 10
5.4560231376
 20
5.7521930279
 11
6.5110231376
 21
5.7521930279
  0
LINE
  5
3E4
100
AcDbEntity
  8
0
100
AcDbLine
 62
6
  6
CONTINUOUS
 10
5.4716481376
 20
5.7678180279
 11
6.4953981376
 21
5.7678180279
  0
LINE
  5
3E5
100
AcDbEntity
  8
0
100
AcDbLine
 62
6
  6
CONTINUOUS
 10
5.4560231376
 20
5.7834430279
 11
6.5110231376
 21
5.7834430279
  0
LINE
  5
3E6
100
AcDbEntity
  8
0
100
AcDbLine
 62
6
  6
CONTINUOUS
 10
5.4560231376
 20
5.8593476855
 11
6.5110231376
 21
5.8593476855
  0
LINE
  5
3E7
100
AcDbEntity
  8
0
100
AcDbLine
 62
6
  6
CONTINUOUS
 10
5.4710231376
 20
5.8743476855
 11
6.4960231376
 21
5.8743476855
  0
LINE
  5
3E8
100
AcDbEntity
  8
0
100
AcDbLine
 62
6
  6
CONTINUOUS
 10
5.5290231376
 20
5.8931930279
 11
6.4380231376
 21
5.8931930279
  0
LINE
  5
3E9
100
AcDbEntity
  8
0
100
AcDbLine
 62
9
  6
CONTINUOUS
 10
6.3786677942
 20
5.9220023211
 11
5.5883784811
 21
5.9220023211
  0
LINE
  5
3EA
100
AcDbEntity
  8
0
100
AcDbLine
 62
6
  6
CONTINUOUS
 10
6.4960231376
 20
5.8743476855
 11
6.4380231376
 21
5.8931930279
  0
ARC
  5
3EB
100
AcDbEntity
  8
0
100
AcDbCircle
 62
9
  6
CONTINUOUS
 10
5.5810006058
 20
3.7708245041
 40
1.7968234541
100
AcDbArc
 50
91.9788832014
 51
92.2904030534
  0
ARC
  5
3EC
100
AcDbEntity
  8
0
100
AcDbCircle
 62
9
  6
CONTINUOUS
 10
5.6004733391
 20
3.7856974155
 40
1.7755912663
100
AcDbArc
 50
91.7750497459
 51
92.2037105742
  0
ARC
  5
3ED
100
AcDbEntity
  8
0
100
AcDbCircle
 62
6
  6
CONTINUOUS
 10
4.537941193
 20
3.0686671947
 40
0.75
100
AcDbArc
 50
296.8780899777
 51
338.0396077086
  0
ARC
  5
3EE
100
AcDbEntity
  8
0
100
AcDbCircle
 62
6
  6
CONTINUOUS
 10
5.5848162903
 20
3.8501930279
 40
0.188
100
AcDbArc
 50
90.0
 51
170.3718438715
  0
ARC
  5
3EF
100
AcDbEntity
  8
0
100
AcDbCircle
 62
6
  6
CONTINUOUS
 10
4.9335231376
 20
2.2881930279
 40
0.125
100
AcDbArc
 50
116.8780899777
 51
270.0
  0
ARC
  5
3F0
100
AcDbEntity
  8
0
100
AcDbCircle
 62
6
  6
CONTINUOUS
 10
5.2360231376
 20
2.8531930279
 40
0.065
100
AcDbArc
 50
90.0
 51
267.8004275869
  0
ARC
  5
3F1
100
AcDbEntity
  8
0
100
AcDbCircle
 62
6
  6
CONTINUOUS
 10
5.2532438468
 20
5.2349007938
 40
1.36
100
AcDbArc
 50
18.7559867836
 51
22.3561036556
  0
ARC
  5
3F2
100
AcDbEntity
  8
0
100
AcDbCircle
 62
6
  6
CONTINUOUS
 10
5.8701953033
 20
4.9035492361
 40
0.7706786497
100
AcDbArc
 50
17.878269959
 51
22.2928424536
  0
ARC
  5
3F3
100
AcDbEntity
  8
0
100
AcDbCircle
 62
9
  6
CONTINUOUS
 10
5.5209371071
 20
4.9944732403
 40
0.4564891783
100
AcDbArc
 50
199.4103039527
 51
199.8391772034
  0
ARC
  5
3F4
100
AcDbEntity
  8
0
100
AcDbCircle
 62
9
  6
CONTINUOUS
 10
5.0199052293
 20
5.0110579604
 40
0.3092786662
100
AcDbArc
 50
341.5540697657
 51
355.0008347719
  0
ARC
  5
3F5
100
AcDbEntity
  8
0
100
AcDbCircle
 62
9
  6
CONTINUOUS
 10
5.2678463022
 20
4.9664501888
 40
0.2572024307
100
AcDbArc
 50
208.7369575462
 51
209.5704153837
  0
ARC
  5
3F6
100
AcDbEntity
  8
0
100
AcDbCircle
 62
9
  6
CONTINUOUS
 10
5.2957316342
 20
5.2953132101
 40
0.2411809834
100
AcDbArc
 50
125.234559578
 51
126.952648443
  0
ARC
  5
3F7
100
AcDbEntity
  8
0
100
AcDbCircle
 62
9
  6
CONTINUOUS
 10
5.0877187414
 20
4.976566706
 40
0.2325143665
100
AcDbArc
 50
323.0229797467
 51
323.9554950668
  0
ARC
  5
3F8
100
AcDbEntity
  8
0
100
AcDbCircle
 62
9
  6
CONTINUOUS
 10
5.1894485303
 20
4.9601874161
 40
0.211538955
100
AcDbArc
 50
213.715744983
 51
214.7702743725
  0
ARC
  5
3F9
100
AcDbEntity
  8
0
100
AcDbCircle
 62
9
  6
CONTINUOUS
 10
5.1627999862
 20
4.9414910406
 40
0.1789847303
100
AcDbArc
 50
214.7188268662
 51
230.5731710703
  0
ARC
  5
3FA
100
AcDbEntity
  8
0
100
AcDbCircle
 62
9
  6
CONTINUOUS
 10
5.2947979304
 20
5.3610817731
 40
0.1770366074
100
AcDbArc
 50
102.194308472
 51
105.2427936191
  0
ARC
  5
3FB
100
AcDbEntity
  8
0
100
AcDbCircle
 62
9
  6
CONTINUOUS
 10
5.1533043252
 20
4.9302633746
 40
0.1640738306
100
AcDbArc
 50
266.6619478767
 51
269.5042264097
  0
ARC
  5
3FC
100
AcDbEntity
  8
0
100
AcDbCircle
 62
9
  6
CONTINUOUS
 10
5.5135557866
 20
5.4007445532
 40
0.0966588879
100
AcDbArc
 50
245.330562855
 51
245.9394812145
  0
ARC
  5
3FD
100
AcDbEntity
  8
0
100
AcDbCircle
 62
6
  6
CONTINUOUS
 10
5.1522615224
 20
4.8623815835
 40
0.0961886403
100
AcDbArc
 50
264.9387792843
 51
269.7773059872
  0
ARC
  5
3FE
100
AcDbEntity
  8
0
100
AcDbCircle
 62
9
  6
CONTINUOUS
 10
5.5127272195
 20
5.398832828
 40
0.0945754572
100
AcDbArc
 50
245.9256469228
 51
249.3863754866
  0
ARC
  5
3FF
100
AcDbEntity
  8
0
100
AcDbCircle
 62
9
  6
CONTINUOUS
 10
5.518590033
 20
5.6166321886
 40
0.0500391546
100
AcDbArc
 50
271.9415894434
 51
276.4900838152
  0
ARC
  5
400
100
AcDbEntity
  8
0
100
AcDbCircle
 62
9
  6
CONTINUOUS
 10
5.2570140722
 20
5.4896853042
 40
0.0444151398
100
AcDbArc
 50
100.3834101208
 51
102.1489407269
  0
ARC
  5
401
100
AcDbEntity
  8
0
100
AcDbCircle
 62
6
  6
CONTINUOUS
 10
5.5960231376
 20
5.8929926809
 40
0.03
100
AcDbArc
 50
104.7630312681
 51
179.6053134713
  0
ARC
  5
402
100
AcDbEntity
  8
0
100
AcDbCircle
 62
9
  6
CONTINUOUS
 10
5.1526829508
 20
4.7952734179
 40
0.0290838089
100
AcDbArc
 50
268.4547470564
 51
269.1214647484
  0
ARC
  5
403
100
AcDbEntity
  8
0
100
AcDbCircle
 62
9
  6
CONTINUOUS
 10
6.386047046
 20
3.7708610643
 40
1.7967868681
100
AcDbArc
 50
87.7095942155
 51
88.0211827908
  0
ARC
  5
404
100
AcDbEntity
  8
0
100
AcDbCircle
 62
9
  6
CONTINUOUS
 10
6.3665729361
 20
3.7856974156
 40
1.7755912663
100
AcDbArc
 50
87.7962894257
 51
88.2249502541
  0
ARC
  5
405
100
AcDbEntity
  8
0
100
AcDbCircle
 62
6
  6
CONTINUOUS
 10
7.4291050823
 20
3.0686671947
 40
0.75
100
AcDbArc
 50
201.9603922914
 51
243.1219100223
  0
ARC
  5
406
100
AcDbEntity
  8
0
100
AcDbCircle
 62
6
  6
CONTINUOUS
 10
6.382229985
 20
3.8501930279
 40
0.188
100
AcDbArc
 50
9.6281561285
 51
90.0
  0
ARC
  5
407
100
AcDbEntity
  8
0
100
AcDbCircle
 62
6
  6
CONTINUOUS
 10
7.0335231376
 20
2.2881930279
 40
0.125
100
AcDbArc
 50
270.0
 51
63.1219100223
  0
ARC
  5
408
100
AcDbEntity
  8
0
100
AcDbCircle
 62
6
  6
CONTINUOUS
 10
6.7310231376
 20
2.8531930279
 40
0.065
100
AcDbArc
 50
272.1995724131
 51
90.0
  0
ARC
  5
409
100
AcDbEntity
  8
0
100
AcDbCircle
 62
6
  6
CONTINUOUS
 10
5.9835231376
 20
4.4225230124
 40
1.5506700155
100
AcDbArc
 50
75.2369687319
 51
104.7630312681
  0
ARC
  5
40A
100
AcDbEntity
  8
0
100
AcDbCircle
 62
6
  6
CONTINUOUS
 10
6.7138024285
 20
5.2349007938
 40
1.36
100
AcDbArc
 50
157.6438963444
 51
161.2440132164
  0
ARC
  5
40B
100
AcDbEntity
  8
0
100
AcDbCircle
 62
6
  6
CONTINUOUS
 10
6.096851172
 20
4.9035491681
 40
0.7706788629
100
AcDbArc
 50
157.7071736922
 51
162.1217297425
  0
ARC
  5
40C
100
AcDbEntity
  8
0
100
AcDbCircle
 62
9
  6
CONTINUOUS
 10
6.4461091683
 20
4.9944732403
 40
0.4564891782
100
AcDbArc
 50
340.1608227966
 51
340.5896960474
  0
ARC
  5
40D
100
AcDbEntity
  8
0
100
AcDbCircle
 62
9
  6
CONTINUOUS
 10
6.9471410458
 20
5.0110579604
 40
0.3092786662
100
AcDbArc
 50
184.9991652233
 51
198.4459302386
  0
ARC
  5
40E
100
AcDbEntity
  8
0
100
AcDbCircle
 62
9
  6
CONTINUOUS
 10
6.699199973
 20
4.9664501888
 40
0.2572024307
100
AcDbArc
 50
330.4295846163
 51
331.2630424538
  0
ARC
  5
40F
100
AcDbEntity
  8
0
100
AcDbCircle
 62
9
  6
CONTINUOUS
 10
6.6713079558
 20
5.295303862
 40
0.2411924758
100
AcDbArc
 50
53.0330945726
 51
54.7655640136
  0
ARC
  5
410
100
AcDbEntity
  8
0
100
AcDbCircle
 62
9
  6
CONTINUOUS
 10
6.8793275338
 20
4.976566706
 40
0.2325143664
100
AcDbArc
 50
216.0445049331
 51
216.9770202533
  0
ARC
  5
411
100
AcDbEntity
  8
0
100
AcDbCircle
 62
9
  6
CONTINUOUS
 10
6.777597745
 20
4.9601874161
 40
0.2115389549
100
AcDbArc
 50
325.2297256274
 51
326.2842550171
  0
ARC
  5
412
100
AcDbEntity
  8
0
100
AcDbCircle
 62
9
  6
CONTINUOUS
 10
6.8042462891
 20
4.9414910406
 40
0.1789847303
100
AcDbArc
 50
309.4268289279
 51
325.2811731349
  0
ARC
  5
413
100
AcDbEntity
  8
0
100
AcDbCircle
 62
9
  6
CONTINUOUS
 10
6.6722483477
 20
5.3610817858
 40
0.1770365944
100
AcDbArc
 50
74.7572171103
 51
77.8056915727
  0
ARC
  5
414
100
AcDbEntity
  8
0
100
AcDbCircle
 62
9
  6
CONTINUOUS
 10
6.8137419637
 20
4.9302632025
 40
0.164073658
100
AcDbArc
 50
270.4920487506
 51
273.3397443606
  0
ARC
  5
415
100
AcDbEntity
  8
0
100
AcDbCircle
 62
9
  6
CONTINUOUS
 10
6.4535205106
 20
5.4006787268
 40
0.0965865385
100
AcDbArc
 50
293.8013223851
 51
294.6296339483
  0
ARC
  5
416
100
AcDbEntity
  8
0
100
AcDbCircle
 62
6
  6
CONTINUOUS
 10
6.814784942
 20
4.8623776776
 40
0.0961847315
100
AcDbArc
 50
270.2163060061
 51
275.0501274051
  0
ARC
  5
417
100
AcDbEntity
  8
0
100
AcDbCircle
 62
9
  6
CONTINUOUS
 10
6.4541726651
 20
5.3991870789
 40
0.0949585672
100
AcDbArc
 50
290.6209960959
 51
293.804514266
  0
ARC
  5
418
100
AcDbEntity
  8
0
100
AcDbCircle
 62
9
  6
CONTINUOUS
 10
6.448444275
 20
5.6164698648
 40
0.0498765302
100
AcDbArc
 50
263.5029971561
 51
268.0658325453
  0
ARC
  5
419
100
AcDbEntity
  8
0
100
AcDbCircle
 62
9
  6
CONTINUOUS
 10
6.7100465906
 20
5.4897577691
 40
0.0443412698
100
AcDbArc
 50
77.8495720208
 51
79.6634990379
  0
ARC
  5
41A
100
AcDbEntity
  8
0
100
AcDbCircle
 62
6
  6
CONTINUOUS
 10
6.3710231376
 20
5.8929926809
 40
0.03
100
AcDbArc
 50
0.3946865287
 51
75.2369687319
  0
ARC
  5
41B
100
AcDbEntity
  8
0
100
AcDbCircle
 62
9
  6
CONTINUOUS
 10
6.8143633275
 20
4.7952732647
 40
0.0290836556
100
AcDbArc
 50
270.8785338575
 51
271.5250851664
  0
SPLINE
  5
41C
100
AcDbEntity
  8
0
100
AcDbSpline
 62
6
  6
CONTINUOUS
 70
0
 71
3
 72
16
 73
12
 74
10
 42
0.0000001
 43
0.0000001
 44
0.0000000001
 12
0.0579775464
 22
-0.0587533786
 32
0.0
 13
0.0822217845
 23
-0.0072755446
 33
0.0
 40
0.0
 40
0.0
 40
0.0
 40
0.0
 40
0.1344056708
 40
0.2003638482
 40
0.2655261915
 40
0.3935726016
 40
0.518865724
 40
0.6417403003
 40
0.7625808846
 40
0.8818308355
 40
1.0
 40
1.0
 40
1.0
 40
1.0
 10
5.0715112795
 20
4.8028735037
 30
0.0
 10
5.0741087832
 20
4.8002412413
 30
0.0
 10
5.0781312377
 20
4.7964607288
 30
0.0
 10
5.0837440093
 20
4.7917817795
 30
0.0
 10
5.0894011311
 20
4.7874379051
 30
0.0
 10
5.096672423
 20
4.7825271899
 30
0.0
 10
5.1057205571
 20
4.7774733677
 30
0.0
 10
5.1149969008
 20
4.7733130362
 30
0.0
 10
5.1244569284
 20
4.7700675558
 30
0.0
 10
5.1340546704
 20
4.767758354
 30
0.0
 10
5.1405370549
 20
4.766854564
 30
0.0
 10
5.1437757481
 20
4.7665679824
 30
0.0
 11
5.0715112795
 21
4.8028735037
 31
0.0
 11
5.0796011722
 21
4.7952816585
 31
0.0
 11
5.083783719
 21
4.7917963068
 31
0.0
 11
5.0880505027
 21
4.7885214089
 31
0.0
 11
5.0968142901
 21
4.7826131936
 31
0.0
 11
5.1058475535
 21
4.7775774511
 31
0.0
 11
5.115105312
 21
4.7734346201
 31
0.0
 11
5.1245425845
 21
4.7702051393
 31
0.0
 11
5.1341143902
 21
4.7679094472
 31
0.0
 11
5.1437757481
 21
4.7665679824
 31
0.0
  0
LINE
  5
41D
100
AcDbEntity
  8
0
100
AcDbLine
 62
6
  6
CONTINUOUS
 10
5.1518876628
 20
4.7661936697
 11
5.1521951016
 21
4.7661930371
  0
SPLINE
  5
41E
100
AcDbEntity
  8
0
100
AcDbSpline
 62
6
  6
CONTINUOUS
 70
0
 71
3
 72
16
 73
12
 74
10
 42
0.0000001
 43
0.0000001
 44
0.0000000001
 12
-0.0579907232
 22
-0.0587667317
 32
0.0
 13
-0.0822418772
 23
-0.0072612925
 33
0.0
 40
0.0
 40
0.0
 40
0.0
 40
0.0
 40
0.1344071266
 40
0.200365736
 40
0.2655283321
 40
0.3935747698
 40
0.5188674443
 40
0.6417413019
 40
0.7625811473
 40
0.8818306434
 40
1.0
 40
1.0
 40
1.0
 40
1.0
 10
6.8955349957
 20
4.8028735037
 30
0.0
 10
6.8929368736
 20
4.8002406146
 30
0.0
 10
6.8889134304
 20
4.7964592408
 30
0.0
 10
6.8832992257
 20
4.7917793239
 30
0.0
 10
6.877640654
 20
4.7874346425
 30
0.0
 10
6.8703674646
 20
4.782523172
 30
0.0
 10
6.8613169297
 20
4.7774688681
 30
0.0
 10
6.8520381163
 20
4.7733085067
 30
0.0
 10
6.8425755823
 20
4.7700634644
 30
0.0
 10
6.8329753307
 20
4.7677551847
 30
0.0
 10
6.826491311
 20
4.7668523497
 30
0.0
 10
6.8232518211
 20
4.766566329
 30
0.0
 11
6.8955349957
 21
4.8028735037
 31
0.0
 11
6.887443106
 21
4.7952799263
 31
0.0
 11
6.8832594976
 21
4.7917938599
 31
0.0
 11
6.8789916158
 21
4.7885183508
 31
0.0
 11
6.8702255386
 21
4.7826092305
 31
0.0
 11
6.861189888
 21
4.7775730191
 31
0.0
 11
6.8519296774
 21
4.7734301698
 31
0.0
 11
6.8424899204
 21
4.770201136
 31
0.0
 11
6.8329156305
 21
4.7679063713
 31
0.0
 11
6.8232518211
 21
4.766566329
 31
0.0
  0
LINE
  5
41F
100
AcDbEntity
  8
0
100
AcDbLine
 62
6
  6
CONTINUOUS
 10
6.8151480627
 20
4.7661936316
 11
6.8148511737
 21
4.7661930371
  0
SPLINE
  5
420
100
AcDbEntity
  8
0
100
AcDbSpline
 62
7
  6
CONTINUOUS
 70
0
 71
3
 72
30
 73
26
 74
24
 42
0.0000001
 43
0.0000001
 44
0.0000000001
 12
-0.0000755313
 22
0.287035438
 32
0.0
 13
-0.2495599632
 23
0.1418068162
 33
0.0
 40
0.0
 40
0.0
 40
0.0
 40
0.0
 40
0.0656040142
 40
0.1312068732
 40
0.1966673927
 40
0.2619308068
 40
0.294483807
 40
0.3269719959
 40
0.3917211114
 40
0.4561288559
 40
0.488184766
 40
0.5201249929
 40
0.583600294
 40
0.6151149881
 40
0.6464628453
 40
0.7085702318
 40
0.7697272743
 40
0.7998965179
 40
0.8297476323
 40
0.8592399843
 40
0.8883402939
 40
0.9170214315
 40
0.9452319056
 40
0.9729078352
 40
1.0
 40
1.0
 40
1.0
 40
1.0
 10
5.7585823377
 20
5.408035149
 30
0.0
 10
5.758580686
 20
5.4143120413
 30
0.0
 10
5.7581011558
 20
5.4268699069
 30
0.0
 10
5.7560591508
 20
5.4455894451
 30
0.0
 10
5.7527922126
 20
5.4641004401
 30
0.0
 10
5.7491270968
 20
5.4792968081
 30
0.0
 10
5.7456791066
 20
5.4912793231
 30
0.0
 10
5.741911639
 20
5.5031136724
 30
0.0
 10
5.7366176692
 20
5.5176538257
 30
0.0
 10
5.7305807053
 20
5.5318558431
 30
0.0
 10
5.7253446732
 20
5.542970965
 30
0.0
 10
5.7198690173
 20
5.5538700948
 30
0.0
 10
5.7140028313
 20
5.5645111916
 30
0.0
 10
5.7077554658
 20
5.5748607472
 30
0.0
 10
5.7013070137
 20
5.5849312296
 30
0.0
 10
5.6928288037
 20
5.59706353
 30
0.0
 10
5.6837222749
 20
5.6085908272
 30
0.0
 10
5.6761023265
 20
5.6173316365
 30
0.0
 10
5.670255453
 20
5.6235922598
 30
0.0
 10
5.6642541652
 20
5.6295611349
 30
0.0
 10
5.6581027454
 20
5.6352114425
 30
0.0
 10
5.651808265
 20
5.64051399
 30
0.0
 10
5.6453823612
 20
5.6454362817
 30
0.0
 10
5.6388408544
 20
5.649941327
 30
0.0
 10
5.6343639944
 20
5.6526715166
 30
0.0
 10
5.6321102878
 20
5.6539521345
 30
0.0
 11
5.7585823377
 21
5.408035149
 31
0.0
 11
5.7578804488
 21
5.426852741
 31
0.0
 11
5.7558522026
 21
5.4455735356
 31
0.0
 11
5.7525985839
 21
5.4640791802
 31
0.0
 11
5.7482180633
 21
5.4822927213
 31
0.0
 11
5.7456355789
 21
5.4912726204
 31
0.0
 11
5.7428076733
 21
5.500158759
 31
0.0
 11
5.736454037
 21
5.5176242782
 31
0.0
 11
5.7292259878
 21
5.5346400291
 31
0.0
 11
5.7253049822
 21
5.5429639389
 31
0.0
 11
5.7211887816
 21
5.551155929
 31
0.0
 11
5.7123885781
 21
5.5671093764
 31
0.0
 11
5.707713242
 21
5.5748532999
 31
0.0
 11
5.7028601872
 21
5.5824302977
 31
0.0
 11
5.6926353631
 21
5.5970335736
 31
0.0
 11
5.6817384908
 21
5.6107961854
 31
0.0
 11
5.6760453758
 21
5.6173213557
 31
0.0
 11
5.6701939488
 21
5.6235805127
 31
0.0
 11
5.6641885233
 21
5.6295468368
 31
0.0
 11
5.6580334196
 21
5.6351934559
 31
0.0
 11
5.6517335159
 21
5.6404930146
 31
0.0
 11
5.6453011844
 21
5.6454116623
 31
0.0
 11
5.6387541584
 21
5.6499109017
 31
0.0
 11
5.6321102878
 21
5.6539521345
 31
0.0
  0
SPLINE
  5
421
100
AcDbEntity
  8
0
100
AcDbSpline
 62
7
  6
CONTINUOUS
 70
0
 71
3
 72
19
 73
15
 74
13
 42
0.0000001
 43
0.0000001
 44
0.0000000001
 12
-0.0863428186
 22
-0.060429363
 32
0.0
 13
-0.0323013082
 23
-0.1003165775
 33
0.0
 40
0.0
 40
0.0
 40
0.0
 40
0.0
 40
0.0559756461
 40
0.1127387194
 40
0.1703572864
 40
0.22885477
 40
0.3484818986
 40
0.4718194729
 40
0.5348672901
 40
0.5987973675
 40
0.7292601672
 40
0.7957670744
 40
0.8630769242
 40
1.0
 40
1.0
 40
1.0
 40
1.0
 10
5.5507248734
 20
5.6539521344
 30
0.0
 10
5.5491138417
 20
5.6528246102
 30
0.0
 10
5.5459510534
 20
5.6504345144
 30
0.0
 10
5.5414260778
 20
5.6465120291
 30
0.0
 10
5.5370886144
 20
5.6422559005
 30
0.0
 10
5.5315136624
 20
5.6361268662
 30
0.0
 10
5.5250154458
 20
5.6277416621
 30
0.0
 10
5.5191973068
 20
5.6186882656
 30
0.0
 10
5.5148559997
 20
5.6110395162
 30
0.0
 10
5.5106618383
 20
5.6030253882
 30
0.0
 10
5.5068027429
 20
5.5947051526
 30
0.0
 10
5.5032422944
 20
5.5861302198
 30
0.0
 10
5.499818936
 20
5.5772558164
 30
0.0
 10
5.4974761338
 20
5.5704711358
 30
0.0
 10
5.496001869
 20
5.5658925843
 30
0.0
 11
5.5507248734
 21
5.6539521344
 31
0.0
 11
5.5460146231
 21
5.6504004943
 31
0.0
 11
5.5414902693
 21
5.6464868237
 31
0.0
 11
5.5371518706
 21
5.642238092
 31
0.0
 11
5.5329994854
 21
5.6376812685
 31
0.0
 11
5.5252452048
 21
5.6277406187
 31
0.0
 11
5.5181872841
 21
5.6168253086
 31
0.0
 11
5.5149042208
 21
5.6110485197
 31
0.0
 11
5.5117773161
 21
5.6050805614
 31
0.0
 11
5.5059707353
 21
5.5926175276
 31
0.0
 11
5.5032804747
 21
5.586145302
 31
0.0
 11
5.500725184
 21
5.5795278183
 31
0.0
 11
5.496001869
 21
5.5658925843
 31
0.0
  0
SPLINE
  5
422
100
AcDbEntity
  8
0
100
AcDbSpline
 62
7
  6
CONTINUOUS
 70
0
 71
3
 72
61
 73
57
 74
55
 42
0.0000001
 43
0.0000001
 44
0.0000000001
 12
0.0980811737
 22
-0.4707674014
 32
0.0
 13
0.0013142664
 23
0.4808743448
 33
0.0
 40
0.0
 40
0.0
 40
0.0
 40
0.0
 40
0.0335358503
 40
0.0659246547
 40
0.0816634648
 40
0.0970953405
 40
0.1270488218
 40
0.1558523882
 40
0.1836034834
 40
0.2104348483
 40
0.2365103049
 40
0.2493258199
 40
0.2620250749
 40
0.274634515
 40
0.2871848046
 40
0.2997113377
 40
0.3122437827
 40
0.3248121223
 40
0.3374563443
 40
0.3502238565
 40
0.3631549278
 40
0.3762841127
 40
0.3829340582
 40
0.3896450576
 40
0.4032610062
 40
0.4171527967
 40
0.4313282003
 40
0.4457861444
 40
0.4605238791
 40
0.475536284
 40
0.4908125716
 40
0.5063392542
 40
0.522106233
 40
0.5381028789
 40
0.5543172584
 40
0.5707375353
 40
0.5873521544
 40
0.6041494568
 40
0.6382420802
 40
0.6555221756
 40
0.672942586
 40
0.6904936074
 40
0.7081661438
 40
0.7259498024
 40
0.7438351184
 40
0.761812252
 40
0.7798708316
 40
0.7980013718
 40
0.8161946349
 40
0.8344421304
 40
0.8527360839
 40
0.8710693737
 40
0.8894350576
 40
0.9262354244
 40
0.9631019145
 40
1.0
 40
1.0
 40
1.0
 40
1.0
 10
5.4825828618
 20
5.3088205826
 30
0.0
 10
5.4836792737
 20
5.3035580543
 30
0.0
 10
5.4860829196
 20
5.2932623896
 30
0.0
 10
5.4897695718
 20
5.280693447
 30
0.0
 10
5.4931066719
 20
5.2710655179
 30
0.0
 10
5.4966245474
 20
5.2619195493
 30
0.0
 10
5.5014744595
 20
5.2510487938
 30
0.0
 10
5.5081022512
 20
5.2388513076
 30
0.0
 10
5.51548689
 20
5.2276878522
 30
0.0
 10
5.5236317992
 20
5.217620375
 30
0.0
 10
5.5310978302
 20
5.2101543965
 30
0.0
 10
5.5374362626
 20
5.2048366367
 30
0.0
 10
5.5423497306
 20
5.2011964124
 30
0.0
 10
5.5474478656
 20
5.1978969304
 30
0.0
 10
5.552728482
 20
5.194953923
 30
0.0
 10
5.5581867125
 20
5.19238315
 30
0.0
 10
5.5638175404
 20
5.1902068958
 30
0.0
 10
5.5696141878
 20
5.1884531243
 30
0.0
 10
5.5755676688
 20
5.1871499874
 30
0.0
 10
5.5816649546
 20
5.186325871
 30
0.0
 10
5.5878853246
 20
5.185980997
 30
0.0
 10
5.5931327146
 20
5.186093278
 30
0.0
 10
5.5973670861
 20
5.1864200407
 30
0.0
 10
5.6016641709
 20
5.1869111086
 30
0.0
 10
5.6070770356
 20
5.1878264721
 30
0.0
 10
5.6135818339
 20
5.1893714027
 30
0.0
 10
5.6201100173
 20
5.1913461524
 30
0.0
 10
5.6266444806
 20
5.1937290237
 30
0.0
 10
5.6331699522
 20
5.1964992466
 30
0.0
 10
5.6396726949
 20
5.1996364542
 30
0.0
 10
5.6461400103
 20
5.2031205724
 30
0.0
 10
5.6525601587
 20
5.2069331505
 30
0.0
 10
5.6589187638
 20
5.211063325
 30
0.0
 10
5.6652025685
 20
5.2155002167
 30
0.0
 10
5.6713987793
 20
5.2202331
 30
0.0
 10
5.677493615
 20
5.2252530111
 30
0.0
 10
5.683473025
 20
5.2305519999
 30
0.0
 10
5.6913110387
 20
5.2380142158
 30
0.0
 10
5.6988181933
 20
5.2459695096
 30
0.0
 10
5.7059495791
 20
5.254382388
 30
0.0
 10
5.7111323581
 20
5.2609642522
 30
0.0
 10
5.7161070893
 20
5.267782672
 30
0.0
 10
5.7208563462
 20
5.2748304702
 30
0.0
 10
5.7253641729
 20
5.2820982947
 30
0.0
 10
5.7296130829
 20
5.2895767322
 30
0.0
 10
5.7335914503
 20
5.2972521991
 30
0.0
 10
5.737288898
 20
5.3051103274
 30
0.0
 10
5.7406978501
 20
5.3131354472
 30
0.0
 10
5.7438136641
 20
5.3213112211
 30
0.0
 10
5.746632023
 20
5.3296218854
 30
0.0
 10
5.7491488405
 20
5.3380521262
 30
0.0
 10
5.7513648234
 20
5.3465859841
 30
0.0
 10
5.7539225766
 20
5.3580883786
 30
0.0
 10
5.7563748353
 20
5.3726480219
 30
0.0
 10
5.7581442129
 20
5.3902941683
 30
0.0
 10
5.7585531469
 20
5.4021207375
 30
0.0
 10
5.7585693116
 20
5.4080351851
 30
0.0
 11
5.4825828618
 21
5.3088205826
 31
0.0
 11
5.4862728868
 21
5.2931218365
 31
0.0
 11
5.4906816329
 21
5.2781838419
 31
0.0
 11
5.4931629138
 21
5.271033723
 31
0.0
 11
5.4958298163
 21
5.2641086806
 31
0.0
 11
5.5017212989
 21
5.2509647395
 31
0.0
 11
5.5083581168
 21
5.2388073794
 31
0.0
 11
5.5157435966
 21
5.2276925501
 31
0.0
 11
5.5238798386
 21
5.2176786745
 31
0.0
 11
5.5327660729
 21
5.2088320373
 31
0.0
 11
5.5374892931
 21
5.2048735327
 31
0.0
 11
5.5423981412
 21
5.2012409255
 31
0.0
 11
5.5474903311
 21
5.1979490277
 31
0.0
 11
5.5527632757
 21
5.1950132301
 31
0.0
 11
5.5582141415
 21
5.1924494137
 31
0.0
 11
5.5638367383
 21
5.1902801382
 31
0.0
 11
5.5696224506
 21
5.1885327892
 31
0.0
 11
5.5755626091
 21
5.1872348594
 31
0.0
 11
5.5816464545
 21
5.1864093811
 31
0.0
 11
5.5878549747
 21
5.1860617728
 31
0.0
 11
5.5941671204
 21
5.1861931055
 31
0.0
 11
5.5973554748
 21
5.1864387094
 31
0.0
 11
5.6005618533
 21
5.1868043533
 31
0.0
 11
5.6070190409
 21
5.187888602
 31
0.0
 11
5.6135201112
 21
5.1894253408
 31
0.0
 11
5.6200466467
 21
5.1913927128
 31
0.0
 11
5.6265804466
 21
5.1937689372
 31
0.0
 11
5.633106137
 21
5.1965332249
 31
0.0
 11
5.6396103262
 21
5.1996654819
 31
0.0
 11
5.6460796631
 21
5.2031456298
 31
0.0
 11
5.6525008281
 21
5.2069556083
 31
0.0
 11
5.6588605973
 21
5.2110835028
 31
0.0
 11
5.6651457648
 21
5.2155185642
 31
0.0
 11
5.6713430833
 21
5.2202501749
 31
0.0
 11
5.6774388436
 21
5.2252691796
 31
0.0
 11
5.6834190486
 21
5.2305673339
 31
0.0
 11
5.6892696701
 21
5.2361364428
 31
0.0
 11
5.7005235037
 21
5.2480580727
 31
0.0
 11
5.7058965241
 21
5.2543968316
 31
0.0
 11
5.7110786925
 21
5.2609786444
 31
0.0
 11
5.716052744
 21
5.2677970147
 31
0.0
 11
5.7208015753
 21
5.2748446897
 31
0.0
 11
5.7253085345
 21
5.2821123941
 31
0.0
 11
5.7295574548
 21
5.2895901858
 31
0.0
 11
5.7335359339
 21
5.2972650691
 31
0.0
 11
5.7372337366
 21
5.3051223632
 31
0.0
 11
5.7406433431
 21
5.3131465514
 31
0.0
 11
5.7437596573
 21
5.3213214181
 31
0.0
 11
5.7465783615
 21
5.3296311571
 31
0.0
 11
5.7490961516
 21
5.3380602824
 31
0.0
 11
5.7513131817
 21
5.3465930058
 31
0.0
 11
5.7532311994
 21
5.3552138356
 31
0.0
 11
5.7561774252
 21
5.3726632761
 31
0.0
 11
5.7579509912
 21
5.390302553
 31
0.0
 11
5.7585693116
 21
5.4080351851
 31
0.0
  0
SPLINE
  5
423
100
AcDbEntity
  8
0
100
AcDbSpline
 62
7
  6
CONTINUOUS
 70
0
 71
3
 72
18
 73
14
 74
12
 42
0.0000001
 43
0.0000001
 44
0.0000000001
 12
0.0865402144
 22
-0.0605709374
 32
0.0
 13
0.0322908254
 23
-0.1005750951
 33
0.0
 40
0.0
 40
0.0
 40
0.0
 40
0.0
 40
0.0559696626
 40
0.1127341585
 40
0.1703510913
 40
0.2288352433
 40
0.3484576577
 40
0.4096794229
 40
0.4718191068
 40
0.5987794871
 40
0.7292623758
 40
0.8630498516
 40
1.0
 40
1.0
 40
1.0
 40
1.0
 10
6.4163214633
 20
5.6539521345
 30
0.0
 10
6.4179360055
 20
5.6528220895
 30
0.0
 10
6.4211058982
 20
5.6504265024
 30
0.0
 10
6.4256409285
 20
5.6464948803
 30
0.0
 10
6.4299874077
 20
5.6422285433
 30
0.0
 10
6.4355722239
 20
5.6360837922
 30
0.0
 10
6.4407381362
 20
5.6294061249
 30
0.0
 10
6.445519406
 20
5.6223094445
 30
0.0
 10
6.4501470943
 20
5.614805455
 30
0.0
 10
6.4555152402
 20
5.6049046728
 30
0.0
 10
6.4613042396
 20
5.5923963624
 30
0.0
 10
6.4665376862
 20
5.5792679416
 30
0.0
 10
6.4696417039
 20
5.5702507007
 30
0.0
 10
6.4711157817
 20
5.5656594426
 30
0.0
 11
6.4163214633
 21
5.6539521345
 31
0.0
 11
6.4210419612
 21
5.6503925512
 31
0.0
 11
6.4255765996
 21
5.6464694652
 31
0.0
 11
6.4299241006
 21
5.6422102721
 31
0.0
 11
6.434083255
 21
5.6376422993
 31
0.0
 11
6.4418477653
 21
5.6276734127
 31
0.0
 11
6.445465177
 21
5.6223128288
 31
0.0
 11
6.448914256
 21
5.616728129
 31
0.0
 11
6.4553308197
 21
5.6049517296
 31
0.0
 11
6.4611423989
 21
5.5924537277
 31
0.0
 11
6.4663920564
 21
5.5793327532
 31
0.0
 11
6.4711157817
 21
5.5656594426
 31
0.0
  0
SPLINE
  5
424
100
AcDbEntity
  8
0
100
AcDbSpline
 62
7
  6
CONTINUOUS
 70
0
 71
3
 72
30
 73
26
 74
24
 42
0.0000001
 43
0.0000001
 44
0.0000000001
 12
0.000052656
 22
0.287015182
 32
0.0
 13
0.2495701774
 23
0.1417478183
 33
0.0
 40
0.0
 40
0.0
 40
0.0
 40
0.0
 40
0.1311315502
 40
0.196580468
 40
0.2618501111
 40
0.3268886871
 40
0.3916482617
 40
0.4560610498
 40
0.5200516996
 40
0.5518666622
 40
0.5835434828
 40
0.6150647609
 40
0.6464134048
 40
0.6775735039
 40
0.708528601
 40
0.7392506045
 40
0.7697086547
 40
0.7998756591
 40
0.8297263582
 40
0.859222492
 40
0.8883248009
 40
0.9170025624
 40
0.9452167524
 40
0.9729011366
 40
1.0
 40
1.0
 40
1.0
 40
1.0
 10
6.2084782419
 20
5.4080351872
 30
0.0
 10
6.2084805435
 20
5.4205807691
 30
0.0
 10
6.2098964636
 20
5.4394174582
 30
0.0
 10
6.2142561551
 20
5.4640965041
 30
0.0
 10
6.2186516955
 20
5.4823147899
 30
0.0
 10
6.2240701838
 20
5.5001831593
 30
0.0
 10
6.2304326135
 20
5.5176499426
 30
0.0
 10
6.2376579359
 20
5.5346678093
 30
0.0
 10
6.2443676675
 20
5.5484577502
 30
0.0
 10
6.2501205997
 20
5.5592133868
 30
0.0
 10
6.2546116245
 20
5.5671177597
 30
0.0
 10
6.259284212
 20
5.5748641023
 30
0.0
 10
6.2641349144
 20
5.5824416132
 30
0.0
 10
6.2691603471
 20
5.589839041
 30
0.0
 10
6.274355791
 20
5.5970443761
 30
0.0
 10
6.2797190685
 20
5.6040413775
 30
0.0
 10
6.2852477462
 20
5.6108115421
 30
0.0
 10
6.2909388028
 20
5.6173357637
 30
0.0
 10
6.2967875491
 20
5.6235938762
 30
0.0
 10
6.3027902353
 20
5.6295612269
 30
0.0
 10
6.308942188
 20
5.6352104025
 30
0.0
 10
6.3152366484
 20
5.6405124014
 30
0.0
 10
6.3216625726
 20
5.6454350983
 30
0.0
 10
6.3282048656
 20
5.6499412026
 30
0.0
 10
6.3326828124
 20
5.6526717328
 30
0.0
 10
6.3349371684
 20
5.6539521344
 30
0.0
 11
6.2084782419
 21
5.4080351872
 31
0.0
 11
6.2111959008
 21
5.4455736875
 31
0.0
 11
6.2144493489
 21
5.4640746345
 31
0.0
 11
6.2188309206
 21
5.4822884016
 31
0.0
 11
6.224240324
 21
5.5001544993
 31
0.0
 11
6.2305947791
 21
5.517621519
 31
0.0
 11
6.2378182702
 21
5.5346393604
 31
0.0
 11
6.2458539895
 21
5.5511544372
 31
0.0
 11
6.2501609528
 21
5.5592062768
 31
0.0
 11
6.2546531682
 21
5.5671106762
 31
0.0
 11
6.2593269721
 21
5.5748569859
 31
0.0
 11
6.2641789453
 21
5.5824341902
 31
0.0
 11
6.2692056686
 21
5.5898312737
 31
0.0
 11
6.274403761
 21
5.5970365252
 31
0.0
 11
6.2797701151
 21
5.6040332211
 31
0.0
 11
6.2853017435
 21
5.6108024384
 31
0.0
 11
6.2909956596
 21
5.6173252453
 31
0.0
 11
6.2968486569
 21
5.6235819426
 31
0.0
 11
6.3028558972
 21
5.6295471319
 31
0.0
 11
6.3090118072
 21
5.6351928485
 31
0.0
 11
6.3153107889
 21
5.6404910952
 31
0.0
 11
6.3217433759
 21
5.6454102238
 31
0.0
 11
6.3282917881
 21
5.6499107404
 31
0.0
 11
6.3349371684
 21
5.6539521344
 31
0.0
  0
SPLINE
  5
425
100
AcDbEntity
  8
0
100
AcDbSpline
 62
7
  6
CONTINUOUS
 70
0
 71
3
 72
56
 73
52
 74
50
 42
0.0000001
 43
0.0000001
 44
0.0000000001
 12
-0.0980425698
 22
-0.4708115282
 32
0.0
 13
-0.001314726
 23
0.4809096714
 33
0.0
 40
0.0
 40
0.0
 40
0.0
 40
0.0
 40
0.0169119637
 40
0.033553506
 40
0.0499069143
 40
0.0659596953
 40
0.0971414024
 40
0.1271088754
 40
0.1559246845
 40
0.1836866742
 40
0.2105263822
 40
0.2236545889
 40
0.2366147086
 40
0.2494314873
 40
0.2621296566
 40
0.274737358
 40
0.2872830896
 40
0.2997987401
 40
0.3123173338
 40
0.3248754863
 40
0.3375114231
 40
0.3502653109
 40
0.3631781937
 40
0.3697079425
 40
0.3762920309
 40
0.3896370646
 40
0.4032411551
 40
0.4171204514
 40
0.4312830085
 40
0.4457300679
 40
0.4604584247
 40
0.4754605909
 40
0.490727786
 40
0.5062489034
 40
0.5220128525
 40
0.5380076137
 40
0.5706362139
 40
0.6040463772
 40
0.6381472197
 40
0.6728524703
 40
0.708080835
 40
0.7258706144
 40
0.7437622355
 40
0.7617452978
 40
0.7798100894
 40
0.8161400273
 40
0.8526884725
 40
0.8893949162
 40
0.9262086439
 40
0.9630885325
 40
1.0
 40
1.0
 40
1.0
 40
1.0
 10
6.4844729453
 20
5.3088671471
 30
0.0
 10
6.4839202479
 20
5.3062130312
 30
0.0
 10
6.4827600217
 20
5.3009602123
 30
0.0
 10
6.4808312264
 20
5.2931949931
 30
0.0
 10
6.4787219645
 20
5.2856194003
 30
0.0
 10
6.4756931131
 20
5.2758851597
 30
0.0
 10
6.471459437
 20
5.264245486
 30
0.0
 10
6.4655787069
 20
5.2510629765
 30
0.0
 10
6.4589472575
 20
5.2388589075
 30
0.0
 10
6.4515596231
 20
5.2276914028
 30
0.0
 10
6.444718066
 20
5.2192346638
 30
0.0
 10
6.4388722236
 20
5.2130804087
 30
0.0
 10
6.4343316766
 20
5.2088000373
 30
0.0
 10
6.4296045814
 20
5.2048327927
 30
0.0
 10
6.4246913493
 20
5.2011920945
 30
0.0
 10
6.4195942048
 20
5.1978923918
 30
0.0
 10
6.4143154024
 20
5.1949507648
 30
0.0
 10
6.4088590402
 20
5.1923857732
 30
0.0
 10
6.4032304564
 20
5.1902180325
 30
0.0
 10
6.3974373469
 20
5.1884694825
 30
0.0
 10
6.3914901655
 20
5.1871614309
 30
0.0
 10
6.3854022767
 20
5.1863154395
 30
0.0
 10
6.3802438239
 20
5.1860155209
 30
0.0
 10
6.376070735
 20
5.1860198815
 30
0.0
 10
6.3718317592
 20
5.1861908549
 30
0.0
 10
6.3664765229
 20
5.1867148426
 30
0.0
 10
6.3600191961
 20
5.1878117549
 30
0.0
 10
6.3535201531
 20
5.1893578534
 30
0.0
 10
6.3469972473
 20
5.1913313703
 30
0.0
 10
6.3404665382
 20
5.1937104353
 30
0.0
 10
6.3339432509
 20
5.1964744971
 30
0.0
 10
6.3274411433
 20
5.1996036139
 30
0.0
 10
6.3209740711
 20
5.2030810034
 30
0.0
 10
6.3145546494
 20
5.2068903591
 30
0.0
 10
6.3081961734
 20
5.2110187962
 30
0.0
 10
6.299761227
 20
5.2169710388
 30
0.0
 10
6.2894520162
 20
5.2251558429
 30
0.0
 10
6.2776196551
 20
5.2360235998
 30
0.0
 10
6.2663592291
 20
5.247946366
 30
0.0
 10
6.2557941339
 20
5.2608681236
 30
0.0
 10
6.247703867
 20
5.2723877928
 30
0.0
 10
6.2417110221
 20
5.2820495613
 30
0.0
 10
6.2374585369
 20
5.2895301358
 30
0.0
 10
6.2334771248
 20
5.297208161
 30
0.0
 10
6.2285341146
 20
5.3077075786
 30
0.0
 10
6.2230825709
 20
5.3212447813
 30
0.0
 10
6.2177473129
 20
5.3379980565
 30
0.0
 10
6.2136165236
 20
5.3551673097
 30
0.0
 10
6.2106732638
 20
5.3726323219
 30
0.0
 10
6.2089024327
 20
5.3902865149
 30
0.0
 10
6.2084931447
 20
5.402118159
 30
0.0
 10
6.2084769685
 20
5.4080351862
 30
0.0
 11
6.4844729453
 21
5.3088671471
 31
0.0
 11
6.4827159823
 21
5.3009260307
 31
0.0
 11
6.4807835254
 21
5.2931597345
 31
0.0
 11
6.4786708414
 21
5.2855842754
 31
0.0
 11
6.4763744265
 21
5.2782137693
 31
0.0
 11
6.4712254514
 21
5.2641298319
 31
0.0
 11
6.465331447
 21
5.2509784878
 31
0.0
 11
6.4586913027
 21
5.2388150765
 31
0.0
 11
6.4513022036
 21
5.2276951845
 31
0.0
 11
6.4431629537
 21
5.2176773619
 31
0.0
 11
6.4388123067
 21
5.2131021878
 31
0.0
 11
6.434274854
 21
5.2088292847
 31
0.0
 11
6.4295512617
 21
5.2048695731
 31
0.0
 11
6.4246428504
 21
5.2012364993
 31
0.0
 11
6.4195512616
 21
5.1979443913
 31
0.0
 11
6.4142794261
 21
5.1950101964
 31
0.0
 11
6.4088311022
 21
5.1924522359
 31
0.0
 11
6.4032121001
 21
5.1902909277
 31
0.0
 11
6.3974298427
 21
5.1885475507
 31
0.0
 11
6.3914946764
 21
5.1872433662
 31
0.0
 11
6.3854194595
 21
5.1863998914
 31
0.0
 11
6.3792200957
 21
5.1860373861
 31
0.0
 11
6.376079866
 21
5.1860403374
 31
0.0
 11
6.3729160408
 21
5.1861671005
 31
0.0
 11
6.3665280831
 21
5.1867850757
 31
0.0
 11
6.3600768835
 21
5.1878734408
 31
0.0
 11
6.3535817678
 21
5.1894113821
 31
0.0
 11
6.3470607484
 21
5.1913773823
 31
0.0
 11
6.3405306179
 21
5.1937498739
 31
0.0
 11
6.3340067526
 21
5.1965082387
 31
0.0
 11
6.3275037295
 21
5.1996327844
 31
0.0
 11
6.3210351789
 21
5.2031062987
 31
0.0
 11
6.3146144015
 21
5.2069127596
 31
0.0
 11
6.3082544661
 21
5.2110387445
 31
0.0
 11
6.3019683711
 21
5.215471899
 31
0.0
 11
6.2896713392
 21
5.2252189589
 31
0.0
 11
6.2778334702
 21
5.2360828428
 31
0.0
 11
6.2665713094
 21
5.248003702
 31
0.0
 11
6.2560079311
 21
5.2609256309
 31
0.0
 11
6.246276097
 21
5.2747933429
 31
0.0
 11
6.2417663853
 21
5.2820635431
 31
0.0
 11
6.2375142305
 21
5.2895437112
 31
0.0
 11
6.2335326603
 21
5.2972209187
 31
0.0
 11
6.2298316204
 21
5.3050806959
 31
0.0
 11
6.2232995647
 21
5.3212851703
 31
0.0
 11
6.2179584489
 21
5.3380305629
 31
0.0
 11
6.2138197449
 21
5.3551910886
 31
0.0
 11
6.2108708765
 21
5.3726479177
 31
0.0
 11
6.2090958083
 21
5.3902948284
 31
0.0
 11
6.2084769685
 21
5.4080351862
 31
0.0
  0
SPLINE
  5
426
100
AcDbEntity
  8
0
100
AcDbSpline
 62
7
  6
CONTINUOUS
 70
0
 71
3
 72
14
 73
10
 74
8
 42
0.0000001
 43
0.0000001
 44
0.0000000001
 12
-0.0392249221
 22
0.0222854261
 32
0.0
 13
-0.0451135759
 23
0.0000003721
 33
0.0
 40
0.0
 40
0.0
 40
0.0
 40
0.0
 40
0.1333576444
 40
0.2643130052
 40
0.5186848562
 40
0.6422743062
 40
0.7635548509
 40
0.88272228
 40
1.0
 40
1.0
 40
1.0
 40
1.0
 10
5.632109584
 20
5.6539521344
 30
0.0
 10
5.6303659363
 20
5.6549427784
 30
0.0
 10
5.6268622159
 20
5.6568241923
 30
0.0
 10
5.619806491
 20
5.6601539828
 30
0.0
 10
5.6126173838
 20
5.6628425352
 30
0.0
 10
5.6053579348
 20
5.664774933
 30
0.0
 10
5.5999785218
 20
5.6658159132
 30
0.0
 10
5.5946316608
 20
5.6664488173
 30
0.0
 10
5.5910745629
 20
5.6665933721
 30
0.0
 10
5.5893109571
 20
5.6665933866
 30
0.0
 11
5.632109584
 21
5.6539521344
 31
0.0
 11
5.6268070132
 21
5.656794297
 31
0.0
 11
5.6214620536
 21
5.6593110949
 31
0.0
 11
5.6106989268
 21
5.6632916784
 31
0.0
 11
5.6053096313
 21
5.6647207987
 31
0.0
 11
5.5999369131
 21
5.6657552587
 31
0.0
 11
5.5945975746
 21
5.6663826187
 31
0.0
 11
5.5893109571
 21
5.6665933866
 31
0.0
  0
SPLINE
  5
427
100
AcDbEntity
  8
0
100
AcDbSpline
 62
7
  6
CONTINUOUS
 70
0
 71
3
 72
15
 73
11
 74
9
 42
0.0000001
 43
0.0000001
 44
0.0000000001
 12
-0.0412504449
 22
-0.0000000935
 32
0.0
 13
-0.0337982333
 23
-0.0236490725
 33
0.0
 40
0.0
 40
0.0
 40
0.0
 40
0.0
 40
0.1265628852
 40
0.2518559907
 40
0.3762810601
 40
0.5002857135
 40
0.6242911698
 40
0.7486873006
 40
0.873832314
 40
1.0
 40
1.0
 40
1.0
 40
1.0
 10
5.5893109484
 20
5.6665933866
 30
0.0
 10
5.58757069
 20
5.6665933827
 30
0.0
 10
5.5841059309
 20
5.6664543962
 30
0.0
 10
5.578964768
 20
5.6658262459
 30
0.0
 10
5.5739259997
 20
5.6647888625
 30
0.0
 10
5.5690041628
 20
5.6633550847
 30
0.0
 10
5.5642104178
 20
5.6615404242
 30
0.0
 10
5.5595538683
 20
5.659361624
 30
0.0
 10
5.555041633
 20
5.6568376983
 30
0.0
 10
5.5521457943
 20
5.6549467173
 30
0.0
 10
5.5507243793
 20
5.6539521344
 30
0.0
 11
5.5893109484
 21
5.6665933866
 31
0.0
 11
5.5840944292
 21
5.666382621
 31
0.0
 11
5.5789642523
 21
5.6657552409
 31
0.0
 11
5.573936992
 21
5.6647207706
 31
0.0
 11
5.5690254359
 21
5.6632916559
 31
0.0
 11
5.5642406158
 21
5.6614829025
 31
0.0
 11
5.5595914718
 21
5.6593111101
 31
0.0
 11
5.5550842687
 21
5.6567943
 31
0.0
 11
5.5507243793
 21
5.6539521344
 31
0.0
  0
SPLINE
  5
428
100
AcDbEntity
  8
0
100
AcDbSpline
 62
7
  6
CONTINUOUS
 70
0
 71
3
 72
15
 73
11
 74
9
 42
0.0000001
 43
0.0000001
 44
0.0000000001
 12
0.0412504557
 22
-0.0000016815
 32
0.0
 13
0.0337988727
 23
-0.0236481776
 33
0.0
 40
0.0
 40
0.0
 40
0.0
 40
0.0
 40
0.1265531197
 40
0.2518574551
 40
0.376288724
 40
0.5002908371
 40
0.6242907529
 40
0.748695157
 40
0.8738443105
 40
1.0
 40
1.0
 40
1.0
 40
1.0
 10
6.3777353275
 20
5.6665933866
 30
0.0
 10
6.3794754521
 20
5.6665933157
 30
0.0
 10
6.382940208
 20
5.6664540922
 30
0.0
 10
6.3880815464
 20
5.6658264589
 30
0.0
 10
6.3931204531
 20
5.6647887064
 30
0.0
 10
6.3980423526
 20
5.6633552356
 30
0.0
 10
6.4028359764
 20
5.6615402384
 30
0.0
 10
6.4074927268
 20
5.6593616476
 30
0.0
 10
6.4120048092
 20
5.6568374201
 30
0.0
 10
6.4149006046
 20
5.6549465851
 30
0.0
 10
6.4163219112
 20
5.6539521344
 30
0.0
 11
6.3777353275
 21
5.6665933866
 31
0.0
 11
6.3829514395
 21
5.6663824879
 31
0.0
 11
6.3880821074
 21
5.6657552955
 31
0.0
 11
6.3931096022
 21
5.664720689
 31
0.0
 11
6.3980210843
 21
5.6632916899
 31
0.0
 11
6.4028056429
 21
5.6614828875
 31
0.0
 11
6.407455127
 21
5.6593110137
 31
0.0
 11
6.4119624026
 21
5.6567939805
 31
0.0
 11
6.4163219112
 21
5.6539521344
 31
0.0
  0
SPLINE
  5
429
100
AcDbEntity
  8
0
100
AcDbSpline
 62
7
  6
CONTINUOUS
 70
0
 71
3
 72
14
 73
10
 74
8
 42
0.0000001
 43
0.0000001
 44
0.0000000001
 12
0.0392256761
 22
0.0222841391
 32
0.0
 13
0.0451135957
 23
0.0000016965
 33
0.0
 40
0.0
 40
0.0
 40
0.0
 40
0.0
 40
0.1333448589
 40
0.2643049042
 40
0.5186795111
 40
0.6422630125
 40
0.7635519848
 40
0.8827323558
 40
1.0
 40
1.0
 40
1.0
 40
1.0
 10
6.3349367073
 20
5.6539521344
 30
0.0
 10
6.3366802214
 20
5.6549426262
 30
0.0
 10
6.3401838481
 20
5.6568239503
 30
0.0
 10
6.3472393629
 20
5.6601540007
 30
0.0
 10
6.354428525
 20
5.6628425532
 30
0.0
 10
6.3616880941
 20
5.6647747662
 30
0.0
 10
6.367067693
 20
5.6658160683
 30
0.0
 10
6.3724147811
 20
5.6664485181
 30
0.0
 10
6.3759719027
 20
5.6665933203
 30
0.0
 10
6.3777353578
 20
5.6665933866
 30
0.0
 11
6.3349367073
 21
5.6539521344
 31
0.0
 11
6.3402387944
 21
5.6567939843
 31
0.0
 11
6.3455838753
 21
5.6593110266
 31
0.0
 11
6.3563471195
 21
5.6632916654
 31
0.0
 11
6.3617361745
 21
5.6647206553
 31
0.0
 11
6.3671092522
 21
5.6657552715
 31
0.0
 11
6.3724491982
 21
5.6663824855
 31
0.0
 11
6.3777353578
 21
5.6665933866
 31
0.0
  0
SPLINE
  5
42A
100
AcDbEntity
  8
0
100
AcDbSpline
 62
9
  6
CONTINUOUS
 70
0
 71
3
 72
15
 73
11
 74
9
 42
0.0000001
 43
0.0000001
 44
0.0000000001
 12
-0.1651600325
 22
-0.3492699123
 32
0.0
 13
-0.0015378353
 23
-0.3863482148
 33
0.0
 40
0.0
 40
0.0
 40
0.0
 40
0.0
 40
0.1202169548
 40
0.2423069719
 40
0.3660392554
 40
0.4911579846
 40
0.6173915223
 40
0.7444607966
 40
0.87208716
 40
1.0
 40
1.0
 40
1.0
 40
1.0
 10
5.0583823264
 20
5.3699035725
 30
0.0
 10
5.051763981
 20
5.3559075174
 30
0.0
 10
5.0392909104
 20
5.3272795028
 30
0.0
 10
5.0230008427
 20
5.2830180452
 30
0.0
 10
5.0090280615
 20
5.2373103598
 30
0.0
 10
4.9974301693
 20
5.1903947119
 30
0.0
 10
4.9882638274
 20
5.1425068973
 30
0.0
 10
4.981586327
 20
5.0938828913
 30
0.0
 10
4.9774551138
 20
5.0447608922
 30
0.0
 10
4.9764374176
 20
5.0118487652
 30
0.0
 10
4.9763718479
 20
4.9953757995
 30
0.0
 11
5.0583823264
 21
5.3699035725
 31
0.0
 11
5.0398032078
 21
5.3273354525
 31
0.0
 11
5.023488393
 21
5.2830771067
 31
0.0
 11
5.0094954169
 21
5.2373668121
 31
0.0
 11
4.9978818148
 21
5.1904428455
 31
0.0
 11
4.9887051218
 21
5.1425434841
 31
0.0
 11
4.9820228729
 21
5.0939070046
 31
0.0
 11
4.9778926032
 21
5.0447716841
 31
0.0
 11
4.9763718479
 21
4.9953757995
 31
0.0
  0
SPLINE
  5
42B
100
AcDbEntity
  8
0
100
AcDbSpline
 62
9
  6
CONTINUOUS
 70
0
 71
3
 72
33
 73
29
 74
27
 42
0.0000001
 43
0.0000001
 44
0.0000000001
 12
-0.0004730852
 22
0.190942243
 32
0.0
 13
-0.1741530546
 23
0.0782935346
 33
0.0
 40
0.0
 40
0.0
 40
0.0
 40
0.0
 40
0.0325384293
 40
0.0651193237
 40
0.0977297512
 40
0.1303221539
 40
0.1628549486
 40
0.1953415963
 40
0.2277911466
 40
0.2602000471
 40
0.2925541815
 40
0.3248447627
 40
0.3570707866
 40
0.3892282356
 40
0.453299952
 40
0.5169856824
 40
0.5802166178
 40
0.6116435676
 40
0.6429314593
 40
0.7050176268
 40
0.7663381995
 40
0.7966771567
 40
0.826766808
 40
0.8860546652
 40
0.9152103323
 40
0.9439750351
 40
0.9722630401
 40
1.0
 40
1.0
 40
1.0
 40
1.0
 10
5.6475053753
 20
5.408193045
 30
0.0
 10
5.6475002442
 20
5.4102640319
 30
0.0
 10
5.6473444501
 20
5.4144094916
 30
0.0
 10
5.64671694
 20
5.4206015373
 30
0.0
 10
5.6457374842
 20
5.4267507851
 30
0.0
 10
5.6444481696
 20
5.432838743
 30
0.0
 10
5.6428852366
 20
5.4388537566
 30
0.0
 10
5.641070998
 20
5.4447880158
 30
0.0
 10
5.6390287425
 20
5.4506390782
 30
0.0
 10
5.6367806626
 20
5.4564048661
 30
0.0
 10
5.63435008
 20
5.4620849122
 30
0.0
 10
5.6317519795
 20
5.4676773818
 30
0.0
 10
5.628995154
 20
5.4731793122
 30
0.0
 10
5.6251258323
 20
5.4803826399
 30
0.0
 10
5.6199441146
 20
5.4891490767
 30
0.0
 10
5.6132340885
 20
5.4992910792
 30
0.0
 10
5.6072518164
 20
5.5074076323
 30
0.0
 10
5.6022523847
 20
5.5136747089
 30
0.0
 10
5.5971419414
 20
5.5197567173
 30
0.0
 10
5.590515974
 20
5.5270462354
 30
0.0
 10
5.583534854
 20
5.533911892
 30
0.0
 10
5.577767713
 20
5.5390894012
 30
0.0
 10
5.5719372167
 20
5.5439963484
 30
0.0
 10
5.5659185079
 20
5.5485586992
 30
0.0
 10
5.5597164687
 20
5.5527074553
 30
0.0
 10
5.5550295023
 20
5.555563957
 30
0.0
 10
5.5502951522
 20
5.5581583151
 30
0.0
 10
5.5470836058
 20
5.5597125705
 30
0.0
 10
5.5454734471
 20
5.5604364454
 30
0.0
 11
5.6475053753
 21
5.408193045
 31
0.0
 11
5.647279055
 21
5.4144019013
 31
0.0
 11
5.6466585809
 21
5.4205919699
 31
0.0
 11
5.6456855153
 21
5.4267421956
 31
0.0
 11
5.6444013883
 21
5.4328315552
 31
0.0
 11
5.6428421461
 21
5.4388445839
 31
0.0
 11
5.6410318531
 21
5.4447776434
 31
0.0
 11
5.6389930518
 21
5.4506286105
 31
0.0
 11
5.6367482847
 21
5.456395362
 31
0.0
 11
5.6343197204
 21
5.4620757814
 31
0.0
 11
5.6317228314
 21
5.4676678712
 31
0.0
 11
5.6289673055
 21
5.4731697367
 31
0.0
 11
5.6260626402
 21
5.4785794869
 31
0.0
 11
5.6198438792
 21
5.4891150751
 31
0.0
 11
5.6131335151
 21
5.4992563139
 31
0.0
 11
5.6059693749
 21
5.508974562
 31
0.0
 11
5.6022271224
 21
5.5136654633
 31
0.0
 11
5.5983833418
 21
5.5182389083
 31
0.0
 11
5.5904027695
 21
5.5270052828
 31
0.0
 11
5.5820475812
 21
5.5352080285
 31
0.0
 11
5.5777355915
 21
5.5390765769
 31
0.0
 11
5.5733382338
 21
5.5427742657
 31
0.0
 11
5.5643035217
 21
5.5495955385
 31
0.0
 11
5.5596744539
 21
5.5526881022
 31
0.0
 11
5.5549822879
 21
5.5555429554
 31
0.0
 11
5.5502431436
 21
5.558134392
 31
0.0
 11
5.5454734471
 21
5.5604364454
 31
0.0
  0
LINE
  5
42C
100
AcDbEntity
  8
0
100
AcDbLine
 62
9
  6
CONTINUOUS
 10
5.7585823377
 20
5.408035149
 11
5.6475053753
 21
5.408193045
  0
SPLINE
  5
42D
100
AcDbEntity
  8
0
100
AcDbSpline
 62
9
  6
CONTINUOUS
 70
0
 71
3
 72
15
 73
11
 74
9
 42
0.0000001
 43
0.0000001
 44
0.0000000001
 12
-0.0172303362
 22
-0.0105524751
 32
0.0
 13
-0.0087769668
 23
-0.0181990129
 33
0.0
 40
0.0
 40
0.0
 40
0.0
 40
0.0
 40
0.1249193015
 40
0.2488459578
 40
0.3722885936
 40
0.4957597854
 40
0.6197702598
 40
0.7448231719
 40
0.8714088086
 40
1.0
 40
1.0
 40
1.0
 40
1.0
 10
5.0583823264
 20
5.3699035725
 30
0.0
 10
5.0576648592
 20
5.3694641699
 30
0.0
 10
5.056266072
 20
5.3685379007
 30
0.0
 10
5.0542794488
 20
5.3670046842
 30
0.0
 10
5.0524172087
 20
5.3653369417
 30
0.0
 10
5.0506816513
 20
5.3635370022
 30
0.0
 10
5.0490748779
 20
5.3616071209
 30
0.0
 10
5.0475989836
 20
5.3595495532
 30
0.0
 10
5.0462560989
 20
5.3573667185
 30
0.0
 10
5.0454579223
 20
5.355842942
 30
0.0
 10
5.0450817087
 20
5.3550628644
 30
0.0
 11
5.0583823264
 21
5.3699035725
 31
0.0
 11
5.0562783549
 21
5.3685093671
 31
0.0
 11
5.054296396
 21
5.3669791706
 31
0.0
 11
5.0524384995
 21
5.365315138
 31
0.0
 11
5.0507067158
 21
5.3635194245
 31
0.0
 11
5.0491030947
 21
5.3615941852
 31
0.0
 11
5.0476296865
 21
5.3595415754
 31
0.0
 11
5.0462885411
 21
5.35736375
 31
0.0
 11
5.0450817087
 21
5.3550628644
 31
0.0
  0
SPLINE
  5
42E
100
AcDbEntity
  8
0
100
AcDbSpline
 62
9
  6
CONTINUOUS
 70
0
 71
3
 72
26
 73
22
 74
20
 42
0.0000001
 43
0.0000001
 44
0.0000000001
 12
0.022087535
 22
-0.0936935918
 32
0.0
 13
-0.0827799659
 23
-0.0491306992
 33
0.0
 40
0.0
 40
0.0
 40
0.0
 40
0.0
 40
0.0720618457
 40
0.1431299733
 40
0.2130117524
 40
0.2815330563
 40
0.3485957174
 40
0.4141686941
 40
0.4782417232
 40
0.5408310967
 40
0.6019815353
 40
0.661762509
 40
0.6911764658
 40
0.7202895752
 40
0.749122092
 40
0.7776956746
 40
0.8341433148
 40
0.8898480954
 40
0.9175009975
 40
0.9450580135
 40
1.0
 40
1.0
 40
1.0
 40
1.0
 10
5.5507248734
 20
5.6539521344
 30
0.0
 10
5.5512554296
 20
5.6517015567
 30
0.0
 10
5.5521817498
 20
5.6472001908
 30
0.0
 10
5.5531658721
 20
5.6404325796
 30
0.0
 10
5.5537306768
 20
5.6337306664
 30
0.0
 10
5.5538688096
 20
5.6271346991
 30
0.0
 10
5.5535784997
 20
5.6206817976
 30
0.0
 10
5.5528640444
 20
5.6144053457
 30
0.0
 10
5.551728504
 20
5.6083368086
 30
0.0
 10
5.550175392
 20
5.6025077533
 30
0.0
 10
5.5482153576
 20
5.5969483326
 30
0.0
 10
5.5462402322
 20
5.5925401098
 30
0.0
 10
5.5444651062
 20
5.5891833515
 30
0.0
 10
5.5430457339
 20
5.5867650275
 30
0.0
 10
5.541533674
 20
5.584435589
 30
0.0
 10
5.539406032
 20
5.5814645394
 30
0.0
 10
5.5365241967
 20
5.5779789958
 30
0.0
 10
5.533342155
 20
5.5748062232
 30
0.0
 10
5.5306416046
 20
5.5724861379
 30
0.0
 10
5.5278492177
 20
5.5703176634
 30
0.0
 10
5.525638421
 20
5.568851195
 30
0.0
 10
5.5241223891
 20
5.5679514156
 30
0.0
 11
5.5507248734
 21
5.6539521344
 31
0.0
 11
5.5521209941
 21
5.6471572719
 31
0.0
 11
5.5531024208
 21
5.6403868841
 31
0.0
 11
5.553662928
 21
5.6336833253
 31
0.0
 11
5.5537965324
 21
5.6270886894
 31
0.0
 11
5.5535021305
 21
5.6206398285
 31
0.0
 11
5.5527831449
 21
5.6143687324
 31
0.0
 11
5.5516431693
 21
5.6083072072
 31
0.0
 11
5.550087173
 21
5.6024866279
 31
0.0
 11
5.548124755
 21
5.5969369182
 31
0.0
 11
5.5457664874
 21
5.591687697
 31
0.0
 11
5.5444422145
 21
5.5891850247
 31
0.0
 11
5.5430231968
 21
5.5867683542
 31
0.0
 11
5.541511613
 21
5.5844406171
 31
0.0
 11
5.5399097313
 21
5.5822046651
 31
0.0
 11
5.5364441458
 21
5.5780195226
 31
0.0
 11
5.5326445853
 21
5.5742357377
 31
0.0
 11
5.5306253872
 21
5.5725011893
 31
0.0
 11
5.5285301114
 21
5.5708743569
 31
0.0
 11
5.5241223891
 21
5.5679514156
 31
0.0
  0
SPLINE
  5
42F
100
AcDbEntity
  8
0
100
AcDbSpline
 62
6
  6
CONTINUOUS
 70
0
 71
3
 72
25
 73
21
 74
19
 42
0.0000001
 43
0.0000001
 44
0.0000000001
 12
-0.0140203878
 22
-0.0009826721
 32
0.0
 13
-0.0006350281
 23
-0.0140404294
 33
0.0
 40
0.0
 40
0.0
 40
0.0
 40
0.0
 40
0.226149724
 40
0.4227946875
 40
0.5100619038
 40
0.5899673127
 40
0.6625230768
 40
0.7277477856
 40
0.7856696973
 40
0.8363322812
 40
0.8798042777
 40
0.9161993695
 40
0.9318052745
 40
0.9457301026
 40
0.9580296817
 40
0.9687856208
 40
0.9781206149
 40
0.9862227659
 40
0.9933787412
 40
1.0
 40
1.0
 40
1.0
 40
1.0
 10
4.9763718401
 20
4.9953766557
 30
0.0
 10
4.9753149378
 20
4.9953025787
 30
0.0
 10
4.973339883
 20
4.9951512688
 30
0.0
 10
4.970960651
 20
4.9949268014
 30
0.0
 10
4.9692669356
 20
4.9947353156
 30
0.0
 10
4.9681527951
 20
4.994593301
 30
0.0
 10
4.9671434092
 20
4.9944472291
 30
0.0
 10
4.9662388329
 20
4.9942972026
 30
0.0
 10
4.9654391079
 20
4.9941433509
 30
0.0
 10
4.9647441758
 20
4.9939858583
 30
0.0
 10
4.9641540175
 20
4.9938248521
 30
0.0
 10
4.9637297774
 20
4.9936816343
 30
0.0
 10
4.963444581
 20
4.9935627525
 30
0.0
 10
4.9632680777
 20
4.993477305
 30
0.0
 10
4.9631176802
 20
4.9933909404
 30
0.0
 10
4.9629932847
 20
4.9933035601
 30
0.0
 10
4.962894766
 20
4.9932149681
 30
0.0
 10
4.9628221056
 20
4.9931246984
 30
0.0
 10
4.9627757608
 20
4.9930322088
 30
0.0
 10
4.9627631106
 20
4.9929678677
 30
0.0
 10
4.9627617091
 20
4.9929368793
 30
0.0
 11
4.9763718401
 21
4.9953766557
 31
0.0
 11
4.9732028802
 21
4.9951307664
 31
0.0
 11
4.9704517008
 21
4.9948669199
 31
0.0
 11
4.9692330227
 21
4.9947284309
 31
0.0
 11
4.9681190823
 21
4.9945856544
 31
0.0
 11
4.9671099771
 21
4.9944386577
 31
0.0
 11
4.9662058047
 21
4.9942875081
 31
0.0
 11
4.9654066626
 21
4.9941322728
 31
0.0
 11
4.9647126483
 21
4.9939730192
 31
0.0
 11
4.9641238595
 21
4.9938098145
 31
0.0
 11
4.9636403935
 21
4.9936427259
 31
0.0
 11
4.963438187
 21
4.9935577463
 31
0.0
 11
4.9632623479
 21
4.9934718209
 31
0.0
 11
4.9631128883
 21
4.9933849582
 31
0.0
 11
4.9629898203
 21
4.9932971666
 31
0.0
 11
4.9628931562
 21
4.9932084545
 31
0.0
 11
4.9628229082
 21
4.9931188303
 31
0.0
 11
4.9627790884
 21
4.9930283024
 31
0.0
 11
4.9627617091
 21
4.9929368793
 31
0.0
  0
SPLINE
  5
430
100
AcDbEntity
  8
0
100
AcDbSpline
 62
9
  6
CONTINUOUS
 70
0
 71
3
 72
32
 73
28
 74
26
 42
0.0000001
 43
0.0000001
 44
0.0000000001
 12
0.0
 22
-0.1871652101
 32
0.0
 13
-0.1751899172
 23
0.0658734302
 33
0.0
 40
0.0
 40
0.0
 40
0.0
 40
0.0
 40
0.034460797
 40
0.0684786099
 40
0.1021212852
 40
0.1354469135
 40
0.1685040695
 40
0.2013322174
 40
0.2663901601
 40
0.3308065005
 40
0.3946363592
 40
0.4578613232
 40
0.5204189178
 40
0.5822333376
 40
0.6432477414
 40
0.7034586972
 40
0.7333002577
 40
0.7629835341
 40
0.792539898
 40
0.8220111227
 40
0.8367332653
 40
0.8514550556
 40
0.8809236663
 40
0.9104753203
 40
0.9401522738
 40
0.9699863331
 40
1.0
 40
1.0
 40
1.0
 40
1.0
 10
5.6066275569
 20
5.4081930279
 30
0.0
 10
5.6066275569
 20
5.4060430738
 30
0.0
 10
5.6064917707
 20
5.4017695336
 30
0.0
 10
5.6058858921
 20
5.3954231989
 30
0.0
 10
5.6048951251
 20
5.3891970464
 30
0.0
 10
5.60353535
 20
5.3831026295
 30
0.0
 10
5.6018222715
 20
5.3771507394
 30
0.0
 10
5.599097365
 20
5.3694450467
 30
0.0
 10
5.5948882019
 20
5.3602085324
 30
0.0
 10
5.5886645841
 20
5.3498500555
 30
0.0
 10
5.581408398
 20
5.3403307907
 30
0.0
 10
5.5732450264
 20
5.3317375552
 30
0.0
 10
5.5642983577
 20
5.3241563199
 30
0.0
 10
5.5546908939
 20
5.3176740288
 30
0.0
 10
5.5445457462
 20
5.3123789459
 30
0.0
 10
5.5357132011
 20
5.3090189228
 30
0.0
 10
5.5285099554
 20
5.3070242483
 30
0.0
 10
5.5230660232
 20
5.305885687
 30
0.0
 10
5.5175818029
 20
5.3051119678
 30
0.0
 10
5.5129886026
 20
5.304780523
 30
0.0
 10
5.5093129965
 20
5.3047093158
 30
0.0
 10
5.5056373467
 20
5.3047690335
 30
0.0
 10
5.5010436311
 20
5.3050864536
 30
0.0
 10
5.4955579552
 20
5.3058438507
 30
0.0
 10
5.490112002
 20
5.3069665436
 30
0.0
 10
5.4847217533
 20
5.3084431222
 30
0.0
 10
5.4811862635
 20
5.309652329
 30
0.0
 10
5.4794335662
 20
5.3103113634
 30
0.0
 11
5.6066275569
 21
5.4081930279
 31
0.0
 11
5.6064223914
 21
5.4017464295
 31
0.0
 11
5.6058173403
 21
5.3954082926
 31
0.0
 11
5.6048280719
 21
5.3891897508
 31
0.0
 11
5.6034702545
 21
5.3831019376
 31
0.0
 11
5.6017595563
 21
5.3771559868
 31
0.0
 11
5.5997116456
 21
5.3713630319
 31
0.0
 11
5.5946668595
 21
5.3602806441
 31
0.0
 11
5.5884612423
 21
5.349943843
 31
0.0
 11
5.58122014
 21
5.3404416975
 31
0.0
 11
5.5730688988
 21
5.3318632762
 31
0.0
 11
5.5641328645
 21
5.324297648
 31
0.0
 11
5.5545373832
 21
5.3178338816
 31
0.0
 11
5.5444078011
 21
5.3125610459
 31
0.0
 11
5.533869464
 21
5.3085682096
 31
0.0
 11
5.528486183
 21
5.3070796252
 31
0.0
 11
5.523047718
 21
5.3059444415
 31
0.0
 11
5.5175697374
 21
5.305173792
 31
0.0
 11
5.5120679092
 21
5.3047788103
 31
0.0
 11
5.5093129487
 21
5.3047256741
 31
0.0
 11
5.5065579019
 21
5.3047702248
 31
0.0
 11
5.5010553836
 21
5.3051484032
 31
0.0
 11
5.4955760227
 21
5.3059027399
 31
0.0
 11
5.4901354873
 21
5.3070221012
 31
0.0
 11
5.4847494457
 21
5.3084953536
 31
0.0
 11
5.4794335662
 21
5.3103113634
 31
0.0
  0
SPLINE
  5
431
100
AcDbEntity
  8
0
100
AcDbSpline
 62
9
  6
CONTINUOUS
 70
0
 71
3
 72
15
 73
11
 74
9
 42
0.0000001
 43
0.0000001
 44
0.0000000001
 12
0.007150267
 22
-0.0324273597
 32
0.0
 13
-0.0155156633
 23
-0.0293585451
 33
0.0
 40
0.0
 40
0.0
 40
0.0
 40
0.0
 40
0.1535122262
 40
0.2962948718
 40
0.4297682141
 40
0.5552817252
 40
0.6740792242
 40
0.7872473674
 40
0.895667173
 40
1.0
 40
1.0
 40
1.0
 40
1.0
 10
5.4267071964
 20
5.2812007869
 30
0.0
 10
5.4270730809
 20
5.2795414549
 30
0.0
 10
5.4276593936
 20
5.2763104153
 30
0.0
 10
5.4281164218
 20
5.2715697813
 30
0.0
 10
5.428152596
 20
5.267116798
 30
0.0
 10
5.4278043339
 20
5.2629437224
 30
0.0
 10
5.4271080015
 20
5.2590427678
 30
0.0
 10
5.4261031281
 20
5.2554060519
 30
0.0
 10
5.4248317974
 20
5.2520251601
 30
0.0
 10
5.4238158264
 20
5.2498971805
 30
0.0
 10
5.4232762287
 20
5.2488761605
 30
0.0
 11
5.4267071964
 21
5.2812007869
 31
0.0
 11
5.4276078197
 21
5.2761834005
 31
0.0
 11
5.428054488
 21
5.2714632005
 31
0.0
 11
5.4280837069
 21
5.2670311377
 31
0.0
 11
5.4277319816
 21
5.2628781629
 31
0.0
 11
5.4270359363
 21
5.258995227
 31
0.0
 11
5.426034286
 21
5.2553732808
 31
0.0
 11
5.4247675309
 21
5.252003275
 31
0.0
 11
5.4232762287
 21
5.2488761605
 31
0.0
  0
SPLINE
  5
432
100
AcDbEntity
  8
0
100
AcDbSpline
 62
9
  6
CONTINUOUS
 70
0
 71
3
 72
35
 73
31
 74
29
 42
0.0000001
 43
0.0000001
 44
0.0000000001
 12
0.0004421207
 22
0.1909439037
 32
0.0
 13
0.1741723677
 23
0.0782544322
 33
0.0
 40
0.0
 40
0.0
 40
0.0
 40
0.0
 40
0.0325488833
 40
0.0651335995
 40
0.0977282426
 40
0.1302840979
 40
0.1628016301
 40
0.1952900701
 40
0.2277423002
 40
0.2601438591
 40
0.2924937302
 40
0.3247895843
 40
0.35702363
 40
0.3891835533
 40
0.4212607384
 40
0.4532504256
 40
0.5169361309
 40
0.5801786019
 40
0.6428889533
 40
0.674020366
 40
0.704985306
 40
0.7357620238
 40
0.7663284864
 40
0.7966656442
 40
0.8267558685
 40
0.8860505937
 40
0.9151971461
 40
0.9439582363
 40
0.9722522101
 40
1.0
 40
1.0
 40
1.0
 40
1.0
 10
6.319540108
 20
5.4081930386
 30
0.0
 10
6.3195449049
 20
5.4102647089
 30
0.0
 10
6.3197008294
 20
5.4144111343
 30
0.0
 10
6.3203290121
 20
5.4206030649
 30
0.0
 10
6.3213078675
 20
5.4267492921
 30
0.0
 10
6.3225946713
 20
5.4328334735
 30
0.0
 10
6.3241604218
 20
5.4388445778
 30
0.0
 10
6.3259779985
 20
5.4447771204
 30
0.0
 10
6.3280203479
 20
5.4506279259
 30
0.0
 10
6.3302621509
 20
5.4563955766
 30
0.0
 10
6.3326900046
 20
5.4620764781
 30
0.0
 10
6.3352903104
 20
5.467668655
 30
0.0
 10
6.3380499772
 20
5.4731702884
 30
0.0
 10
6.3409553624
 20
5.4785804774
 30
0.0
 10
6.3439976176
 20
5.4838969957
 30
0.0
 10
6.3482217747
 20
5.4908457961
 30
0.0
 10
6.353810358
 20
5.4992822628
 30
0.0
 10
6.3609715942
 20
5.5090043576
 30
0.0
 10
6.3673052816
 20
5.5167467905
 30
0.0
 10
6.3725743809
 20
5.5226924979
 30
0.0
 10
6.3766123291
 20
5.5270106244
 30
0.0
 10
6.3807438403
 20
5.5311889501
 30
0.0
 10
6.3849664392
 20
5.5352175916
 30
0.0
 10
6.3892776367
 20
5.539086471
 30
0.0
 10
6.3951091812
 20
5.5439927334
 30
0.0
 10
6.4011269963
 20
5.5485561483
 30
0.0
 10
6.4073281556
 20
5.552705671
 30
0.0
 10
6.4120143811
 20
5.5555626495
 30
0.0
 10
6.4167492565
 20
5.5581579043
 30
0.0
 10
6.4199619205
 20
5.5597124178
 30
0.0
 10
6.4215728866
 20
5.5604362137
 30
0.0
 11
6.319540108
 21
5.4081930386
 31
0.0
 11
6.3197663575
 21
5.4144039466
 31
0.0
 11
6.3203873887
 21
5.4205947447
 31
0.0
 11
6.3213597845
 21
5.4267420773
 31
0.0
 11
6.3226419787
 21
5.4328247654
 31
0.0
 11
6.3242031967
 21
5.4388343237
 31
0.0
 11
6.3260165653
 21
5.4447668556
 31
0.0
 11
6.3280552174
 21
5.4506184711
 31
0.0
 11
6.3302950291
 21
5.4563857005
 31
0.0
 11
6.3327208727
 21
5.4620664529
 31
0.0
 11
6.3353194616
 21
5.4676589197
 31
0.0
 11
6.3380775092
 21
5.4731612922
 31
0.0
 11
6.3409819866
 21
5.4785717374
 31
0.0
 11
6.3440236664
 21
5.4838880624
 31
0.0
 11
6.3471962173
 21
5.4891078003
 31
0.0
 11
6.3539088999
 21
5.4992476201
 31
0.0
 11
6.3610729098
 21
5.5089688252
 31
0.0
 11
6.3686580831
 21
5.5182341587
 31
0.0
 11
6.3726010754
 21
5.5226825674
 31
0.0
 11
6.3766403859
 21
5.5270002752
 31
0.0
 11
6.3807733245
 21
5.531178043
 31
0.0
 11
6.384997268
 21
5.535205819
 31
0.0
 11
6.3893095928
 21
5.5390735514
 31
0.0
 11
6.3937075333
 21
5.5427707912
 31
0.0
 11
6.4027426881
 21
5.54959381
 31
0.0
 11
6.4073698765
 21
5.5526861371
 31
0.0
 11
6.412061093
 21
5.5555413114
 31
0.0
 11
6.4168010698
 21
5.5581336946
 31
0.0
 11
6.4215728866
 21
5.5604362137
 31
0.0
  0
LINE
  5
433
100
AcDbEntity
  8
0
100
AcDbLine
 62
9
  6
CONTINUOUS
 10
6.319540108
 20
5.4081930386
 11
6.2084782419
 21
5.4080351872
  0
SPLINE
  5
434
100
AcDbEntity
  8
0
100
AcDbSpline
 62
9
  6
CONTINUOUS
 70
0
 71
3
 72
22
 73
18
 74
16
 42
0.0000001
 43
0.0000001
 44
0.0000000001
 12
0.0214782284
 22
-0.0219708651
 32
0.0
 13
-0.0052267218
 23
-0.0302772949
 33
0.0
 40
0.0
 40
0.0
 40
0.0
 40
0.0
 40
0.1021944443
 40
0.1975571336
 40
0.2863910122
 40
0.369005317
 40
0.4457164866
 40
0.5168491485
 40
0.5827371527
 40
0.6437270867
 40
0.7001829106
 40
0.7524773137
 40
0.8009887525
 40
0.8460992144
 40
0.9275693651
 40
0.9647423023
 40
1.0
 40
1.0
 40
1.0
 40
1.0
 10
5.3633912592
 20
5.1401419255
 30
0.0
 10
5.3641229111
 20
5.139393492
 30
0.0
 10
5.3655186219
 20
5.1379281982
 30
0.0
 10
5.3674786646
 20
5.1357455153
 30
0.0
 10
5.3692383833
 20
5.1336542633
 30
0.0
 10
5.3708053746
 20
5.1316524909
 30
0.0
 10
5.3721872525
 20
5.1297382154
 30
0.0
 10
5.3733916165
 20
5.1279094546
 30
0.0
 10
5.374426064
 20
5.1261641864
 30
0.0
 10
5.3752982188
 20
5.1245003311
 30
0.0
 10
5.3760163573
 20
5.1229160133
 30
0.0
 10
5.3765887818
 20
5.121409373
 30
0.0
 10
5.3770238051
 20
5.1199781813
 30
0.0
 10
5.3774183818
 20
5.1182278791
 30
0.0
 10
5.377599196
 20
5.11655113
 30
0.0
 10
5.3775551643
 20
5.1149737941
 30
0.0
 10
5.377465395
 20
5.1142360423
 30
0.0
 10
5.3774039676
 20
5.1138802064
 30
0.0
 11
5.3633912592
 21
5.1401419255
 31
0.0
 11
5.3655552091
 21
5.1378667278
 31
0.0
 11
5.3675110756
 21
5.1356850623
 31
0.0
 11
5.3692664734
 21
5.133594996
 31
0.0
 11
5.3708290173
 21
5.1315945961
 31
0.0
 11
5.3722063221
 21
5.1296819297
 31
0.0
 11
5.3734060025
 21
5.127855064
 31
0.0
 11
5.3744356735
 21
5.126112066
 31
0.0
 11
5.3753031166
 21
5.1244510028
 31
0.0
 11
5.3760166465
 21
5.1228699416
 31
0.0
 11
5.3765846841
 21
5.1213669495
 31
0.0
 11
5.3770156504
 21
5.1199400936
 31
0.0
 11
5.3773179664
 21
5.1185874411
 31
0.0
 11
5.3775703298
 21
5.1160970144
 31
0.0
 11
5.3775364298
 21
5.1149553745
 31
0.0
 11
5.3774039676
 21
5.1138802064
 31
0.0
  0
SPLINE
  5
435
100
AcDbEntity
  8
0
100
AcDbSpline
 62
9
  6
CONTINUOUS
 70
0
 71
3
 72
26
 73
22
 74
20
 42
0.0000001
 43
0.0000001
 44
0.0000000001
 12
-0.0373932093
 22
-0.1287936317
 32
0.0
 13
-0.1336656949
 23
-0.0109331453
 33
0.0
 40
0.0
 40
0.0
 40
0.0
 40
0.0
 40
0.0692681426
 40
0.1394435098
 40
0.2100098666
 40
0.2805020684
 40
0.3505328263
 40
0.4197243092
 40
0.4877009922
 40
0.5540937652
 40
0.6185624846
 40
0.6808247304
 40
0.7406359841
 40
0.7978256514
 40
0.8254189932
 40
0.8523351071
 40
0.8785760902
 40
0.9041485612
 40
0.9290621458
 40
0.9533311963
 40
1.0
 40
1.0
 40
1.0
 40
1.0
 10
5.632109584
 20
5.6539521344
 30
0.0
 10
5.631246198
 20
5.6509783692
 30
0.0
 10
5.6293293392
 20
5.6450423864
 30
0.0
 10
5.6259416918
 20
5.6362816174
 30
0.0
 10
5.6220469148
 20
5.6276737161
 30
0.0
 10
5.6176789669
 20
5.6193034172
 30
0.0
 10
5.612881125
 20
5.6112432361
 30
0.0
 10
5.6076922955
 20
5.6035641166
 30
0.0
 10
5.6021596512
 20
5.5963323612
 30
0.0
 10
5.5963333403
 20
5.5896114215
 30
0.0
 10
5.5902614996
 20
5.5834649448
 30
0.0
 10
5.5840017771
 20
5.5779443543
 30
0.0
 10
5.5776087496
 20
5.5730993755
 30
0.0
 10
5.5721503075
 20
5.5696208765
 30
0.0
 10
5.5677668723
 20
5.5672261585
 30
0.0
 10
5.5645201189
 20
5.5656449993
 30
0.0
 10
5.561282145
 20
5.5642617628
 30
0.0
 10
5.5580604675
 20
5.5630800381
 30
0.0
 10
5.5548630448
 20
5.5621014176
 30
0.0
 10
5.5506993571
 20
5.5610836692
 30
0.0
 10
5.5475528277
 20
5.5606066877
 30
0.0
 10
5.5454734883
 20
5.5604366088
 30
0.0
 11
5.632109584
 21
5.6539521344
 31
0.0
 11
5.6292597659
 21
5.6451103601
 31
0.0
 11
5.6258672652
 21
5.6363317083
 31
0.0
 11
5.6219659704
 21
5.6277094444
 31
0.0
 11
5.6175921331
 21
5.6193282187
 31
0.0
 11
5.612785667
 21
5.6112593276
 31
0.0
 11
5.6075873031
 21
5.6035726807
 31
0.0
 11
5.6020436121
 21
5.5963354184
 31
0.0
 11
5.5962049318
 21
5.589612894
 31
0.0
 11
5.5901227178
 21
5.5834679298
 31
0.0
 11
5.5838526451
 21
5.5779533413
 31
0.0
 11
5.5774514372
 21
5.573119338
 31
0.0
 11
5.5709754424
 21
5.5690098713
 31
0.0
 11
5.5677268302
 21
5.5672375948
 31
0.0
 11
5.5644804277
 21
5.5656591923
 31
0.0
 11
5.5612432078
 21
5.5642788269
 31
0.0
 11
5.5580226575
 21
5.5630998203
 31
0.0
 11
5.5548270592
 21
5.5621241898
 31
0.0
 11
5.5516647642
 21
5.5613538409
 31
0.0
 11
5.5454734883
 21
5.5604366088
 31
0.0
  0
SPLINE
  5
436
100
AcDbEntity
  8
0
100
AcDbSpline
 62
9
  6
CONTINUOUS
 70
0
 71
3
 72
12
 73
8
 74
6
 42
0.0000001
 43
0.0000001
 44
0.0000000001
 12
-0.023820831
 22
0.0107048824
 32
0.0
 13
-0.026115637
 23
0.0000000298
 33
0.0
 40
0.0
 40
0.0
 40
0.0
 40
0.0
 40
0.2658477994
 40
0.522146438
 40
0.646241597
 40
0.7673524163
 40
1.0
 40
1.0
 40
1.0
 40
1.0
 10
5.5454734883
 20
5.5604366088
 30
0.0
 10
5.5433625832
 20
5.5613852319
 30
0.0
 10
5.539145772
 20
5.5630965256
 30
0.0
 10
5.5337602424
 20
5.5647536018
 30
0.0
 10
5.5294982901
 20
5.5657100649
 30
0.0
 10
5.5253936475
 20
5.5663922755
 30
0.0
 10
5.5223106383
 20
5.5666217602
 30
0.0
 10
5.5202853917
 20
5.5666217625
 30
0.0
 11
5.5454734883
 21
5.5604366088
 31
0.0
 11
5.5390337729
 21
5.5630312809
 31
0.0
 11
5.5326300652
 21
5.5649791415
 31
0.0
 11
5.5294671868
 21
5.5656856407
 31
0.0
 11
5.5263465266
 21
5.5662007418
 31
0.0
 11
5.5202853917
 21
5.5666217625
 31
0.0
  0
SPLINE
  5
437
100
AcDbEntity
  8
0
100
AcDbSpline
 62
9
  6
CONTINUOUS
 70
0
 71
3
 72
23
 73
19
 74
17
 42
0.0000001
 43
0.0000001
 44
0.0000000001
 12
0.0000001425
 22
-0.1293521476
 32
0.0
 13
-0.1285241644
 23
-0.0146122292
 33
0.0
 40
0.0
 40
0.0
 40
0.0
 40
0.0
 40
0.0718715116
 40
0.1435674492
 40
0.2146667263
 40
0.2848113306
 40
0.4211865766
 40
0.4870968462
 40
0.5512268673
 40
0.6134496142
 40
0.6737135214
 40
0.7320267181
 40
0.7884638488
 40
0.8432041675
 40
0.8700259552
 40
0.8965239834
 40
0.9486790931
 40
1.0
 40
1.0
 40
1.0
 40
1.0
 10
5.5893109484
 20
5.6665933866
 30
0.0
 10
5.5893109518
 20
5.6634944752
 30
0.0
 10
5.5891055146
 20
5.6573022826
 30
0.0
 10
5.5881915569
 20
5.6480854305
 30
0.0
 10
5.5866772694
 20
5.6390218352
 30
0.0
 10
5.583896517
 20
5.6273726379
 30
0.0
 10
5.5799791113
 20
5.6162448877
 30
0.0
 10
5.5749324335
 20
5.60591499
 30
0.0
 10
5.5707034909
 20
5.5987734212
 30
0.0
 10
5.5660193901
 20
5.5922181347
 30
0.0
 10
5.5609223007
 20
5.586304718
 30
0.0
 10
5.5554576221
 20
5.5810821993
 30
0.0
 10
5.5496676107
 20
5.5766009255
 30
0.0
 10
5.5445770737
 20
5.573492986
 30
0.0
 10
5.5403990061
 20
5.571425204
 30
0.0
 10
5.5362063632
 20
5.5696569534
 30
0.0
 10
5.5308492033
 20
5.5679607082
 30
0.0
 10
5.5264446803
 20
5.5671636843
 30
0.0
 10
5.5242460214
 20
5.5669137133
 30
0.0
 11
5.5893109484
 21
5.6665933866
 31
0.0
 11
5.5890035624
 21
5.6573017354
 31
0.0
 11
5.5880862871
 21
5.6480731863
 31
0.0
 11
5.5865665075
 21
5.6390027832
 31
0.0
 11
5.5844559631
 21
5.6301783071
 31
0.0
 11
5.5785463009
 21
5.6135572152
 31
0.0
 11
5.5747967302
 21
5.6059003771
 31
0.0
 11
5.5705604905
 21
5.5987682523
 31
0.0
 11
5.5658724955
 21
5.5922258212
 31
0.0
 11
5.5607744341
 21
5.5863287085
 31
0.0
 11
5.555312009
 21
5.5811269958
 31
0.0
 11
5.5495315216
 21
5.5766683166
 31
0.0
 11
5.5434819576
 21
5.572988617
 31
0.0
 11
5.5403718374
 21
5.5714509966
 31
0.0
 11
5.5372131396
 21
5.5701202408
 31
0.0
 11
5.530779371
 21
5.5680904122
 31
0.0
 11
5.5242460214
 21
5.5669137133
 31
0.0
  0
SPLINE
  5
438
100
AcDbEntity
  8
0
100
AcDbSpline
 62
9
  6
CONTINUOUS
 70
0
 71
3
 72
23
 73
19
 74
17
 42
0.0000001
 43
0.0000001
 44
0.0000000001
 12
-0.1285247305
 22
0.0146111697
 32
0.0
 13
0.0000001534
 23
0.1293525903
 33
0.0
 40
0.0
 40
0.0
 40
0.0
 40
0.0
 40
0.0513208948
 40
0.1034759789
 40
0.1299739905
 40
0.1567957592
 40
0.2115360354
 40
0.2679731224
 40
0.3262862801
 40
0.3865501576
 40
0.4487728857
 40
0.5129029008
 40
0.5788131779
 40
0.7151884736
 40
0.785333118
 40
0.8564324428
 40
0.9281284335
 40
1.0
 40
1.0
 40
1.0
 40
1.0
 10
6.4428006838
 20
5.5669136529
 30
0.0
 10
6.4406020158
 20
5.5671636056
 30
0.0
 10
6.4361974725
 20
5.5679605957
 30
0.0
 10
6.4308402837
 20
5.569656806
 30
0.0
 10
6.4266476167
 20
5.5714250327
 30
0.0
 10
6.4224695244
 20
5.5734927934
 30
0.0
 10
6.4173789558
 20
5.5766007118
 30
0.0
 10
6.4115889062
 20
5.5810819688
 30
0.0
 10
6.40612419
 20
5.5863044788
 30
0.0
 10
6.4010270643
 20
5.5922178948
 30
0.0
 10
6.3963429288
 20
5.5987731876
 30
0.0
 10
6.3921139543
 20
5.6059147699
 30
0.0
 10
6.3870672372
 20
5.6162446948
 30
0.0
 10
6.3831498006
 20
5.6273724819
 30
0.0
 10
6.3803690264
 20
5.6390217222
 30
0.0
 10
6.3788547269
 20
5.6480853536
 30
0.0
 10
6.3779407623
 20
5.6573022437
 30
0.0
 10
6.3777353238
 20
5.6634944622
 30
0.0
 10
6.3777353275
 20
5.6665933866
 30
0.0
 11
6.4428006838
 21
5.5669136529
 31
0.0
 11
6.4362673037
 21
5.5680903017
 31
0.0
 11
6.4298335011
 21
5.5701200882
 31
0.0
 11
6.4266747852
 21
5.5714508259
 31
0.0
 11
6.4235646467
 21
5.5729884304
 31
0.0
 11
6.4175150454
 21
5.5766681046
 31
0.0
 11
6.4117345202
 21
5.5811267666
 31
0.0
 11
6.4062720579
 21
5.5863284703
 31
0.0
 11
6.4011739602
 21
5.5922255819
 31
0.0
 11
6.3964859307
 21
5.5987680191
 31
0.0
 11
6.392249659
 21
5.605900157
 31
0.0
 11
6.3885000593
 21
5.6135570145
 31
0.0
 11
6.3825903504
 21
5.6301781607
 31
0.0
 11
6.3804797893
 21
5.63900267
 31
0.0
 11
6.3789599976
 21
5.6480731093
 31
0.0
 11
6.3780427153
 21
5.6573016965
 31
0.0
 11
6.3777353275
 21
5.6665933866
 31
0.0
  0
SPLINE
  5
439
100
AcDbEntity
  8
0
100
AcDbSpline
 62
9
  6
CONTINUOUS
 70
0
 71
3
 72
13
 73
9
 74
7
 42
0.0000001
 43
0.0000001
 44
0.0000000001
 12
0.02382244
 22
0.0107058931
 32
0.0
 13
0.0261175189
 23
0.0000001604
 33
0.0
 40
0.0
 40
0.0
 40
0.0
 40
0.0
 40
0.2658212867
 40
0.3953014296
 40
0.5221777084
 40
0.6462582408
 40
0.7673652044
 40
1.0
 40
1.0
 40
1.0
 40
1.0
 10
6.4215727869
 20
5.5604366087
 30
0.0
 10
6.4236836241
 20
5.5613852268
 30
0.0
 10
6.4268771298
 20
5.5626812813
 30
0.0
 10
6.4311942041
 20
5.5641096698
 30
0.0
 10
6.4343855733
 20
5.5650004557
 30
0.0
 10
6.4375478834
 20
5.5657100001
 30
0.0
 10
6.4416524927
 20
5.5663923088
 30
0.0
 10
6.4447356021
 20
5.5666217354
 30
0.0
 10
6.4467608833
 20
5.5666217478
 30
0.0
 11
6.4215727869
 21
5.5604366087
 31
0.0
 11
6.4280123289
 21
5.5630311972
 31
0.0
 11
6.431223661
 21
5.5640910282
 31
0.0
 11
6.4344161257
 21
5.5649791354
 31
0.0
 11
6.4375788626
 21
5.5656855871
 31
0.0
 11
6.4406996436
 21
5.5662007371
 31
0.0
 11
6.4467608833
 21
5.5666217478
 31
0.0
  0
SPLINE
  5
43A
100
AcDbEntity
  8
0
100
AcDbSpline
 62
9
  6
CONTINUOUS
 70
0
 71
3
 72
26
 73
22
 74
20
 42
0.0000001
 43
0.0000001
 44
0.0000000001
 12
-0.1336656848
 22
0.0109331389
 32
0.0
 13
-0.0373931923
 23
0.1287936256
 33
0.0
 40
0.0
 40
0.0
 40
0.0
 40
0.0
 40
0.0466688
 40
0.0709378493
 40
0.0958514329
 40
0.1214239032
 40
0.1476648859
 40
0.1745809998
 40
0.2021743419
 40
0.2593640104
 40
0.3191752662
 40
0.3814375144
 40
0.4459062364
 40
0.5122990117
 40
0.5802756967
 40
0.649467181
 40
0.7194979393
 40
0.7899901405
 40
0.8605564959
 40
0.9307318607
 40
1.0
 40
1.0
 40
1.0
 40
1.0
 10
6.4215727869
 20
5.5604366087
 30
0.0
 10
6.4194934479
 20
5.5606066875
 30
0.0
 10
6.4163469189
 20
5.5610836689
 30
0.0
 10
6.4121832319
 20
5.5621014172
 30
0.0
 10
6.4089858095
 20
5.5630800377
 30
0.0
 10
6.4057641325
 20
5.5642617625
 30
0.0
 10
6.4025261589
 20
5.565644999
 30
0.0
 10
6.3992794059
 20
5.5672261583
 30
0.0
 10
6.3948959712
 20
5.5696208766
 30
0.0
 10
6.3894375298
 20
5.5730993759
 30
0.0
 10
6.3830445031
 20
5.5779443551
 30
0.0
 10
6.3767847814
 20
5.583464946
 30
0.0
 10
6.3707129416
 20
5.5896114231
 30
0.0
 10
6.3648866316
 20
5.5963323632
 30
0.0
 10
6.3593539885
 20
5.6035641188
 30
0.0
 10
6.3541651601
 20
5.6112432384
 30
0.0
 10
6.3493673193
 20
5.6193034194
 30
0.0
 10
6.3449993727
 20
5.627673718
 30
0.0
 10
6.341104597
 20
5.6362816188
 30
0.0
 10
6.3377169508
 20
5.6450423872
 30
0.0
 10
6.3358000929
 20
5.6509783695
 30
0.0
 10
6.3349367073
 20
5.6539521344
 30
0.0
 11
6.4215727869
 21
5.5604366087
 31
0.0
 11
6.4153815121
 21
5.5613538406
 31
0.0
 11
6.4122192175
 21
5.5621241895
 31
0.0
 11
6.4090236196
 21
5.5630998199
 31
0.0
 11
6.4058030696
 21
5.5642788266
 31
0.0
 11
6.4025658502
 21
5.565659192
 31
0.0
 11
6.399319448
 21
5.5672375946
 31
0.0
 11
6.3960708362
 21
5.5690098713
 31
0.0
 11
6.3895948422
 21
5.5731193384
 31
0.0
 11
6.3831936351
 21
5.5779533421
 31
0.0
 11
6.3769235632
 21
5.5834679311
 31
0.0
 11
6.3708413501
 21
5.5896128957
 31
0.0
 11
6.3650026708
 21
5.5963354204
 31
0.0
 11
6.3594589808
 21
5.603572683
 31
0.0
 11
6.3542606181
 21
5.6112593299
 31
0.0
 11
6.3494541531
 21
5.6193282209
 31
0.0
 11
6.345080317
 21
5.6277094463
 31
0.0
 11
6.3411790236
 21
5.6363317098
 31
0.0
 11
6.3377865241
 21
5.645110361
 31
0.0
 11
6.3349367073
 21
5.6539521344
 31
0.0
  0
SPLINE
  5
43B
100
AcDbEntity
  8
0
100
AcDbSpline
 62
9
  6
CONTINUOUS
 70
0
 71
3
 72
11
 73
7
 74
5
 42
0.0000001
 43
0.0000001
 44
0.0000000001
 12
-0.0261724579
 22
-0.0785506077
 32
0.0
 13
-0.0487187543
 23
-0.0669453397
 33
0.0
 40
0.0
 40
0.0
 40
0.0
 40
0.0
 40
0.2536994214
 40
0.4427156241
 40
0.630319687
 40
1.0
 40
1.0
 40
1.0
 40
1.0
 10
5.3132952762
 20
4.9131987945
 30
0.0
 10
5.3110819637
 20
4.9065560466
 30
0.0
 10
5.3067777608
 20
4.8951055317
 30
0.0
 10
5.2995894755
 20
4.8792543109
 30
0.0
 10
5.2900272573
 20
4.8610033007
 30
0.0
 10
5.2817240551
 20
4.8480015754
 30
0.0
 10
5.2757206003
 20
4.8397521173
 30
0.0
 11
5.3132952762
 21
4.9131987945
 31
0.0
 11
5.3059043707
 21
4.8935366943
 31
0.0
 11
5.2994397447
 21
4.8792845002
 31
0.0
 11
5.2922283908
 21
4.8655270684
 31
0.0
 11
5.2757206003
 21
4.8397521173
 31
0.0
  0
SPLINE
  5
43C
100
AcDbEntity
  8
0
100
AcDbSpline
 62
9
  6
CONTINUOUS
 70
0
 71
3
 72
9
 73
5
 74
3
 42
0.0000001
 43
0.0000001
 44
0.0000000001
 12
-0.0285520698
 22
-0.0379200405
 32
0.0
 13
-0.0360675833
 23
-0.0308590277
 33
0.0
 40
0.0
 40
0.0
 40
0.0
 40
0.0
 40
0.5057672305
 40
1.0
 40
1.0
 40
1.0
 40
1.0
 10
5.2734690784
 20
4.8367105552
 30
0.0
 10
5.2686555114
 20
4.8303176506
 30
0.0
 10
5.2584716006
 20
4.8181647844
 30
0.0
 10
5.2470325604
 20
4.8071800772
 30
0.0
 10
5.2410906332
 20
4.8020962296
 30
0.0
 11
5.2734690784
 21
4.8367105552
 31
0.0
 11
5.258033072
 21
4.8183234233
 31
0.0
 11
5.2410906332
 21
4.8020962296
 31
0.0
  0
SPLINE
  5
43D
100
AcDbEntity
  8
0
100
AcDbSpline
 62
9
  6
CONTINUOUS
 70
0
 71
3
 72
15
 73
11
 74
9
 42
0.0000001
 43
0.0000001
 44
0.0000000001
 12
-0.0742756678
 22
-0.0635494447
 32
0.0
 13
-0.0977482527
 23
-0.0008281525
 33
0.0
 40
0.0
 40
0.0
 40
0.0
 40
0.0
 40
0.1337371487
 40
0.2648379548
 40
0.393339955
 40
0.5192921596
 40
0.6427723788
 40
0.7639062019
 40
0.8828875014
 40
1.0
 40
1.0
 40
1.0
 40
1.0
 10
5.2410906332
 20
4.8020962296
 30
0.0
 10
5.2377794946
 20
4.7992632557
 30
0.0
 10
5.2310032652
 20
4.7939031956
 30
0.0
 10
5.2203446216
 20
4.7867624947
 30
0.0
 10
5.209365849
 20
4.7806266934
 30
0.0
 10
5.1981423115
 20
4.7755237804
 30
0.0
 10
5.1867483932
 20
4.7714811955
 30
0.0
 10
5.1752580228
 20
4.768526968
 30
0.0
 10
5.163747136
 20
4.7666895469
 30
0.0
 10
5.1560528639
 20
4.7662253569
 30
0.0
 10
5.1522370165
 20
4.7661930279
 30
0.0
 11
5.2410906332
 21
4.8020962296
 31
0.0
 11
5.2308337351
 21
4.7939906474
 31
0.0
 11
5.2201830033
 21
4.7868636065
 31
0.0
 11
5.209213954
 21
4.7807426478
 31
0.0
 11
5.1980021036
 21
4.7756553126
 31
0.0
 11
5.1866229683
 21
4.7716291418
 31
0.0
 11
5.1751520645
 21
4.7686916767
 31
0.0
 11
5.1636649085
 21
4.7668704584
 31
0.0
 11
5.1522370165
 21
4.7661930279
 31
0.0
  0
SPLINE
  5
43E
100
AcDbEntity
  8
0
100
AcDbSpline
 62
9
  6
CONTINUOUS
 70
0
 71
3
 72
19
 73
15
 74
13
 42
0.0000001
 43
0.0000001
 44
0.0000000001
 12
-0.2449246141
 22
0.0086404227
 32
0.0
 13
-0.2450357443
 23
0.0044952756
 33
0.0
 40
0.0
 40
0.0
 40
0.0
 40
0.0
 40
0.0483271048
 40
0.1026242871
 40
0.2271890032
 40
0.3676283076
 40
0.4412015053
 40
0.5154924577
 40
0.6612487791
 40
0.7303373285
 40
0.795546788
 40
0.8559137204
 40
0.9105602271
 40
1.0
 40
1.0
 40
1.0
 40
1.0
 10
5.3132952762
 20
4.9131987945
 30
0.0
 10
5.309349777
 20
4.9133379834
 30
0.0
 10
5.3009714574
 20
4.9136359598
 30
0.0
 10
5.2824236061
 20
4.9142961739
 30
0.0
 10
5.2563552285
 20
4.9152120104
 30
0.0
 10
5.2287116763
 20
4.9161417573
 30
0.0
 10
5.2051713044
 20
4.916887709
 30
0.0
 10
5.1811957334
 20
4.9176131636
 30
0.0
 10
5.1575848741
 20
4.9182781273
 30
0.0
 10
5.1347141508
 20
4.9188667598
 30
0.0
 10
5.1188161998
 20
4.919252792
 30
0.0
 10
5.1040972122
 20
4.9195892652
 30
0.0
 10
5.0873987879
 20
4.9199472763
 30
0.0
 10
5.0756302992
 20
4.9201783873
 30
0.0
 10
5.0683249854
 20
4.9203124061
 30
0.0
 11
5.3132952762
 21
4.9131987945
 31
0.0
 11
5.3014588608
 21
4.913618681
 31
0.0
 11
5.2881602691
 21
4.9140913532
 31
0.0
 11
5.2576510116
 21
4.9151593224
 31
0.0
 11
5.223251837
 21
4.9163107527
 31
0.0
 11
5.2052297782
 21
4.9168815811
 31
0.0
 11
5.1870311074
 21
4.9174323063
 31
0.0
 11
5.151323661
 21
4.918434873
 31
0.0
 11
5.1343972581
 21
4.918870691
 31
0.0
 11
5.1184206263
 21
4.9192584644
 31
0.0
 11
5.1036299382
 21
4.9195962723
 31
0.0
 11
5.0902404139
 21
4.9198833025
 31
0.0
 11
5.0683249854
 21
4.9203124061
 31
0.0
  0
SPLINE
  5
43F
100
AcDbEntity
  8
0
100
AcDbSpline
 62
9
  6
CONTINUOUS
 70
0
 71
3
 72
11
 73
7
 74
5
 42
0.0000001
 43
0.0000001
 44
0.0000000001
 12
0.0146699076
 22
-0.0753253328
 32
0.0
 13
0.0175813934
 23
-0.0746994415
 33
0.0
 40
0.0
 40
0.0
 40
0.0
 40
0.0
 40
0.2532897066
 40
0.5053988597
 40
0.7548055163
 40
1.0
 40
1.0
 40
1.0
 40
1.0
 10
5.0523902883
 20
4.9953757995
 30
0.0
 10
5.0536288671
 20
4.989016089
 30
0.0
 10
5.0561403603
 20
4.9763340638
 30
0.0
 10
5.0600394378
 20
4.9574235427
 30
0.0
 10
5.0640743876
 20
4.9387532753
 30
0.0
 10
5.0668880319
 20
4.9264177031
 30
0.0
 10
5.0683249854
 20
4.9203124061
 30
0.0
 11
5.0523902883
 21
4.9953757995
 31
0.0
 11
5.0561711508
 21
4.976309467
 31
0.0
 11
5.060083556
 21
4.9573621901
 31
0.0
 11
5.0641330017
 21
4.9386558696
 31
0.0
 11
5.0683249854
 21
4.9203124061
 31
0.0
  0
SPLINE
  5
440
100
AcDbEntity
  8
0
100
AcDbSpline
 62
9
  6
CONTINUOUS
 70
0
 71
3
 72
12
 73
8
 74
6
 42
0.0000001
 43
0.0000001
 44
0.0000000001
 12
-0.0549249042
 22
0.0010076186
 32
0.0
 13
-0.054934146
 23
0.0
 33
0.0
 40
0.0
 40
0.0
 40
0.0
 40
0.0
 40
0.3104350958
 40
0.4434196994
 40
0.5658541993
 40
0.7901166503
 40
1.0
 40
1.0
 40
1.0
 40
1.0
 10
5.0683249854
 20
4.9203124061
 30
0.0
 10
5.0626414461
 20
4.9204166728
 30
0.0
 10
5.0545229437
 20
4.9205532472
 30
0.0
 10
5.0441623624
 20
4.9206969547
 30
0.0
 10
5.0353793705
 20
4.9208031502
 30
0.0
 10
5.0251880989
 20
4.9209049004
 30
0.0
 10
5.0172382763
 20
4.9209376475
 30
0.0
 10
5.0133950221
 20
4.9209376475
 30
0.0
 11
5.0683249854
 21
4.9203124061
 31
0.0
 11
5.0512738594
 21
4.9205961584
 31
0.0
 11
5.043969165
 21
4.9206973784
 31
0.0
 11
5.0372438249
 21
4.9207789389
 31
0.0
 11
5.0249247062
 21
4.9208950892
 31
0.0
 11
5.0133950221
 21
4.9209376475
 31
0.0
  0
SPLINE
  5
441
100
AcDbEntity
  8
0
100
AcDbSpline
 62
9
  6
CONTINUOUS
 70
0
 71
3
 72
11
 73
7
 74
5
 42
0.0000001
 43
0.0000001
 44
0.0000000001
 12
0.0
 22
-0.0756344071
 32
0.0
 13
0.0164301359
 23
-0.0738282749
 33
0.0
 40
0.0
 40
0.0
 40
0.0
 40
0.0
 40
0.2518047309
 40
0.5028810236
 40
0.7525135779
 40
1.0
 40
1.0
 40
1.0
 40
1.0
 10
5.0052409059
 20
4.9959899739
 30
0.0
 10
5.0052409059
 20
4.9896416067
 30
0.0
 10
5.0055847618
 20
4.9769606195
 30
0.0
 10
5.0071211456
 20
4.9580420327
 30
0.0
 10
5.009665877
 20
4.9393422871
 30
0.0
 10
5.0120396103
 20
4.927028146
 30
0.0
 10
5.0133950221
 20
4.9209376475
 30
0.0
 11
5.0052409059
 21
4.9959899739
 31
0.0
 11
5.00575647
 21
4.976951852
 31
0.0
 11
5.0072952532
 21
4.9580242928
 31
0.0
 11
5.0098453918
 21
4.9393164926
 31
0.0
 11
5.0133950221
 21
4.9209376475
 31
0.0
  0
SPLINE
  5
442
100
AcDbEntity
  8
0
100
AcDbSpline
 62
9
  6
CONTINUOUS
 70
0
 71
3
 72
14
 73
10
 74
8
 42
0.0000001
 43
0.0000001
 44
0.0000000001
 12
-0.0323853681
 22
0.0
 32
0.0
 13
-0.0323244998
 23
-0.001984635
 33
0.0
 40
0.0
 40
0.0
 40
0.0
 40
0.0
 40
0.3149695262
 40
0.4500755024
 40
0.5752627879
 40
0.6934706543
 40
0.8043984743
 40
0.9069405101
 40
1.0
 40
1.0
 40
1.0
 40
1.0
 10
5.0133950221
 20
4.9209376475
 30
0.0
 10
5.0099948875
 20
4.9209376475
 30
0.0
 10
5.0051362068
 20
4.9209204975
 30
0.0
 10
4.9989265496
 20
4.9208501524
 30
0.0
 10
4.994841115
 20
4.9207833205
 30
0.0
 10
4.9910169734
 20
4.9207034279
 30
0.0
 10
4.9874377917
 20
4.9206046664
 30
0.0
 10
4.9841310084
 20
4.9204814277
 30
0.0
 10
4.9820220802
 20
4.9203739691
 30
0.0
 10
4.9810193797
 20
4.9203124061
 30
0.0
 11
5.0133950221
 21
4.9209376475
 31
0.0
 11
5.0031947069
 21
4.9208950892
 31
0.0
 11
4.9988195353
 21
4.9208451326
 31
0.0
 11
4.9947658394
 21
4.9207789389
 31
0.0
 11
4.9909385031
 21
4.9206973784
 31
0.0
 11
4.987347491
 21
4.9205961584
 31
0.0
 11
4.9840290383
 21
4.9204696954
 31
0.0
 11
4.9810193797
 21
4.9203124061
 31
0.0
  0
SPLINE
  5
443
100
AcDbEntity
  8
0
100
AcDbSpline
 62
9
  6
CONTINUOUS
 70
0
 71
3
 72
12
 73
8
 74
6
 42
0.0000001
 43
0.0000001
 44
0.0000000001
 12
-0.0062644182
 22
-0.0752033415
 32
0.0
 13
0.0158178123
 23
-0.073787413
 33
0.0
 40
0.0
 40
0.0
 40
0.0
 40
0.0
 40
0.2529344546
 40
0.3787748564
 40
0.5041351959
 40
0.7532312562
 40
1.0
 40
1.0
 40
1.0
 40
1.0
 10
4.9763718479
 20
4.9953757995
 30
0.0
 10
4.9758436855
 20
4.9890352941
 30
0.0
 10
4.9753948099
 20
4.9795069734
 30
0.0
 10
4.9754874322
 20
4.9668240142
 30
0.0
 10
4.9760365152
 20
4.9542486597
 30
0.0
 10
4.9775718254
 20
4.9386830498
 30
0.0
 10
4.9797182658
 20
4.9263818818
 30
0.0
 10
4.9810193797
 20
4.9203124061
 30
0.0
 11
4.9763718479
 21
4.9953757995
 31
0.0
 11
4.9754753869
 21
4.976309467
 31
0.0
 11
4.9755451261
 21
4.9668133278
 31
0.0
 11
4.9759583737
 21
4.9573621901
 31
0.0
 11
4.9778099806
 21
4.9386558696
 31
0.0
 11
4.9810193797
 21
4.9203124061
 31
0.0
  0
SPLINE
  5
444
100
AcDbEntity
  8
0
100
AcDbSpline
 62
9
  6
CONTINUOUS
 70
0
 71
3
 72
25
 73
21
 74
19
 42
0.0000001
 43
0.0000001
 44
0.0000000001
 12
-0.0113389235
 22
-0.0006961786
 32
0.0
 13
0.0027427001
 23
-0.0110242209
 33
0.0
 40
0.0
 40
0.0
 40
0.0
 40
0.0
 40
0.1732302608
 40
0.3477417371
 40
0.4329756324
 40
0.515530588
 40
0.594412736
 40
0.6686335461
 40
0.7372128396
 40
0.7992059898
 40
0.8537991179
 40
0.9002525822
 40
0.9202212767
 40
0.9379242652
 40
0.9533162014
 40
0.9663888683
 40
0.9772059359
 40
0.9859800637
 40
0.9932340683
 40
1.0
 40
1.0
 40
1.0
 40
1.0
 10
4.9810193797
 20
4.9203124061
 30
0.0
 10
4.9803646315
 20
4.9202722063
 30
0.0
 10
4.9790506163
 20
4.9201861137
 30
0.0
 10
4.9774157426
 20
4.9200613757
 30
0.0
 10
4.9761244841
 20
4.9199480395
 30
0.0
 10
4.9751947508
 20
4.9198578302
 30
0.0
 10
4.9743075396
 20
4.919761717
 30
0.0
 10
4.9734742733
 20
4.9196596656
 30
0.0
 10
4.9727062764
 20
4.9195516759
 30
0.0
 10
4.9720143263
 20
4.919437703
 30
0.0
 10
4.9714085426
 20
4.9193179944
 30
0.0
 10
4.9709630798
 20
4.919209212
 30
0.0
 10
4.9706581554
 20
4.9191167118
 30
0.0
 10
4.9704686951
 20
4.9190494889
 30
0.0
 10
4.9703077139
 20
4.9189809287
 30
0.0
 10
4.9701761272
 20
4.9189110182
 30
0.0
 10
4.970074643
 20
4.9188394925
 30
0.0
 10
4.9700036263
 20
4.9187654408
 30
0.0
 10
4.9699650892
 20
4.9186857137
 30
0.0
 10
4.9699662428
 20
4.91863032
 30
0.0
 10
4.9699724285
 20
4.918605457
 30
0.0
 11
4.9810193797
 21
4.9203124061
 31
0.0
 11
4.9790556999
 21
4.9201829343
 31
0.0
 11
4.9770790619
 21
4.9200306129
 31
0.0
 11
4.9761145158
 21
4.9199456542
 31
0.0
 11
4.9751810889
 21
4.9198547079
 31
0.0
 11
4.9742902341
 21
4.9197576822
 31
0.0
 11
4.9734534043
 21
4.9196544854
 31
0.0
 11
4.9726820525
 21
4.9195450258
 31
0.0
 11
4.9719873773
 21
4.919429235
 31
0.0
 11
4.9713793172
 21
4.9193071606
 31
0.0
 11
4.9708674203
 21
4.9191788861
 31
0.0
 11
4.9706505169
 21
4.9191124499
 31
0.0
 11
4.9704612348
 21
4.9190444949
 31
0.0
 11
4.9703007677
 21
4.9189750318
 31
0.0
 11
4.9701703089
 21
4.9189040707
 31
0.0
 11
4.9700710521
 21
4.9188316223
 31
0.0
 11
4.9700041908
 21
4.9187576969
 31
0.0
 11
4.9699709184
 21
4.918682305
 31
0.0
 11
4.9699724285
 21
4.918605457
 31
0.0
  0
SPLINE
  5
445
100
AcDbEntity
  8
0
100
AcDbSpline
 62
9
  6
CONTINUOUS
 70
0
 71
3
 72
19
 73
15
 74
13
 42
0.0000001
 43
0.0000001
 44
0.0000000001
 12
-0.1853194374
 22
0.0035907787
 32
0.0
 13
-0.1853531171
 23
0.0006399438
 33
0.0
 40
0.0
 40
0.0
 40
0.0
 40
0.0
 40
0.0480282072
 40
0.1017639727
 40
0.2244650859
 40
0.3624259339
 40
0.5079212574
 40
0.6522708737
 40
0.7212853858
 40
0.7869550056
 40
0.8483963991
 40
0.9048019285
 40
0.9555390785
 40
1.0
 40
1.0
 40
1.0
 40
1.0
 10
5.2757206003
 20
4.8397521173
 30
0.0
 10
5.2727537468
 20
4.8398096036
 30
0.0
 10
5.2664675773
 20
4.8399371311
 30
0.0
 10
5.252602191
 20
4.8402318371
 30
0.0
 10
5.2331818857
 20
4.8406580445
 30
0.0
 10
5.2080932555
 20
4.8411929071
 30
0.0
 10
5.181666232
 20
4.8417003296
 30
0.0
 10
5.1594971827
 20
4.8420667448
 30
0.0
 10
5.1422588268
 20
4.842307379
 30
0.0
 10
5.1301421737
 20
4.8424564865
 30
0.0
 10
5.118804279
 20
4.8425763373
 30
0.0
 10
5.1083887435
 20
4.842666943
 30
0.0
 10
5.0990221646
 20
4.8427305155
 30
0.0
 10
5.0931404365
 20
4.8427583635
 30
0.0
 10
5.0903934464
 20
4.8427678476
 30
0.0
 11
5.2757206003
 21
4.8397521173
 31
0.0
 11
5.2668201735
 21
4.839931333
 31
0.0
 11
5.2568622504
 21
4.8401419896
 31
0.0
 11
5.2341244278
 21
4.84063512
 31
0.0
 11
5.2085584851
 21
4.8411742036
 31
0.0
 11
5.1815952387
 21
4.8416896341
 31
0.0
 11
5.154843022
 21
4.8421281705
 31
0.0
 11
5.142052136
 21
4.8423066522
 31
0.0
 11
5.1298809118
 21
4.8424560646
 31
0.0
 11
5.1184931208
 21
4.8425759222
 31
0.0
 11
5.10803851
 21
4.842666482
 31
0.0
 11
5.0986343777
 21
4.8427297183
 31
0.0
 11
5.0903934464
 21
4.8427678476
 31
0.0
  0
SPLINE
  5
446
100
AcDbEntity
  8
0
100
AcDbSpline
 62
9
  6
CONTINUOUS
 70
0
 71
3
 72
13
 73
9
 74
7
 42
0.0000001
 43
0.0000001
 44
0.0000000001
 12
0.0184793925
 22
-0.0785148403
 32
0.0
 13
0.0268068618
 23
-0.076075359
 33
0.0
 40
0.0
 40
0.0
 40
0.0
 40
0.0
 40
0.2647550334
 40
0.5208518134
 40
0.6450949134
 40
0.7665080308
 40
0.8848785775
 40
1.0
 40
1.0
 40
1.0
 40
1.0
 10
5.0683249854
 20
4.9203124061
 30
0.0
 10
5.0699558228
 20
4.9133833397
 30
0.0
 10
5.0732911564
 20
4.8997812377
 30
0.0
 10
5.077791432
 20
4.8830288604
 30
0.0
 10
5.0815474278
 20
4.87007138
 30
0.0
 10
5.0844061611
 20
4.860710291
 30
0.0
 10
5.0873353298
 20
4.8516283415
 30
0.0
 10
5.089364765
 20
4.8456871488
 30
0.0
 10
5.0903934464
 20
4.8427678476
 30
0.0
 11
5.0683249854
 21
4.9203124061
 31
0.0
 11
5.0734236507
 21
4.8995748089
 31
0.0
 11
5.0787991377
 21
4.8796296776
 31
0.0
 11
5.0815916948
 21
4.8700051487
 31
0.0
 11
5.0844546639
 21
4.8606397709
 31
0.0
 11
5.087388447
 21
4.8515538889
 31
0.0
 11
5.0903934464
 21
4.8427678476
 31
0.0
  0
LINE
  5
447
100
AcDbEntity
  8
0
100
AcDbLine
 62
9
  6
CONTINUOUS
 10
5.0903934464
 20
4.8427678476
 11
5.0423218945
 21
4.8427900421
  0
SPLINE
  5
448
100
AcDbEntity
  8
0
100
AcDbSpline
 62
9
  6
CONTINUOUS
 70
0
 71
3
 72
11
 73
7
 74
5
 42
0.0000001
 43
0.0000001
 44
0.0000000001
 12
0.0181576822
 22
-0.0815909472
 32
0.0
 13
0.0401883808
 23
-0.0732917331
 33
0.0
 40
0.0
 40
0.0
 40
0.0
 40
0.0
 40
0.257223579
 40
0.5101306951
 40
0.7579536004
 40
1.0
 40
1.0
 40
1.0
 40
1.0
 10
5.0133950221
 20
4.9209376475
 30
0.0
 10
5.0149518835
 20
4.9139419424
 30
0.0
 10
5.018496856
 20
4.9001648791
 30
0.0
 10
5.0251311281
 20
4.8800987864
 30
0.0
 10
5.032986774
 20
4.8609341889
 30
0.0
 10
5.0390794102
 20
4.8487033754
 30
0.0
 10
5.0423218945
 20
4.8427900421
 30
0.0
 11
5.0133950221
 21
4.9209376475
 31
0.0
 11
5.0187607953
 21
4.9001174206
 31
0.0
 11
5.0254085185
 21
4.8800501207
 31
0.0
 11
5.0332812116
 21
4.8608896828
 31
0.0
 11
5.0423218945
 21
4.8427900421
 31
0.0
  0
LINE
  5
449
100
AcDbEntity
  8
0
100
AcDbLine
 62
9
  6
CONTINUOUS
 10
5.0423218945
 20
4.8427900421
 11
5.0134900852
 21
4.8427678476
  0
SPLINE
  5
44A
100
AcDbEntity
  8
0
100
AcDbSpline
 62
9
  6
CONTINUOUS
 70
0
 71
3
 72
11
 73
7
 74
5
 42
0.0000001
 43
0.0000001
 44
0.0000000001
 12
0.0177193361
 22
-0.0826576991
 32
0.0
 13
0.0469235079
 23
-0.0703168152
 33
0.0
 40
0.0
 40
0.0
 40
0.0
 40
0.0
 40
0.253660027
 40
0.5048242029
 40
0.7535652806
 40
1.0
 40
1.0
 40
1.0
 40
1.0
 10
4.9810193797
 20
4.9203124061
 30
0.0
 10
4.9825176088
 20
4.9133234213
 30
0.0
 10
4.9861398484
 20
4.8995424928
 30
0.0
 10
4.9934244855
 20
4.8795651985
 30
0.0
 10
5.002459399
 20
4.8605407265
 30
0.0
 10
5.009635558
 20
4.8485440159
 30
0.0
 10
5.0134900852
 20
4.8427678476
 30
0.0
 11
4.9810193797
 21
4.9203124061
 31
0.0
 11
4.9864753347
 21
4.8995748089
 31
0.0
 11
4.9937556548
 21
4.8796296776
 31
0.0
 11
5.0027855138
 21
4.8606397709
 31
0.0
 11
5.0134900852
 21
4.8427678476
 31
0.0
  0
SPLINE
  5
44B
100
AcDbEntity
  8
0
100
AcDbSpline
 62
9
  6
CONTINUOUS
 70
0
 71
3
 72
29
 73
25
 74
23
 42
0.0000001
 43
0.0000001
 44
0.0000000001
 12
-0.0082795089
 22
-0.0000942791
 32
0.0
 13
0.0048684092
 23
-0.0066975927
 33
0.0
 40
0.0
 40
0.0
 40
0.0
 40
0.0
 40
0.1886734354
 40
0.3722580728
 40
0.460006472
 40
0.5439208526
 40
0.6231490096
 40
0.6968403435
 40
0.764146797
 40
0.8242290994
 40
0.8513202381
 40
0.8763284748
 40
0.8991685365
 40
0.9197569051
 40
0.9380128474
 40
0.9538603199
 40
0.967231807
 40
0.9780769715
 40
0.9863853355
 40
0.9896166207
 40
0.9922750426
 40
0.9962196476
 40
0.9979887933
 40
1.0
 40
1.0
 40
1.0
 40
1.0
 10
5.0134900852
 20
4.8427678476
 30
0.0
 10
5.0129693774
 20
4.8427619183
 30
0.0
 10
5.0119420409
 20
4.8427468686
 30
0.0
 10
5.010672711
 20
4.8427187118
 30
0.0
 10
5.0096926459
 20
4.842689764
 30
0.0
 10
5.0090006082
 20
4.8426653773
 30
0.0
 10
5.0083475139
 20
4.842637927
 30
0.0
 10
5.0077404471
 20
4.8426073533
 30
0.0
 10
5.0071864785
 20
4.842573608
 30
0.0
 10
5.0067612757
 20
4.8425418227
 30
0.0
 10
5.0064528836
 20
4.8425141787
 30
0.0
 10
5.0062470967
 20
4.8424933392
 30
0.0
 10
5.006059448
 20
4.8424716858
 30
0.0
 10
5.0058906752
 20
4.8424492303
 30
0.0
 10
5.0057415057
 20
4.8424260006
 30
0.0
 10
5.0056126663
 20
4.8424020141
 30
0.0
 10
5.0055048159
 20
4.842377374
 30
0.0
 10
5.0054186358
 20
4.8423520278
 30
0.0
 10
5.0053610608
 20
4.8423291372
 30
0.0
 10
5.005327074
 20
4.8423092174
 30
0.0
 10
5.0053058531
 20
4.8422926459
 30
0.0
 10
5.0052915204
 20
4.8422717797
 30
0.0
 10
5.0052937535
 20
4.8422498016
 30
0.0
 10
5.0052989679
 20
4.842240506
 30
0.0
 10
5.0053022317
 20
4.8422360159
 30
0.0
 11
5.0134900852
 21
4.8427678476
 31
0.0
 11
5.0119280324
 21
4.8427446756
 31
0.0
 11
5.0104083313
 21
4.842710327
 31
0.0
 11
5.0096820911
 21
4.8426887467
 31
0.0
 11
5.008987713
 21
4.8426641144
 31
0.0
 11
5.0083322883
 21
4.8426363443
 31
0.0
 11
5.0077229083
 21
4.8426053503
 31
0.0
 11
5.0071666646
 21
4.8425710466
 31
0.0
 11
5.0066706106
 21
4.8425333506
 31
0.0
 11
5.0064471999
 21
4.8425132194
 31
0.0
 11
5.0062411965
 21
4.8424922355
 31
0.0
 11
5.0060533444
 21
4.8424704011
 31
0.0
 11
5.0058843875
 21
4.8424477188
 31
0.0
 11
5.0057350698
 21
4.8424241909
 31
0.0
 11
5.0056061351
 21
4.8423998196
 31
0.0
 11
5.0054983274
 21
4.8423746075
 31
0.0
 11
5.0054123907
 21
4.8423485568
 31
0.0
 11
5.0053490688
 21
4.8423216699
 31
0.0
 11
5.0053261209
 21
4.8423079136
 31
0.0
 11
5.0053091057
 21
4.8422939492
 31
0.0
 11
5.0052932454
 21
4.8422653971
 31
0.0
 11
5.0052945862
 21
4.84225081
 31
0.0
 11
5.0053022317
 21
4.8422360159
 31
0.0
  0
SPLINE
  5
44C
100
AcDbEntity
  8
0
100
AcDbSpline
 62
9
  6
CONTINUOUS
 70
0
 71
3
 72
19
 73
15
 74
13
 42
0.0000001
 43
0.0000001
 44
0.0000000001
 12
-0.1819183606
 22
0.0035483898
 32
0.0
 13
-0.1819525533
 23
0.0003864314
 33
0.0
 40
0.0
 40
0.0
 40
0.0
 40
0.0
 40
0.0480604317
 40
0.101812695
 40
0.2244976039
 40
0.3623893506
 40
0.5077943829
 40
0.652069619
 40
0.7210645819
 40
0.7867315467
 40
0.8481908041
 40
0.9046379656
 40
0.955442895
 40
1.0
 40
1.0
 40
1.0
 40
1.0
 10
5.2734690784
 20
4.8367105552
 30
0.0
 10
5.2705547201
 20
4.836767401
 30
0.0
 10
5.2643809532
 20
4.8368929025
 30
0.0
 10
5.2507679973
 20
4.8371808873
 30
0.0
 10
5.2317081016
 20
4.8375933806
 30
0.0
 10
5.2070902305
 20
4.8381056866
 30
0.0
 10
5.1811620021
 20
4.8385868237
 30
0.0
 10
5.1594106565
 20
4.8389297348
 30
0.0
 10
5.1424942864
 20
4.8391514133
 30
0.0
 10
5.1306001078
 20
4.8392868596
 30
0.0
 10
5.1194667055
 20
4.8393935572
 30
0.0
 10
5.1092344868
 20
4.8394716713
 30
0.0
 10
5.1000272494
 20
4.8395235484
 30
0.0
 10
5.0942434764
 20
4.8395436612
 30
0.0
 10
5.09154105
 20
4.8395494006
 30
0.0
 11
5.2734690784
 21
4.8367105552
 31
0.0
 11
5.2647261212
 21
4.8368870235
 31
0.0
 11
5.2549479056
 21
4.8370929438
 31
0.0
 11
5.2326301319
 21
4.8375705132
 31
0.0
 11
5.2075456373
 21
4.8380870362
 31
0.0
 11
5.1810932748
 21
4.8385757437
 31
0.0
 11
5.1548451733
 21
4.8389859611
 31
0.0
 11
5.1422924121
 21
4.8391503782
 31
0.0
 11
5.1303448836
 21
4.8392860547
 31
0.0
 11
5.1191626979
 21
4.839392683
 31
0.0
 11
5.1088922657
 21
4.8394706807
 31
0.0
 11
5.0996483015
 21
4.8395221427
 31
0.0
 11
5.09154105
 21
4.8395494006
 31
0.0
  0
LINE
  5
44D
100
AcDbEntity
  8
0
100
AcDbLine
 62
9
  6
CONTINUOUS
 10
5.09154105
 20
4.8395494006
 11
5.0441445241
 21
4.8395226314
  0
LINE
  5
44E
100
AcDbEntity
  8
0
100
AcDbLine
 62
9
  6
CONTINUOUS
 10
5.0441445241
 20
4.8395226314
 11
5.0156808731
 21
4.8395494006
  0
SPLINE
  5
44F
100
AcDbEntity
  8
0
100
AcDbSpline
 62
9
  6
CONTINUOUS
 70
0
 71
3
 72
29
 73
25
 74
23
 42
0.0000001
 43
0.0000001
 44
0.0000000001
 12
-0.0081192003
 22
-0.0000567741
 32
0.0
 13
0.0049006143
 23
-0.0064736864
 33
0.0
 40
0.0
 40
0.0
 40
0.0
 40
0.0
 40
0.1891405997
 40
0.3729760901
 40
0.4607871165
 40
0.5447318895
 40
0.6239652551
 40
0.6976434553
 40
0.7649249437
 40
0.8249758802
 40
0.8520495228
 40
0.8770394573
 40
0.8998605822
 40
0.9204293214
 40
0.9386645197
 40
0.954489102
 40
0.9678334213
 40
0.9786428353
 40
0.9868977334
 40
0.9900893033
 40
0.9926936458
 40
0.9964614229
 40
0.9981096323
 40
1.0
 40
1.0
 40
1.0
 40
1.0
 10
5.0156808731
 20
4.8395494006
 30
0.0
 10
5.015168983
 20
4.8395458212
 30
0.0
 10
5.0141595798
 20
4.8395355577
 30
0.0
 10
5.0129126486
 20
4.8395138482
 30
0.0
 10
5.0119505356
 20
4.8394903638
 30
0.0
 10
5.0112715396
 20
4.8394701216
 30
0.0
 10
5.010630911
 20
4.8394469149
 30
0.0
 10
5.0100355358
 20
4.8394206777
 30
0.0
 10
5.0094922883
 20
4.839391355
 30
0.0
 10
5.0090753075
 20
4.839363442
 30
0.0
 10
5.008772856
 20
4.8393389838
 30
0.0
 10
5.0085710258
 20
4.8393204697
 30
0.0
 10
5.0083869619
 20
4.8393011586
 30
0.0
 10
5.0082213821
 20
4.8392810603
 30
0.0
 10
5.0080749962
 20
4.8392602011
 30
0.0
 10
5.0079485109
 20
4.8392385947
 30
0.0
 10
5.0078425821
 20
4.8392163442
 30
0.0
 10
5.0077578617
 20
4.8391933896
 30
0.0
 10
5.0077011786
 20
4.8391726406
 30
0.0
 10
5.0076675143
 20
4.8391544857
 30
0.0
 10
5.0076467077
 20
4.839139565
 30
0.0
 10
5.0076320397
 20
4.8391206367
 30
0.0
 10
5.0076338255
 20
4.8391001213
 30
0.0
 10
5.0076387864
 20
4.8390916544
 30
0.0
 10
5.0076418744
 20
4.8390875752
 30
0.0
 11
5.0156808731
 21
4.8395494006
 31
0.0
 11
5.0141452471
 21
4.8395335321
 31
0.0
 11
5.0126528499
 21
4.8395069691
 31
0.0
 11
5.0119400923
 21
4.8394894527
 31
0.0
 11
5.0112588184
 21
4.8394689933
 31
0.0
 11
5.0106159202
 21
4.8394455011
 31
0.0
 11
5.0100182898
 21
4.8394188865
 31
0.0
 11
5.0094728194
 21
4.8393890595
 31
0.0
 11
5.0089863685
 21
4.8393559334
 31
0.0
 11
5.0087672698
 21
4.8393381198
 31
0.0
 11
5.0085652251
 21
4.8393194741
 31
0.0
 11
5.0083809577
 21
4.8392999976
 31
0.0
 11
5.008215191
 21
4.839279692
 31
0.0
 11
5.0080686481
 21
4.8392585586
 31
0.0
 11
5.0079420525
 21
4.8392365991
 31
0.0
 11
5.0078361274
 21
4.8392138148
 31
0.0
 11
5.007751596
 21
4.8391902074
 31
0.0
 11
5.0076891818
 21
4.8391657782
 31
0.0
 11
5.0076664946
 21
4.8391532559
 31
0.0
 11
5.0076496079
 21
4.8391405287
 31
0.0
 11
5.0076335977
 21
4.8391144606
 31
0.0
 11
5.007634655
 21
4.8391011199
 31
0.0
 11
5.0076418744
 21
4.8390875752
 31
0.0
  0
SPLINE
  5
450
100
AcDbEntity
  8
0
100
AcDbSpline
 62
9
  6
CONTINUOUS
 70
0
 71
3
 72
17
 73
13
 74
11
 42
0.0000001
 43
0.0000001
 44
0.0000000001
 12
-0.1332312361
 22
0.0025512895
 32
0.0
 13
-0.1332483214
 23
-0.0013986369
 33
0.0
 40
0.0
 40
0.0
 40
0.0
 40
0.0
 40
0.1025512715
 40
0.2252163536
 40
0.3624420844
 40
0.50688478
 40
0.6503091338
 40
0.7190486957
 40
0.7846307737
 40
0.9030371937
 40
0.954491531
 40
1.0
 40
1.0
 40
1.0
 40
1.0
 10
5.2410906332
 20
4.8020962296
 30
0.0
 10
5.236536289
 20
4.8021834422
 30
0.0
 10
5.2265343703
 20
4.8023766969
 30
0.0
 10
5.2104377362
 20
4.8026621374
 30
0.0
 10
5.1924798672
 20
4.8029347532
 30
0.0
 10
5.1735991269
 20
4.803156844
 30
0.0
 10
5.1577596244
 20
4.8032826247
 30
0.0
 10
5.1454226616
 20
4.803337885
 30
0.0
 10
5.1341968688
 20
4.8033626564
 30
0.0
 10
5.1237387892
 20
4.8033494726
 30
0.0
 10
5.1141725368
 20
4.8032963468
 30
0.0
 10
5.1098657379
 20
4.8032594114
 30
0.0
 10
5.1078444288
 20
4.8032381948
 30
0.0
 11
5.2410906332
 21
4.8020962296
 31
0.0
 11
5.2274275677
 21
4.8023561438
 31
0.0
 11
5.2110842878
 21
4.8026441098
 31
0.0
 11
5.1928002597
 21
4.8029197399
 31
0.0
 11
5.1735537717
 21
4.803145074
 31
0.0
 11
5.1544422453
 21
4.8032940597
 31
0.0
 11
5.1452824008
 21
4.8033349622
 31
0.0
 11
5.1365432381
 21
4.8033538785
 31
0.0
 11
5.1207649304
 21
4.8033299853
 31
0.0
 11
5.1139084582
 21
4.8032912144
 31
0.0
 11
5.1078444288
 21
4.8032381948
 31
0.0
  0
SPLINE
  5
451
100
AcDbEntity
  8
0
100
AcDbSpline
 62
9
  6
CONTINUOUS
 70
0
 71
3
 72
11
 73
7
 74
5
 42
0.0000001
 43
0.0000001
 44
0.0000000001
 12
0.0135248332
 22
-0.0374815504
 32
0.0
 13
0.0196523788
 23
-0.0346636948
 33
0.0
 40
0.0
 40
0.0
 40
0.0
 40
0.0
 40
0.2682182049
 40
0.5246533819
 40
0.7687418299
 40
1.0
 40
1.0
 40
1.0
 40
1.0
 10
5.09154105
 20
4.8395494006
 30
0.0
 10
5.0927502522
 20
4.8361983226
 30
0.0
 10
5.095225398
 20
4.8296822357
 30
0.0
 10
5.0992067582
 20
4.8202769063
 30
0.0
 10
5.103364976
 20
4.811488292
 30
0.0
 10
5.1063295045
 20
4.8059102823
 30
0.0
 10
5.1078444288
 20
4.8032381948
 30
0.0
 11
5.09154105
 21
4.8395494006
 31
0.0
 11
5.0953442517
 21
4.8295612725
 31
0.0
 11
5.099336821
 21
4.8201553848
 31
0.0
 11
5.1035073496
 21
4.8113687035
 31
0.0
 11
5.1078444288
 21
4.8032381948
 31
0.0
  0
LINE
  5
452
100
AcDbEntity
  8
0
100
AcDbLine
 62
9
  6
CONTINUOUS
 10
5.1078444288
 20
4.8032381948
 11
5.0715112795
 21
4.8028735037
  0
SPLINE
  5
453
100
AcDbEntity
  8
0
100
AcDbSpline
 62
9
  6
CONTINUOUS
 70
0
 71
3
 72
11
 73
7
 74
5
 42
0.0000001
 43
0.0000001
 44
0.0000000001
 12
0.0226337334
 22
-0.0398879717
 32
0.0
 13
0.0322131842
 23
-0.0326442481
 33
0.0
 40
0.0
 40
0.0
 40
0.0
 40
0.0
 40
0.2585595146
 40
0.511485138
 40
0.7586496696
 40
1.0
 40
1.0
 40
1.0
 40
1.0
 10
5.0441445241
 20
4.8395226314
 30
0.0
 10
5.0460952465
 20
4.8360848265
 30
0.0
 10
5.0501581821
 20
4.829397275
 30
0.0
 10
5.0567915737
 20
4.8198744689
 30
0.0
 10
5.0638673712
 20
4.8110093716
 30
0.0
 10
5.0689197253
 20
4.8054997371
 30
0.0
 10
5.0715112795
 20
4.8028735037
 30
0.0
 11
5.0441445241
 21
4.8395226314
 31
0.0
 11
5.0503075331
 21
4.8293919009
 31
0.0
 11
5.0569442352
 21
4.8198783587
 31
0.0
 11
5.0640227706
 21
4.811024671
 31
0.0
 11
5.0715112795
 21
4.8028735037
 31
0.0
  0
SPLINE
  5
454
100
AcDbEntity
  8
0
100
AcDbSpline
 62
9
  6
CONTINUOUS
 70
0
 71
3
 72
11
 73
7
 74
5
 42
0.0000001
 43
0.0000001
 44
0.0000000001
 12
-0.0223860211
 22
0.0
 32
0.0
 13
-0.02237378
 23
0.00074021
 33
0.0
 40
0.0
 40
0.0
 40
0.0
 40
0.0
 40
0.3145930361
 40
0.580691758
 40
0.8107187382
 40
1.0
 40
1.0
 40
1.0
 40
1.0
 10
5.0715112795
 20
4.8028735037
 30
0.0
 10
5.0691637841
 20
4.8028735037
 30
0.0
 10
5.0648306203
 20
4.8028889512
 30
0.0
 10
5.0587814627
 20
4.802970097
 30
0.0
 10
5.0536683553
 20
4.803093201
 30
0.0
 10
5.0505410059
 20
4.8031914922
 30
0.0
 10
5.0491293601
 20
4.8032381948
 30
0.0
 11
5.0715112795
 21
4.8028735037
 31
0.0
 11
5.064468854
 21
4.8029027662
 31
0.0
 11
5.0585125308
 21
4.8029850562
 31
0.0
 11
5.0533645964
 21
4.8031074351
 31
0.0
 11
5.0491293601
 21
4.8032381948
 31
0.0
  0
LINE
  5
455
100
AcDbEntity
  8
0
100
AcDbLine
 62
9
  6
CONTINUOUS
 10
5.0491293601
 20
4.8032381948
 11
5.0430111216
 21
4.8033250012
  0
SPLINE
  5
456
100
AcDbEntity
  8
0
100
AcDbSpline
 62
9
  6
CONTINUOUS
 70
0
 71
3
 72
16
 73
12
 74
10
 42
0.0000001
 43
0.0000001
 44
0.0000000001
 12
0.0256625611
 22
-0.0452647078
 32
0.0
 13
0.0498405234
 23
-0.014946004
 33
0.0
 40
0.0
 40
0.0
 40
0.0
 40
0.0
 40
0.1568397582
 40
0.3036083246
 40
0.4405574856
 40
0.5680857951
 40
0.6867846779
 40
0.797495123
 40
0.9013705857
 40
0.9512375634
 40
1.0
 40
1.0
 40
1.0
 40
1.0
 10
5.1078444288
 20
4.8032381948
 30
0.0
 10
5.1091860655
 20
4.8008717595
 30
0.0
 10
5.1118963014
 20
4.7963533549
 30
0.0
 10
5.116202098
 20
4.7900350967
 30
0.0
 10
5.1206065887
 20
4.7844167943
 30
0.0
 10
5.1251040438
 20
4.7795134043
 30
0.0
 10
5.1296900826
 20
4.775339915
 30
0.0
 10
5.1343599389
 20
4.7719128676
 30
0.0
 10
5.138374351
 20
4.7696636486
 30
0.0
 10
5.1416056343
 20
4.7682804472
 30
0.0
 10
5.1432256062
 20
4.7677246397
 30
0.0
 10
5.1440357213
 20
4.7674817051
 30
0.0
 11
5.1078444288
 21
4.8032381948
 31
0.0
 11
5.1120548105
 21
4.7962472915
 31
0.0
 11
5.1163691781
 21
4.7899458886
 31
0.0
 11
5.1207803287
 21
4.7843494277
 31
0.0
 11
5.1252810592
 21
4.7794733502
 31
0.0
 11
5.1298641668
 21
4.7753330977
 31
0.0
 11
5.1345224483
 21
4.7719441117
 31
0.0
 11
5.1392487008
 21
4.7693218337
 31
0.0
 11
5.1416350652
 21
4.7683030356
 31
0.0
 11
5.1440357213
 21
4.7674817051
 31
0.0
  0
SPLINE
  5
457
100
AcDbEntity
  8
0
100
AcDbSpline
 62
9
  6
CONTINUOUS
 70
0
 71
3
 72
9
 73
5
 74
3
 42
0.0000001
 43
0.0000001
 44
0.0000000001
 12
0.0076477868
 22
-0.0022933919
 32
0.0
 13
0.0079813491
 23
-0.0002153056
 33
0.0
 40
0.0
 40
0.0
 40
0.0
 40
0.0
 40
0.5034087678
 40
1.0
 40
1.0
 40
1.0
 40
1.0
 10
5.1440357213
 20
4.7674817051
 30
0.0
 10
5.1453190423
 20
4.7670968673
 30
0.0
 10
5.1479189613
 20
4.7664902452
 30
0.0
 10
5.1505775068
 20
4.7662358253
 30
0.0
 10
5.1518986627
 20
4.7662001857
 30
0.0
 11
5.1440357213
 21
4.7674817051
 31
0.0
 11
5.1479515435
 21
4.7665753647
 31
0.0
 11
5.1518986627
 21
4.7662001857
 31
0.0
  0
SPLINE
  5
458
100
AcDbEntity
  8
0
100
AcDbSpline
 62
9
  6
CONTINUOUS
 70
0
 71
3
 72
26
 73
22
 74
20
 42
0.0000001
 43
0.0000001
 44
0.0000000001
 12
-0.0827818038
 22
0.0491288804
 32
0.0
 13
0.022087039
 23
0.0936943789
 33
0.0
 40
0.0
 40
0.0
 40
0.0
 40
0.0
 40
0.0549421946
 40
0.0824992859
 40
0.1101522457
 40
0.1658570947
 40
0.2223047514
 40
0.2508783256
 40
0.2797108245
 40
0.3088239071
 40
0.3382378299
 40
0.3980187207
 40
0.4591690671
 40
0.5217583494
 40
0.5858312967
 40
0.6514042065
 40
0.7184668196
 40
0.7869880985
 40
0.8568698857
 40
0.9279380619
 40
1.0
 40
1.0
 40
1.0
 40
1.0
 10
6.4429254014
 20
5.5679514526
 30
0.0
 10
6.4414093301
 20
5.5688512021
 30
0.0
 10
6.4391984731
 20
5.5703176287
 30
0.0
 10
6.4364060042
 20
5.5724860544
 30
0.0
 10
6.4337053733
 20
5.574806093
 30
0.0
 10
6.4305232307
 20
5.5779788144
 30
0.0
 10
6.4276412957
 20
5.5814643188
 30
0.0
 10
6.4255135757
 20
5.5844353426
 30
0.0
 10
6.4240014581
 20
5.5867647642
 30
0.0
 10
6.422582029
 20
5.5891830739
 30
0.0
 10
6.4208068283
 20
5.5925398167
 30
0.0
 10
6.4188316127
 20
5.5969480278
 30
0.0
 10
6.4168714764
 20
5.6025074461
 30
0.0
 10
6.4153182685
 20
5.6083365096
 30
0.0
 10
6.4141826392
 20
5.614405065
 30
0.0
 10
6.4134681032
 20
5.6206815446
 30
0.0
 10
6.4131777212
 20
5.6271344823
 30
0.0
 10
6.4133157917
 20
5.6337304938
 30
0.0
 10
6.413880544
 20
5.6404324583
 30
0.0
 10
6.4148646226
 20
5.6472001276
 30
0.0
 10
6.4157909183
 20
5.651701535
 30
0.0
 10
6.4163214633
 20
5.6539521345
 30
0.0
 11
6.4429254014
 21
5.5679514526
 31
0.0
 11
6.4385175575
 21
5.5708743117
 31
0.0
 11
6.436422221
 21
5.572501107
 31
0.0
 11
6.4344029622
 21
5.5742356209
 31
0.0
 11
6.4306032811
 21
5.5780193455
 31
0.0
 11
6.4271375769
 21
5.5822044395
 31
0.0
 11
6.4255356368
 21
5.5844403716
 31
0.0
 11
6.4240239954
 21
5.5867680917
 31
0.0
 11
6.422604921
 21
5.589184748
 31
0.0
 11
6.4212805924
 21
5.5916874088
 31
0.0
 11
6.4189222173
 21
5.5969366157
 31
0.0
 11
6.4169596975
 21
5.6024863223
 31
0.0
 11
6.4154036056
 21
5.6083069092
 31
0.0
 11
6.4142635412
 21
5.6143684522
 31
0.0
 11
6.4135444748
 21
5.6206395756
 31
0.0
 11
6.4132500008
 21
5.6270884724
 31
0.0
 11
6.4133835427
 21
5.6336831518
 31
0.0
 11
6.413943997
 21
5.6403867616
 31
0.0
 11
6.4149253794
 21
5.6471572073
 31
0.0
 11
6.4163214633
 21
5.6539521345
 31
0.0
  0
SPLINE
  5
459
100
AcDbEntity
  8
0
100
AcDbSpline
 62
9
  6
CONTINUOUS
 70
0
 71
3
 72
15
 73
11
 74
9
 42
0.0000001
 43
0.0000001
 44
0.0000000001
 12
0.0797480515
 22
-0.0654148478
 32
0.0
 13
0.1029690194
 23
-0.0060195582
 33
0.0
 40
0.0
 40
0.0
 40
0.0
 40
0.0
 40
0.1251988565
 40
0.2501213866
 40
0.3749053685
 40
0.4996576073
 40
0.6244645573
 40
0.7494031247
 40
0.8745515124
 40
1.0
 40
1.0
 40
1.0
 40
1.0
 10
5.0491293601
 20
4.8032381948
 30
0.0
 10
5.0524574817
 20
4.8005082401
 30
0.0
 10
5.0593314377
 20
4.795322449
 30
0.0
 10
5.0702212255
 20
4.7884018991
 30
0.0
 10
5.0816105737
 20
4.7823701661
 30
0.0
 10
5.0934325852
 20
4.7772491188
 30
0.0
 10
5.1056214849
 20
4.7730598605
 30
0.0
 10
5.1181116424
 20
4.7698238703
 30
0.0
 10
5.1308362176
 20
4.7675628023
 30
0.0
 10
5.1394214379
 20
4.766721009
 30
0.0
 10
5.1437272072
 20
4.7664692942
 30
0.0
 11
5.0491293601
 21
4.8032381948
 31
0.0
 11
5.0594370633
 21
4.7954592057
 31
0.0
 11
5.07031079
 21
4.7885463062
 31
0.0
 11
5.0816842466
 21
4.7825211483
 31
0.0
 11
5.0934911397
 21
4.7774053836
 31
0.0
 11
5.1056651758
 21
4.773220664
 31
0.0
 11
5.1181400615
 21
4.7699886414
 31
0.0
 11
5.1308495031
 21
4.7677309675
 31
0.0
 11
5.1437272072
 21
4.7664692942
 31
0.0
  0
SPLINE
  5
45A
100
AcDbEntity
  8
0
100
AcDbSpline
 62
9
  6
CONTINUOUS
 70
0
 71
3
 72
26
 73
22
 74
20
 42
0.0000001
 43
0.0000001
 44
0.0000000001
 12
0.0
 22
0.1755330844
 32
0.0
 13
-0.1549203886
 23
0.0825320357
 33
0.0
 40
0.0
 40
0.0
 40
0.0
 40
0.0
 40
0.0636153922
 40
0.1287238985
 40
0.1950376375
 40
0.2622239683
 40
0.3299182828
 40
0.3977343613
 40
0.4652731542
 40
0.532130739
 40
0.5979061502
 40
0.6622098069
 40
0.7246733842
 40
0.7849622069
 40
0.8142046538
 40
0.8428022574
 40
0.8707310172
 40
0.8979733133
 40
0.9245191187
 40
0.9503674097
 40
1.0
 40
1.0
 40
1.0
 40
1.0
 10
5.6066275569
 20
5.4081930279
 30
0.0
 10
5.6066275569
 20
5.4119152299
 30
0.0
 10
5.6063485367
 20
5.4194491063
 30
0.0
 10
5.6051740078
 20
5.430807437
 30
0.0
 10
5.6032807329
 20
5.4422797701
 30
0.0
 10
5.6007110851
 20
5.4537739726
 30
0.0
 10
5.5975073266
 20
5.4651987012
 30
0.0
 10
5.5937116851
 20
5.4764621404
 30
0.0
 10
5.5893663816
 20
5.4874724611
 30
0.0
 10
5.5845136206
 20
5.4981378149
 30
0.0
 10
5.5791955915
 20
5.5083663865
 30
0.0
 10
5.5734542999
 20
5.518066652
 30
0.0
 10
5.5673318468
 20
5.527146782
 30
0.0
 10
5.5618919874
 20
5.5341920574
 30
0.0
 10
5.5573757033
 20
5.5394261835
 30
0.0
 10
5.5539532979
 20
5.5430983913
 30
0.0
 10
5.5504667467
 20
5.5465454294
 30
0.0
 10
5.5469212889
 20
5.5497557059
 30
0.0
 10
5.5433216665
 20
5.5527179682
 30
0.0
 10
5.5385236257
 20
5.5562720719
 30
0.0
 10
5.5347604085
 20
5.5586100785
 30
0.0
 10
5.5321973751
 20
5.5599755047
 30
0.0
 11
5.6066275569
 21
5.4081930279
 31
0.0
 11
5.6062305933
 21
5.4193525758
 31
0.0
 11
5.6050680279
 21
5.4307219889
 31
0.0
 11
5.603182349
 21
5.4422084921
 31
0.0
 11
5.600616045
 21
5.4537193101
 31
0.0
 11
5.5974116041
 21
5.4651616677
 31
0.0
 11
5.5936115146
 21
5.4764427896
 31
0.0
 11
5.5892582649
 21
5.4874699008
 31
0.0
 11
5.5843943432
 21
5.4981502259
 31
0.0
 11
5.5790622378
 21
5.5083909898
 31
0.0
 11
5.5733044371
 21
5.5180994172
 31
0.0
 11
5.5671634294
 21
5.527182733
 31
0.0
 11
5.5606817028
 21
5.5355481619
 31
0.0
 11
5.5573263476
 21
5.5394326765
 31
0.0
 11
5.5539017459
 21
5.5431029288
 31
0.0
 11
5.5504132085
 21
5.5465473216
 31
0.0
 11
5.5468660467
 21
5.5497542583
 31
0.0
 11
5.5432655714
 21
5.5527121418
 31
0.0
 11
5.5396170937
 21
5.5554093754
 31
0.0
 11
5.5321973751
 21
5.5599755047
 31
0.0
  0
SPLINE
  5
45B
100
AcDbEntity
  8
0
100
AcDbSpline
 62
6
  6
CONTINUOUS
 70
0
 71
3
 72
21
 73
17
 74
15
 42
0.0000001
 43
0.0000001
 44
0.0000000001
 12
-0.1782105913
 22
-0.0007349579
 32
0.0
 13
-0.1118138845
 23
-0.1387703508
 33
0.0
 40
0.0
 40
0.0
 40
0.0
 40
0.0
 40
0.0627605279
 40
0.1247405964
 40
0.1554939253
 40
0.1861131676
 40
0.247047888
 40
0.3077664726
 40
0.3684511015
 40
0.4292698352
 40
0.4903725411
 40
0.551874373
 40
0.6138727664
 40
0.7396688163
 40
0.8682947034
 40
1.0
 40
1.0
 40
1.0
 40
1.0
 10
5.6066275569
 20
5.4081930279
 30
0.0
 10
5.60289936
 20
5.4081776524
 30
0.0
 10
5.5954877621
 20
5.407884217
 30
0.0
 10
5.5862998319
 20
5.40685663
 30
0.0
 10
5.5790708224
 20
5.4056497407
 30
0.0
 10
5.5719507796
 20
5.4041962057
 30
0.0
 10
5.5631891025
 20
5.4019153627
 30
0.0
 10
5.5529118776
 20
5.3984691404
 30
0.0
 10
5.5428919809
 20
5.3943531879
 30
0.0
 10
5.5331318218
 20
5.3896038656
 30
0.0
 10
5.5236301968
 20
5.3842583282
 30
0.0
 10
5.5143834578
 20
5.3783528022
 30
0.0
 10
5.5023336546
 20
5.3697341098
 30
0.0
 10
5.4878823622
 20
5.3576662465
 30
0.0
 10
5.4716160854
 20
5.3414605318
 30
0.0
 10
5.4615154833
 20
5.3297298098
 30
0.0
 10
5.4566066564
 20
5.3236375464
 30
0.0
 11
5.6066275569
 21
5.4081930279
 31
0.0
 11
5.5954517287
 21
5.4077479857
 31
0.0
 11
5.5844747459
 21
5.4065187193
 31
0.0
 11
5.5790689749
 21
5.4056160637
 31
0.0
 11
5.5737224878
 21
5.404524796
 31
0.0
 11
5.5632125541
 21
5.4017924351
 31
0.0
 11
5.5529517587
 21
5.3983565209
 31
0.0
 11
5.5429459718
 21
5.3942525308
 31
0.0
 11
5.5331969865
 21
5.3895161518
 31
0.0
 11
5.5237029982
 21
5.384183256
 31
0.0
 11
5.5144620694
 21
5.3782896181
 31
0.0
 11
5.5054718605
 21
5.3718667258
 31
0.0
 11
5.4882320642
 21
5.3575358799
 31
0.0
 11
5.4719572922
 21
5.341393342
 31
0.0
 11
5.4566066564
 21
5.3236375464
 31
0.0
  0
SPLINE
  5
45C
100
AcDbEntity
  8
0
100
AcDbSpline
 62
9
  6
CONTINUOUS
 70
0
 71
3
 72
17
 73
13
 74
11
 42
0.0000001
 43
0.0000001
 44
0.0000000001
 12
-0.1209755825
 22
-0.0909951067
 32
0.0
 13
-0.0647119438
 23
-0.1368486951
 33
0.0
 40
0.0
 40
0.0
 40
0.0
 40
0.0
 40
0.1157938615
 40
0.1748921542
 40
0.2347749864
 40
0.2954124813
 40
0.3567698992
 40
0.4814715714
 40
0.6085458804
 40
0.7376037154
 40
0.8682307857
 40
1.0
 40
1.0
 40
1.0
 40
1.0
 10
5.1507445301
 20
5.4880487968
 30
0.0
 10
5.1460751201
 20
5.4845365719
 30
0.0
 10
5.1392104433
 20
5.4789752251
 30
0.0
 10
5.1304116738
 20
5.4710404735
 30
0.0
 10
5.1238925781
 20
5.4647411875
 30
0.0
 10
5.117506309
 20
5.4581479871
 30
0.0
 10
5.1091346724
 20
5.448933037
 30
0.0
 10
5.0990600071
 20
5.4367474704
 30
0.0
 10
5.0876959403
 20
5.4212386651
 30
0.0
 10
5.0770557704
 20
5.4048667757
 30
0.0
 10
5.0672045269
 20
5.387735756
 30
0.0
 10
5.0612246737
 20
5.3759143875
 30
0.0
 10
5.0583823264
 20
5.3699035725
 30
0.0
 11
5.1507445301
 21
5.4880487968
 31
0.0
 11
5.1371210536
 21
5.4770191591
 31
0.0
 11
5.1304758131
 21
5.4710296185
 31
0.0
 11
5.1239551109
 21
5.4647325326
 31
0.0
 11
5.1175670931
 21
5.4581408512
 31
0.0
 11
5.1113198935
 21
5.451267562
 31
0.0
 11
5.099280484
 21
5.4367281118
 31
0.0
 11
5.0879019523
 21
5.4212180849
 31
0.0
 11
5.0772493688
 21
5.4048413841
 31
0.0
 11
5.0673878034
 21
5.3877019124
 31
0.0
 11
5.0583823264
 21
5.3699035725
 31
0.0
  0
SPLINE
  5
45D
100
AcDbEntity
  8
0
100
AcDbSpline
 62
9
  6
CONTINUOUS
 70
0
 71
3
 72
29
 73
25
 74
23
 42
0.0000001
 43
0.0000001
 44
0.0000000001
 12
-0.133841144
 22
0.2324282996
 32
0.0
 13
-0.2439105969
 23
0.1115526199
 33
0.0
 40
0.0
 40
0.0
 40
0.0
 40
0.0
 40
0.0749666224
 40
0.1494228045
 40
0.2230945835
 40
0.2957121368
 40
0.3670107096
 40
0.4367318064
 40
0.5046247387
 40
0.5704486599
 40
0.633974761
 40
0.6949881934
 40
0.7244923214
 40
0.7532974126
 40
0.7813834836
 40
0.8087328234
 40
0.8353303656
 40
0.8611641306
 40
0.8862257504
 40
0.9105110909
 40
0.9340209865
 40
0.9567621035
 40
0.9787479444
 40
1.0
 40
1.0
 40
1.0
 40
1.0
 10
5.4566066564
 20
5.3236375464
 30
0.0
 10
5.4532621169
 20
5.3294456679
 30
0.0
 10
5.4465213709
 20
5.3409797199
 30
0.0
 10
5.4362179045
 20
5.3580584553
 30
0.0
 10
5.4257668652
 20
5.3748004107
 30
0.0
 10
5.4151910986
 20
5.3911286998
 30
0.0
 10
5.4045134212
 20
5.4069665389
 30
0.0
 10
5.3937566422
 20
5.4222372098
 30
0.0
 10
5.3829435528
 20
5.4368640674
 30
0.0
 10
5.372096896
 20
5.4507706342
 30
0.0
 10
5.3612395993
 20
5.4638801062
 30
0.0
 10
5.3521034502
 20
5.4741898262
 30
0.0
 10
5.3447974411
 20
5.4819640366
 30
0.0
 10
5.3393913847
 20
5.4874816862
 30
0.0
 10
5.3340006
 20
5.4927420291
 30
0.0
 10
5.3286280446
 20
5.497735504
 30
0.0
 10
5.3232767086
 20
5.5024525573
 30
0.0
 10
5.3179495536
 20
5.5068836382
 30
0.0
 10
5.3126495249
 20
5.5110191966
 30
0.0
 10
5.3073795349
 20
5.5148496826
 30
0.0
 10
5.3021424869
 20
5.5183655287
 30
0.0
 10
5.2969411691
 20
5.5215571853
 30
0.0
 10
5.2917786046
 20
5.5244149487
 30
0.0
 10
5.2883067911
 20
5.5261194397
 30
0.0
 10
5.2865789239
 20
5.5269096806
 30
0.0
 11
5.4566066564
 21
5.3236375464
 31
0.0
 11
5.4464580095
 21
5.3409951657
 31
0.0
 11
5.4361382645
 21
5.3580918951
 31
0.0
 11
5.4256701955
 21
5.3748506656
 31
0.0
 11
5.4150765769
 21
5.3911944087
 31
0.0
 11
5.4043801833
 21
5.4070460556
 31
0.0
 11
5.3936037888
 21
5.4223285375
 31
0.0
 11
5.382770168
 21
5.4369647857
 31
0.0
 11
5.3719020951
 21
5.4508777314
 31
0.0
 11
5.3610225953
 21
5.4639903362
 31
0.0
 11
5.3501557001
 21
5.4762256828
 31
0.0
 11
5.344734568
 21
5.4819903572
 31
0.0
 11
5.3393256934
 21
5.4875068845
 31
0.0
 11
5.333932112
 21
5.4927656538
 31
0.0
 11
5.3285568592
 21
5.4977570544
 31
0.0
 11
5.3232029704
 21
5.5024714753
 31
0.0
 11
5.3178734812
 21
5.5068993057
 31
0.0
 11
5.312571427
 21
5.5110309348
 31
0.0
 11
5.3072998434
 21
5.5148567517
 31
0.0
 11
5.3020617657
 21
5.5183671456
 31
0.0
 11
5.2968602296
 21
5.5215525056
 31
0.0
 11
5.2916982705
 21
5.5244032209
 31
0.0
 11
5.2865789239
 21
5.5269096806
 31
0.0
  0
SPLINE
  5
45E
100
AcDbEntity
  8
0
100
AcDbSpline
 62
9
  6
CONTINUOUS
 70
0
 71
3
 72
16
 73
12
 74
10
 42
0.0000001
 43
0.0000001
 44
0.0000000001
 12
-0.2480118762
 22
-0.0094947714
 32
0.0
 13
-0.2417978714
 23
-0.0559806289
 33
0.0
 40
0.0
 40
0.0
 40
0.0
 40
0.0
 40
0.106438163
 40
0.2210566262
 40
0.3424108072
 40
0.4690739774
 40
0.5339563882
 40
0.5996308762
 40
0.7326173137
 40
0.8665631821
 40
1.0
 40
1.0
 40
1.0
 40
1.0
 10
5.5321973751
 20
5.5599755047
 30
0.0
 10
5.5233980656
 20
5.559638636
 30
0.0
 10
5.5051305341
 20
5.5587339649
 30
0.0
 10
5.4768713478
 20
5.556729907
 30
0.0
 10
5.4469966882
 20
5.5539491901
 30
0.0
 10
5.4212817434
 20
5.5509489899
 30
0.0
 10
5.4001946483
 20
5.5480855726
 30
0.0
 10
5.3786271184
 20
5.5448849788
 30
0.0
 10
5.3514836195
 20
5.5403489322
 30
0.0
 10
5.3189514173
 20
5.5341050117
 30
0.0
 10
5.2973338367
 20
5.5293996396
 30
0.0
 10
5.2865789239
 20
5.5269096806
 30
0.0
 11
5.5321973751
 21
5.5599755047
 31
0.0
 11
5.5058120301
 21
5.5586772277
 31
0.0
 11
5.477435491
 21
5.5566682668
 31
0.0
 11
5.4474458872
 21
5.5538758755
 31
0.0
 11
5.4162213483
 21
5.550227307
 31
0.0
 11
5.4002642267
 21
5.5480617491
 31
0.0
 11
5.3841406678
 21
5.5456700235
 31
0.0
 11
5.3515852949
 21
5.5402323212
 31
0.0
 11
5.3189373425
 21
5.5339627053
 31
0.0
 11
5.2865789239
 21
5.5269096806
 31
0.0
  0
SPLINE
  5
45F
100
AcDbEntity
  8
0
100
AcDbSpline
 62
6
  6
CONTINUOUS
 70
0
 71
3
 72
11
 73
7
 74
5
 42
0.0000001
 43
0.0000001
 44
0.0000000001
 12
-0.0326451801
 22
-0.0404158437
 32
0.0
 13
-0.0272901662
 23
-0.0442085403
 33
0.0
 40
0.0
 40
0.0
 40
0.0
 40
0.0
 40
0.2438839488
 40
0.4919658878
 40
0.7440717045
 40
1.0
 40
1.0
 40
1.0
 40
1.0
 10
5.456595584
 20
5.3236536856
 30
0.0
 10
5.4539417056
 20
5.3203680938
 30
0.0
 10
5.4487053918
 20
5.3136449366
 30
0.0
 10
5.4411281219
 20
5.3032199526
 30
0.0
 10
5.4337651642
 20
5.2923895093
 30
0.0
 10
5.4290375429
 20
5.2849678911
 30
0.0
 10
5.4267094343
 20
5.2811964856
 30
0.0
 11
5.456595584
 21
5.3236536856
 31
0.0
 11
5.4488057043
 21
5.3136606162
 31
0.0
 11
5.4412239338
 21
5.3032378103
 31
0.0
 11
5.433856451
 21
5.292408642
 31
0.0
 11
5.4267094343
 21
5.2811964856
 31
0.0
  0
SPLINE
  5
460
100
AcDbEntity
  8
0
100
AcDbSpline
 62
6
  6
CONTINUOUS
 70
0
 71
3
 72
13
 73
9
 74
7
 42
0.0000001
 43
0.0000001
 44
0.0000000001
 12
-0.0501899713
 22
-0.0813663502
 32
0.0
 13
-0.0363608944
 23
-0.0884160705
 33
0.0
 40
0.0
 40
0.0
 40
0.0
 40
0.0
 40
0.1205244169
 40
0.2421113315
 40
0.3648483989
 40
0.4888578211
 40
0.7411691867
 40
1.0
 40
1.0
 40
1.0
 40
1.0
 10
5.4267052995
 20
5.2812019886
 30
0.0
 10
5.4246889272
 20
5.2779331113
 30
0.0
 10
5.4207179931
 20
5.2713171256
 30
0.0
 10
5.414961599
 20
5.2612145506
 30
0.0
 10
5.4093702885
 20
5.2508931489
 30
0.0
 10
5.4020888085
 20
5.23675345
 30
0.0
 10
5.393373553
 20
5.2184794646
 30
0.0
 10
5.3869194868
 20
5.2035197717
 30
0.0
 10
5.3837823802
 20
5.1958915039
 30
0.0
 11
5.4267052995
 21
5.2812019886
 31
0.0
 11
5.4207728447
 21
5.2713243459
 31
0.0
 11
5.4150158968
 21
5.2612263029
 31
0.0
 11
5.4094255975
 21
5.2509098225
 31
0.0
 11
5.4039963001
 21
5.2403706912
 31
0.0
 11
5.3935993613
 21
5.2186052454
 31
0.0
 11
5.3837823802
 21
5.1958915039
 31
0.0
  0
SPLINE
  5
461
100
AcDbEntity
  8
0
100
AcDbSpline
 62
9
  6
CONTINUOUS
 70
0
 71
3
 72
62
 73
58
 74
56
 42
0.0000001
 43
0.0000001
 44
0.0000000001
 12
0.1796999772
 22
-0.1687552381
 32
0.0
 13
0.0014744898
 23
0.2465121459
 33
0.0
 40
0.0
 40
0.0
 40
0.0
 40
0.0
 40
0.0328261729
 40
0.0652642891
 40
0.081326845
 40
0.0972719663
 40
0.1130873599
 40
0.1287634314
 40
0.1442936591
 40
0.1596690132
 40
0.1748499798
 40
0.1897938633
 40
0.2044713883
 40
0.2188698914
 40
0.2329923796
 40
0.2468393163
 40
0.2604161969
 40
0.2737403527
 40
0.280318786
 40
0.2868474888
 40
0.2998001356
 40
0.3127066812
 40
0.325645391
 40
0.3386641793
 40
0.34521178
 40
0.3517857114
 40
0.365019488
 40
0.378382992
 40
0.4055356826
 40
0.4193384099
 40
0.4332933441
 40
0.4616758568
 40
0.4761097551
 40
0.4907032869
 40
0.5054552221
 40
0.5203661174
 40
0.5506659725
 40
0.5816096783
 40
0.6132014865
 40
0.6292426861
 40
0.6454438874
 40
0.6618036792
 40
0.6783213462
 40
0.7117938076
 40
0.7458269612
 40
0.7804153519
 40
0.7979238964
 40
0.8155776569
 40
0.8333792537
 40
0.851331864
 40
0.8694390338
 40
0.8877020407
 40
0.9061188722
 40
0.9246816722
 40
0.9621815039
 40
0.9810685122
 40
1.0
 40
1.0
 40
1.0
 40
1.0
 10
5.5100199543
 20
5.2904511729
 30
0.0
 10
5.5119862418
 20
5.2886046434
 30
0.0
 10
5.5159788043
 20
5.2850207826
 30
0.0
 10
5.5211652579
 20
5.2808016795
 30
0.0
 10
5.525401909
 20
5.2776235276
 30
0.0
 10
5.5286103297
 20
5.2753534617
 30
0.0
 10
5.5318589545
 20
5.2731981349
 30
0.0
 10
5.5351463357
 20
5.2711663273
 30
0.0
 10
5.5384707505
 20
5.2692674283
 30
0.0
 10
5.5418270575
 20
5.2675112573
 30
0.0
 10
5.545211245
 20
5.2659188181
 30
0.0
 10
5.5486163889
 20
5.2645149531
 30
0.0
 10
5.5520344585
 20
5.2633247816
 30
0.0
 10
5.5554572976
 20
5.2623736565
 30
0.0
 10
5.5588739425
 20
5.2616879979
 30
0.0
 10
5.562266561
 20
5.2612758596
 30
0.0
 10
5.565616234
 20
5.2611452095
 30
0.0
 10
5.5683681966
 20
5.2612786562
 30
0.0
 10
5.5705255581
 20
5.2615359652
 30
0.0
 10
5.5726378375
 20
5.2618924589
 30
0.0
 10
5.5752271955
 20
5.2625253441
 30
0.0
 10
5.5782490049
 20
5.2635526159
 30
0.0
 10
5.5811859357
 20
5.2648139917
 30
0.0
 10
5.5835653022
 20
5.266031587
 30
0.0
 10
5.5854343501
 20
5.2670905587
 30
0.0
 10
5.5872907623
 20
5.2682062485
 30
0.0
 10
5.5895747222
 20
5.2696960499
 30
0.0
 10
5.5931613642
 20
5.2722755923
 30
0.0
 10
5.5966172849
 20
5.2751087959
 30
0.0
 10
5.5999523642
 20
5.278148674
 30
0.0
 10
5.6032603572
 20
5.2813650586
 30
0.0
 10
5.6064575828
 20
5.2847659619
 30
0.0
 10
5.6095582416
 20
5.2883216856
 30
0.0
 10
5.6118605406
 20
5.2910863461
 30
0.0
 10
5.6141274651
 20
5.2939303294
 30
0.0
 10
5.617115589
 20
5.2978485138
 30
0.0
 10
5.6207506726
 20
5.302944708
 30
0.0
 10
5.6249189514
 20
5.3093362377
 30
0.0
 10
5.6282136286
 20
5.3148917829
 30
0.0
 10
5.6307405523
 20
5.3194888208
 30
0.0
 10
5.6325810326
 20
5.3230336634
 30
0.0
 10
5.6343483135
 20
5.3266592694
 30
0.0
 10
5.6366051819
 20
5.3316228541
 30
0.0
 10
5.639180185
 20
5.3380351103
 30
0.0
 10
5.6417384558
 20
5.3460322931
 30
0.0
 10
5.6434245431
 20
5.3529118926
 30
0.0
 10
5.6445169436
 20
5.3585391648
 30
0.0
 10
5.6452134577
 20
5.3628359383
 30
0.0
 10
5.6457896743
 20
5.3671871581
 30
0.0
 10
5.6462544525
 20
5.3715890473
 30
0.0
 10
5.6466220573
 20
5.3760380347
 30
0.0
 10
5.646905414
 20
5.3805313155
 30
0.0
 10
5.6471173898
 20
5.3850659354
 30
0.0
 10
5.6473217063
 20
5.3911828079
 30
0.0
 10
5.6474276738
 20
5.3973410197
 30
0.0
 10
5.647480756
 20
5.4035298477
 30
0.0
 10
5.6474982036
 20
5.4066374333
 30
0.0
 10
5.6475075083
 20
5.4081930472
 30
0.0
 11
5.5100199543
 21
5.2904511729
 31
0.0
 11
5.5160454329
 21
5.285049578
 31
0.0
 11
5.522252246
 21
5.2800077523
 31
0.0
 11
5.5254205081
 21
5.2776326254
 31
0.0
 11
5.5286301933
 21
5.2753635706
 31
0.0
 11
5.5318798418
 21
5.2732094847
 31
0.0
 11
5.5351679932
 21
5.2711792793
 31
0.0
 11
5.5384931872
 21
5.269281866
 31
0.0
 11
5.5418532153
 21
5.2675278909
 31
0.0
 11
5.5452413196
 21
5.2659385501
 31
0.0
 11
5.5486490321
 21
5.2645390062
 31
0.0
 11
5.5520678813
 21
5.2633544286
 31
0.0
 11
5.5554893961
 21
5.262409987
 31
0.0
 11
5.5589034119
 21
5.2617282021
 31
0.0
 11
5.5622924303
 21
5.2613201203
 31
0.0
 11
5.565636967
 21
5.2611936819
 31
0.0
 11
5.5689175379
 21
5.2613568266
 31
0.0
 11
5.5705277473
 21
5.261549474
 31
0.0
 11
5.5721147222
 21
5.2618174038
 31
0.0
 11
5.5752175005
 21
5.2625712494
 31
0.0
 11
5.5782315691
 21
5.2635902978
 31
0.0
 11
5.581164602
 21
5.2648436557
 31
0.0
 11
5.5840242727
 21
5.2663004297
 31
0.0
 11
5.5854289954
 21
5.2670954436
 31
0.0
 11
5.5868182005
 21
5.2679299484
 31
0.0
 11
5.589551795
 21
5.2697104978
 31
0.0
 11
5.5922275477
 21
5.271632196
 31
0.0
 11
5.5974146941
 21
5.2758627551
 31
0.0
 11
5.5999306761
 21
5.2781535031
 31
0.0
 11
5.6023982414
 21
5.2805504935
 31
0.0
 11
5.607199702
 21
5.2856397584
 31
0.0
 11
5.6095394253
 21
5.2883205131
 31
0.0
 11
5.611842296
 21
5.2910844111
 31
0.0
 11
5.6141091287
 21
5.2939280535
 31
0.0
 11
5.6163383828
 21
5.2968506899
 31
0.0
 11
5.6206774658
 21
5.3029305363
 31
0.0
 11
5.6248443728
 21
5.3093200074
 31
0.0
 11
5.6288165498
 21
5.3160187577
 31
0.0
 11
5.6307205117
 21
5.3194846453
 31
0.0
 11
5.6325600405
 21
5.3230296539
 31
0.0
 11
5.6343263919
 21
5.3266552249
 31
0.0
 11
5.6360100872
 21
5.3303626989
 31
0.0
 11
5.6390702514
 21
5.3380257864
 31
0.0
 11
5.6416320136
 21
5.346014844
 31
0.0
 11
5.643669005
 21
5.3542945638
 31
0.0
 11
5.6444927801
 21
5.3585313682
 31
0.0
 11
5.6451907534
 21
5.3628269767
 31
0.0
 11
5.6457689022
 21
5.3671771141
 31
0.0
 11
5.6462364756
 21
5.3715779605
 31
0.0
 11
5.6466066235
 21
5.3760263042
 31
0.0
 11
5.6468924809
 21
5.3805193535
 31
0.0
 11
5.6471067962
 21
5.3850543461
 31
0.0
 11
5.6472615862
 21
5.3896277649
 31
0.0
 11
5.6474363058
 21
5.398870443
 31
0.0
 11
5.6474784286
 21
5.4035262127
 31
0.0
 11
5.6475075083
 21
5.4081930472
 31
0.0
  0
SPLINE
  5
462
100
AcDbEntity
  8
0
100
AcDbSpline
 62
9
  6
CONTINUOUS
 70
0
 71
3
 72
23
 73
19
 74
17
 42
0.0000001
 43
0.0000001
 44
0.0000000001
 12
-0.2362599891
 22
0.2108720312
 32
0.0
 13
-0.3050583578
 23
0.085001143
 33
0.0
 40
0.0
 40
0.0
 40
0.0
 40
0.0
 40
0.0739524672
 40
0.1471096868
 40
0.2192995814
 40
0.2903530084
 40
0.3601043157
 40
0.4283920287
 40
0.4950597068
 40
0.5599570194
 40
0.6229395349
 40
0.6838654912
 40
0.7426023437
 40
0.7990310871
 40
0.8530499131
 40
0.9045790489
 40
0.9535671837
 40
1.0
 40
1.0
 40
1.0
 40
1.0
 10
5.3837765465
 20
5.1958972087
 30
0.0
 10
5.3779525435
 20
5.2010953777
 30
0.0
 10
5.3663124713
 20
5.2113747723
 30
0.0
 10
5.3487833504
 20
5.2264956698
 30
0.0
 10
5.3312966478
 20
5.241194585
 30
0.0
 10
5.3138833292
 20
5.2554187946
 30
0.0
 10
5.2965743146
 20
5.2691156328
 30
0.0
 10
5.2794005109
 20
5.28223246
 30
0.0
 10
5.2623927939
 20
5.2947166772
 30
0.0
 10
5.2455821306
 20
5.3065156425
 30
0.0
 10
5.2290001571
 20
5.3175762895
 30
0.0
 10
5.2126807134
 20
5.3278472029
 30
0.0
 10
5.1966581591
 20
5.3372765906
 30
0.0
 10
5.1809667856
 20
5.3458126522
 30
0.0
 10
5.1656407372
 20
5.353403625
 30
0.0
 10
5.1507134246
 20
5.3599978831
 30
0.0
 10
5.136219042
 20
5.3655433643
 30
0.0
 10
5.1266090368
 20
5.3685879583
 30
0.0
 10
5.1218874639
 20
5.3699035725
 30
0.0
 11
5.3837765465
 21
5.1958972087
 31
0.0
 11
5.3662195394
 21
5.2113959587
 31
0.0
 11
5.3486738177
 21
5.2265245774
 31
0.0
 11
5.3311703375
 21
5.241230211
 31
0.0
 11
5.3137400549
 21
5.2554600059
 31
0.0
 11
5.296413926
 21
5.2691611085
 31
0.0
 11
5.2792229069
 21
5.282280665
 31
0.0
 11
5.2621979537
 21
5.2947658219
 31
0.0
 11
5.2453700225
 21
5.3065637254
 31
0.0
 11
5.2287707206
 21
5.3176216003
 31
0.0
 11
5.2124342598
 21
5.3278869854
 31
0.0
 11
5.1963955027
 21
5.3373074978
 31
0.0
 11
5.1806893118
 21
5.3458307549
 31
0.0
 11
5.1653505499
 21
5.3534043737
 31
0.0
 11
5.1504140796
 21
5.3599759714
 31
0.0
 11
5.1359147634
 21
5.3654931653
 31
0.0
 11
5.1218874639
 21
5.3699035725
 31
0.0
  0
SPLINE
  5
463
100
AcDbEntity
  8
0
100
AcDbSpline
 62
9
  6
CONTINUOUS
 70
0
 71
3
 72
22
 73
18
 74
16
 42
0.0000001
 43
0.0000001
 44
0.0000000001
 12
-0.2297891176
 22
-0.0532003828
 32
0.0
 13
-0.0933772778
 23
-0.2165964064
 33
0.0
 40
0.0
 40
0.0
 40
0.0
 40
0.0
 40
0.104632533
 40
0.1592111009
 40
0.2152812537
 40
0.2728496798
 40
0.3319295234
 40
0.3925431784
 40
0.4547247139
 40
0.5184993109
 40
0.583798772
 40
0.6505078446
 40
0.7184905722
 40
0.7875957702
 40
0.8576616972
 40
0.9285201272
 40
1.0
 40
1.0
 40
1.0
 40
1.0
 10
5.2865789239
 20
5.5269096806
 30
0.0
 10
5.2785644514
 20
5.5250541836
 30
0.0
 10
5.266561626
 20
5.5213170579
 30
0.0
 10
5.2509772113
 20
5.5146943566
 30
0.0
 10
5.2391632537
 20
5.5087255815
 30
0.0
 10
5.2274566979
 20
5.5018259041
 30
0.0
 10
5.2159178117
 20
5.4939932643
 30
0.0
 10
5.2046091811
 20
5.4852264606
 30
0.0
 10
5.1935942253
 20
5.475524862
 30
0.0
 10
5.1829435278
 20
5.4648971207
 30
0.0
 10
5.1726907081
 20
5.45340493
 30
0.0
 10
5.162874567
 20
5.4411120753
 30
0.0
 10
5.1535352261
 20
5.4280838766
 30
0.0
 10
5.1447129803
 20
5.414385587
 30
0.0
 10
5.1364481793
 20
5.4000823762
 30
0.0
 10
5.1287814932
 20
5.3852399777
 30
0.0
 10
5.1241123293
 20
5.3750643337
 30
0.0
 10
5.1218874639
 20
5.3699035725
 30
0.0
 11
5.2865789239
 21
5.5269096806
 31
0.0
 11
5.262994272
 21
5.5196408472
 31
0.0
 11
5.2511433537
 21
5.5146131855
 31
0.0
 11
5.2393363174
 21
5.5086552182
 31
0.0
 11
5.2276353708
 21
5.5017658386
 31
0.0
 11
5.2161027218
 21
5.49394394
 31
0.0
 11
5.204800578
 21
5.4851884157
 31
0.0
 11
5.1937911473
 21
5.475498159
 31
0.0
 11
5.1831330614
 21
5.4648832168
 31
0.0
 11
5.1728706489
 21
5.4533982503
 31
0.0
 11
5.1630446625
 21
5.4411090744
 31
0.0
 11
5.1536958548
 21
5.4280815038
 31
0.0
 11
5.1448649784
 21
5.4143813536
 31
0.0
 11
5.136592786
 21
5.4000744383
 31
0.0
 11
5.1289200303
 21
5.385226573
 31
0.0
 11
5.1218874639
 21
5.3699035725
 31
0.0
  0
SPLINE
  5
464
100
AcDbEntity
  8
0
100
AcDbSpline
 62
6
  6
CONTINUOUS
 70
0
 71
3
 72
16
 73
12
 74
10
 42
0.0000001
 43
0.0000001
 44
0.0000000001
 12
-0.2752923614
 22
0.0177133465
 32
0.0
 13
-0.2757905273
 23
0.0062635413
 33
0.0
 40
0.0
 40
0.0
 40
0.0
 40
0.0
 40
0.0509540332
 40
0.1046834608
 40
0.2194290071
 40
0.3421572521
 40
0.4707878525
 40
0.6031976911
 40
0.7370935668
 40
0.8701396086
 40
1.0
 40
1.0
 40
1.0
 40
1.0
 10
5.3280047955
 20
4.9841077149
 30
0.0
 10
5.3233290435
 20
4.9844085703
 30
0.0
 10
5.3137215383
 20
4.9850062829
 30
0.0
 10
5.2935786754
 20
4.9861860377
 30
0.0
 10
5.2668396218
 20
4.9876194312
 30
0.0
 10
5.2332137154
 20
4.9892384086
 30
0.0
 10
5.1979574435
 20
4.990761578
 30
0.0
 10
5.1616682816
 20
4.9921588161
 30
0.0
 10
5.1249675529
 20
4.9934103342
 30
0.0
 10
5.0884960712
 20
4.9944955014
 30
0.0
 10
5.0643283929
 20
4.9951054812
 30
0.0
 10
5.0523903043
 20
4.9953766098
 30
0.0
 11
5.3280047955
 21
4.9841077149
 31
0.0
 11
5.313975759
 21
4.9849821714
 31
0.0
 11
5.2991793104
 21
4.9858502038
 31
0.0
 11
5.2675712169
 21
4.987552408
 31
0.0
 11
5.2337545947
 21
4.9891851504
 31
0.0
 11
5.1983035234
 21
4.9907192536
 31
0.0
 11
5.1618038635
 21
4.9921269606
 31
0.0
 11
5.1248885979
 21
4.9933861939
 31
0.0
 11
5.0882024903
 21
4.9944762961
 31
0.0
 11
5.0523903043
 21
4.9953766098
 31
0.0
  0
SPLINE
  5
465
100
AcDbEntity
  8
0
100
AcDbSpline
 62
9
  6
CONTINUOUS
 70
0
 71
3
 72
15
 73
11
 74
9
 42
0.0000001
 43
0.0000001
 44
0.0000000001
 12
-0.1519083821
 22
-0.3523641985
 32
0.0
 13
0.0079543772
 23
-0.3836318715
 33
0.0
 40
0.0
 40
0.0
 40
0.0
 40
0.0
 40
0.1193059327
 40
0.2407591601
 40
0.364128099
 40
0.4891510449
 40
0.6155456757
 40
0.7430175072
 40
0.8712676262
 40
1.0
 40
1.0
 40
1.0
 40
1.0
 10
5.1218874639
 20
5.3699035725
 30
0.0
 10
5.1158462735
 20
5.355890526
 30
0.0
 10
5.104529223
 20
5.3272277681
 30
0.0
 10
5.08996091
 20
5.2829664862
 30
0.0
 10
5.0776765136
 20
5.2372599108
 30
0.0
 10
5.0677178918
 20
5.1903462579
 30
0.0
 10
5.0601260663
 20
5.1424612675
 30
0.0
 10
5.0549426716
 20
5.0938409906
 30
0.0
 10
5.0522094271
 20
5.0447235077
 30
0.0
 10
5.0520489597
 20
5.0118377466
 30
0.0
 10
5.0523902883
 20
4.9953757995
 30
0.0
 11
5.1218874639
 21
5.3699035725
 31
0.0
 11
5.1050438232
 21
5.3273354525
 31
0.0
 11
5.0904468903
 21
5.2830771067
 31
0.0
 11
5.0781385248
 21
5.2373668121
 31
0.0
 11
5.068160586
 21
5.1904428455
 31
0.0
 11
5.0605549335
 21
5.1425434841
 31
0.0
 11
5.0553634268
 21
5.0939070046
 31
0.0
 11
5.0526279252
 21
5.0447716841
 31
0.0
 11
5.0523902883
 21
4.9953757995
 31
0.0
  0
SPLINE
  5
466
100
AcDbEntity
  8
0
100
AcDbSpline
 62
6
  6
CONTINUOUS
 70
0
 71
3
 72
14
 73
10
 74
8
 42
0.0000001
 43
0.0000001
 44
0.0000000001
 12
-0.0493140861
 22
-0.1524129644
 32
0.0
 13
-0.021998063
 23
-0.1586747492
 33
0.0
 40
0.0
 40
0.0
 40
0.0
 40
0.0
 40
0.2404440336
 40
0.3632479889
 40
0.4876766561
 40
0.6136706644
 40
0.7411715528
 40
0.8700344754
 40
1.0
 40
1.0
 40
1.0
 40
1.0
 10
5.3633908429
 20
5.14014185
 30
0.0
 10
5.359438417
 20
5.127926254
 30
0.0
 10
5.3539022077
 20
5.1093274424
 30
0.0
 10
5.3472987348
 20
5.0841366273
 30
0.0
 10
5.3426639513
 20
5.064751936
 30
0.0
 10
5.3383946264
 20
5.0450270271
 30
0.0
 10
5.3345033512
 20
5.0249827269
 30
0.0
 10
5.3310058181
 20
5.004650856
 30
0.0
 10
5.328957779
 20
4.9909813478
 30
0.0
 10
5.3280047824
 20
4.9841072655
 30
0.0
 11
5.3633908429
 21
5.14014185
 31
0.0
 11
5.3523798666
 21
5.1032319529
 31
0.0
 11
5.3473892072
 21
5.0842032659
 31
0.0
 11
5.3427527181
 21
5.0648174882
 31
0.0
 11
5.3384817704
 21
5.0450912702
 31
0.0
 11
5.3345884754
 21
5.0250411006
 31
0.0
 11
5.3310889722
 21
5.0046970364
 31
0.0
 11
5.3280047824
 21
4.9841072655
 31
0.0
  0
SPLINE
  5
467
100
AcDbEntity
  8
0
100
AcDbSpline
 62
9
  6
CONTINUOUS
 70
0
 71
3
 72
10
 73
6
 74
4
 42
0.0000001
 43
0.0000001
 44
0.0000000001
 12
-0.0129335173
 22
0.006890181
 32
0.0
 13
-0.0143015908
 23
0.0031960857
 33
0.0
 40
0.0
 40
0.0
 40
0.0
 40
0.0
 40
0.5099167038
 40
0.7571077966
 40
1.0
 40
1.0
 40
1.0
 40
1.0
 10
5.5321973751
 20
5.5599755047
 30
0.0
 10
5.5299990363
 20
5.5611466442
 30
0.0
 10
5.5266290983
 20
5.5627018419
 30
0.0
 10
5.5220055947
 20
5.5642868603
 30
0.0
 10
5.5196884076
 20
5.5648991133
 30
0.0
 10
5.5185304927
 20
5.5651578814
 30
0.0
 11
5.5321973751
 21
5.5599755047
 31
0.0
 11
5.5254004688
 21
5.5630804066
 31
0.0
 11
5.5219726715
 21
5.5642518148
 31
0.0
 11
5.5185304927
 21
5.5651578814
 31
0.0
  0
SPLINE
  5
468
100
AcDbEntity
  8
0
100
AcDbSpline
 62
9
  6
CONTINUOUS
 70
0
 71
3
 72
9
 73
5
 74
3
 42
0.0000001
 43
0.0000001
 44
0.0000000001
 12
-0.009185949
 22
0.0020528542
 32
0.0
 13
-0.0094125379
 23
0.0
 33
0.0
 40
0.0
 40
0.0
 40
0.0
 40
0.0
 40
0.5025924168
 40
1.0
 40
1.0
 40
1.0
 40
1.0
 10
5.5185304927
 20
5.5651578814
 30
0.0
 10
5.5169915632
 20
5.5655017978
 30
0.0
 10
5.5138921136
 20
5.5660298765
 30
0.0
 10
5.5107522057
 20
5.5662124815
 30
0.0
 10
5.5091915831
 20
5.5662124815
 30
0.0
 11
5.5185304927
 21
5.5651578814
 31
0.0
 11
5.5138658237
 21
5.5659453481
 31
0.0
 11
5.5091915831
 21
5.5662124815
 31
0.0
  0
SPLINE
  5
469
100
AcDbEntity
  8
0
100
AcDbSpline
 62
6
  6
CONTINUOUS
 70
0
 71
3
 72
30
 73
26
 74
24
 42
0.0000001
 43
0.0000001
 44
0.0000000001
 12
0.0022568605
 22
0.0353255454
 32
0.0
 13
-0.035324522
 23
0.002272822
 33
0.0
 40
0.0
 40
0.0
 40
0.0
 40
0.0
 40
0.001527761
 40
0.003161541
 40
0.0050044848
 40
0.0071307492
 40
0.0095900715
 40
0.0124156014
 40
0.0192464533
 40
0.0277438
 40
0.0379746788
 40
0.0499844775
 40
0.0638075165
 40
0.079471941
 40
0.0970022029
 40
0.1164204177
 40
0.1377480588
 40
0.1862255729
 40
0.2426222621
 40
0.3071186797
 40
0.3798914867
 40
0.461114913
 40
0.550961592
 40
0.7572093116
 40
1.0
 40
1.0
 40
1.0
 40
1.0
 10
5.3629453731
 20
4.9799645531
 30
0.0
 10
5.3629465224
 20
4.9799825428
 30
0.0
 10
5.3629433197
 20
4.9800203276
 30
0.0
 10
5.362922025
 20
4.9800760522
 30
0.0
 10
5.3628849717
 20
4.9801313197
 30
0.0
 10
5.3628324663
 20
4.980186428
 30
0.0
 10
5.3627644749
 20
4.9802416958
 30
0.0
 10
5.3626452294
 20
4.9803208402
 30
0.0
 10
5.3624538554
 20
4.980418348
 30
0.0
 10
5.3621738929
 20
4.9805309625
 30
0.0
 10
5.3618295278
 20
4.9806453629
 30
0.0
 10
5.3614200662
 20
4.9807615063
 30
0.0
 10
5.3609447346
 20
4.9808792888
 30
0.0
 10
5.3604029064
 20
4.9809986482
 30
0.0
 10
5.359793962
 20
4.9811195267
 30
0.0
 10
5.3591172988
 20
4.9812418937
 30
0.0
 10
5.3580787445
 20
4.9814144507
 30
0.0
 10
5.3566053926
 20
4.9816311524
 30
0.0
 10
5.3546233498
 20
4.9818871381
 30
0.0
 10
5.3523531972
 20
4.9821486059
 30
0.0
 10
5.3497889587
 20
4.9824153659
 30
0.0
 10
5.3469246491
 20
4.9826872171
 30
0.0
 10
5.3424894274
 20
4.9830742729
 30
0.0
 10
5.3361497695
 20
4.9835641217
 30
0.0
 10
5.330863556
 20
4.9839225344
 30
0.0
 10
5.3280047344
 20
4.9841064744
 30
0.0
 11
5.3629453731
 21
4.9799645531
 31
0.0
 11
5.3629410336
 21
4.9800184578
 31
0.0
 11
5.3629211046
 21
4.9800727473
 31
0.0
 11
5.3628855152
 21
4.9801274199
 31
0.0
 11
5.3628341941
 21
4.9801824735
 31
0.0
 11
5.3627670701
 21
4.9802379062
 31
0.0
 11
5.3626840722
 21
4.9802937159
 31
0.0
 11
5.3624701701
 21
4.9804064588
 31
0.0
 11
5.3621919186
 21
4.9805206864
 31
0.0
 11
5.3618487487
 21
4.980636383
 31
0.0
 11
5.3614400912
 21
4.9807535328
 31
0.0
 11
5.3609653772
 21
4.9808721202
 31
0.0
 11
5.3604240376
 21
4.9809921294
 31
0.0
 11
5.3598155032
 21
4.9811135446
 31
0.0
 11
5.3591392051
 21
4.9812363501
 31
0.0
 11
5.3583945416
 21
4.9813605299
 31
0.0
 11
5.3566972218
 21
4.9816129447
 31
0.0
 11
5.3547176203
 21
4.9818706527
 31
0.0
 11
5.3524497877
 21
4.9821335171
 31
0.0
 11
5.3498877745
 21
4.9824014015
 31
0.0
 11
5.3470256313
 21
4.9826741691
 31
0.0
 11
5.3438574086
 21
4.9829516833
 31
0.0
 11
5.3365789271
 21
4.9835204052
 31
0.0
 11
5.3280047344
 21
4.9841064744
 31
0.0
  0
LINE
  5
46A
100
AcDbEntity
  8
0
100
AcDbLine
 62
9
  6
CONTINUOUS
 10
5.5202853914
 20
5.5666217817
 11
5.5189542054
 21
5.5665763715
  0
SPLINE
  5
46B
100
AcDbEntity
  8
0
100
AcDbSpline
 62
9
  6
CONTINUOUS
 70
0
 71
3
 72
11
 73
7
 74
5
 42
0.0000001
 43
0.0000001
 44
0.0000000001
 12
-0.0275266978
 22
0.0125893475
 32
0.0
 13
-0.0302689736
 23
0.0
 33
0.0
 40
0.0
 40
0.0
 40
0.0
 40
0.0
 40
0.2715449169
 40
0.527832589
 40
0.7700206389
 40
1.0
 40
1.0
 40
1.0
 40
1.0
 10
5.2865789239
 20
5.5269096806
 30
0.0
 10
5.2840873456
 20
5.528049205
 30
0.0
 10
5.2791555905
 20
5.5300788019
 30
0.0
 10
5.2717190443
 20
5.5323704176
 30
0.0
 10
5.2644915165
 20
5.5337845678
 30
0.0
 10
5.2597233076
 20
5.5341238826
 30
0.0
 10
5.2574028945
 20
5.5341238826
 30
0.0
 11
5.2865789239
 21
5.5269096806
 31
0.0
 11
5.2789691451
 21
5.5300160565
 31
0.0
 11
5.2715480722
 21
5.5322760321
 31
0.0
 11
5.2643484179
 21
5.5336563825
 31
0.0
 11
5.2574028945
 21
5.5341238826
 31
0.0
  0
LINE
  5
46C
100
AcDbEntity
  8
0
100
AcDbLine
 62
9
  6
CONTINUOUS
 10
5.5091915831
 20
5.5662124815
 11
5.5075751656
 21
5.566147064
  0
SPLINE
  5
46D
100
AcDbEntity
  8
0
100
AcDbSpline
 62
9
  6
CONTINUOUS
 70
0
 71
3
 72
16
 73
12
 74
10
 42
0.0000001
 43
0.0000001
 44
0.0000000001
 12
-0.2523052753
 22
-0.0103599432
 32
0.0
 13
-0.2468262724
 23
-0.0533110837
 33
0.0
 40
0.0
 40
0.0
 40
0.0
 40
0.0
 40
0.1049087104
 40
0.2185184019
 40
0.3393381361
 40
0.465894848
 40
0.5308700715
 40
0.596729609
 40
0.7303527478
 40
0.8652728597
 40
1.0
 40
1.0
 40
1.0
 40
1.0
 10
5.5075751656
 20
5.566147064
 30
0.0
 10
5.4987521586
 20
5.5657847812
 30
0.0
 10
5.4803812168
 20
5.5648542529
 30
0.0
 10
5.4518851006
 20
5.5628765154
 30
0.0
 10
5.4216182728
 20
5.5601741379
 30
0.0
 10
5.3954844538
 20
5.5572772817
 30
0.0
 10
5.3739953899
 20
5.5545159735
 30
0.0
 10
5.3519500977
 20
5.5514279644
 30
0.0
 10
5.3241417343
 20
5.5470548904
 30
0.0
 10
5.2907314901
 20
5.5410426713
 30
0.0
 10
5.2684876271
 20
5.5365180325
 30
0.0
 10
5.2574028945
 20
5.5341238826
 30
0.0
 11
5.5075751656
 21
5.566147064
 31
0.0
 11
5.4811174909
 21
5.5648122372
 31
0.0
 11
5.4524977658
 21
5.5628272581
 31
0.0
 11
5.4221097283
 21
5.5601115632
 31
0.0
 11
5.3903471161
 21
5.5565845896
 31
0.0
 11
5.3740733353
 21
5.5544948477
 31
0.0
 11
5.3576032851
 21
5.5521887708
 31
0.0
 11
5.3242702028
 21
5.5469500842
 31
0.0
 11
5.2907395218
 21
5.5409134735
 31
0.0
 11
5.2574028945
 21
5.5341238826
 31
0.0
  0
SPLINE
  5
46E
100
AcDbEntity
  8
0
100
AcDbSpline
 62
9
  6
CONTINUOUS
 70
0
 71
3
 72
14
 73
10
 74
8
 42
0.0000001
 43
0.0000001
 44
0.0000000001
 12
-0.0366200691
 22
0.0102037779
 32
0.0
 13
-0.0380150832
 23
0.0
 33
0.0
 40
0.0
 40
0.0
 40
0.0
 40
0.0
 40
0.276015026
 40
0.4078317234
 40
0.5353284383
 40
0.6583844464
 40
0.7768971905
 40
0.8907865207
 40
1.0
 40
1.0
 40
1.0
 40
1.0
 10
5.1218874639
 20
5.3699035725
 30
0.0
 10
5.1185182342
 20
5.3708423712
 30
0.0
 10
5.1135047738
 20
5.372109806
 30
0.0
 10
5.1068620846
 20
5.3734885645
 30
0.0
 10
5.102089369
 20
5.374328806
 30
0.0
 10
5.0974585262
 20
5.3749883559
 30
0.0
 10
5.0929784225
 20
5.3754643537
 30
0.0
 10
5.0886581555
 20
5.3757539451
 30
0.0
 10
5.0858307447
 20
5.3758222574
 30
0.0
 10
5.0844468249
 20
5.3758222574
 30
0.0
 11
5.1218874639
 21
5.3699035725
 31
0.0
 11
5.1117105433
 21
5.3724585198
 31
0.0
 11
5.1068035663
 21
5.3734743572
 31
0.0
 11
5.1020296886
 21
5.3743119396
 31
0.0
 11
5.0973979928
 21
5.374968394
 31
0.0
 11
5.0929175618
 21
5.3754408471
 31
0.0
 11
5.0885974782
 21
5.375726426
 31
0.0
 11
5.0844468249
 21
5.3758222574
 31
0.0
  0
SPLINE
  5
46F
100
AcDbEntity
  8
0
100
AcDbSpline
 62
9
  6
CONTINUOUS
 70
0
 71
3
 72
25
 73
21
 74
19
 42
0.0000001
 43
0.0000001
 44
0.0000000001
 12
-0.2253321168
 22
-0.0613229086
 32
0.0
 13
-0.0970280827
 23
-0.212416132
 33
0.0
 40
0.0
 40
0.0
 40
0.0
 40
0.0
 40
0.1064287742
 40
0.1617438333
 40
0.2184392951
 40
0.276518765
 40
0.3359926969
 40
0.3662616007
 40
0.3968872518
 40
0.427873806
 40
0.459225073
 40
0.4909361792
 40
0.522996734
 40
0.5881115197
 40
0.6544649182
 40
0.7219296709
 40
0.7903661982
 40
0.8596262697
 40
0.9295562433
 40
1.0
 40
1.0
 40
1.0
 40
1.0
 10
5.2482532597
 20
5.5318903033
 30
0.0
 10
5.2402593194
 20
5.5297147959
 30
0.0
 10
5.2283199653
 20
5.5255759008
 30
0.0
 10
5.2128338845
 20
5.5185379464
 30
0.0
 10
5.2011315501
 20
5.5123248357
 30
0.0
 10
5.1895521442
 20
5.5052460631
 30
0.0
 10
5.1801054802
 20
5.4986626865
 30
0.0
 10
5.1726624634
 20
5.4929692761
 30
0.0
 10
5.1671121663
 20
5.4884565533
 30
0.0
 10
5.1616340199
 20
5.4837266358
 30
0.0
 10
5.1562360077
 20
5.4787795364
 30
0.0
 10
5.1509226113
 20
5.4736209394
 30
0.0
 10
5.1439207172
 20
5.4664339491
 30
0.0
 10
5.1354115933
 20
5.4569577291
 30
0.0
 10
5.1256629348
 20
5.4449180354
 30
0.0
 10
5.116359675
 20
5.4322092399
 30
0.0
 10
5.1075381043
 20
5.4188897141
 30
0.0
 10
5.09923427
 20
5.4050173899
 30
0.0
 10
5.0914845732
 20
5.3906507849
 30
0.0
 10
5.0867251657
 20
5.3808100542
 30
0.0
 10
5.0844468249
 20
5.3758222574
 30
0.0
 11
5.2482532597
 21
5.5318903033
 31
0.0
 11
5.2247515797
 21
5.5238036313
 31
0.0
 11
5.2129889309
 21
5.5184647116
 31
0.0
 11
5.201292517
 21
5.5122606756
 31
0.0
 11
5.1897179184
 21
5.5051904781
 31
0.0
 11
5.1783207156
 21
5.4972530739
 31
0.0
 11
5.1727060066
 21
5.4929588426
 31
0.0
 11
5.1671564891
 21
5.4884474177
 31
0.0
 11
5.1616791109
 21
5.4837186684
 31
0.0
 11
5.1562806259
 21
5.4787730665
 31
0.0
 11
5.1509662907
 21
5.4736157431
 31
0.0
 11
5.1457406637
 21
5.4682540011
 31
0.0
 11
5.1355737529
 21
5.456946523
 31
0.0
 11
5.1258163302
 21
5.444909155
 31
0.0
 11
5.1165048325
 21
5.4322004196
 31
0.0
 11
5.1076756964
 21
5.4188788395
 31
0.0
 11
5.0993653586
 21
5.4050029374
 31
0.0
 11
5.0916102558
 21
5.3906312358
 31
0.0
 11
5.0844468249
 21
5.3758222574
 31
0.0
  0
SPLINE
  5
470
100
AcDbEntity
  8
0
100
AcDbSpline
 62
9
  6
CONTINUOUS
 70
0
 71
3
 72
34
 73
30
 74
28
 42
0.0000001
 43
0.0000001
 44
0.0000000001
 12
0.0109191746
 22
0.0268343472
 32
0.0
 13
-0.0289528464
 23
0.0010213952
 33
0.0
 40
0.0
 40
0.0
 40
0.0
 40
0.0
 40
0.0003057792
 40
0.0006104006
 40
0.0013589178
 40
0.0024435571
 40
0.0039312391
 40
0.0058484016
 40
0.0082081417
 40
0.0110182645
 40
0.0142841164
 40
0.0180097595
 40
0.022198523
 40
0.0319764796
 40
0.0436383557
 40
0.0572019164
 40
0.0726837387
 40
0.0900997208
 40
0.1094653874
 40
0.1307977904
 40
0.1794400267
 40
0.2361810442
 40
0.3011743732
 40
0.3745729122
 40
0.4565291696
 40
0.5471954
 40
0.6467236853
 40
0.7552659867
 40
1.0
 40
1.0
 40
1.0
 40
1.0
 10
5.3421760488
 20
4.911597409
 30
0.0
 10
5.3421771618
 20
4.9116001442
 30
0.0
 10
5.3421785285
 20
4.9116060442
 30
0.0
 10
5.3421761714
 20
4.9116192853
 30
0.0
 10
5.3421621016
 20
4.9116357329
 30
0.0
 10
5.3421349535
 20
4.911652794
 30
0.0
 10
5.3420951642
 20
4.9116704171
 30
0.0
 10
5.3420424125
 20
4.9116882531
 30
0.0
 10
5.3419764042
 20
4.9117064603
 30
0.0
 10
5.3418970517
 20
4.9117249395
 30
0.0
 10
5.3418042635
 20
4.9117436951
 30
0.0
 10
5.3416979768
 20
4.9117627086
 30
0.0
 10
5.341529279
 20
4.9117898128
 30
0.0
 10
5.341284088
 20
4.9118236935
 30
0.0
 10
5.3409484163
 20
4.9118636205
 30
0.0
 10
5.3405574362
 20
4.9119045687
 30
0.0
 10
5.3401107217
 20
4.9119465349
 30
0.0
 10
5.3396078433
 20
4.9119895027
 30
0.0
 10
5.3390483606
 20
4.912033477
 30
0.0
 10
5.3381878874
 20
4.9120962342
 30
0.0
 10
5.3369668108
 20
4.9121763556
 30
0.0
 10
5.335324324
 20
4.9122729843
 30
0.0
 10
5.3334426284
 20
4.9123738306
 30
0.0
 10
5.3313173306
 20
4.9124789544
 30
0.0
 10
5.328944036
 20
4.9125884028
 30
0.0
 10
5.3263183527
 20
4.9127022385
 30
0.0
 10
5.3234358896
 20
4.9128205317
 30
0.0
 10
5.3190665076
 20
4.9129912181
 30
0.0
 10
5.3156571916
 20
4.9131154711
 30
0.0
 10
5.3132952762
 20
4.9131987945
 30
0.0
 11
5.3421760488
 21
4.911597409
 31
0.0
 11
5.3421779224
 21
4.9116060673
 31
0.0
 11
5.3421765143
 21
4.9116147794
 31
0.0
 11
5.3421638268
 21
4.9116323656
 31
0.0
 11
5.3421379339
 21
4.911650169
 31
0.0
 11
5.3420987833
 21
4.9116681909
 31
0.0
 11
5.3420463225
 21
4.9116864326
 31
0.0
 11
5.3419804991
 21
4.9117048956
 31
0.0
 11
5.3419012608
 21
4.9117235811
 31
0.0
 11
5.3418085551
 21
4.9117424905
 31
0.0
 11
5.3417023297
 21
4.9117616252
 31
0.0
 11
5.3415825321
 21
4.9117809865
 31
0.0
 11
5.3413020108
 21
4.9118203944
 31
0.0
 11
5.3409665721
 21
4.9118607249
 31
0.0
 11
5.3405757967
 21
4.9119019888
 31
0.0
 11
5.3401292654
 21
4.9119441969
 31
0.0
 11
5.3396265591
 21
4.9119873601
 31
0.0
 11
5.3390672574
 21
4.912031489
 31
0.0
 11
5.3384508875
 21
4.9120765941
 31
0.0
 11
5.3370447641
 21
4.9121697722
 31
0.0
 11
5.3354038045
 21
4.9122669727
 31
0.0
 11
5.333523619
 21
4.9123682741
 31
0.0
 11
5.3313998182
 21
4.9124737548
 31
0.0
 11
5.3290280125
 21
4.9125834932
 31
0.0
 11
5.3264038124
 21
4.9126975677
 31
0.0
 11
5.3235228282
 21
4.9128160566
 31
0.0
 11
5.3203806705
 21
4.9129390385
 31
0.0
 11
5.3132952762
 21
4.9131987945
 31
0.0
  0
SPLINE
  5
471
100
AcDbEntity
  8
0
100
AcDbSpline
 62
9
  6
CONTINUOUS
 70
0
 71
3
 72
13
 73
9
 74
7
 42
0.0000001
 43
0.0000001
 44
0.0000000001
 12
-0.0471421778
 22
0.0010706373
 32
0.0
 13
-0.0471543338
 23
0.0
 33
0.0
 40
0.0
 40
0.0
 40
0.0
 40
0.0
 40
0.1767626777
 40
0.328995834
 40
0.4619486774
 40
0.5808698962
 40
0.7949593578
 40
1.0
 40
1.0
 40
1.0
 40
1.0
 10
5.052390298
 20
4.995376166
 30
0.0
 10
5.0496126388
 20
4.9954392489
 30
0.0
 10
5.0444426391
 20
4.9955506802
 30
0.0
 10
5.0371829437
 20
4.9956867395
 30
0.0
 10
5.0308319235
 20
4.9957870485
 30
0.0
 10
5.0235084749
 20
4.9958824279
 30
0.0
 10
5.0150517152
 20
4.9959677005
 30
0.0
 10
5.0084637575
 20
4.9959903417
 30
0.0
 10
5.0052409059
 20
4.9959903417
 30
0.0
 11
5.052390298
 21
4.995376166
 31
0.0
 11
5.044057086
 21
4.9955547937
 31
0.0
 11
5.0368798811
 21
4.995688655
 31
0.0
 11
5.0306113572
 21
4.9957874765
 31
0.0
 11
5.0250041882
 21
4.9958609852
 31
0.0
 11
5.0149094057
 21
4.9959577108
 31
0.0
 11
5.0052409059
 21
4.9959903417
 31
0.0
  0
LINE
  5
472
100
AcDbEntity
  8
0
100
AcDbLine
 62
9
  6
CONTINUOUS
 10
5.2961084213
 20
4.8360877053
 11
5.2734690784
 21
4.8367105552
  0
LINE
  5
473
100
AcDbEntity
  8
0
100
AcDbLine
 62
9
  6
CONTINUOUS
 10
5.2986821886
 20
4.839140772
 11
5.2757206003
 21
4.8397521173
  0
SPLINE
  5
474
100
AcDbEntity
  8
0
100
AcDbSpline
 62
9
  6
CONTINUOUS
 70
0
 71
3
 72
15
 73
11
 74
9
 42
0.0000001
 43
0.0000001
 44
0.0000000001
 12
-0.162397684
 22
-0.3555247811
 32
0.0
 13
0.0
 23
-0.3908591533
 33
0.0
 40
0.0
 40
0.0
 40
0.0
 40
0.0
 40
0.1197519177
 40
0.2415251265
 40
0.3650850999
 40
0.4901691267
 40
0.6164955804
 40
0.7437722371
 40
0.8717039542
 40
1.0
 40
1.0
 40
1.0
 40
1.0
 10
5.0844468249
 20
5.3758222574
 30
0.0
 10
5.0779643468
 20
5.3616306659
 30
0.0
 10
5.0657665639
 20
5.3325997132
 30
0.0
 10
5.0498946447
 20
5.2877351329
 30
0.0
 10
5.0363287784
 20
5.2413956597
 30
0.0
 10
5.025118334
 20
5.1938226551
 30
0.0
 10
5.0163117784
 20
5.1452550079
 30
0.0
 10
5.009958196
 20
5.0959318637
 30
0.0
 10
5.0061068017
 20
5.0460944698
 30
0.0
 10
5.0052409059
 20
5.0127052018
 30
0.0
 10
5.0052409059
 20
4.9959899739
 30
0.0
 11
5.0844468249
 21
5.3758222574
 31
0.0
 11
5.0662859671
 21
5.3326829789
 31
0.0
 11
5.0503864419
 21
5.2878209592
 31
0.0
 11
5.0367975998
 21
5.2414776037
 31
0.0
 11
5.0255687914
 21
5.1938943176
 31
0.0
 11
5.0167493673
 21
5.1453125062
 31
0.0
 11
5.010388678
 21
5.0959735749
 31
0.0
 11
5.006536074
 21
5.046118929
 31
0.0
 11
5.0052409059
 21
4.9959899739
 31
0.0
  0
SPLINE
  5
475
100
AcDbEntity
  8
0
100
AcDbSpline
 62
9
  6
CONTINUOUS
 70
0
 71
3
 72
34
 73
30
 74
28
 42
0.0000001
 43
0.0000001
 44
0.0000000001
 12
0.0141670509
 22
0.0102622215
 32
0.0
 13
-0.0174901786
 23
0.0003349253
 33
0.0
 40
0.0
 40
0.0
 40
0.0
 40
0.0
 40
0.0005001581
 40
0.0007008613
 40
0.0009473903
 40
0.0012785638
 40
0.0017111089
 40
0.0029060579
 40
0.0045605848
 40
0.0066846596
 40
0.0092835702
 40
0.0123607649
 40
0.0159188282
 40
0.0199598874
 40
0.0294981934
 40
0.0409890661
 40
0.0544444847
 40
0.0698758139
 40
0.0872940783
 40
0.106710099
 40
0.1281345678
 40
0.1515781662
 40
0.1770535578
 40
0.2341591554
 40
0.2995706327
 40
0.3734070433
 40
0.5468299907
 40
0.7553779911
 40
1.0
 40
1.0
 40
1.0
 40
1.0
 10
5.2585494574
 20
4.801522863
 30
0.0
 10
5.2585518193
 20
4.8015245739
 30
0.0
 10
5.2585554139
 20
4.8015278529
 30
0.0
 10
5.2585546029
 20
4.8015336853
 30
0.0
 10
5.2585516283
 20
4.8015372816
 30
0.0
 10
5.2585468381
 20
4.8015407389
 30
0.0
 10
5.2585366191
 20
4.8015459204
 30
0.0
 10
5.2585184089
 20
4.8015520041
 30
0.0
 10
5.2584902526
 20
4.8015589714
 30
0.0
 10
5.2584537288
 20
4.8015660508
 30
0.0
 10
5.2584088157
 20
4.8015732536
 30
0.0
 10
5.2583554618
 20
4.8015805455
 30
0.0
 10
5.2582936436
 20
4.8015879236
 30
0.0
 10
5.2581942672
 20
4.8015984549
 30
0.0
 10
5.258048656
 20
4.8016115187
 30
0.0
 10
5.2578481497
 20
4.8016267954
 30
0.0
 10
5.2576132154
 20
4.8016423734
 30
0.0
 10
5.2573436701
 20
4.8016582461
 30
0.0
 10
5.2570393297
 20
4.8016744004
 30
0.0
 10
5.256700012
 20
4.8016908315
 30
0.0
 10
5.2563255348
 20
4.8017075349
 30
0.0
 10
5.2559157039
 20
4.8017245096
 30
0.0
 10
5.2552979229
 20
4.8017484216
 30
0.0
 10
5.2544354888
 20
4.8017787083
 30
0.0
 10
5.2532910969
 20
4.8018149005
 30
0.0
 10
5.2514686286
 20
4.8018674465
 30
0.0
 10
5.2488116026
 20
4.8019347612
 30
0.0
 10
5.2451587619
 20
4.8020161465
 30
0.0
 10
5.2425167941
 20
4.8020689195
 30
0.0
 10
5.2410906332
 20
4.8020962296
 30
0.0
 11
5.2585494574
 21
4.801522863
 31
0.0
 11
5.2585548136
 21
4.8015297814
 31
0.0
 11
5.258554375
 21
4.8015332649
 31
0.0
 11
5.2585518549
 21
4.8015367645
 31
0.0
 11
5.2585472504
 21
4.8015402804
 31
0.0
 11
5.2585405587
 21
4.8015438125
 31
0.0
 11
5.2585209023
 21
4.8015509253
 31
0.0
 11
5.2584928632
 21
4.8015581029
 31
0.0
 11
5.2584564186
 21
4.8015653454
 31
0.0
 11
5.2584115459
 21
4.8015726528
 31
0.0
 11
5.2583582226
 21
4.8015800251
 31
0.0
 11
5.258296426
 21
4.8015874623
 31
0.0
 11
5.2582261334
 21
4.8015949644
 31
0.0
 11
5.2580599698
 21
4.8016101634
 31
0.0
 11
5.2578595508
 21
4.8016256224
 31
0.0
 11
5.2576246955
 21
4.8016413414
 31
0.0
 11
5.2573552226
 21
4.8016573207
 31
0.0
 11
5.2570509513
 21
4.8016735602
 31
0.0
 11
5.2567117004
 21
4.8016900602
 31
0.0
 11
5.2563372888
 21
4.8017068207
 31
0.0
 11
5.2559275343
 21
4.801723842
 31
0.0
 11
5.2554822187
 21
4.8017411238
 31
0.0
 11
5.2544838739
 21
4.8017764674
 31
0.0
 11
5.2533401842
 21
4.8018128478
 31
0.0
 11
5.2520490774
 21
4.8018502612
 31
0.0
 11
5.2490163237
 21
4.8019281726
 31
0.0
 11
5.2453690348
 21
4.8020101719
 31
0.0
 11
5.2410906332
 21
4.8020962296
 31
0.0
  0
SPLINE
  5
476
100
AcDbEntity
  8
0
100
AcDbSpline
 62
9
  6
CONTINUOUS
 70
0
 71
3
 72
9
 73
5
 74
3
 42
0.0000001
 43
0.0000001
 44
0.0000000001
 12
-0.0084361391
 22
0.0
 32
0.0
 13
-0.0082979649
 23
-0.0015205986
 33
0.0
 40
0.0
 40
0.0
 40
0.0
 40
0.0
 40
0.5055298957
 40
1.0
 40
1.0
 40
1.0
 40
1.0
 10
5.2574028945
 20
5.5341238826
 30
0.0
 10
5.255981321
 20
5.5341238826
 30
0.0
 10
5.2531677444
 20
5.5340012837
 30
0.0
 10
5.2503766371
 20
5.5336237184
 30
0.0
 10
5.2490089386
 20
5.5333730882
 30
0.0
 11
5.2574028945
 21
5.5341238826
 31
0.0
 11
5.2531423691
 21
5.5339347685
 31
0.0
 11
5.2490089386
 21
5.5333730882
 31
0.0
  0
SPLINE
  5
477
100
AcDbEntity
  8
0
100
AcDbSpline
 62
9
  6
CONTINUOUS
 70
0
 71
3
 72
14
 73
10
 74
8
 42
0.0000001
 43
0.0000001
 44
0.0000000001
 12
-0.0270417186
 22
0.0
 32
0.0
 13
-0.0230606041
 23
-0.01412314
 33
0.0
 40
0.0
 40
0.0
 40
0.0
 40
0.0
 40
0.1469211095
 40
0.2872605023
 40
0.4211079167
 40
0.5486010355
 40
0.6699376899
 40
0.7853905164
 40
1.0
 40
1.0
 40
1.0
 40
1.0
 10
5.0844468249
 20
5.3758222574
 30
0.0
 10
5.0831224918
 20
5.3758222574
 30
0.0
 10
5.080532622
 20
5.3757623496
 30
0.0
 10
5.0767455361
 20
5.3754809029
 30
0.0
 10
5.0731531359
 20
5.3750127119
 30
0.0
 10
5.0697637337
 20
5.3743606165
 30
0.0
 10
5.0665844432
 20
5.3735269192
 30
0.0
 10
5.0627329047
 20
5.3722100071
 30
0.0
 10
5.0600320012
 20
5.3709138924
 30
0.0
 10
5.0583823264
 20
5.3699035725
 30
0.0
 11
5.0844468249
 21
5.3758222574
 31
0.0
 11
5.0804749815
 21
5.375726426
 31
0.0
 11
5.0766907234
 21
5.3754408471
 31
0.0
 11
5.0731022267
 21
5.374968394
 31
0.0
 11
5.0697176675
 21
5.3743119396
 31
0.0
 11
5.0665452218
 21
5.3734743572
 31
0.0
 11
5.0635930656
 21
5.3724585198
 31
0.0
 11
5.0583823264
 21
5.3699035725
 31
0.0
  0
LINE
  5
478
100
AcDbEntity
  8
0
100
AcDbLine
 62
9
  6
CONTINUOUS
 10
5.1518846315
 20
4.7661956863
 11
5.1522370165
 21
4.7661930279
  0
SPLINE
  5
479
100
AcDbEntity
  8
0
100
AcDbSpline
 62
9
  6
CONTINUOUS
 70
0
 71
3
 72
15
 73
11
 74
9
 42
0.0000001
 43
0.0000001
 44
0.0000000001
 12
0.1651600325
 22
-0.3492699123
 32
0.0
 13
0.0015378353
 23
-0.3863482148
 33
0.0
 40
0.0
 40
0.0
 40
0.0
 40
0.0
 40
0.1202169548
 40
0.2423069719
 40
0.3660392554
 40
0.4911579846
 40
0.6173915223
 40
0.7444607966
 40
0.87208716
 40
1.0
 40
1.0
 40
1.0
 40
1.0
 10
6.9086639489
 20
5.3699035725
 30
0.0
 10
6.9152822943
 20
5.3559075174
 30
0.0
 10
6.9277553648
 20
5.3272795028
 30
0.0
 10
6.9440454326
 20
5.2830180452
 30
0.0
 10
6.9580182138
 20
5.2373103598
 30
0.0
 10
6.969616106
 20
5.1903947119
 30
0.0
 10
6.9787824479
 20
5.1425068973
 30
0.0
 10
6.9854599483
 20
5.0938828913
 30
0.0
 10
6.9895911614
 20
5.0447608922
 30
0.0
 10
6.9906088577
 20
5.0118487652
 30
0.0
 10
6.9906744273
 20
4.9953757995
 30
0.0
 11
6.9086639489
 21
5.3699035725
 31
0.0
 11
6.9272430674
 21
5.3273354525
 31
0.0
 11
6.9435578823
 21
5.2830771067
 31
0.0
 11
6.9575508583
 21
5.2373668121
 31
0.0
 11
6.9691644604
 21
5.1904428455
 31
0.0
 11
6.9783411535
 21
5.1425434841
 31
0.0
 11
6.9850234024
 21
5.0939070046
 31
0.0
 11
6.989153672
 21
5.0447716841
 31
0.0
 11
6.9906744273
 21
4.9953757995
 31
0.0
  0
LINE
  5
47A
100
AcDbEntity
  8
0
100
AcDbLine
 62
9
  6
CONTINUOUS
 10
6.4467608838
 20
5.5666217817
 11
6.4480901147
 21
5.566576439
  0
LINE
  5
47B
100
AcDbEntity
  8
0
100
AcDbLine
 62
9
  6
CONTINUOUS
 10
6.4578546921
 20
5.5662124815
 11
6.4594711148
 21
5.5661470638
  0
SPLINE
  5
47C
100
AcDbEntity
  8
0
100
AcDbSpline
 62
9
  6
CONTINUOUS
 70
0
 71
3
 72
16
 73
12
 74
10
 42
0.0000001
 43
0.0000001
 44
0.0000000001
 12
0.2523052701
 22
-0.0103599439
 32
0.0
 13
0.2468262673
 23
-0.0533110826
 33
0.0
 40
0.0
 40
0.0
 40
0.0
 40
0.0
 40
0.1049087117
 40
0.218518404
 40
0.3393381384
 40
0.4658948502
 40
0.5308700736
 40
0.5967296109
 40
0.7303527491
 40
0.8652728604
 40
1.0
 40
1.0
 40
1.0
 40
1.0
 10
6.4594711148
 20
5.5661470638
 30
0.0
 10
6.4682941217
 20
5.565784781
 30
0.0
 10
6.4866650633
 20
5.5648542526
 30
0.0
 10
6.5151611791
 20
5.562876515
 30
0.0
 10
6.5454280064
 20
5.5601741375
 30
0.0
 10
6.5715618249
 20
5.5572772812
 30
0.0
 10
6.5930508883
 20
5.5545159731
 30
0.0
 10
6.61509618
 20
5.551427964
 30
0.0
 10
6.6429045427
 20
5.5470548901
 30
0.0
 10
6.676314786
 20
5.5410426711
 30
0.0
 10
6.6985586484
 20
5.5365180324
 30
0.0
 10
6.7096433807
 20
5.5341238826
 30
0.0
 11
6.4594711148
 21
5.5661470638
 31
0.0
 11
6.4859287893
 21
5.5648122369
 31
0.0
 11
6.514548514
 21
5.5628272577
 31
0.0
 11
6.5449365509
 21
5.5601115628
 31
0.0
 11
6.5766991624
 21
5.5565845892
 31
0.0
 11
6.5929729429
 21
5.5544948473
 31
0.0
 11
6.6094429927
 21
5.5521887705
 31
0.0
 11
6.6427760742
 21
5.5469500839
 31
0.0
 11
6.6763067544
 21
5.5409134733
 31
0.0
 11
6.7096433807
 21
5.5341238826
 31
0.0
  0
SPLINE
  5
47D
100
AcDbEntity
  8
0
100
AcDbSpline
 62
9
  6
CONTINUOUS
 70
0
 71
3
 72
14
 73
10
 74
8
 42
0.0000001
 43
0.0000001
 44
0.0000000001
 12
-0.0230606041
 22
0.01412314
 32
0.0
 13
-0.0270417186
 23
0.0
 33
0.0
 40
0.0
 40
0.0
 40
0.0
 40
0.0
 40
0.2146094836
 40
0.3300623101
 40
0.4513989645
 40
0.5788920833
 40
0.7127394977
 40
0.8530788905
 40
1.0
 40
1.0
 40
1.0
 40
1.0
 10
6.9086639489
 20
5.3699035725
 30
0.0
 10
6.9070142741
 20
5.3709138924
 30
0.0
 10
6.9043133705
 20
5.3722100071
 30
0.0
 10
6.9004618321
 20
5.3735269192
 30
0.0
 10
6.8972825416
 20
5.3743606165
 30
0.0
 10
6.8938931394
 20
5.3750127119
 30
0.0
 10
6.8903007391
 20
5.3754809029
 30
0.0
 10
6.8865136533
 20
5.3757623496
 30
0.0
 10
6.8839237835
 20
5.3758222574
 30
0.0
 10
6.8825994504
 20
5.3758222574
 30
0.0
 11
6.9086639489
 21
5.3699035725
 31
0.0
 11
6.9034532096
 21
5.3724585198
 31
0.0
 11
6.9005010535
 21
5.3734743572
 31
0.0
 11
6.8973286078
 21
5.3743119396
 31
0.0
 11
6.8939440485
 21
5.374968394
 31
0.0
 11
6.8903555518
 21
5.3754408471
 31
0.0
 11
6.8865712938
 21
5.375726426
 31
0.0
 11
6.8825994504
 21
5.3758222574
 31
0.0
  0
SPLINE
  5
47E
100
AcDbEntity
  8
0
100
AcDbSpline
 62
9
  6
CONTINUOUS
 70
0
 71
3
 72
25
 73
21
 74
19
 42
0.0000001
 43
0.0000001
 44
0.0000000001
 12
0.2253321606
 22
-0.0613228758
 32
0.0
 13
0.0970280967
 23
-0.2124161626
 33
0.0
 40
0.0
 40
0.0
 40
0.0
 40
0.0
 40
0.1064287701
 40
0.1617438276
 40
0.2184392881
 40
0.2765187569
 40
0.3359926881
 40
0.3662615915
 40
0.3968872424
 40
0.4278737964
 40
0.4592250633
 40
0.4909361694
 40
0.5229967243
 40
0.5881115105
 40
0.6544649099
 40
0.7219296638
 40
0.7903661925
 40
0.8596262658
 40
0.9295562412
 40
1.0
 40
1.0
 40
1.0
 40
1.0
 10
6.718792983
 20
5.5318903121
 30
0.0
 10
6.7267869246
 20
5.529714806
 30
0.0
 10
6.7387262807
 20
5.5255759125
 30
0.0
 10
6.7542123642
 20
5.5185379595
 30
0.0
 10
6.7659147009
 20
5.5123248496
 30
0.0
 10
6.7774941092
 20
5.5052460775
 30
0.0
 10
6.7869407751
 20
5.498662701
 30
0.0
 10
6.7943837934
 20
5.4929692907
 30
0.0
 10
6.7999340917
 20
5.4884565678
 30
0.0
 10
6.8054122393
 20
5.4837266501
 30
0.0
 10
6.8108102527
 20
5.4787795504
 30
0.0
 10
6.8161236502
 20
5.4736209531
 30
0.0
 10
6.8231255459
 20
5.4664339622
 30
0.0
 10
6.8316346716
 20
5.4569577413
 30
0.0
 10
6.8413833322
 20
5.4449180462
 30
0.0
 10
6.850686594
 20
5.432209249
 30
0.0
 10
6.8595081666
 20
5.4188897212
 30
0.0
 10
6.8678120025
 20
5.4050173948
 30
0.0
 10
6.8755617008
 20
5.3906507874
 30
0.0
 10
6.8803211091
 20
5.380810055
 30
0.0
 10
6.8825994504
 20
5.3758222574
 30
0.0
 11
6.718792983
 21
5.5318903121
 31
0.0
 11
6.7422946669
 21
5.5238036433
 31
0.0
 11
6.7540573178
 21
5.5184647246
 31
0.0
 11
6.765753734
 21
5.5122606894
 31
0.0
 11
6.7773283349
 21
5.5051904925
 31
0.0
 11
6.78872554
 21
5.4972530885
 31
0.0
 11
6.7943402503
 21
5.4929588572
 31
0.0
 11
6.7998897688
 21
5.4884474322
 31
0.0
 11
6.8053671482
 21
5.4837186827
 31
0.0
 11
6.8107656344
 21
5.4787730806
 31
0.0
 11
6.8160799708
 21
5.4736157568
 31
0.0
 11
6.821305599
 21
5.4682540144
 31
0.0
 11
6.831472512
 21
5.4569465352
 31
0.0
 11
6.8412299367
 21
5.4449091657
 31
0.0
 11
6.8505414364
 21
5.4322004287
 31
0.0
 11
6.8593705744
 21
5.4188788466
 31
0.0
 11
6.8676809139
 21
5.4050029423
 31
0.0
 11
6.8754360181
 21
5.3906312383
 31
0.0
 11
6.8825994504
 21
5.3758222574
 31
0.0
  0
SPLINE
  5
47F
100
AcDbEntity
  8
0
100
AcDbSpline
 62
9
  6
CONTINUOUS
 70
0
 71
3
 72
15
 73
11
 74
9
 42
0.0000001
 43
0.0000001
 44
0.0000000001
 12
-0.0288094795
 22
0.0020191858
 32
0.0
 13
-0.0288801527
 23
0.0
 33
0.0
 40
0.0
 40
0.0
 40
0.0
 40
0.0
 40
0.1046329918
 40
0.2152889767
 40
0.3305468364
 40
0.4489687784
 40
0.5702740673
 40
0.6988467382
 40
0.8402382572
 40
1.0
 40
1.0
 40
1.0
 40
1.0
 10
6.9906744231
 20
4.9953761557
 30
0.0
 10
6.9896696158
 20
4.9954465802
 30
0.0
 10
6.9876003814
 20
4.9955663828
 30
0.0
 10
6.984420882
 20
4.9956967125
 30
0.0
 10
6.981107392
 20
4.9957927516
 30
0.0
 10
6.9776907806
 20
4.9958642677
 30
0.0
 10
6.9741457081
 20
4.9959213928
 30
0.0
 10
6.9703792679
 20
4.9959619783
 30
0.0
 10
6.9662424725
 20
4.9959858628
 30
0.0
 10
6.9633433506
 20
4.9959903314
 30
0.0
 10
6.9618053694
 20
4.9959903314
 30
0.0
 11
6.9906744231
 21
4.9953761557
 31
0.0
 11
6.9876578906
 21
4.9955547834
 31
0.0
 11
6.9844649336
 21
4.9956886446
 31
0.0
 11
6.9811377362
 21
4.9957874662
 31
0.0
 11
6.9777184825
 21
4.9958609749
 31
0.0
 11
6.9742156191
 21
4.9959172401
 31
0.0
 11
6.9705026412
 21
4.9959577004
 31
0.0
 11
6.9664193057
 21
4.9959821372
 31
0.0
 11
6.9618053694
 21
4.9959903314
 31
0.0
  0
SPLINE
  5
480
100
AcDbEntity
  8
0
100
AcDbSpline
 62
9
  6
CONTINUOUS
 70
0
 71
3
 72
15
 73
11
 74
9
 42
0.0000001
 43
0.0000001
 44
0.0000000001
 12
0.162397684
 22
-0.3555247811
 32
0.0
 13
0.0
 23
-0.3908591533
 33
0.0
 40
0.0
 40
0.0
 40
0.0
 40
0.0
 40
0.1197519177
 40
0.2415251265
 40
0.3650850999
 40
0.4901691267
 40
0.6164955804
 40
0.7437722371
 40
0.8717039542
 40
1.0
 40
1.0
 40
1.0
 40
1.0
 10
6.8825994504
 20
5.3758222574
 30
0.0
 10
6.8890819284
 20
5.3616306659
 30
0.0
 10
6.9012797113
 20
5.3325997132
 30
0.0
 10
6.9171516305
 20
5.2877351329
 30
0.0
 10
6.9307174969
 20
5.2413956597
 30
0.0
 10
6.9419279413
 20
5.1938226551
 30
0.0
 10
6.9507344968
 20
5.1452550079
 30
0.0
 10
6.9570880792
 20
5.0959318637
 30
0.0
 10
6.9609394736
 20
5.0460944698
 30
0.0
 10
6.9618053694
 20
5.0127052018
 30
0.0
 10
6.9618053694
 20
4.9959899739
 30
0.0
 11
6.8825994504
 21
5.3758222574
 31
0.0
 11
6.9007603082
 21
5.3326829789
 31
0.0
 11
6.9166598334
 21
5.2878209592
 31
0.0
 11
6.9302486755
 21
5.2414776037
 31
0.0
 11
6.9414774838
 21
5.1938943176
 31
0.0
 11
6.9502969079
 21
5.1453125062
 31
0.0
 11
6.9566575973
 21
5.0959735749
 31
0.0
 11
6.9605102013
 21
5.046118929
 31
0.0
 11
6.9618053694
 21
4.9959899739
 31
0.0
  0
SPLINE
  5
481
100
AcDbEntity
  8
0
100
AcDbSpline
 62
9
  6
CONTINUOUS
 70
0
 71
3
 72
9
 73
5
 74
3
 42
0.0000001
 43
0.0000001
 44
0.0000000001
 12
-0.009411784
 22
0.0
 32
0.0
 13
-0.0091852468
 23
-0.00205254
 33
0.0
 40
0.0
 40
0.0
 40
0.0
 40
0.0
 40
0.4974079721
 40
1.0
 40
1.0
 40
1.0
 40
1.0
 10
6.4578546921
 20
5.5662124815
 30
0.0
 10
6.4562941933
 20
5.5662124815
 30
0.0
 10
6.4531545373
 20
5.5660299058
 30
0.0
 10
6.4500553299
 20
5.5655019095
 30
0.0
 10
6.4485165193
 20
5.5651580461
 30
0.0
 11
6.4578546921
 21
5.5662124815
 31
0.0
 11
6.453180821
 21
5.5659453901
 31
0.0
 11
6.4485165193
 21
5.5651580461
 31
0.0
  0
SPLINE
  5
482
100
AcDbEntity
  8
0
100
AcDbSpline
 62
9
  6
CONTINUOUS
 70
0
 71
3
 72
10
 73
6
 74
4
 42
0.0000001
 43
0.0000001
 44
0.0000000001
 12
-0.0143023786
 22
-0.003196017
 32
0.0
 13
-0.0129341826
 23
-0.0068905354
 33
0.0
 40
0.0
 40
0.0
 40
0.0
 40
0.0
 40
0.2428919598
 40
0.4900829107
 40
1.0
 40
1.0
 40
1.0
 40
1.0
 10
6.4485165193
 20
5.5651580461
 30
0.0
 10
6.4473585417
 20
5.5648992838
 30
0.0
 10
6.4450412286
 20
5.5642870316
 30
0.0
 10
6.4404174722
 20
5.5627019742
 30
0.0
 10
6.4370473537
 20
5.5611467053
 30
0.0
 10
6.4348489001
 20
5.5599755047
 30
0.0
 11
6.4485165193
 21
5.5651580461
 31
0.0
 11
6.4450741543
 21
5.5642519815
 31
0.0
 11
6.4416461718
 21
5.5630805456
 31
0.0
 11
6.4348489001
 21
5.5599755047
 31
0.0
  0
SPLINE
  5
483
100
AcDbEntity
  8
0
100
AcDbSpline
 62
9
  6
CONTINUOUS
 70
0
 71
3
 72
11
 73
7
 74
5
 42
0.0000001
 43
0.0000001
 44
0.0000000001
 12
-0.0302689736
 22
0.0
 32
0.0
 13
-0.0275266978
 23
-0.0125893475
 33
0.0
 40
0.0
 40
0.0
 40
0.0
 40
0.0
 40
0.2299793611
 40
0.472167411
 40
0.7284550831
 40
1.0
 40
1.0
 40
1.0
 40
1.0
 10
6.7096433807
 20
5.5341238826
 30
0.0
 10
6.7073229677
 20
5.5341238826
 30
0.0
 10
6.7025547588
 20
5.5337845678
 30
0.0
 10
6.6953272309
 20
5.5323704176
 30
0.0
 10
6.6878906847
 20
5.5300788019
 30
0.0
 10
6.6829589297
 20
5.528049205
 30
0.0
 10
6.6804673514
 20
5.5269096806
 30
0.0
 11
6.7096433807
 21
5.5341238826
 31
0.0
 11
6.7026978573
 21
5.5336563825
 31
0.0
 11
6.695498203
 21
5.5322760321
 31
0.0
 11
6.6880771302
 21
5.5300160565
 31
0.0
 11
6.6804673514
 21
5.5269096806
 31
0.0
  0
SPLINE
  5
484
100
AcDbEntity
  8
0
100
AcDbSpline
 62
9
  6
CONTINUOUS
 70
0
 71
3
 72
16
 73
12
 74
10
 42
0.0000001
 43
0.0000001
 44
0.0000000001
 12
0.2480118762
 22
-0.0094947714
 32
0.0
 13
0.2417978714
 23
-0.0559806289
 33
0.0
 40
0.0
 40
0.0
 40
0.0
 40
0.0
 40
0.106438163
 40
0.2210566262
 40
0.3424108072
 40
0.4690739774
 40
0.5339563882
 40
0.5996308762
 40
0.7326173137
 40
0.8665631821
 40
1.0
 40
1.0
 40
1.0
 40
1.0
 10
6.4348489001
 20
5.5599755047
 30
0.0
 10
6.4436482096
 20
5.559638636
 30
0.0
 10
6.4619157412
 20
5.5587339649
 30
0.0
 10
6.4901749274
 20
5.556729907
 30
0.0
 10
6.5200495871
 20
5.5539491901
 30
0.0
 10
6.5457645318
 20
5.5509489899
 30
0.0
 10
6.566851627
 20
5.5480855726
 30
0.0
 10
6.5884191569
 20
5.5448849788
 30
0.0
 10
6.6155626558
 20
5.5403489322
 30
0.0
 10
6.648094858
 20
5.5341050117
 30
0.0
 10
6.6697124385
 20
5.5293996396
 30
0.0
 10
6.6804673514
 20
5.5269096806
 30
0.0
 11
6.4348489001
 21
5.5599755047
 31
0.0
 11
6.4612342451
 21
5.5586772277
 31
0.0
 11
6.4896107843
 21
5.5566682668
 31
0.0
 11
6.5196003881
 21
5.5538758755
 31
0.0
 11
6.5508249269
 21
5.550227307
 31
0.0
 11
6.5667820486
 21
5.5480617491
 31
0.0
 11
6.5829056074
 21
5.5456700235
 31
0.0
 11
6.6154609804
 21
5.5402323212
 31
0.0
 11
6.6481089327
 21
5.5339627053
 31
0.0
 11
6.6804673514
 21
5.5269096806
 31
0.0
  0
SPLINE
  5
485
100
AcDbEntity
  8
0
100
AcDbSpline
 62
9
  6
CONTINUOUS
 70
0
 71
3
 72
14
 73
10
 74
8
 42
0.0000001
 43
0.0000001
 44
0.0000000001
 12
-0.0380150832
 22
0.0
 32
0.0
 13
-0.0366200691
 23
-0.0102037779
 33
0.0
 40
0.0
 40
0.0
 40
0.0
 40
0.0
 40
0.1092134793
 40
0.2231028095
 40
0.3416155536
 40
0.4646715617
 40
0.5921682766
 40
0.723984974
 40
1.0
 40
1.0
 40
1.0
 40
1.0
 10
6.8825994504
 20
5.3758222574
 30
0.0
 10
6.8812155306
 20
5.3758222574
 30
0.0
 10
6.8783881198
 20
5.3757539451
 30
0.0
 10
6.8740678528
 20
5.3754643537
 30
0.0
 10
6.869587749
 20
5.3749883559
 30
0.0
 10
6.8649569063
 20
5.374328806
 30
0.0
 10
6.8601841907
 20
5.3734885645
 30
0.0
 10
6.8535415015
 20
5.372109806
 30
0.0
 10
6.8485280411
 20
5.3708423712
 30
0.0
 10
6.8451588113
 20
5.3699035725
 30
0.0
 11
6.8825994504
 21
5.3758222574
 31
0.0
 11
6.8784487971
 21
5.375726426
 31
0.0
 11
6.8741287135
 21
5.3754408471
 31
0.0
 11
6.8696482825
 21
5.374968394
 31
0.0
 11
6.8650165867
 21
5.3743119396
 31
0.0
 11
6.860242709
 21
5.3734743572
 31
0.0
 11
6.855335732
 21
5.3724585198
 31
0.0
 11
6.8451588113
 21
5.3699035725
 31
0.0
  0
SPLINE
  5
486
100
AcDbEntity
  8
0
100
AcDbSpline
 62
9
  6
CONTINUOUS
 70
0
 71
3
 72
22
 73
18
 74
16
 42
0.0000001
 43
0.0000001
 44
0.0000000001
 12
0.2297891176
 22
-0.0532003828
 32
0.0
 13
0.0933772778
 23
-0.2165964064
 33
0.0
 40
0.0
 40
0.0
 40
0.0
 40
0.0
 40
0.104632533
 40
0.1592111009
 40
0.2152812537
 40
0.2728496798
 40
0.3319295234
 40
0.3925431784
 40
0.4547247139
 40
0.5184993109
 40
0.583798772
 40
0.6505078446
 40
0.7184905722
 40
0.7875957702
 40
0.8576616972
 40
0.9285201272
 40
1.0
 40
1.0
 40
1.0
 40
1.0
 10
6.6804673514
 20
5.5269096806
 30
0.0
 10
6.6884818239
 20
5.5250541836
 30
0.0
 10
6.7004846492
 20
5.5213170579
 30
0.0
 10
6.7160690639
 20
5.5146943566
 30
0.0
 10
6.7278830215
 20
5.5087255815
 30
0.0
 10
6.7395895774
 20
5.5018259041
 30
0.0
 10
6.7511284636
 20
5.4939932643
 30
0.0
 10
6.7624370942
 20
5.4852264606
 30
0.0
 10
6.7734520499
 20
5.475524862
 30
0.0
 10
6.7841027475
 20
5.4648971207
 30
0.0
 10
6.7943555672
 20
5.45340493
 30
0.0
 10
6.8041717082
 20
5.4411120753
 30
0.0
 10
6.8135110492
 20
5.4280838766
 30
0.0
 10
6.822333295
 20
5.414385587
 30
0.0
 10
6.830598096
 20
5.4000823762
 30
0.0
 10
6.8382647821
 20
5.3852399777
 30
0.0
 10
6.842933946
 20
5.3750643337
 30
0.0
 10
6.8451588113
 20
5.3699035725
 30
0.0
 11
6.6804673514
 21
5.5269096806
 31
0.0
 11
6.7040520032
 21
5.5196408472
 31
0.0
 11
6.7159029216
 21
5.5146131855
 31
0.0
 11
6.7277099579
 21
5.5086552182
 31
0.0
 11
6.7394109044
 21
5.5017658386
 31
0.0
 11
6.7509435535
 21
5.49394394
 31
0.0
 11
6.7622456972
 21
5.4851884157
 31
0.0
 11
6.773255128
 21
5.475498159
 31
0.0
 11
6.7839132138
 21
5.4648832168
 31
0.0
 11
6.7941756263
 21
5.4533982503
 31
0.0
 11
6.8040016128
 21
5.4411090744
 31
0.0
 11
6.8133504205
 21
5.4280815038
 31
0.0
 11
6.8221812969
 21
5.4143813536
 31
0.0
 11
6.8304534892
 21
5.4000744383
 31
0.0
 11
6.8381262449
 21
5.385226573
 31
0.0
 11
6.8451588113
 21
5.3699035725
 31
0.0
  0
SPLINE
  5
487
100
AcDbEntity
  8
0
100
AcDbSpline
 62
9
  6
CONTINUOUS
 70
0
 71
3
 72
13
 73
9
 74
7
 42
0.0000001
 43
0.0000001
 44
0.0000000001
 12
-0.047154332
 22
0.0
 32
0.0
 13
-0.0471421761
 23
-0.0010706368
 33
0.0
 40
0.0
 40
0.0
 40
0.0
 40
0.0
 40
0.2050406698
 40
0.4191301617
 40
0.538051388
 40
0.6710042274
 40
0.8232373634
 40
1.0
 40
1.0
 40
1.0
 40
1.0
 10
6.9618053694
 20
4.9959902745
 30
0.0
 10
6.9585825175
 20
4.9959902745
 30
0.0
 10
6.9519945591
 20
4.9959676333
 30
0.0
 10
6.9435377987
 20
4.9958823607
 30
0.0
 10
6.9362143499
 20
4.9957869814
 30
0.0
 10
6.9298633301
 20
4.9956866724
 30
0.0
 10
6.922603636
 20
4.9955506132
 30
0.0
 10
6.9174336375
 20
4.9954391819
 30
0.0
 10
6.914655979
 20
4.995376099
 30
0.0
 11
6.9618053694
 21
4.9959902745
 31
0.0
 11
6.9521368686
 21
4.9959576436
 31
0.0
 11
6.942042085
 21
4.9958609181
 31
0.0
 11
6.9364349159
 21
4.9957874094
 31
0.0
 11
6.9301663924
 21
4.9956885878
 31
0.0
 11
6.9229891888
 21
4.9955547267
 31
0.0
 11
6.914655979
 21
4.995376099
 31
0.0
  0
SPLINE
  5
488
100
AcDbEntity
  8
0
100
AcDbSpline
 62
9
  6
CONTINUOUS
 70
0
 71
3
 72
15
 73
11
 74
9
 42
0.0000001
 43
0.0000001
 44
0.0000000001
 12
0.1519083821
 22
-0.3523641985
 32
0.0
 13
-0.0079543772
 23
-0.3836318715
 33
0.0
 40
0.0
 40
0.0
 40
0.0
 40
0.0
 40
0.1193059327
 40
0.2407591601
 40
0.364128099
 40
0.4891510449
 40
0.6155456757
 40
0.7430175072
 40
0.8712676262
 40
1.0
 40
1.0
 40
1.0
 40
1.0
 10
6.8451588113
 20
5.3699035725
 30
0.0
 10
6.8512000017
 20
5.355890526
 30
0.0
 10
6.8625170523
 20
5.3272277681
 30
0.0
 10
6.8770853653
 20
5.2829664862
 30
0.0
 10
6.8893697617
 20
5.2372599108
 30
0.0
 10
6.8993283835
 20
5.1903462579
 30
0.0
 10
6.906920209
 20
5.1424612675
 30
0.0
 10
6.9121036036
 20
5.0938409906
 30
0.0
 10
6.9148368482
 20
5.0447235077
 30
0.0
 10
6.9149973156
 20
5.0118377466
 30
0.0
 10
6.914655987
 20
4.9953757995
 30
0.0
 11
6.8451588113
 21
5.3699035725
 31
0.0
 11
6.862002452
 21
5.3273354525
 31
0.0
 11
6.8765993849
 21
5.2830771067
 31
0.0
 11
6.8889077505
 21
5.2373668121
 31
0.0
 11
6.8988856892
 21
5.1904428455
 31
0.0
 11
6.9064913417
 21
5.1425434841
 31
0.0
 11
6.9116828485
 21
5.0939070046
 31
0.0
 11
6.9144183501
 21
5.0447716841
 31
0.0
 11
6.914655987
 21
4.9953757995
 31
0.0
  0
SPLINE
  5
489
100
AcDbEntity
  8
0
100
AcDbSpline
 62
9
  6
CONTINUOUS
 70
0
 71
3
 72
26
 73
22
 74
20
 42
0.0000001
 43
0.0000001
 44
0.0000000001
 12
-0.1549203886
 22
-0.0825320357
 32
0.0
 13
0.0
 23
-0.1755330844
 33
0.0
 40
0.0
 40
0.0
 40
0.0
 40
0.0
 40
0.0496325903
 40
0.0754808813
 40
0.1020266867
 40
0.1292689828
 40
0.1571977426
 40
0.1857953462
 40
0.2150377931
 40
0.2753266158
 40
0.3377901931
 40
0.4020938498
 40
0.467869261
 40
0.5347268458
 40
0.6022656387
 40
0.6700817172
 40
0.7377760317
 40
0.8049623625
 40
0.8712761015
 40
0.9363846078
 40
1.0
 40
1.0
 40
1.0
 40
1.0
 10
6.4348489001
 20
5.5599755047
 30
0.0
 10
6.4322858667
 20
5.5586100785
 30
0.0
 10
6.4285226495
 20
5.5562720719
 30
0.0
 10
6.4237246088
 20
5.5527179682
 30
0.0
 10
6.4201249864
 20
5.5497557059
 30
0.0
 10
6.4165795286
 20
5.5465454294
 30
0.0
 10
6.4130929774
 20
5.5430983913
 30
0.0
 10
6.409670572
 20
5.5394261835
 30
0.0
 10
6.4051542879
 20
5.5341920574
 30
0.0
 10
6.3997144284
 20
5.527146782
 30
0.0
 10
6.3935919754
 20
5.518066652
 30
0.0
 10
6.3878506838
 20
5.5083663865
 30
0.0
 10
6.3825326546
 20
5.4981378149
 30
0.0
 10
6.3776798937
 20
5.4874724611
 30
0.0
 10
6.3733345901
 20
5.4764621404
 30
0.0
 10
6.3695389486
 20
5.4651987012
 30
0.0
 10
6.3663351902
 20
5.4537739726
 30
0.0
 10
6.3637655423
 20
5.4422797701
 30
0.0
 10
6.3618722675
 20
5.430807437
 30
0.0
 10
6.3606977385
 20
5.4194491063
 30
0.0
 10
6.3604187183
 20
5.4119152299
 30
0.0
 10
6.3604187183
 20
5.4081930279
 30
0.0
 11
6.4348489001
 21
5.5599755047
 31
0.0
 11
6.4274291816
 21
5.5554093754
 31
0.0
 11
6.4237807038
 21
5.5527121418
 31
0.0
 11
6.4201802286
 21
5.5497542583
 31
0.0
 11
6.4166330667
 21
5.5465473216
 31
0.0
 11
6.4131445294
 21
5.5431029288
 31
0.0
 11
6.4097199276
 21
5.5394326765
 31
0.0
 11
6.4063645724
 21
5.5355481619
 31
0.0
 11
6.3998828459
 21
5.527182733
 31
0.0
 11
6.3937418381
 21
5.5180994172
 31
0.0
 11
6.3879840374
 21
5.5083909898
 31
0.0
 11
6.3826519321
 21
5.4981502259
 31
0.0
 11
6.3777880104
 21
5.4874699008
 31
0.0
 11
6.3734347607
 21
5.4764427896
 31
0.0
 11
6.3696346712
 21
5.4651616677
 31
0.0
 11
6.3664302303
 21
5.4537193101
 31
0.0
 11
6.3638639263
 21
5.4422084921
 31
0.0
 11
6.3619782474
 21
5.4307219889
 31
0.0
 11
6.360815682
 21
5.4193525758
 31
0.0
 11
6.3604187183
 21
5.4081930279
 31
0.0
  0
SPLINE
  5
48A
100
AcDbEntity
  8
0
100
AcDbSpline
 62
9
  6
CONTINUOUS
 70
0
 71
3
 72
29
 73
25
 74
23
 42
0.0000001
 43
0.0000001
 44
0.0000000001
 12
-0.2438966583
 22
-0.1115462451
 32
0.0
 13
-0.1338357743
 23
-0.2324137049
 33
0.0
 40
0.0
 40
0.0
 40
0.0
 40
0.0
 40
0.0212522427
 40
0.0432382417
 40
0.0659794866
 40
0.0894894794
 40
0.1137748871
 40
0.1388365452
 40
0.1646703209
 40
0.1912678483
 40
0.21861715
 40
0.246703162
 40
0.2755081758
 40
0.3050122111
 40
0.3660254228
 40
0.4295512766
 40
0.495374948
 40
0.5632676526
 40
0.6329885694
 40
0.7042870357
 40
0.7769045819
 40
0.8505764791
 40
0.9250329308
 40
1.0
 40
1.0
 40
1.0
 40
1.0
 10
6.6804673514
 20
5.5269096806
 30
0.0
 10
6.6787395677
 20
5.5261194779
 30
0.0
 10
6.6752679228
 20
5.5244150753
 30
0.0
 10
6.6701056066
 20
5.5215574726
 30
0.0
 10
6.6649045405
 20
5.5183660074
 30
0.0
 10
6.6596677471
 20
5.5148503821
 30
0.0
 10
6.6543980142
 20
5.5110201449
 30
0.0
 10
6.6490982447
 20
5.506884862
 30
0.0
 10
6.6437713506
 20
5.5024540818
 30
0.0
 10
6.638420277
 20
5.4977373532
 30
0.0
 10
6.6330479846
 20
5.4927442257
 30
0.0
 10
6.6276574636
 20
5.4874842513
 30
0.0
 10
6.6222516707
 20
5.4819669902
 30
0.0
 10
6.6149460177
 20
5.4741933298
 30
0.0
 10
6.6058103089
 20
5.4638843383
 30
0.0
 10
6.5949535266
 20
5.4507757867
 30
0.0
 10
6.5841073744
 20
5.4368701868
 30
0.0
 10
6.5732947767
 20
5.4222443313
 30
0.0
 10
6.5625384734
 20
5.4069746873
 30
0.0
 10
6.5518612523
 20
5.3911378887
 30
0.0
 10
6.5412859193
 20
5.3748106427
 30
0.0
 10
6.5308352877
 20
5.3580697222
 30
0.0
 10
6.5205322
 20
5.3409920024
 30
0.0
 10
6.5137916931
 20
5.3294586208
 30
0.0
 10
6.5104472678
 20
5.3236508294
 30
0.0
 11
6.6804673514
 21
5.5269096806
 31
0.0
 11
6.6753482492
 21
5.5244033483
 31
0.0
 11
6.6701865384
 21
5.5215527927
 31
0.0
 11
6.6649852541
 21
5.5183676233
 31
0.0
 11
6.6597474313
 21
5.5148574496
 31
0.0
 11
6.6544761051
 21
5.511031881
 31
0.0
 11
6.6491743105
 21
5.5069005269
 31
0.0
 11
6.6438450827
 21
5.502472997
 31
0.0
 11
6.6384914566
 21
5.4977589007
 31
0.0
 11
6.6331164673
 21
5.4927678474
 31
0.0
 11
6.6277231499
 21
5.4875094466
 31
0.0
 11
6.6223145393
 21
5.4819933078
 31
0.0
 11
6.6168936708
 21
5.4762290405
 31
0.0
 11
6.6060272998
 21
5.4639945582
 31
0.0
 11
6.5951483173
 21
5.4508828756
 31
0.0
 11
6.5842807517
 21
5.4369708988
 31
0.0
 11
6.5734476251
 21
5.4223356554
 31
0.0
 11
6.5626717086
 21
5.4070542031
 31
0.0
 11
6.5519757734
 21
5.3912035997
 31
0.0
 11
6.5413825906
 21
5.3748609028
 31
0.0
 11
6.5309149313
 21
5.3581031703
 31
0.0
 11
6.5205955667
 21
5.3410074599
 31
0.0
 11
6.5104472678
 21
5.3236508294
 31
0.0
  0
SPLINE
  5
48B
100
AcDbEntity
  8
0
100
AcDbSpline
 62
9
  6
CONTINUOUS
 70
0
 71
3
 72
23
 73
19
 74
17
 42
0.0000001
 43
0.0000001
 44
0.0000000001
 12
-0.3050583578
 22
-0.085001143
 32
0.0
 13
-0.2362599891
 23
-0.2108720312
 33
0.0
 40
0.0
 40
0.0
 40
0.0
 40
0.0
 40
0.0464328163
 40
0.0954209511
 40
0.1469500869
 40
0.2009689129
 40
0.2573976563
 40
0.3161345088
 40
0.3770604651
 40
0.4400429806
 40
0.5049402932
 40
0.5716079713
 40
0.6398956843
 40
0.7096469916
 40
0.7807004186
 40
0.8528903132
 40
0.9260475328
 40
1.0
 40
1.0
 40
1.0
 40
1.0
 10
6.8451588113
 20
5.3699035725
 30
0.0
 10
6.8404372384
 20
5.3685879583
 30
0.0
 10
6.8308272333
 20
5.3655433643
 30
0.0
 10
6.8163328506
 20
5.3599978831
 30
0.0
 10
6.801405538
 20
5.353403625
 30
0.0
 10
6.7860794896
 20
5.3458126522
 30
0.0
 10
6.7703881161
 20
5.3372765906
 30
0.0
 10
6.7543655619
 20
5.3278472029
 30
0.0
 10
6.7380461181
 20
5.3175762895
 30
0.0
 10
6.7214641447
 20
5.3065156425
 30
0.0
 10
6.7046534813
 20
5.2947166772
 30
0.0
 10
6.6876457643
 20
5.28223246
 30
0.0
 10
6.6704719607
 20
5.2691156328
 30
0.0
 10
6.653162946
 20
5.2554187946
 30
0.0
 10
6.6357496275
 20
5.241194585
 30
0.0
 10
6.6182629249
 20
5.2264956698
 30
0.0
 10
6.6007338039
 20
5.2113747723
 30
0.0
 10
6.5890937318
 20
5.2010953777
 30
0.0
 10
6.5832697288
 20
5.1958972087
 30
0.0
 11
6.8451588113
 21
5.3699035725
 31
0.0
 11
6.8311315119
 21
5.3654931653
 31
0.0
 11
6.8166321957
 21
5.3599759714
 31
0.0
 11
6.8016957253
 21
5.3534043737
 31
0.0
 11
6.7863569634
 21
5.3458307549
 31
0.0
 11
6.7706507726
 21
5.3373074978
 31
0.0
 11
6.7546120155
 21
5.3278869854
 31
0.0
 11
6.7382755547
 21
5.3176216003
 31
0.0
 11
6.7216762528
 21
5.3065637253
 31
0.0
 11
6.7048483216
 21
5.2947658219
 31
0.0
 11
6.6878233684
 21
5.282280665
 31
0.0
 11
6.6706323493
 21
5.2691611085
 31
0.0
 11
6.6533062204
 21
5.2554600059
 31
0.0
 11
6.6358759378
 21
5.241230211
 31
0.0
 11
6.6183724576
 21
5.2265245774
 31
0.0
 11
6.6008267359
 21
5.2113959587
 31
0.0
 11
6.5832697288
 21
5.1958972087
 31
0.0
  0
SPLINE
  5
48C
100
AcDbEntity
  8
0
100
AcDbSpline
 62
6
  6
CONTINUOUS
 70
0
 71
3
 72
16
 73
12
 74
10
 42
0.0000001
 43
0.0000001
 44
0.0000000001
 12
-0.2757905273
 22
-0.0062635407
 32
0.0
 13
-0.2752923616
 23
-0.0177133437
 33
0.0
 40
0.0
 40
0.0
 40
0.0
 40
0.0
 40
0.1298603918
 40
0.2629064339
 40
0.3968023099
 40
0.5292121486
 40
0.657842749
 40
0.7805709938
 40
0.8953165398
 40
0.9490459671
 40
1.0
 40
1.0
 40
1.0
 40
1.0
 10
6.914655971
 20
4.9953766062
 30
0.0
 10
6.9027178824
 20
4.9951054775
 30
0.0
 10
6.8785502041
 20
4.9944954978
 30
0.0
 10
6.8420787222
 20
4.9934103307
 30
0.0
 10
6.8053779935
 20
4.9921588128
 30
0.0
 10
6.7690888316
 20
4.9907615749
 30
0.0
 10
6.7338325596
 20
4.9892384057
 30
0.0
 10
6.7002066533
 20
4.9876194286
 30
0.0
 10
6.6734675998
 20
4.9861860353
 30
0.0
 10
6.653324737
 20
4.9850062807
 30
0.0
 10
6.6437172318
 20
4.9844085683
 30
0.0
 10
6.6390414798
 20
4.9841077128
 30
0.0
 11
6.914655971
 21
4.9953766062
 31
0.0
 11
6.8788437849
 21
4.9944762925
 31
0.0
 11
6.8421576772
 21
4.9933861904
 31
0.0
 11
6.8052424115
 21
4.9921269573
 31
0.0
 11
6.7687427516
 21
4.9907192505
 31
0.0
 11
6.7332916804
 21
4.9891851475
 31
0.0
 11
6.6994750582
 21
4.9875524055
 31
0.0
 11
6.6678669648
 21
4.9858502015
 31
0.0
 11
6.6530705162
 21
4.9849821692
 31
0.0
 11
6.6390414798
 21
4.9841077128
 31
0.0
  0
SPLINE
  5
48D
100
AcDbEntity
  8
0
100
AcDbSpline
 62
6
  6
CONTINUOUS
 70
0
 71
3
 72
21
 73
17
 74
15
 42
0.0000001
 43
0.0000001
 44
0.0000000001
 12
0.1782074375
 22
-0.0000927831
 32
0.0
 13
0.1119949311
 23
-0.1386183062
 33
0.0
 40
0.0
 40
0.0
 40
0.0
 40
0.0
 40
0.0627355544
 40
0.1246727482
 40
0.1860033446
 40
0.2469236024
 40
0.3076457746
 40
0.3683504792
 40
0.4291969116
 40
0.4903259024
 40
0.5518507707
 40
0.6138719661
 40
0.73970833
 40
0.8036643872
 40
0.8683530329
 40
1.0
 40
1.0
 40
1.0
 40
1.0
 10
6.3604187183
 20
5.4081930279
 30
0.0
 10
6.3641453658
 20
5.4081910876
 30
0.0
 10
6.3715541111
 20
5.4079091852
 30
0.0
 10
6.3825428659
 20
5.4066690713
 30
0.0
 10
6.3933067302
 20
5.4046546954
 30
0.0
 10
6.4038309584
 20
5.401903996
 30
0.0
 10
6.4141074704
 20
5.3984547643
 30
0.0
 10
6.4241324506
 20
5.394344624
 30
0.0
 10
6.4339026726
 20
5.3896067206
 30
0.0
 10
6.4434149972
 20
5.3842712806
 30
0.0
 10
6.4526679666
 20
5.3783675906
 30
0.0
 10
6.4647163601
 20
5.3697388176
 30
0.0
 10
6.4762069193
 20
5.3601213683
 30
0.0
 10
6.4871527883
 20
5.3496910175
 30
0.0
 10
6.4979088134
 20
5.3385784826
 30
0.0
 10
6.5055377092
 20
5.3297398916
 30
0.0
 10
6.5104523069
 20
5.3236569984
 30
0.0
 11
6.3604187183
 21
5.4081930279
 31
0.0
 11
6.3715905911
 21
5.4077682879
 31
0.0
 11
6.3825588248
 21
5.4065321603
 31
0.0
 11
6.3933023537
 21
5.4045241552
 31
0.0
 11
6.4038069282
 21
5.4017825677
 31
0.0
 11
6.4140672445
 21
5.3983440985
 31
0.0
 11
6.4240786636
 21
5.3942451609
 31
0.0
 11
6.4338376462
 21
5.389518729
 31
0.0
 11
6.4433416435
 21
5.3841946818
 31
0.0
 11
6.4525882202
 21
5.378302798
 31
0.0
 11
6.4615783513
 21
5.3718733043
 31
0.0
 11
6.4788121087
 21
5.3575248797
 31
0.0
 11
6.4870675575
 21
5.3496668039
 31
0.0
 11
6.4950893252
 21
5.341387552
 31
0.0
 11
6.5104523069
 21
5.3236569984
 31
0.0
  0
SPLINE
  5
48E
100
AcDbEntity
  8
0
100
AcDbSpline
 62
6
  6
CONTINUOUS
 70
0
 71
3
 72
11
 73
7
 74
5
 42
0.0000001
 43
0.0000001
 44
0.0000000001
 12
0.0326449604
 22
-0.0404156406
 32
0.0
 13
0.02729001
 23
-0.0442082888
 33
0.0
 40
0.0
 40
0.0
 40
0.0
 40
0.0
 40
0.2438839898
 40
0.4919659413
 40
0.7440717436
 40
1.0
 40
1.0
 40
1.0
 40
1.0
 10
6.5104508729
 20
5.3236534463
 30
0.0
 10
6.5131047339
 20
5.3203678704
 30
0.0
 10
6.5183410136
 20
5.3136447472
 30
0.0
 10
6.5259182358
 20
5.3032198185
 30
0.0
 10
6.5332811481
 20
5.2923894354
 30
0.0
 10
6.5380087412
 20
5.2849678599
 30
0.0
 10
6.5403368361
 20
5.2811964764
 30
0.0
 11
6.5104508729
 21
5.3236534463
 31
0.0
 11
6.5182407025
 21
5.3136604267
 31
0.0
 11
6.5258224251
 21
5.3032376759
 31
0.0
 11
6.5331898624
 21
5.2924085679
 31
0.0
 11
6.5403368361
 21
5.2811964764
 31
0.0
  0
SPLINE
  5
48F
100
AcDbEntity
  8
0
100
AcDbSpline
 62
6
  6
CONTINUOUS
 70
0
 71
3
 72
13
 73
9
 74
7
 42
0.0000001
 43
0.0000001
 44
0.0000000001
 12
0.0501898635
 22
-0.0813661757
 32
0.0
 13
0.0363608415
 23
-0.0884158705
 33
0.0
 40
0.0
 40
0.0
 40
0.0
 40
0.0
 40
0.1205244281
 40
0.2421113516
 40
0.3648484252
 40
0.4888578504
 40
0.7411692105
 40
1.0
 40
1.0
 40
1.0
 40
1.0
 10
6.5403409755
 20
5.2812019883
 30
0.0
 10
6.5423573437
 20
5.2779331177
 30
0.0
 10
6.5463282698
 20
5.2713171458
 30
0.0
 10
6.5520846527
 20
5.2612145921
 30
0.0
 10
6.5576759526
 20
5.2508932126
 30
0.0
 10
6.5649574191
 20
5.236753545
 30
0.0
 10
6.5736726592
 20
5.2184796014
 30
0.0
 10
6.5801267151
 20
5.2035199432
 30
0.0
 10
6.5832638168
 20
5.1958916933
 30
0.0
 11
6.5403409755
 21
5.2812019883
 31
0.0
 11
6.5462734185
 21
5.271324366
 31
0.0
 11
6.5520303551
 21
5.2612263444
 31
0.0
 11
6.5576206438
 21
5.2509098861
 31
0.0
 11
6.5630499311
 21
5.240370778
 31
0.0
 11
6.5734468518
 21
5.2186053815
 31
0.0
 11
6.5832638168
 21
5.1958916933
 31
0.0
  0
SPLINE
  5
490
100
AcDbEntity
  8
0
100
AcDbSpline
 62
6
  6
CONTINUOUS
 70
0
 71
3
 72
14
 73
10
 74
8
 42
0.0000001
 43
0.0000001
 44
0.0000000001
 12
0.0493141438
 22
-0.1524131429
 32
0.0
 13
0.0219980887
 23
-0.1586749351
 33
0.0
 40
0.0
 40
0.0
 40
0.0
 40
0.0
 40
0.2404439371
 40
0.3632476138
 40
0.4876758102
 40
0.6136696689
 40
0.7411711326
 40
0.8700344552
 40
1.0
 40
1.0
 40
1.0
 40
1.0
 10
6.603655016
 20
5.1401419255
 30
0.0
 10
6.607607445
 20
5.1279263201
 30
0.0
 10
6.6131438289
 20
5.1093275612
 30
0.0
 10
6.6197475152
 20
5.0841368157
 30
0.0
 10
6.6243823327
 20
5.0647521571
 30
0.0
 10
6.6286516247
 20
5.0450272191
 30
0.0
 10
6.6325428918
 20
5.0249828484
 30
0.0
 10
6.6360404455
 20
5.0046509027
 30
0.0
 10
6.638088495
 20
4.9909813569
 30
0.0
 10
6.6390414929
 20
4.9841072655
 30
0.0
 11
6.603655016
 21
5.1401419255
 31
0.0
 11
6.6146662254
 21
5.103232067
 31
0.0
 11
6.619657024
 21
5.0842034388
 31
0.0
 11
6.6242935493
 21
5.0648177233
 31
0.0
 11
6.6285644755
 21
5.045091501
 31
0.0
 11
6.6324577737
 21
5.0250412137
 31
0.0
 11
6.6359572943
 21
5.0046970631
 31
0.0
 11
6.6390414929
 21
4.9841072655
 31
0.0
  0
SPLINE
  5
491
100
AcDbEntity
  8
0
100
AcDbSpline
 62
6
  6
CONTINUOUS
 70
0
 71
3
 72
30
 73
26
 74
24
 42
0.0000001
 43
0.0000001
 44
0.0000000001
 12
-0.0353245174
 22
-0.0022728217
 32
0.0
 13
0.0022560251
 23
-0.0353255941
 33
0.0
 40
0.0
 40
0.0
 40
0.0
 40
0.0
 40
0.2427904311
 40
0.4490379807
 40
0.5388846059
 40
0.6201079983
 40
0.6928807908
 40
0.7573772124
 40
0.8137739235
 40
0.8622514768
 40
0.8835791437
 40
0.9029973884
 40
0.9205276841
 40
0.9361921463
 40
0.9500152267
 40
0.9620250703
 40
0.9722559969
 40
0.9807533939
 40
0.9875842971
 40
0.9904098521
 40
0.9928691984
 40
0.9949954845
 40
0.996838446
 40
0.998472237
 40
1.0
 40
1.0
 40
1.0
 40
1.0
 10
6.639041541
 20
4.9841064731
 30
0.0
 10
6.6361827227
 20
4.9839225333
 30
0.0
 10
6.630896515
 20
4.9835641211
 30
0.0
 10
6.6245568635
 20
4.9830742729
 30
0.0
 10
6.6201216454
 20
4.9826872176
 30
0.0
 10
6.6172573374
 20
4.9824153667
 30
0.0
 10
6.6146930997
 20
4.982148607
 30
0.0
 10
6.6124229472
 20
4.9818871395
 30
0.0
 10
6.6104409039
 20
4.9816311541
 30
0.0
 10
6.6089675511
 20
4.9814144526
 30
0.0
 10
6.6079289957
 20
4.9812418958
 30
0.0
 10
6.6072523316
 20
4.9811195289
 30
0.0
 10
6.606643386
 20
4.9809986505
 30
0.0
 10
6.6061015565
 20
4.9808792912
 30
0.0
 10
6.6056262235
 20
4.9807615088
 30
0.0
 10
6.6052167602
 20
4.9806453656
 30
0.0
 10
6.6048723933
 20
4.9805309652
 30
0.0
 10
6.604592429
 20
4.9804183508
 30
0.0
 10
6.6044010533
 20
4.9803208431
 30
0.0
 10
6.6042818063
 20
4.9802416988
 30
0.0
 10
6.6042138138
 20
4.980186431
 30
0.0
 10
6.6041613073
 20
4.9801313228
 30
0.0
 10
6.6041242529
 20
4.9800760554
 30
0.0
 10
6.6041029569
 20
4.9800203309
 30
0.0
 10
6.6040997533
 20
4.9799825461
 30
0.0
 10
6.6041009022
 20
4.9799645563
 30
0.0
 11
6.639041541
 21
4.9841064731
 31
0.0
 11
6.6304673585
 21
4.9835204048
 31
0.0
 11
6.6231888838
 21
4.9829516835
 31
0.0
 11
6.6200206635
 21
4.9826741696
 31
0.0
 11
6.6171585218
 21
4.9824014023
 31
0.0
 11
6.6145965094
 21
4.9821335183
 31
0.0
 11
6.6123286769
 21
4.9818706541
 31
0.0
 11
6.6103490749
 21
4.9816129465
 31
0.0
 11
6.6086517538
 21
4.9813605319
 31
0.0
 11
6.6079070895
 21
4.9812363522
 31
0.0
 11
6.6072307904
 21
4.9811135468
 31
0.0
 11
6.6066222549
 21
4.9809921317
 31
0.0
 11
6.6060809139
 21
4.9808721227
 31
0.0
 11
6.6056061984
 21
4.9807535354
 31
0.0
 11
6.6051975394
 21
4.9806363857
 31
0.0
 11
6.6048543676
 21
4.9805206892
 31
0.0
 11
6.6045761142
 21
4.9804064616
 31
0.0
 11
6.60436221
 21
4.9802937189
 31
0.0
 11
6.6042792111
 21
4.9802379092
 31
0.0
 11
6.604212086
 21
4.9801824766
 31
0.0
 11
6.6041607637
 21
4.980127423
 31
0.0
 11
6.6041251731
 21
4.9800727505
 31
0.0
 11
6.6041052429
 21
4.9800184609
 31
0.0
 11
6.6041009022
 21
4.9799645563
 31
0.0
  0
SPLINE
  5
492
100
AcDbEntity
  8
0
100
AcDbSpline
 62
9
  6
CONTINUOUS
 70
0
 71
3
 72
12
 73
8
 74
6
 42
0.0000001
 43
0.0000001
 44
0.0000000001
 12
0.0062644182
 22
-0.0752033415
 32
0.0
 13
-0.0158178123
 23
-0.073787413
 33
0.0
 40
0.0
 40
0.0
 40
0.0
 40
0.0
 40
0.2529344546
 40
0.3787748564
 40
0.5041351959
 40
0.7532312562
 40
1.0
 40
1.0
 40
1.0
 40
1.0
 10
6.9906744273
 20
4.9953757995
 30
0.0
 10
6.9912025897
 20
4.9890352941
 30
0.0
 10
6.9916514654
 20
4.9795069734
 30
0.0
 10
6.9915588431
 20
4.9668240142
 30
0.0
 10
6.9910097601
 20
4.9542486597
 30
0.0
 10
6.9894744499
 20
4.9386830498
 30
0.0
 10
6.9873280094
 20
4.9263818818
 30
0.0
 10
6.9860268955
 20
4.9203124061
 30
0.0
 11
6.9906744273
 21
4.9953757995
 31
0.0
 11
6.9915708884
 21
4.976309467
 31
0.0
 11
6.9915011492
 21
4.9668133278
 31
0.0
 11
6.9910879015
 21
4.9573621901
 31
0.0
 11
6.9892362946
 21
4.9386558696
 31
0.0
 11
6.9860268955
 21
4.9203124061
 31
0.0
  0
SPLINE
  5
493
100
AcDbEntity
  8
0
100
AcDbSpline
 62
9
  6
CONTINUOUS
 70
0
 71
3
 72
14
 73
10
 74
8
 42
0.0000001
 43
0.0000001
 44
0.0000000001
 12
-0.0323244998
 22
0.001984635
 32
0.0
 13
-0.0323853681
 23
-0.0
 33
0.0
 40
0.0
 40
0.0
 40
0.0
 40
0.0
 40
0.0930594899
 40
0.1956015257
 40
0.3065293457
 40
0.4247372121
 40
0.5499244976
 40
0.6850304738
 40
1.0
 40
1.0
 40
1.0
 40
1.0
 10
6.9860268955
 20
4.9203124061
 30
0.0
 10
6.985024195
 20
4.9203739691
 30
0.0
 10
6.9829152669
 20
4.9204814277
 30
0.0
 10
6.9796084836
 20
4.9206046664
 30
0.0
 10
6.9760293019
 20
4.9207034279
 30
0.0
 10
6.9722051603
 20
4.9207833205
 30
0.0
 10
6.9681197257
 20
4.9208501524
 30
0.0
 10
6.9619100685
 20
4.9209204975
 30
0.0
 10
6.9570513878
 20
4.9209376475
 30
0.0
 10
6.9536512531
 20
4.9209376475
 30
0.0
 11
6.9860268955
 21
4.9203124061
 31
0.0
 11
6.983017237
 21
4.9204696954
 31
0.0
 11
6.9796987842
 21
4.9205961584
 31
0.0
 11
6.9761077722
 21
4.9206973784
 31
0.0
 11
6.9722804359
 21
4.9207789389
 31
0.0
 11
6.9682267399
 21
4.9208451326
 31
0.0
 11
6.9638515684
 21
4.9208950892
 31
0.0
 11
6.9536512531
 21
4.9209376475
 31
0.0
  0
SPLINE
  5
494
100
AcDbEntity
  8
0
100
AcDbSpline
 62
9
  6
CONTINUOUS
 70
0
 71
3
 72
15
 73
11
 74
9
 42
0.0000001
 43
0.0000001
 44
0.0000000001
 12
-0.0087769668
 22
0.0181990129
 32
0.0
 13
-0.0172303362
 23
0.0105524751
 33
0.0
 40
0.0
 40
0.0
 40
0.0
 40
0.0
 40
0.1285911914
 40
0.2551768281
 40
0.3802297402
 40
0.5042402146
 40
0.6277114064
 40
0.7511540422
 40
0.8750806985
 40
1.0
 40
1.0
 40
1.0
 40
1.0
 10
6.9219645665
 20
5.3550628644
 30
0.0
 10
6.921588353
 20
5.355842942
 30
0.0
 10
6.9207901764
 20
5.3573667185
 30
0.0
 10
6.9194472917
 20
5.3595495532
 30
0.0
 10
6.9179713973
 20
5.3616071209
 30
0.0
 10
6.916364624
 20
5.3635370022
 30
0.0
 10
6.9146290665
 20
5.3653369417
 30
0.0
 10
6.9127668264
 20
5.3670046842
 30
0.0
 10
6.9107802033
 20
5.3685379007
 30
0.0
 10
6.9093814161
 20
5.3694641699
 30
0.0
 10
6.9086639489
 20
5.3699035725
 30
0.0
 11
6.9219645665
 21
5.3550628644
 31
0.0
 11
6.9207577342
 21
5.35736375
 31
0.0
 11
6.9194165888
 21
5.3595415754
 31
0.0
 11
6.9179431806
 21
5.3615941852
 31
0.0
 11
6.9163395595
 21
5.3635194245
 31
0.0
 11
6.9146077757
 21
5.365315138
 31
0.0
 11
6.9127498793
 21
5.3669791706
 31
0.0
 11
6.9107679203
 21
5.3685093671
 31
0.0
 11
6.9086639489
 21
5.3699035725
 31
0.0
  0
SPLINE
  5
495
100
AcDbEntity
  8
0
100
AcDbSpline
 62
9
  6
CONTINUOUS
 70
0
 71
3
 72
11
 73
7
 74
5
 42
0.0000001
 43
0.0000001
 44
0.0000000001
 12
0.0
 22
-0.0756344071
 32
0.0
 13
-0.0164301359
 23
-0.0738282749
 33
0.0
 40
0.0
 40
0.0
 40
0.0
 40
0.0
 40
0.2518047309
 40
0.5028810236
 40
0.7525135779
 40
1.0
 40
1.0
 40
1.0
 40
1.0
 10
6.9618053694
 20
4.9959899739
 30
0.0
 10
6.9618053694
 20
4.9896416067
 30
0.0
 10
6.9614615135
 20
4.9769606195
 30
0.0
 10
6.9599251297
 20
4.9580420327
 30
0.0
 10
6.9573803983
 20
4.9393422871
 30
0.0
 10
6.955006665
 20
4.927028146
 30
0.0
 10
6.9536512531
 20
4.9209376475
 30
0.0
 11
6.9618053694
 21
4.9959899739
 31
0.0
 11
6.9612898053
 21
4.976951852
 31
0.0
 11
6.9597510221
 21
4.9580242928
 31
0.0
 11
6.9572008834
 21
4.9393164926
 31
0.0
 11
6.9536512531
 21
4.9209376475
 31
0.0
  0
SPLINE
  5
496
100
AcDbEntity
  8
0
100
AcDbSpline
 62
9
  6
CONTINUOUS
 70
0
 71
3
 72
12
 73
8
 74
6
 42
0.0000001
 43
0.0000001
 44
0.0000000001
 12
-0.054934146
 22
0.0
 32
0.0
 13
-0.0549249042
 23
-0.0010076186
 33
0.0
 40
0.0
 40
0.0
 40
0.0
 40
0.0
 40
0.2098833497
 40
0.4341458007
 40
0.5565803006
 40
0.6895649042
 40
1.0
 40
1.0
 40
1.0
 40
1.0
 10
6.9536512531
 20
4.9209376475
 30
0.0
 10
6.9498079989
 20
4.9209376475
 30
0.0
 10
6.9418581764
 20
4.9209049004
 30
0.0
 10
6.9316669048
 20
4.9208031502
 30
0.0
 10
6.9228839129
 20
4.9206969547
 30
0.0
 10
6.9125233316
 20
4.9205532472
 30
0.0
 10
6.9044048291
 20
4.9204166728
 30
0.0
 10
6.8987212898
 20
4.9203124061
 30
0.0
 11
6.9536512531
 21
4.9209376475
 31
0.0
 11
6.9421215691
 21
4.9208950892
 31
0.0
 11
6.9298024504
 21
4.9207789389
 31
0.0
 11
6.9230771102
 21
4.9206973784
 31
0.0
 11
6.9157724159
 21
4.9205961584
 31
0.0
 11
6.8987212898
 21
4.9203124061
 31
0.0
  0
SPLINE
  5
497
100
AcDbEntity
  8
0
100
AcDbSpline
 62
9
  6
CONTINUOUS
 70
0
 71
3
 72
11
 73
7
 74
5
 42
0.0000001
 43
0.0000001
 44
0.0000000001
 12
-0.0146699076
 22
-0.0753253328
 32
0.0
 13
-0.0175813934
 23
-0.0746994415
 33
0.0
 40
0.0
 40
0.0
 40
0.0
 40
0.0
 40
0.2532897066
 40
0.5053988597
 40
0.7548055163
 40
1.0
 40
1.0
 40
1.0
 40
1.0
 10
6.914655987
 20
4.9953757995
 30
0.0
 10
6.9134174081
 20
4.989016089
 30
0.0
 10
6.9109059149
 20
4.9763340638
 30
0.0
 10
6.9070068374
 20
4.9574235427
 30
0.0
 10
6.9029718876
 20
4.9387532753
 30
0.0
 10
6.9001582434
 20
4.9264177031
 30
0.0
 10
6.8987212898
 20
4.9203124061
 30
0.0
 11
6.914655987
 21
4.9953757995
 31
0.0
 11
6.9108751245
 21
4.976309467
 31
0.0
 11
6.9069627192
 21
4.9573621901
 31
0.0
 11
6.9029132735
 21
4.9386558696
 31
0.0
 11
6.8987212898
 21
4.9203124061
 31
0.0
  0
SPLINE
  5
498
100
AcDbEntity
  8
0
100
AcDbSpline
 62
9
  6
CONTINUOUS
 70
0
 71
3
 72
19
 73
15
 74
13
 42
0.0000001
 43
0.0000001
 44
0.0000000001
 12
-0.2450357443
 22
-0.0044952756
 32
0.0
 13
-0.2449246141
 23
-0.0086404227
 33
0.0
 40
0.0
 40
0.0
 40
0.0
 40
0.0
 40
0.0894397729
 40
0.1440862796
 40
0.204453212
 40
0.2696626715
 40
0.3387512209
 40
0.4845075423
 40
0.5587984947
 40
0.6323716924
 40
0.7728109968
 40
0.8973757129
 40
0.9516728952
 40
1.0
 40
1.0
 40
1.0
 40
1.0
 10
6.8987212898
 20
4.9203124061
 30
0.0
 10
6.891415976
 20
4.9201783873
 30
0.0
 10
6.8796474874
 20
4.9199472763
 30
0.0
 10
6.8629490631
 20
4.9195892652
 30
0.0
 10
6.8482300754
 20
4.919252792
 30
0.0
 10
6.8323321244
 20
4.9188667598
 30
0.0
 10
6.8094614012
 20
4.9182781273
 30
0.0
 10
6.7858505419
 20
4.9176131636
 30
0.0
 10
6.7618749708
 20
4.916887709
 30
0.0
 10
6.738334599
 20
4.9161417573
 30
0.0
 10
6.7106910468
 20
4.9152120104
 30
0.0
 10
6.6846226691
 20
4.9142961739
 30
0.0
 10
6.6660748179
 20
4.9136359598
 30
0.0
 10
6.6576964982
 20
4.9133379834
 30
0.0
 10
6.6537509991
 20
4.9131987945
 30
0.0
 11
6.8987212898
 21
4.9203124061
 31
0.0
 11
6.8768058614
 21
4.9198833025
 31
0.0
 11
6.863416337
 21
4.9195962723
 31
0.0
 11
6.848625649
 21
4.9192584644
 31
0.0
 11
6.8326490171
 21
4.918870691
 31
0.0
 11
6.8157226142
 21
4.918434873
 31
0.0
 11
6.7800151678
 21
4.9174323063
 31
0.0
 11
6.761816497
 21
4.9168815811
 31
0.0
 11
6.7437944382
 21
4.9163107527
 31
0.0
 11
6.7093952637
 21
4.9151593224
 31
0.0
 11
6.6788860062
 21
4.9140913532
 31
0.0
 11
6.6655874145
 21
4.913618681
 31
0.0
 11
6.6537509991
 21
4.9131987945
 31
0.0
  0
SPLINE
  5
499
100
AcDbEntity
  8
0
100
AcDbSpline
 62
9
  6
CONTINUOUS
 70
0
 71
3
 72
17
 73
13
 74
11
 42
0.0000001
 43
0.0000001
 44
0.0000000001
 12
0.1209048594
 22
-0.0909888618
 32
0.0
 13
0.0646861797
 23
-0.136794211
 33
0.0
 40
0.0
 40
0.0
 40
0.0
 40
0.0
 40
0.1157998338
 40
0.1749005909
 40
0.2347853686
 40
0.2954242823
 40
0.3567826014
 40
0.4814846183
 40
0.6085575022
 40
0.7376124462
 40
0.868235515
 40
1.0
 40
1.0
 40
1.0
 40
1.0
 10
6.816349925
 20
5.4880125476
 30
0.0
 10
6.8210168459
 20
5.4845003826
 30
0.0
 10
6.8278778245
 20
5.478939396
 30
0.0
 10
6.8366718333
 20
5.4710056305
 30
0.0
 10
6.8431873904
 20
5.4647074571
 30
0.0
 10
6.8495701923
 20
5.4581156892
 30
0.0
 10
6.8579372617
 20
5.4489031083
 30
0.0
 10
6.8680064776
 20
5.4367212307
 30
0.0
 10
6.8793645522
 20
5.4212177854
 30
0.0
 10
6.889999275
 20
5.4048521392
 30
0.0
 10
6.8998457007
 20
5.3877281107
 30
0.0
 10
6.9058228352
 20
5.3759117787
 30
0.0
 10
6.9086639489
 20
5.3699035725
 30
0.0
 11
6.816349925
 21
5.4880125476
 31
0.0
 11
6.8299661229
 21
5.4769835749
 31
0.0
 11
6.8366077601
 21
5.4709947998
 31
0.0
 11
6.8431249207
 21
5.4646988184
 31
0.0
 11
6.84950947
 21
5.4581085659
 31
0.0
 11
6.8557532848
 21
5.4512370133
 31
0.0
 11
6.8677862187
 21
5.436701891
 31
0.0
 11
6.8791587371
 21
5.4211972188
 31
0.0
 11
6.889805855
 21
5.4048267635
 31
0.0
 11
6.8996625873
 21
5.3876942924
 31
0.0
 11
6.9086639489
 21
5.3699035725
 31
0.0
  0
SPLINE
  5
49A
100
AcDbEntity
  8
0
100
AcDbSpline
 62
9
  6
CONTINUOUS
 70
0
 71
3
 72
9
 73
5
 74
3
 42
0.0000001
 43
0.0000001
 44
0.0000000001
 12
-0.0082645586
 22
0.0015077378
 32
0.0
 13
-0.0084009643
 23
0.0
 33
0.0
 40
0.0
 40
0.0
 40
0.0
 40
0.0
 40
0.4944883824
 40
1.0
 40
1.0
 40
1.0
 40
1.0
 10
6.7180026991
 20
5.5333794214
 30
0.0
 10
6.7166404564
 20
5.533627941
 30
0.0
 10
6.7138608074
 20
5.53400231
 30
0.0
 10
6.7110589757
 20
5.5341238826
 30
0.0
 10
6.7096433807
 20
5.5341238826
 30
0.0
 11
6.7180026991
 21
5.5333794214
 31
0.0
 11
6.713886024
 21
5.5339363698
 31
0.0
 11
6.7096433807
 21
5.5341238826
 31
0.0
  0
SPLINE
  5
49B
100
AcDbEntity
  8
0
100
AcDbSpline
 62
9
  6
CONTINUOUS
 70
0
 71
3
 72
34
 73
30
 74
28
 42
0.0000001
 43
0.0000001
 44
0.0000000001
 12
-0.0289528464
 22
-0.0010213952
 32
0.0
 13
0.0109191746
 23
-0.0268343472
 33
0.0
 40
0.0
 40
0.0
 40
0.0
 40
0.0
 40
0.2447340133
 40
0.3532763147
 40
0.4528046
 40
0.5434708304
 40
0.6254270878
 40
0.6988256268
 40
0.7638189558
 40
0.8205599733
 40
0.8692022096
 40
0.8905346126
 40
0.9099002792
 40
0.9273162613
 40
0.9427980836
 40
0.9563616443
 40
0.9680235204
 40
0.977801477
 40
0.9819902405
 40
0.9857158836
 40
0.9889817355
 40
0.9917918583
 40
0.9941515984
 40
0.9960687609
 40
0.9975564429
 40
0.9986410822
 40
0.9993895994
 40
0.9996942208
 40
1.0
 40
1.0
 40
1.0
 40
1.0
 10
6.6537509991
 20
4.9131987945
 30
0.0
 10
6.6513890836
 20
4.9131154711
 30
0.0
 10
6.6479797676
 20
4.9129912181
 30
0.0
 10
6.6436103857
 20
4.9128205317
 30
0.0
 10
6.6407279225
 20
4.9127022385
 30
0.0
 10
6.6381022392
 20
4.9125884028
 30
0.0
 10
6.6357289446
 20
4.9124789544
 30
0.0
 10
6.6336036469
 20
4.9123738306
 30
0.0
 10
6.6317219513
 20
4.9122729843
 30
0.0
 10
6.6300794645
 20
4.9121763556
 30
0.0
 10
6.6288583878
 20
4.9120962342
 30
0.0
 10
6.6279979146
 20
4.912033477
 30
0.0
 10
6.627438432
 20
4.9119895027
 30
0.0
 10
6.6269355536
 20
4.9119465349
 30
0.0
 10
6.626488839
 20
4.9119045687
 30
0.0
 10
6.6260978589
 20
4.9118636205
 30
0.0
 10
6.6257621873
 20
4.9118236935
 30
0.0
 10
6.6255169963
 20
4.9117898128
 30
0.0
 10
6.6253482984
 20
4.9117627086
 30
0.0
 10
6.6252420118
 20
4.9117436951
 30
0.0
 10
6.6251492235
 20
4.9117249395
 30
0.0
 10
6.6250698711
 20
4.9117064603
 30
0.0
 10
6.6250038628
 20
4.9116882531
 30
0.0
 10
6.624951111
 20
4.9116704171
 30
0.0
 10
6.6249113218
 20
4.911652794
 30
0.0
 10
6.6248841736
 20
4.9116357329
 30
0.0
 10
6.6248701038
 20
4.9116192853
 30
0.0
 10
6.6248677468
 20
4.9116060442
 30
0.0
 10
6.6248691135
 20
4.9116001442
 30
0.0
 10
6.6248702264
 20
4.911597409
 30
0.0
 11
6.6537509991
 21
4.9131987945
 31
0.0
 11
6.6466656048
 21
4.9129390385
 31
0.0
 11
6.643523447
 21
4.9128160566
 31
0.0
 11
6.6406424629
 21
4.9126975677
 31
0.0
 11
6.6380182627
 21
4.9125834932
 31
0.0
 11
6.635646457
 21
4.9124737548
 31
0.0
 11
6.6335226562
 21
4.9123682741
 31
0.0
 11
6.6316424708
 21
4.9122669727
 31
0.0
 11
6.6300015111
 21
4.9121697722
 31
0.0
 11
6.6285953877
 21
4.9120765941
 31
0.0
 11
6.6279790179
 21
4.912031489
 31
0.0
 11
6.6274197161
 21
4.9119873601
 31
0.0
 11
6.6269170098
 21
4.9119441969
 31
0.0
 11
6.6264704786
 21
4.9119019888
 31
0.0
 11
6.6260797032
 21
4.9118607249
 31
0.0
 11
6.6257442645
 21
4.9118203944
 31
0.0
 11
6.6254637432
 21
4.9117809865
 31
0.0
 11
6.6253439456
 21
4.9117616252
 31
0.0
 11
6.6252377201
 21
4.9117424905
 31
0.0
 11
6.6251450145
 21
4.9117235811
 31
0.0
 11
6.6250657761
 21
4.9117048956
 31
0.0
 11
6.6249999528
 21
4.9116864326
 31
0.0
 11
6.624947492
 21
4.9116681909
 31
0.0
 11
6.6249083414
 21
4.911650169
 31
0.0
 11
6.6248824485
 21
4.9116323656
 31
0.0
 11
6.624869761
 21
4.9116147794
 31
0.0
 11
6.6248683529
 21
4.9116060673
 31
0.0
 11
6.6248702264
 21
4.911597409
 31
0.0
  0
SPLINE
  5
49C
100
AcDbEntity
  8
0
100
AcDbSpline
 62
9
  6
CONTINUOUS
 70
0
 71
3
 72
66
 73
62
 74
60
 42
0.0000001
 43
0.0000001
 44
0.0000000001
 12
-0.1797150035
 22
-0.1687263893
 32
0.0
 13
-0.0014744057
 23
0.246503353
 33
0.0
 40
0.0
 40
0.0
 40
0.0
 40
0.0
 40
0.0328441094
 40
0.0491265965
 40
0.0653087947
 40
0.0973291087
 40
0.1288246879
 40
0.1443424479
 40
0.1596849154
 40
0.174827054
 40
0.1897484854
 40
0.2044252712
 40
0.2188368456
 40
0.2329621491
 40
0.239912503
 40
0.2467867227
 40
0.2535856822
 40
0.2603114246
 40
0.2669675863
 40
0.2735631328
 40
0.2866177036
 40
0.299564492
 40
0.3124774565
 40
0.3254129464
 40
0.3384155234
 40
0.3515152978
 40
0.378081043
 40
0.40522193
 40
0.4190249422
 40
0.432983445
 40
0.4470998716
 40
0.4613754943
 40
0.4758097879
 40
0.4904032522
 40
0.5200704371
 40
0.5503824196
 40
0.5813420313
 40
0.5970668152
 40
0.6129534694
 40
0.6290018416
 40
0.6452126056
 40
0.6615822949
 40
0.6781056273
 40
0.6947806894
 40
0.7116033655
 40
0.728565085
 40
0.7370967238
 40
0.7456621019
 40
0.7628969385
 40
0.7802751199
 40
0.7977973991
 40
0.8154625471
 40
0.8332731622
 40
0.8512360767
 40
0.8693545374
 40
0.8876291255
 40
0.9060573322
 40
0.9246321285
 40
0.9621563867
 40
0.9810559831
 40
1.0
 40
1.0
 40
1.0
 40
1.0
 10
6.4570156583
 20
5.2904433486
 30
0.0
 10
6.4550481319
 20
5.2885961259
 30
0.0
 10
6.452041827
 20
5.2858993086
 30
0.0
 10
6.4479197189
 20
5.2824626532
 30
0.0
 10
6.4437662526
 20
5.2791717451
 30
0.0
 10
6.4384741436
 20
5.2753086004
 30
0.0
 10
6.4330076226
 20
5.2717935484
 30
0.0
 10
6.428556618
 20
5.2692535129
 30
0.0
 10
6.4252032665
 20
5.2675067334
 30
0.0
 10
6.4218221968
 20
5.2659262043
 30
0.0
 10
6.4184197112
 20
5.2645299107
 30
0.0
 10
6.4150032647
 20
5.2633384295
 30
0.0
 10
6.4115833087
 20
5.2623745421
 30
0.0
 10
6.4087259953
 20
5.2617780374
 30
0.0
 10
6.4064533865
 20
5.2614429134
 30
0.0
 10
6.4047674518
 20
5.2612663241
 30
0.0
 10
6.4030937988
 20
5.2611649522
 30
0.0
 10
6.4014351269
 20
5.2611405085
 30
0.0
 10
6.3997938322
 20
5.2611953936
 30
0.0
 10
6.3976388581
 20
5.2613729047
 30
0.0
 10
6.3949875566
 20
5.2617815256
 30
0.0
 10
6.3918793587
 20
5.2625481348
 30
0.0
 10
6.3888540965
 20
5.26356329
 30
0.0
 10
6.3859088349
 20
5.264801598
 30
0.0
 10
6.3830398321
 20
5.266241086
 30
0.0
 10
6.3792921477
 20
5.2684095093
 30
0.0
 10
6.3747684494
 20
5.2715354274
 30
0.0
 10
6.3704816444
 20
5.2750642593
 30
0.0
 10
6.3671505827
 20
5.278107493
 30
0.0
 10
6.3646832344
 20
5.2805068723
 30
0.0
 10
6.3622594574
 20
5.2830045086
 30
0.0
 10
6.3598772455
 20
5.2855951108
 30
0.0
 10
6.3575340865
 20
5.2882733445
 30
0.0
 10
6.354444212
 20
5.2919769649
 30
0.0
 10
6.3506797016
 20
5.2968144623
 30
0.0
 10
6.346337411
 20
5.3028980739
 30
0.0
 10
6.3428772944
 20
5.3081971895
 30
0.0
 10
6.3402016323
 20
5.3125878853
 30
0.0
 10
6.3382370504
 20
5.3159760243
 30
0.0
 10
6.3363306357
 20
5.3194428752
 30
0.0
 10
6.3344874049
 20
5.3229885701
 30
0.0
 10
6.3327166772
 20
5.3266145984
 30
0.0
 10
6.3310312588
 20
5.3303231134
 30
0.0
 10
6.3294437963
 20
5.3341151066
 30
0.0
 10
6.3279670357
 20
5.337990216
 30
0.0
 10
6.3268409909
 20
5.3412807584
 30
0.0
 10
6.3260077886
 20
5.3439525776
 30
0.0
 10
6.325217804
 20
5.3466608763
 30
0.0
 10
6.3243153126
 20
5.3500928962
 30
0.0
 10
6.3233625782
 20
5.3542702403
 30
0.0
 10
6.3225335942
 20
5.3585099379
 30
0.0
 10
6.3218329432
 20
5.3628087473
 30
0.0
 10
6.3212592403
 20
5.3671627228
 30
0.0
 10
6.3207946743
 20
5.3715669695
 30
0.0
 10
6.3204254443
 20
5.3760183999
 30
0.0
 10
6.3201415424
 20
5.3805143137
 30
0.0
 10
6.319929872
 20
5.3850516589
 30
0.0
 10
6.3197246025
 20
5.3911722089
 30
0.0
 10
6.3196187404
 20
5.3973342371
 30
0.0
 10
6.3195655751
 20
5.4035269133
 30
0.0
 10
6.3195480179
 20
5.4066364516
 30
0.0
 10
6.3195387075
 20
5.4081930395
 30
0.0
 11
6.4570156583
 21
5.2904433486
 31
0.0
 11
6.4509861307
 21
5.285040079
 31
0.0
 11
6.447902833
 21
5.2824703435
 31
0.0
 11
6.4447755601
 21
5.2799939381
 31
0.0
 11
6.4383946656
 21
5.2753476842
 31
0.0
 11
6.431855775
 21
5.2711618596
 31
0.0
 11
6.4285322884
 21
5.2692679322
 31
0.0
 11
6.4251765575
 21
5.267523548
 31
0.0
 11
6.4217936619
 21
5.2659459775
 31
0.0
 11
6.4183892233
 21
5.2645533861
 31
0.0
 11
6.4149714843
 21
5.2633665575
 31
0.0
 11
6.4115506381
 21
5.2624081583
 31
0.0
 11
6.4081407803
 21
5.2617030537
 31
0.0
 11
6.4064456657
 21
5.2614539779
 31
0.0
 11
6.4047602694
 21
5.2612780973
 31
0.0
 11
6.4030872988
 21
5.2611774336
 31
0.0
 11
6.4014295195
 21
5.2611538057
 31
0.0
 11
6.3997896504
 21
5.261208935
 31
0.0
 11
6.3981692623
 21
5.2613421329
 31
0.0
 11
6.3949883799
 21
5.2618298343
 31
0.0
 11
6.3918889248
 21
5.2625907199
 31
0.0
 11
6.3888698588
 21
5.2635995107
 31
0.0
 11
6.3859288628
 21
5.2648317208
 31
0.0
 11
6.3830621074
 21
5.2662653359
 31
0.0
 11
6.3802652366
 21
5.2678794057
 31
0.0
 11
6.374862774
 21
5.2715805377
 31
0.0
 11
6.3696855568
 21
5.2758182728
 31
0.0
 11
6.3671720597
 21
5.2781116714
 31
0.0
 11
6.3647042419
 21
5.2805094882
 31
0.0
 11
6.362279843
 21
5.2830057572
 31
0.0
 11
6.3598968228
 21
5.2855951472
 31
0.0
 11
6.3575532313
 21
5.2882724816
 31
0.0
 11
6.355248139
 21
5.2910343383
 31
0.0
 11
6.3507523344
 21
5.2968023977
 31
0.0
 11
6.3464104869
 21
5.3028836164
 31
0.0
 11
6.3422373522
 21
5.3092733803
 31
0.0
 11
6.3402206085
 21
5.3125837128
 31
0.0
 11
6.338256553
 21
5.3159717772
 31
0.0
 11
6.3363505795
 21
5.3194384158
 31
0.0
 11
6.3345082955
 21
5.3229844894
 31
0.0
 11
6.3327389902
 21
5.3266111746
 31
0.0
 11
6.3310550551
 21
5.3303199141
 31
0.0
 11
6.3294689806
 21
5.3341121223
 31
0.0
 11
6.3279933529
 21
5.3379876184
 31
0.0
 11
6.3266408892
 21
5.3419440357
 31
0.0
 11
6.3260148019
 21
5.3439517977
 31
0.0
 11
6.325423287
 21
5.345978681
 31
0.0
 11
6.3243408546
 21
5.3500869983
 31
0.0
 11
6.3233868774
 21
5.3542632832
 31
0.0
 11
6.3225580987
 21
5.3585024046
 31
0.0
 11
6.3218567217
 21
5.3628001456
 31
0.0
 11
6.3212796335
 21
5.3671525085
 31
0.0
 11
6.320812358
 21
5.3715557822
 31
0.0
 11
6.3204410649
 21
5.3760066636
 31
0.0
 11
6.3201546167
 21
5.380502375
 31
0.0
 11
6.3199402987
 21
5.3850400126
 31
0.0
 11
6.3197850531
 21
5.3896162115
 31
0.0
 11
6.3196100724
 21
5.3988645772
 31
0.0
 11
6.3195678856
 21
5.4035232834
 31
0.0
 11
6.3195387075
 21
5.4081930395
 31
0.0
  0
SPLINE
  5
49D
100
AcDbEntity
  8
0
100
AcDbSpline
 62
9
  6
CONTINUOUS
 70
0
 71
3
 72
32
 73
28
 74
26
 42
0.0000001
 43
0.0000001
 44
0.0000000001
 12
-0.1751900136
 22
-0.0658743708
 32
0.0
 13
0.0
 23
0.1871656315
 33
0.0
 40
0.0
 40
0.0
 40
0.0
 40
0.0
 40
0.0300136834
 40
0.0598477573
 40
0.0895247233
 40
0.1190763869
 40
0.148545004
 40
0.163266796
 40
0.1779889394
 40
0.207460163
 40
0.2370165233
 40
0.2666997944
 40
0.2965413485
 40
0.3567522902
 40
0.4177666811
 40
0.4795810908
 40
0.5421386783
 40
0.6053636381
 40
0.6691934947
 40
0.7336098342
 40
0.7986677767
 40
0.8314959248
 40
0.8645530811
 40
0.8978787099
 40
0.9315213861
 40
0.9655392005
 40
1.0
 40
1.0
 40
1.0
 40
1.0
 10
6.4876131039
 20
5.3103115118
 30
0.0
 10
6.4858604047
 20
5.3096524677
 30
0.0
 10
6.4823249105
 20
5.3084432415
 30
0.0
 10
6.4769346536
 20
5.3069666347
 30
0.0
 10
6.471488691
 20
5.3058439144
 30
0.0
 10
6.4660030044
 20
5.3050864907
 30
0.0
 10
6.4614092787
 20
5.3047690494
 30
0.0
 10
6.4577336204
 20
5.3047093152
 30
0.0
 10
6.4540580056
 20
5.3047805066
 30
0.0
 10
6.4494647939
 20
5.3051119331
 30
0.0
 10
6.4439805588
 20
5.305885633
 30
0.0
 10
6.4385366112
 20
5.3070241772
 30
0.0
 10
6.4313333442
 20
5.3090188319
 30
0.0
 10
6.422500771
 20
5.3123788357
 30
0.0
 10
6.412355589
 20
5.3176739038
 30
0.0
 10
6.4027480907
 20
5.3241561875
 30
0.0
 10
6.3938013884
 20
5.331737422
 30
0.0
 10
6.3856379849
 20
5.3403306629
 30
0.0
 10
6.3783817692
 20
5.3498499387
 30
0.0
 10
6.3721581253
 20
5.3602084315
 30
0.0
 10
6.367948944
 20
5.3694449626
 30
0.0
 10
6.3652240255
 20
5.3771506707
 30
0.0
 10
6.3635109394
 20
5.3831025732
 30
0.0
 10
6.3621511582
 20
5.3891970032
 30
0.0
 10
6.3611603866
 20
5.3954231695
 30
0.0
 10
6.3605545052
 20
5.4017695187
 30
0.0
 10
6.3604187183
 20
5.4060430688
 30
0.0
 10
6.3604187183
 20
5.4081930279
 30
0.0
 11
6.4876131039
 21
5.3103115118
 31
0.0
 11
6.4822972177
 21
5.3084954729
 31
0.0
 11
6.4769111679
 21
5.3070221923
 31
0.0
 11
6.471470623
 21
5.3059028035
 31
0.0
 11
6.4659912513
 21
5.3051484404
 31
0.0
 11
6.4604887212
 21
5.3047702366
 31
0.0
 11
6.4577336681
 21
5.3047256736
 31
0.0
 11
6.454978701
 21
5.3047787979
 31
0.0
 11
6.449476859
 21
5.3051737578
 31
0.0
 11
6.4439988637
 21
5.3059443879
 31
0.0
 11
6.4385603835
 21
5.3070795545
 31
0.0
 11
6.4331770866
 21
5.3085681241
 31
0.0
 11
6.4226387164
 21
5.3125609372
 31
0.0
 11
6.4125091
 21
5.3178337578
 31
0.0
 11
6.4029135845
 21
5.3242975165
 31
0.0
 11
6.3939775167
 21
5.3318631438
 31
0.0
 11
6.3858262435
 21
5.3404415704
 31
0.0
 11
6.3785851118
 21
5.3499437269
 31
0.0
 11
6.3723794686
 21
5.3602805438
 31
0.0
 11
6.3673346607
 21
5.3713629517
 31
0.0
 11
6.3652867409
 21
5.3771559182
 31
0.0
 11
6.3635760351
 21
5.3831018813
 31
0.0
 11
6.3622182116
 21
5.3891897076
 31
0.0
 11
6.3612289387
 21
5.3954082632
 31
0.0
 11
6.3606238848
 21
5.4017464145
 31
0.0
 11
6.3604187183
 21
5.4081930279
 31
0.0
  0
SPLINE
  5
49E
100
AcDbEntity
  8
0
100
AcDbSpline
 62
9
  6
CONTINUOUS
 70
0
 71
3
 72
11
 73
7
 74
5
 42
0.0000001
 43
0.0000001
 44
0.0000000001
 12
-0.0177193361
 22
-0.0826576991
 32
0.0
 13
-0.0469235079
 23
-0.0703168152
 33
0.0
 40
0.0
 40
0.0
 40
0.0
 40
0.0
 40
0.253660027
 40
0.5048242029
 40
0.7535652806
 40
1.0
 40
1.0
 40
1.0
 40
1.0
 10
6.9860268955
 20
4.9203124061
 30
0.0
 10
6.9845286664
 20
4.9133234213
 30
0.0
 10
6.9809064268
 20
4.8995424928
 30
0.0
 10
6.9736217897
 20
4.8795651985
 30
0.0
 10
6.9645868763
 20
4.8605407265
 30
0.0
 10
6.9574107173
 20
4.8485440159
 30
0.0
 10
6.9535561901
 20
4.8427678476
 30
0.0
 11
6.9860268955
 21
4.9203124061
 31
0.0
 11
6.9805709406
 21
4.8995748089
 31
0.0
 11
6.9732906204
 21
4.8796296776
 31
0.0
 11
6.9642607615
 21
4.8606397709
 31
0.0
 11
6.9535561901
 21
4.8427678476
 31
0.0
  0
LINE
  5
49F
100
AcDbEntity
  8
0
100
AcDbLine
 62
9
  6
CONTINUOUS
 10
6.9535561901
 20
4.8427678476
 11
6.9247243807
 21
4.8427900421
  0
SPLINE
  5
4A0
100
AcDbEntity
  8
0
100
AcDbSpline
 62
9
  6
CONTINUOUS
 70
0
 71
3
 72
15
 73
11
 74
9
 42
0.0000001
 43
0.0000001
 44
0.0000000001
 12
-0.0155158722
 22
0.0293590256
 32
0.0
 13
0.0071503795
 23
0.0324278699
 33
0.0
 40
0.0
 40
0.0
 40
0.0
 40
0.0
 40
0.1043323468
 40
0.21275221
 40
0.3259204873
 40
0.4447179663
 40
0.5702313635
 40
0.703704665
 40
0.8464874422
 40
1.0
 40
1.0
 40
1.0
 40
1.0
 10
6.5437703561
 20
5.248875718
 30
0.0
 10
6.5432307536
 20
5.24989675
 30
0.0
 10
6.5422147519
 20
5.2520247496
 30
0.0
 10
6.5409433384
 20
5.2554056668
 30
0.0
 10
6.5399383684
 20
5.2590424197
 30
0.0
 10
6.5392419614
 20
5.2629434255
 30
0.0
 10
6.5388936627
 20
5.2671165631
 30
0.0
 10
6.5389298263
 20
5.2715696168
 30
0.0
 10
6.539386863
 20
5.2763103302
 30
0.0
 10
6.5399731878
 20
5.2795414252
 30
0.0
 10
6.5403390788
 20
5.2812007869
 30
0.0
 11
6.5437703561
 21
5.248875718
 31
0.0
 11
6.542279016
 21
5.2520028572
 31
0.0
 11
6.5410121807
 21
5.2553728953
 31
0.0
 11
6.5400104389
 21
5.2589948822
 31
0.0
 11
6.5393143214
 21
5.2628778676
 31
0.0
 11
6.5389625569
 21
5.267030901
 31
0.0
 11
6.5389917631
 21
5.2714630323
 31
0.0
 11
6.5394384378
 21
5.276183311
 31
0.0
 11
6.5403390788
 21
5.2812007869
 31
0.0
  0
SPLINE
  5
4A1
100
AcDbEntity
  8
0
100
AcDbSpline
 62
9
  6
CONTINUOUS
 70
0
 71
3
 72
22
 73
18
 74
16
 42
0.0000001
 43
0.0000001
 44
0.0000000001
 12
-0.0052267044
 22
0.0302780265
 32
0.0
 13
0.0214787303
 23
0.0219713785
 33
0.0
 40
0.0
 40
0.0
 40
0.0
 40
0.0
 40
0.0352569161
 40
0.0724292115
 40
0.1538982719
 40
0.1990080755
 40
0.2475187651
 40
0.2998123749
 40
0.3562674503
 40
0.4172568036
 40
0.4831445292
 40
0.5542772745
 40
0.6309889099
 40
0.7136040733
 40
0.8024392046
 40
0.8978035357
 40
1.0
 40
1.0
 40
1.0
 40
1.0
 10
6.5896422672
 20
5.1138794688
 30
0.0
 10
6.5895808414
 20
5.1142353054
 30
0.0
 10
6.5894910817
 20
5.1149730614
 30
0.0
 10
6.5894470684
 20
5.1165504082
 30
0.0
 10
6.5896278463
 20
5.1182271722
 30
0.0
 10
6.5900223624
 20
5.1199775048
 30
0.0
 10
6.5904573321
 20
5.1214087257
 30
0.0
 10
6.5910297032
 20
5.1229154016
 30
0.0
 10
6.5917477953
 20
5.1244997614
 30
0.0
 10
6.5926199175
 20
5.1261636651
 30
0.0
 10
6.5936543523
 20
5.1279089869
 30
0.0
 10
6.5948587234
 20
5.1297378078
 30
0.0
 10
6.5962406274
 20
5.1316521505
 30
0.0
 10
6.5978076629
 20
5.1336539973
 30
0.0
 10
6.599567443
 20
5.1357453314
 30
0.0
 10
6.6015275634
 20
5.1379281044
 30
0.0
 10
6.6029233326
 20
5.1393934598
 30
0.0
 10
6.603655016
 20
5.1401419255
 30
0.0
 11
6.5896422672
 21
5.1138794688
 31
0.0
 11
6.5895098159
 21
5.1149546395
 31
0.0
 11
6.5894759253
 21
5.1160962866
 31
0.0
 11
6.5897282472
 21
5.1185867426
 31
0.0
 11
6.590030518
 21
5.1199394178
 31
0.0
 11
6.5904614318
 21
5.1213663018
 31
0.0
 11
6.5910294165
 21
5.122869328
 31
0.0
 11
6.5917428998
 21
5.1244504294
 31
0.0
 11
6.5926103097
 21
5.1261115392
 31
0.0
 11
6.5936399667
 21
5.1278545905
 31
0.0
 11
6.5948396533
 21
5.1296815164
 31
0.0
 11
6.5962169833
 21
5.1315942501
 31
0.0
 11
6.5977795707
 21
5.1335947247
 31
0.0
 11
6.5995350294
 21
5.1356848734
 31
0.0
 11
6.6014909732
 21
5.1378666293
 31
0.0
 11
6.603655016
 21
5.1401419255
 31
0.0
  0
SPLINE
  5
4A2
100
AcDbEntity
  8
0
100
AcDbSpline
 62
9
  6
CONTINUOUS
 70
0
 71
3
 72
11
 73
7
 74
5
 42
0.0000001
 43
0.0000001
 44
0.0000000001
 12
-0.0181576822
 22
-0.0815909472
 32
0.0
 13
-0.0401883808
 23
-0.0732917331
 33
0.0
 40
0.0
 40
0.0
 40
0.0
 40
0.0
 40
0.257223579
 40
0.5101306951
 40
0.7579536004
 40
1.0
 40
1.0
 40
1.0
 40
1.0
 10
6.9536512531
 20
4.9209376475
 30
0.0
 10
6.9520943918
 20
4.9139419424
 30
0.0
 10
6.9485494193
 20
4.9001648791
 30
0.0
 10
6.9419151472
 20
4.8800987864
 30
0.0
 10
6.9340595013
 20
4.8609341889
 30
0.0
 10
6.927966865
 20
4.8487033754
 30
0.0
 10
6.9247243807
 20
4.8427900421
 30
0.0
 11
6.9536512531
 21
4.9209376475
 31
0.0
 11
6.94828548
 21
4.9001174206
 31
0.0
 11
6.9416377568
 21
4.8800501207
 31
0.0
 11
6.9337650637
 21
4.8608896828
 31
0.0
 11
6.9247243807
 21
4.8427900421
 31
0.0
  0
LINE
  5
4A3
100
AcDbEntity
  8
0
100
AcDbLine
 62
9
  6
CONTINUOUS
 10
6.9247243807
 20
4.8427900421
 11
6.8766528289
 21
4.8427678476
  0
SPLINE
  5
4A4
100
AcDbEntity
  8
0
100
AcDbSpline
 62
9
  6
CONTINUOUS
 70
0
 71
3
 72
13
 73
9
 74
7
 42
0.0000001
 43
0.0000001
 44
0.0000000001
 12
-0.0184793925
 22
-0.0785148403
 32
0.0
 13
-0.0268068618
 23
-0.076075359
 33
0.0
 40
0.0
 40
0.0
 40
0.0
 40
0.0
 40
0.2647550334
 40
0.5208518134
 40
0.6450949134
 40
0.7665080308
 40
0.8848785775
 40
1.0
 40
1.0
 40
1.0
 40
1.0
 10
6.8987212898
 20
4.9203124061
 30
0.0
 10
6.8970904524
 20
4.9133833397
 30
0.0
 10
6.8937551189
 20
4.8997812377
 30
0.0
 10
6.8892548433
 20
4.8830288604
 30
0.0
 10
6.8854988475
 20
4.87007138
 30
0.0
 10
6.8826401142
 20
4.860710291
 30
0.0
 10
6.8797109455
 20
4.8516283415
 30
0.0
 10
6.8776815102
 20
4.8456871488
 30
0.0
 10
6.8766528289
 20
4.8427678476
 30
0.0
 11
6.8987212898
 21
4.9203124061
 31
0.0
 11
6.8936226246
 21
4.8995748089
 31
0.0
 11
6.8882471375
 21
4.8796296776
 31
0.0
 11
6.8854545804
 21
4.8700051487
 31
0.0
 11
6.8825916114
 21
4.8606397709
 31
0.0
 11
6.8796578282
 21
4.8515538889
 31
0.0
 11
6.8766528289
 21
4.8427678476
 31
0.0
  0
SPLINE
  5
4A5
100
AcDbEntity
  8
0
100
AcDbSpline
 62
9
  6
CONTINUOUS
 70
0
 71
3
 72
19
 73
15
 74
13
 42
0.0000001
 43
0.0000001
 44
0.0000000001
 12
-0.1853531171
 22
-0.0006399438
 32
0.0
 13
-0.1853194374
 23
-0.0035907787
 33
0.0
 40
0.0
 40
0.0
 40
0.0
 40
0.0
 40
0.0444609215
 40
0.0951980715
 40
0.1516036009
 40
0.2130449944
 40
0.2787146142
 40
0.3477291263
 40
0.4920787426
 40
0.6375740661
 40
0.7755349141
 40
0.8982360273
 40
0.9519717928
 40
1.0
 40
1.0
 40
1.0
 40
1.0
 10
6.8766528289
 20
4.8427678476
 30
0.0
 10
6.8739058387
 20
4.8427583635
 30
0.0
 10
6.8680241107
 20
4.8427305155
 30
0.0
 10
6.8586575318
 20
4.842666943
 30
0.0
 10
6.8482419962
 20
4.8425763373
 30
0.0
 10
6.8369041015
 20
4.8424564865
 30
0.0
 10
6.8247874485
 20
4.842307379
 30
0.0
 10
6.8075490926
 20
4.8420667448
 30
0.0
 10
6.7853800433
 20
4.8417003296
 30
0.0
 10
6.7589530197
 20
4.8411929071
 30
0.0
 10
6.7338643895
 20
4.8406580445
 30
0.0
 10
6.7144440842
 20
4.8402318371
 30
0.0
 10
6.700578698
 20
4.8399371311
 30
0.0
 10
6.6942925284
 20
4.8398096036
 30
0.0
 10
6.691325675
 20
4.8397521173
 30
0.0
 11
6.8766528289
 21
4.8427678476
 31
0.0
 11
6.8684118976
 21
4.8427297183
 31
0.0
 11
6.8590077652
 21
4.842666482
 31
0.0
 11
6.8485531544
 21
4.8425759222
 31
0.0
 11
6.8371653635
 21
4.8424560646
 31
0.0
 11
6.8249941392
 21
4.8423066522
 31
0.0
 11
6.8122032533
 21
4.8421281705
 31
0.0
 11
6.7854510366
 21
4.8416896341
 31
0.0
 11
6.7584877901
 21
4.8411742036
 31
0.0
 11
6.7329218474
 21
4.84063512
 31
0.0
 11
6.7101840249
 21
4.8401419896
 31
0.0
 11
6.7002261018
 21
4.839931333
 31
0.0
 11
6.691325675
 21
4.8397521173
 31
0.0
  0
SPLINE
  5
4A6
100
AcDbEntity
  8
0
100
AcDbSpline
 62
9
  6
CONTINUOUS
 70
0
 71
3
 72
25
 73
21
 74
19
 42
0.0000001
 43
0.0000001
 44
0.0000000001
 12
0.0027427001
 22
0.0110242209
 32
0.0
 13
-0.0113389235
 23
0.0006961786
 33
0.0
 40
0.0
 40
0.0
 40
0.0
 40
0.0
 40
0.0067659317
 40
0.0140199363
 40
0.0227940641
 40
0.0336111317
 40
0.0466837986
 40
0.0620757348
 40
0.0797787233
 40
0.0997474178
 40
0.1462008821
 40
0.2007940102
 40
0.2627871604
 40
0.3313664539
 40
0.405587264
 40
0.484469412
 40
0.5670243676
 40
0.6522582629
 40
0.8267697392
 40
1.0
 40
1.0
 40
1.0
 40
1.0
 10
6.9970738468
 20
4.918605457
 30
0.0
 10
6.9970800324
 20
4.91863032
 30
0.0
 10
6.9970811861
 20
4.9186857137
 30
0.0
 10
6.9970426489
 20
4.9187654408
 30
0.0
 10
6.9969716323
 20
4.9188394925
 30
0.0
 10
6.996870148
 20
4.9189110182
 30
0.0
 10
6.9967385613
 20
4.9189809287
 30
0.0
 10
6.9965775801
 20
4.9190494889
 30
0.0
 10
6.9963881199
 20
4.9191167118
 30
0.0
 10
6.9960831954
 20
4.919209212
 30
0.0
 10
6.9956377327
 20
4.9193179944
 30
0.0
 10
6.995031949
 20
4.919437703
 30
0.0
 10
6.9943399988
 20
4.9195516759
 30
0.0
 10
6.9935720019
 20
4.9196596656
 30
0.0
 10
6.9927387357
 20
4.919761717
 30
0.0
 10
6.9918515245
 20
4.9198578302
 30
0.0
 10
6.9909217911
 20
4.9199480395
 30
0.0
 10
6.9896305327
 20
4.9200613757
 30
0.0
 10
6.987995659
 20
4.9201861137
 30
0.0
 10
6.9866816437
 20
4.9202722063
 30
0.0
 10
6.9860268955
 20
4.9203124061
 30
0.0
 11
6.9970738468
 21
4.918605457
 31
0.0
 11
6.9970753569
 21
4.918682305
 31
0.0
 11
6.9970420845
 21
4.9187576969
 31
0.0
 11
6.9969752231
 21
4.9188316223
 31
0.0
 11
6.9968759663
 21
4.9189040707
 31
0.0
 11
6.9967455076
 21
4.9189750318
 31
0.0
 11
6.9965850404
 21
4.9190444949
 31
0.0
 11
6.9963957584
 21
4.9191124499
 31
0.0
 11
6.996178855
 21
4.9191788861
 31
0.0
 11
6.9956669581
 21
4.9193071606
 31
0.0
 11
6.9950588979
 21
4.919429235
 31
0.0
 11
6.9943642228
 21
4.9195450258
 31
0.0
 11
6.9935928709
 21
4.9196544854
 31
0.0
 11
6.9927560412
 21
4.9197576822
 31
0.0
 11
6.9918651864
 21
4.9198547079
 31
0.0
 11
6.9909317595
 21
4.9199456542
 31
0.0
 11
6.9899672134
 21
4.9200306129
 31
0.0
 11
6.9879905753
 21
4.9201829343
 31
0.0
 11
6.9860268955
 21
4.9203124061
 31
0.0
  0
SPLINE
  5
4A7
100
AcDbEntity
  8
0
100
AcDbSpline
 62
6
  6
CONTINUOUS
 70
0
 71
3
 72
24
 73
20
 74
18
 42
0.0000001
 43
0.0000001
 44
0.0000000001
 12
-0.0007031743
 22
0.0140354673
 32
0.0
 13
-0.0140186801
 23
0.0009825509
 33
0.0
 40
0.0
 40
0.0
 40
0.0
 40
0.0
 40
0.0066234328
 40
0.0137888017
 40
0.0219049438
 40
0.0312563121
 40
0.0420295177
 40
0.0543463298
 40
0.0838976159
 40
0.1203203741
 40
0.1638142879
 40
0.214492536
 40
0.2724235923
 40
0.3376507756
 40
0.4102022553
 40
0.4900965666
 40
0.5773458388
 40
0.7739343071
 40
1.0
 40
1.0
 40
1.0
 40
1.0
 10
7.0042844919
 20
4.992938373
 30
0.0
 10
7.0042829394
 20
4.9929693606
 30
0.0
 10
7.0042699702
 20
4.9930336819
 30
0.0
 10
7.0042232207
 20
4.993126079
 30
0.0
 10
7.0041501977
 20
4.9932162704
 30
0.0
 10
7.0040513431
 20
4.993304792
 30
0.0
 10
7.0039266453
 20
4.9933921231
 30
0.0
 10
7.0037124021
 20
4.9935147291
 30
0.0
 10
7.0033753691
 20
4.9936616141
 30
0.0
 10
7.0028892457
 20
4.9938257636
 30
0.0
 10
7.0022987122
 20
4.9939866109
 30
0.0
 10
7.0016036594
 20
4.9941440234
 30
0.0
 10
7.000803875
 20
4.9942977719
 30
0.0
 10
6.9998993656
 20
4.9944477066
 30
0.0
 10
6.9988901523
 20
4.9945936877
 30
0.0
 10
6.9977762965
 20
4.9947356162
 30
0.0
 10
6.9960831797
 20
4.994926982
 30
0.0
 10
6.9937049738
 20
4.995151318
 30
0.0
 10
6.9917308154
 20
4.9953025527
 30
0.0
 10
6.9906744346
 20
4.9953765931
 30
0.0
 11
7.0042844919
 21
4.992938373
 31
0.0
 11
7.0042666823
 21
4.9930297328
 31
0.0
 11
7.0042224604
 21
4.9931201982
 31
0.0
 11
7.0041518382
 21
4.9932097608
 31
0.0
 11
7.0040548281
 21
4.9932984121
 31
0.0
 11
7.0039314422
 21
4.9933861438
 31
0.0
 11
7.0037816926
 21
4.9934729474
 31
0.0
 11
7.0034031511
 21
4.993643737
 31
0.0
 11
7.0029193011
 21
4.9938107136
 31
0.0
 11
7.0023302398
 21
4.9939738101
 31
0.0
 11
7.0016360648
 21
4.9941329594
 31
0.0
 11
7.0008368733
 21
4.9942880943
 31
0.0
 11
6.9999327628
 21
4.9944391475
 31
0.0
 11
6.9989238305
 21
4.994586052
 31
0.0
 11
6.997810174
 21
4.9947287405
 31
0.0
 11
6.9965918905
 21
4.994867146
 31
0.0
 11
6.9938418322
 21
4.9951308388
 31
0.0
 11
6.9906744346
 21
4.9953765931
 31
0.0
  0
SPLINE
  5
4A8
100
AcDbEntity
  8
0
100
AcDbSpline
 62
9
  6
CONTINUOUS
 70
0
 71
3
 72
11
 73
7
 74
5
 42
0.0000001
 43
0.0000001
 44
0.0000000001
 12
0.0261724579
 22
-0.0785506077
 32
0.0
 13
0.0487187543
 23
-0.0669453397
 33
0.0
 40
0.0
 40
0.0
 40
0.0
 40
0.0
 40
0.2536994214
 40
0.4427156241
 40
0.630319687
 40
1.0
 40
1.0
 40
1.0
 40
1.0
 10
6.6537509991
 20
4.9131987945
 30
0.0
 10
6.6559643115
 20
4.9065560466
 30
0.0
 10
6.6602685145
 20
4.8951055317
 30
0.0
 10
6.6674567997
 20
4.8792543109
 30
0.0
 10
6.6770190179
 20
4.8610033007
 30
0.0
 10
6.6853222202
 20
4.8480015754
 30
0.0
 10
6.691325675
 20
4.8397521173
 30
0.0
 11
6.6537509991
 21
4.9131987945
 31
0.0
 11
6.6611419046
 21
4.8935366943
 31
0.0
 11
6.6676065306
 21
4.8792845002
 31
0.0
 11
6.6748178845
 21
4.8655270684
 31
0.0
 11
6.691325675
 21
4.8397521173
 31
0.0
  0
LINE
  5
4A9
100
AcDbEntity
  8
0
100
AcDbLine
 62
9
  6
CONTINUOUS
 10
6.691325675
 20
4.8397521173
 11
6.6683640866
 21
4.839140772
  0
SPLINE
  5
4AA
100
AcDbEntity
  8
0
100
AcDbSpline
 62
9
  6
CONTINUOUS
 70
0
 71
3
 72
29
 73
25
 74
23
 42
0.0000001
 43
0.0000001
 44
0.0000000001
 12
0.0048684092
 22
0.0066975927
 32
0.0
 13
-0.0082795089
 23
0.0000942791
 33
0.0
 40
0.0
 40
0.0
 40
0.0
 40
0.0
 40
0.0020112067
 40
0.0037803524
 40
0.0077249574
 40
0.0103833793
 40
0.0136146645
 40
0.0219230285
 40
0.032768193
 40
0.0461396801
 40
0.0619871526
 40
0.0802430949
 40
0.1008314635
 40
0.1236715252
 40
0.1486797619
 40
0.1757709006
 40
0.235853203
 40
0.3031596565
 40
0.3768509904
 40
0.4560791474
 40
0.539993528
 40
0.6277419272
 40
0.8113265646
 40
1.0
 40
1.0
 40
1.0
 40
1.0
 10
6.9617440436
 20
4.8422360159
 30
0.0
 10
6.9617473073
 20
4.842240506
 30
0.0
 10
6.9617525217
 20
4.8422498016
 30
0.0
 10
6.9617547549
 20
4.8422717797
 30
0.0
 10
6.9617404221
 20
4.8422926459
 30
0.0
 10
6.9617192013
 20
4.8423092174
 30
0.0
 10
6.9616852144
 20
4.8423291372
 30
0.0
 10
6.9616276395
 20
4.8423520278
 30
0.0
 10
6.9615414593
 20
4.842377374
 30
0.0
 10
6.9614336089
 20
4.8424020141
 30
0.0
 10
6.9613047695
 20
4.8424260006
 30
0.0
 10
6.9611556
 20
4.8424492303
 30
0.0
 10
6.9609868272
 20
4.8424716858
 30
0.0
 10
6.9607991786
 20
4.8424933392
 30
0.0
 10
6.9605933916
 20
4.8425141787
 30
0.0
 10
6.9602849995
 20
4.8425418227
 30
0.0
 10
6.9598597968
 20
4.842573608
 30
0.0
 10
6.9593058281
 20
4.8426073533
 30
0.0
 10
6.9586987614
 20
4.842637927
 30
0.0
 10
6.9580456671
 20
4.8426653773
 30
0.0
 10
6.9573536293
 20
4.842689764
 30
0.0
 10
6.9563735643
 20
4.8427187118
 30
0.0
 10
6.9551042344
 20
4.8427468686
 30
0.0
 10
6.9540768979
 20
4.8427619183
 30
0.0
 10
6.9535561901
 20
4.8427678476
 30
0.0
 11
6.9617440436
 21
4.8422360159
 31
0.0
 11
6.961751689
 21
4.84225081
 31
0.0
 11
6.9617530299
 21
4.8422653971
 31
0.0
 11
6.9617371695
 21
4.8422939492
 31
0.0
 11
6.9617201543
 21
4.8423079136
 31
0.0
 11
6.9616972065
 21
4.8423216699
 31
0.0
 11
6.9616338846
 21
4.8423485568
 31
0.0
 11
6.9615479478
 21
4.8423746075
 31
0.0
 11
6.9614401401
 21
4.8423998196
 31
0.0
 11
6.9613112055
 21
4.8424241909
 31
0.0
 11
6.9611618877
 21
4.8424477188
 31
0.0
 11
6.9609929308
 21
4.8424704011
 31
0.0
 11
6.9608050787
 21
4.8424922355
 31
0.0
 11
6.9605990754
 21
4.8425132194
 31
0.0
 11
6.9603756647
 21
4.8425333506
 31
0.0
 11
6.9598796107
 21
4.8425710466
 31
0.0
 11
6.9593233669
 21
4.8426053503
 31
0.0
 11
6.958713987
 21
4.8426363443
 31
0.0
 11
6.9580585623
 21
4.8426641144
 31
0.0
 11
6.9573641841
 21
4.8426887467
 31
0.0
 11
6.956637944
 21
4.842710327
 31
0.0
 11
6.9551182429
 21
4.8427446756
 31
0.0
 11
6.9535561901
 21
4.8427678476
 31
0.0
  0
LINE
  5
4AB
100
AcDbEntity
  8
0
100
AcDbLine
 62
9
  6
CONTINUOUS
 10
6.9513654022
 20
4.8395494006
 11
6.9229017511
 21
4.8395226314
  0
LINE
  5
4AC
100
AcDbEntity
  8
0
100
AcDbLine
 62
9
  6
CONTINUOUS
 10
6.9229017511
 20
4.8395226314
 11
6.8755052252
 21
4.8395494006
  0
SPLINE
  5
4AD
100
AcDbEntity
  8
0
100
AcDbSpline
 62
9
  6
CONTINUOUS
 70
0
 71
3
 72
19
 73
15
 74
13
 42
0.0000001
 43
0.0000001
 44
0.0000000001
 12
-0.1819525533
 22
-0.0003864314
 32
0.0
 13
-0.1819183606
 23
-0.0035483898
 33
0.0
 40
0.0
 40
0.0
 40
0.0
 40
0.0
 40
0.044557105
 40
0.0953620344
 40
0.1518091959
 40
0.2132684533
 40
0.2789354181
 40
0.347930381
 40
0.4922056171
 40
0.6376106494
 40
0.7755023961
 40
0.898187305
 40
0.9519395683
 40
1.0
 40
1.0
 40
1.0
 40
1.0
 10
6.8755052252
 20
4.8395494006
 30
0.0
 10
6.8728027989
 20
4.8395436612
 30
0.0
 10
6.8670190259
 20
4.8395235484
 30
0.0
 10
6.8578117885
 20
4.8394716713
 30
0.0
 10
6.8475795698
 20
4.8393935572
 30
0.0
 10
6.8364461674
 20
4.8392868596
 30
0.0
 10
6.8245519889
 20
4.8391514133
 30
0.0
 10
6.8076356188
 20
4.8389297348
 30
0.0
 10
6.7858842732
 20
4.8385868237
 30
0.0
 10
6.7599560447
 20
4.8381056866
 30
0.0
 10
6.7353381737
 20
4.8375933806
 30
0.0
 10
6.716278278
 20
4.8371808873
 30
0.0
 10
6.702665322
 20
4.8368929025
 30
0.0
 10
6.6964915551
 20
4.836767401
 30
0.0
 10
6.6935771968
 20
4.8367105552
 30
0.0
 11
6.8755052252
 21
4.8395494006
 31
0.0
 11
6.8673979737
 21
4.8395221427
 31
0.0
 11
6.8581540095
 21
4.8394706807
 31
0.0
 11
6.8478835773
 21
4.839392683
 31
0.0
 11
6.8367013917
 21
4.8392860547
 31
0.0
 11
6.8247538632
 21
4.8391503782
 31
0.0
 11
6.8122011019
 21
4.8389859611
 31
0.0
 11
6.7859530005
 21
4.8385757437
 31
0.0
 11
6.759500638
 21
4.8380870362
 31
0.0
 11
6.7344161434
 21
4.8375705132
 31
0.0
 11
6.7120983697
 21
4.8370929438
 31
0.0
 11
6.7023201541
 21
4.8368870235
 31
0.0
 11
6.6935771968
 21
4.8367105552
 31
0.0
  0
SPLINE
  5
4AE
100
AcDbEntity
  8
0
100
AcDbSpline
 62
9
  6
CONTINUOUS
 70
0
 71
3
 72
29
 73
25
 74
23
 42
0.0000001
 43
0.0000001
 44
0.0000000001
 12
0.0049006143
 22
0.0064736864
 32
0.0
 13
-0.0081192003
 23
0.0000567741
 33
0.0
 40
0.0
 40
0.0
 40
0.0
 40
0.0
 40
0.0018903677
 40
0.0035385771
 40
0.0073063542
 40
0.0099106967
 40
0.0131022666
 40
0.0213571647
 40
0.0321665787
 40
0.045510898
 40
0.0613354803
 40
0.0795706786
 40
0.1001394178
 40
0.1229605427
 40
0.1479504772
 40
0.1750241198
 40
0.2350750563
 40
0.3023565447
 40
0.3760347449
 40
0.4552681105
 40
0.5392128835
 40
0.6270239099
 40
0.8108594003
 40
1.0
 40
1.0
 40
1.0
 40
1.0
 10
6.9594044008
 20
4.8390875752
 30
0.0
 10
6.9594074888
 20
4.8390916544
 30
0.0
 10
6.9594124497
 20
4.8391001213
 30
0.0
 10
6.9594142356
 20
4.8391206367
 30
0.0
 10
6.9593995676
 20
4.839139565
 30
0.0
 10
6.9593787609
 20
4.8391544857
 30
0.0
 10
6.9593450966
 20
4.8391726406
 30
0.0
 10
6.9592884136
 20
4.8391933896
 30
0.0
 10
6.9592036932
 20
4.8392163442
 30
0.0
 10
6.9590977643
 20
4.8392385947
 30
0.0
 10
6.958971279
 20
4.8392602011
 30
0.0
 10
6.9588248931
 20
4.8392810603
 30
0.0
 10
6.9586593134
 20
4.8393011586
 30
0.0
 10
6.9584752495
 20
4.8393204697
 30
0.0
 10
6.9582734193
 20
4.8393389838
 30
0.0
 10
6.9579709677
 20
4.839363442
 30
0.0
 10
6.957553987
 20
4.839391355
 30
0.0
 10
6.9570107395
 20
4.8394206777
 30
0.0
 10
6.9564153643
 20
4.8394469149
 30
0.0
 10
6.9557747357
 20
4.8394701216
 30
0.0
 10
6.9550957397
 20
4.8394903638
 30
0.0
 10
6.9541336267
 20
4.8395138482
 30
0.0
 10
6.9528866954
 20
4.8395355577
 30
0.0
 10
6.9518772923
 20
4.8395458212
 30
0.0
 10
6.9513654022
 20
4.8395494006
 30
0.0
 11
6.9594044008
 21
4.8390875752
 31
0.0
 11
6.9594116203
 21
4.8391011199
 31
0.0
 11
6.9594126776
 21
4.8391144606
 31
0.0
 11
6.9593966674
 21
4.8391405287
 31
0.0
 11
6.9593797807
 21
4.8391532559
 31
0.0
 11
6.9593570935
 21
4.8391657782
 31
0.0
 11
6.9592946792
 21
4.8391902074
 31
0.0
 11
6.9592101479
 21
4.8392138148
 31
0.0
 11
6.9591042228
 21
4.8392365991
 31
0.0
 11
6.9589776271
 21
4.8392585586
 31
0.0
 11
6.9588310843
 21
4.839279692
 31
0.0
 11
6.9586653175
 21
4.8392999976
 31
0.0
 11
6.9584810502
 21
4.8393194741
 31
0.0
 11
6.9582790055
 21
4.8393381198
 31
0.0
 11
6.9580599067
 21
4.8393559334
 31
0.0
 11
6.9575734558
 21
4.8393890595
 31
0.0
 11
6.9570279855
 21
4.8394188865
 31
0.0
 11
6.9564303551
 21
4.8394455011
 31
0.0
 11
6.9557874569
 21
4.8394689933
 31
0.0
 11
6.9551061829
 21
4.8394894527
 31
0.0
 11
6.9543934254
 21
4.8395069691
 31
0.0
 11
6.9529010281
 21
4.8395335321
 31
0.0
 11
6.9513654022
 21
4.8395494006
 31
0.0
  0
LINE
  5
4AF
100
AcDbEntity
  8
0
100
AcDbLine
 62
9
  6
CONTINUOUS
 10
6.6935771968
 20
4.8367105552
 11
6.670937854
 21
4.8360877053
  0
LINE
  5
4B0
100
AcDbEntity
  8
0
100
AcDbLine
 62
9
  6
CONTINUOUS
 10
6.8151509897
 20
4.7661955948
 11
6.8148092587
 21
4.7661930279
  0
LINE
  5
4B1
100
AcDbEntity
  8
0
100
AcDbLine
 62
9
  6
CONTINUOUS
 10
6.9240351537
 20
4.8033250012
 11
6.9179169151
 21
4.8032381948
  0
SPLINE
  5
4B2
100
AcDbEntity
  8
0
100
AcDbSpline
 62
9
  6
CONTINUOUS
 70
0
 71
3
 72
11
 73
7
 74
5
 42
0.0000001
 43
0.0000001
 44
0.0000000001
 12
-0.02237378
 22
-0.00074021
 32
0.0
 13
-0.0223860211
 23
0.0
 33
0.0
 40
0.0
 40
0.0
 40
0.0
 40
0.0
 40
0.1892812618
 40
0.419308242
 40
0.6854069639
 40
1.0
 40
1.0
 40
1.0
 40
1.0
 10
6.9179169151
 20
4.8032381948
 30
0.0
 10
6.9165052694
 20
4.8031914922
 30
0.0
 10
6.9133779199
 20
4.803093201
 30
0.0
 10
6.9082648125
 20
4.802970097
 30
0.0
 10
6.902215655
 20
4.8028889512
 30
0.0
 10
6.8978824912
 20
4.8028735037
 30
0.0
 10
6.8955349957
 20
4.8028735037
 30
0.0
 11
6.9179169151
 21
4.8032381948
 31
0.0
 11
6.9136816789
 21
4.8031074351
 31
0.0
 11
6.9085337445
 21
4.8029850562
 31
0.0
 11
6.9025774213
 21
4.8029027662
 31
0.0
 11
6.8955349957
 21
4.8028735037
 31
0.0
  0
SPLINE
  5
4B3
100
AcDbEntity
  8
0
100
AcDbSpline
 62
9
  6
CONTINUOUS
 70
0
 71
3
 72
11
 73
7
 74
5
 42
0.0000001
 43
0.0000001
 44
0.0000000001
 12
-0.0226337334
 22
-0.0398879717
 32
0.0
 13
-0.0322131842
 23
-0.0326442481
 33
0.0
 40
0.0
 40
0.0
 40
0.0
 40
0.0
 40
0.2585595146
 40
0.511485138
 40
0.7586496696
 40
1.0
 40
1.0
 40
1.0
 40
1.0
 10
6.9229017511
 20
4.8395226314
 30
0.0
 10
6.9209510287
 20
4.8360848265
 30
0.0
 10
6.9168880931
 20
4.829397275
 30
0.0
 10
6.9102547015
 20
4.8198744689
 30
0.0
 10
6.9031789041
 20
4.8110093716
 30
0.0
 10
6.8981265499
 20
4.8054997371
 30
0.0
 10
6.8955349957
 20
4.8028735037
 30
0.0
 11
6.9229017511
 21
4.8395226314
 31
0.0
 11
6.9167387421
 21
4.8293919009
 31
0.0
 11
6.9101020401
 21
4.8198783587
 31
0.0
 11
6.9030235047
 21
4.811024671
 31
0.0
 11
6.8955349957
 21
4.8028735037
 31
0.0
  0
LINE
  5
4B4
100
AcDbEntity
  8
0
100
AcDbLine
 62
9
  6
CONTINUOUS
 10
6.8955349957
 20
4.8028735037
 11
6.8592018464
 21
4.8032381948
  0
SPLINE
  5
4B5
100
AcDbEntity
  8
0
100
AcDbSpline
 62
9
  6
CONTINUOUS
 70
0
 71
3
 72
11
 73
7
 74
5
 42
0.0000001
 43
0.0000001
 44
0.0000000001
 12
-0.0135248332
 22
-0.0374815504
 32
0.0
 13
-0.0196523788
 23
-0.0346636948
 33
0.0
 40
0.0
 40
0.0
 40
0.0
 40
0.0
 40
0.2682182049
 40
0.5246533819
 40
0.7687418299
 40
1.0
 40
1.0
 40
1.0
 40
1.0
 10
6.8755052252
 20
4.8395494006
 30
0.0
 10
6.8742960231
 20
4.8361983226
 30
0.0
 10
6.8718208772
 20
4.8296822357
 30
0.0
 10
6.8678395171
 20
4.8202769063
 30
0.0
 10
6.8636812993
 20
4.811488292
 30
0.0
 10
6.8607167708
 20
4.8059102823
 30
0.0
 10
6.8592018464
 20
4.8032381948
 30
0.0
 11
6.8755052252
 21
4.8395494006
 31
0.0
 11
6.8717020235
 21
4.8295612725
 31
0.0
 11
6.8677094542
 21
4.8201553848
 31
0.0
 11
6.8635389257
 21
4.8113687035
 31
0.0
 11
6.8592018464
 21
4.8032381948
 31
0.0
  0
SPLINE
  5
4B6
100
AcDbEntity
  8
0
100
AcDbSpline
 62
9
  6
CONTINUOUS
 70
0
 71
3
 72
17
 73
13
 74
11
 42
0.0000001
 43
0.0000001
 44
0.0000000001
 12
-0.1332483214
 22
0.0013986369
 32
0.0
 13
-0.1332312361
 23
-0.0025512895
 33
0.0
 40
0.0
 40
0.0
 40
0.0
 40
0.0
 40
0.045508469
 40
0.0969628063
 40
0.2153692263
 40
0.2809513043
 40
0.3496908662
 40
0.49311522
 40
0.6375579156
 40
0.7747836464
 40
0.8974487285
 40
1.0
 40
1.0
 40
1.0
 40
1.0
 10
6.8592018464
 20
4.8032381948
 30
0.0
 10
6.8571805374
 20
4.8032594114
 30
0.0
 10
6.8528737384
 20
4.8032963468
 30
0.0
 10
6.8433074861
 20
4.8033494726
 30
0.0
 10
6.8328494065
 20
4.8033626564
 30
0.0
 10
6.8216236137
 20
4.803337885
 30
0.0
 10
6.8092866509
 20
4.8032826247
 30
0.0
 10
6.7934471483
 20
4.803156844
 30
0.0
 10
6.774566408
 20
4.8029347532
 30
0.0
 10
6.756608539
 20
4.8026621374
 30
0.0
 10
6.740511905
 20
4.8023766969
 30
0.0
 10
6.7305099862
 20
4.8021834422
 30
0.0
 10
6.725955642
 20
4.8020962296
 30
0.0
 11
6.8592018464
 21
4.8032381948
 31
0.0
 11
6.853137817
 21
4.8032912144
 31
0.0
 11
6.8462813449
 21
4.8033299853
 31
0.0
 11
6.8305030372
 21
4.8033538785
 31
0.0
 11
6.8217638744
 21
4.8033349622
 31
0.0
 11
6.81260403
 21
4.8032940597
 31
0.0
 11
6.7934925035
 21
4.803145074
 31
0.0
 11
6.7742460156
 21
4.8029197399
 31
0.0
 11
6.7559619875
 21
4.8026441098
 31
0.0
 11
6.7396187076
 21
4.8023561438
 31
0.0
 11
6.725955642
 21
4.8020962296
 31
0.0
  0
SPLINE
  5
4B7
100
AcDbEntity
  8
0
100
AcDbSpline
 62
9
  6
CONTINUOUS
 70
0
 71
3
 72
9
 73
5
 74
3
 42
0.0000001
 43
0.0000001
 44
0.0000000001
 12
0.0285520698
 22
-0.0379200405
 32
0.0
 13
0.0360675833
 23
-0.0308590277
 33
0.0
 40
0.0
 40
0.0
 40
0.0
 40
0.0
 40
0.5057672305
 40
1.0
 40
1.0
 40
1.0
 40
1.0
 10
6.6935771968
 20
4.8367105552
 30
0.0
 10
6.6983907639
 20
4.8303176506
 30
0.0
 10
6.7085746746
 20
4.8181647844
 30
0.0
 10
6.7200137148
 20
4.8071800772
 30
0.0
 10
6.725955642
 20
4.8020962296
 30
0.0
 11
6.6935771968
 21
4.8367105552
 31
0.0
 11
6.7090132033
 21
4.8183234233
 31
0.0
 11
6.725955642
 21
4.8020962296
 31
0.0
  0
SPLINE
  5
4B8
100
AcDbEntity
  8
0
100
AcDbSpline
 62
9
  6
CONTINUOUS
 70
0
 71
3
 72
34
 73
30
 74
28
 42
0.0000001
 43
0.0000001
 44
0.0000000001
 12
-0.0174901786
 22
-0.0003349253
 32
0.0
 13
0.0141670509
 23
-0.0102622215
 33
0.0
 40
0.0
 40
0.0
 40
0.0
 40
0.0
 40
0.2446220089
 40
0.4531700093
 40
0.6265929567
 40
0.7004293673
 40
0.7658408446
 40
0.8229464422
 40
0.8484218338
 40
0.8718654322
 40
0.893289901
 40
0.9127059217
 40
0.9301241861
 40
0.9455555153
 40
0.9590109339
 40
0.9705018066
 40
0.9800401126
 40
0.9840811718
 40
0.9876392351
 40
0.9907164298
 40
0.9933153404
 40
0.9954394152
 40
0.9970939421
 40
0.9982888911
 40
0.9987214362
 40
0.9990526097
 40
0.9992991387
 40
0.9994998419
 40
1.0
 40
1.0
 40
1.0
 40
1.0
 10
6.725955642
 20
4.8020962296
 30
0.0
 10
6.7245294811
 20
4.8020689195
 30
0.0
 10
6.7218875134
 20
4.8020161465
 30
0.0
 10
6.7182346726
 20
4.8019347612
 30
0.0
 10
6.7155776467
 20
4.8018674465
 30
0.0
 10
6.7137551784
 20
4.8018149005
 30
0.0
 10
6.7126107865
 20
4.8017787083
 30
0.0
 10
6.7117483524
 20
4.8017484216
 30
0.0
 10
6.7111305714
 20
4.8017245096
 30
0.0
 10
6.7107207404
 20
4.8017075349
 30
0.0
 10
6.7103462632
 20
4.8016908315
 30
0.0
 10
6.7100069456
 20
4.8016744004
 30
0.0
 10
6.7097026051
 20
4.8016582461
 30
0.0
 10
6.7094330598
 20
4.8016423734
 30
0.0
 10
6.7091981256
 20
4.8016267954
 30
0.0
 10
6.7089976192
 20
4.8016115187
 30
0.0
 10
6.7088520081
 20
4.8015984549
 30
0.0
 10
6.7087526317
 20
4.8015879236
 30
0.0
 10
6.7086908134
 20
4.8015805455
 30
0.0
 10
6.7086374596
 20
4.8015732536
 30
0.0
 10
6.7085925464
 20
4.8015660508
 30
0.0
 10
6.7085560226
 20
4.8015589714
 30
0.0
 10
6.7085278664
 20
4.8015520041
 30
0.0
 10
6.7085096562
 20
4.8015459204
 30
0.0
 10
6.7084994372
 20
4.8015407389
 30
0.0
 10
6.708494647
 20
4.8015372816
 30
0.0
 10
6.7084916724
 20
4.8015336853
 30
0.0
 10
6.7084908613
 20
4.8015278529
 30
0.0
 10
6.708494456
 20
4.8015245739
 30
0.0
 10
6.7084968179
 20
4.801522863
 30
0.0
 11
6.725955642
 21
4.8020962296
 31
0.0
 11
6.7216772404
 21
4.8020101719
 31
0.0
 11
6.7180299516
 21
4.8019281726
 31
0.0
 11
6.7149971978
 21
4.8018502612
 31
0.0
 11
6.713706091
 21
4.8018128478
 31
0.0
 11
6.7125624013
 21
4.8017764674
 31
0.0
 11
6.7115640565
 21
4.8017411238
 31
0.0
 11
6.7111187409
 21
4.801723842
 31
0.0
 11
6.7107089864
 21
4.8017068207
 31
0.0
 11
6.7103345749
 21
4.8016900602
 31
0.0
 11
6.709995324
 21
4.8016735602
 31
0.0
 11
6.7096910526
 21
4.8016573207
 31
0.0
 11
6.7094215798
 21
4.8016413414
 31
0.0
 11
6.7091867244
 21
4.8016256224
 31
0.0
 11
6.7089863055
 21
4.8016101634
 31
0.0
 11
6.7088201419
 21
4.8015949644
 31
0.0
 11
6.7087498493
 21
4.8015874623
 31
0.0
 11
6.7086880527
 21
4.8015800251
 31
0.0
 11
6.7086347293
 21
4.8015726528
 31
0.0
 11
6.7085898567
 21
4.8015653454
 31
0.0
 11
6.7085534121
 21
4.8015581029
 31
0.0
 11
6.7085253729
 21
4.8015509253
 31
0.0
 11
6.7085057166
 21
4.8015438125
 31
0.0
 11
6.7084990248
 21
4.8015402804
 31
0.0
 11
6.7084944203
 21
4.8015367645
 31
0.0
 11
6.7084919002
 21
4.8015332649
 31
0.0
 11
6.7084914617
 21
4.8015297814
 31
0.0
 11
6.7084968179
 21
4.801522863
 31
0.0
  0
SPLINE
  5
4B9
100
AcDbEntity
  8
0
100
AcDbSpline
 62
9
  6
CONTINUOUS
 70
0
 71
3
 72
15
 73
11
 74
9
 42
0.0000001
 43
0.0000001
 44
0.0000000001
 12
-0.0797468864
 22
-0.0654138921
 32
0.0
 13
-0.1029674598
 23
-0.0060204148
 33
0.0
 40
0.0
 40
0.0
 40
0.0
 40
0.0
 40
0.1251988682
 40
0.2501214117
 40
0.3749054057
 40
0.4996576529
 40
0.6244646058
 40
0.7494031687
 40
0.8745515417
 40
1.0
 40
1.0
 40
1.0
 40
1.0
 10
6.9179169151
 20
4.8032381948
 30
0.0
 10
6.9145888418
 20
4.8005082797
 30
0.0
 10
6.9077149889
 20
4.79532256
 30
0.0
 10
6.8968253715
 20
4.7884020918
 30
0.0
 10
6.8854362062
 20
4.782370414
 30
0.0
 10
6.8736143874
 20
4.7772493943
 30
0.0
 10
6.8614256872
 20
4.7730601354
 30
0.0
 10
6.8489357331
 20
4.7698241153
 30
0.0
 10
6.8362113625
 20
4.767562987
 30
0.0
 10
6.8276262766
 20
4.7667211328
 30
0.0
 10
6.8233205736
 20
4.7664693822
 30
0.0
 11
6.9179169151
 21
4.8032381948
 31
0.0
 11
6.9076093661
 21
4.7954593126
 31
0.0
 11
6.8967358092
 21
4.7885464945
 31
0.0
 11
6.8853625348
 21
4.7825213915
 31
0.0
 11
6.8735558337
 21
4.7774056543
 31
0.0
 11
6.8613819964
 21
4.7732209339
 31
0.0
 11
6.8489073136
 21
4.7699888812
 31
0.0
 11
6.8361980758
 21
4.767731147
 31
0.0
 11
6.8233205736
 21
4.7664693822
 31
0.0
  0
SPLINE
  5
4BA
100
AcDbEntity
  8
0
100
AcDbSpline
 62
9
  6
CONTINUOUS
 70
0
 71
3
 72
15
 73
11
 74
9
 42
0.0000001
 43
0.0000001
 44
0.0000000001
 12
-0.0288801533
 22
0.0
 32
0.0
 13
-0.0288094801
 23
-0.002019185
 33
0.0
 40
0.0
 40
0.0
 40
0.0
 40
0.0
 40
0.159761748
 40
0.3011532747
 40
0.4297259525
 40
0.5510312439
 40
0.6694531834
 40
0.784711038
 40
0.895367016
 40
1.0
 40
1.0
 40
1.0
 40
1.0
 10
5.0052409059
 20
4.9959902819
 30
0.0
 10
5.0037029246
 20
4.9959902819
 30
0.0
 10
5.0008038025
 20
4.9959858134
 30
0.0
 10
4.9966670068
 20
4.9959619289
 30
0.0
 10
4.9929005664
 20
4.9959213434
 30
0.0
 10
4.9893554937
 20
4.9958642182
 30
0.0
 10
4.9859388823
 20
4.9957927021
 30
0.0
 10
4.9826253924
 20
4.995696663
 30
0.0
 10
4.9794458932
 20
4.9955663335
 30
0.0
 10
4.9773766588
 20
4.9954465309
 30
0.0
 10
4.9763718515
 20
4.9953761064
 30
0.0
 11
5.0052409059
 21
4.9959902819
 31
0.0
 11
5.0006269694
 21
4.9959820877
 31
0.0
 11
4.9965436335
 21
4.995957651
 31
0.0
 11
4.9928306553
 21
4.9959171906
 31
0.0
 11
4.9893277918
 21
4.9958609255
 31
0.0
 11
4.9859085381
 21
4.9957874168
 31
0.0
 11
4.9825813408
 21
4.9956885952
 31
0.0
 11
4.9793883839
 21
4.9955547341
 31
0.0
 11
4.9763718515
 21
4.9953761064
 31
0.0
  0
SPLINE
  5
4BB
100
AcDbEntity
  8
0
100
AcDbSpline
 62
9
  6
CONTINUOUS
 70
0
 71
3
 72
16
 73
12
 74
10
 42
0.0000001
 43
0.0000001
 44
0.0000000001
 12
-0.0256618146
 22
-0.0452633911
 32
0.0
 13
-0.0498383748
 23
-0.0149478996
 33
0.0
 40
0.0
 40
0.0
 40
0.0
 40
0.0
 40
0.1568386003
 40
0.3036064676
 40
0.4405553597
 40
0.5680837811
 40
0.6867830773
 40
0.7974941188
 40
0.9013701923
 40
0.9512374088
 40
1.0
 40
1.0
 40
1.0
 40
1.0
 10
6.8592018464
 20
4.8032381948
 30
0.0
 10
6.8578602587
 20
4.8008718458
 30
0.0
 10
6.8551501224
 20
4.7963535981
 30
0.0
 10
6.8508444931
 20
4.7900355401
 30
0.0
 10
6.846440177
 20
4.7844173844
 30
0.0
 10
6.8419429031
 20
4.779514086
 30
0.0
 10
6.837357052
 20
4.7753406313
 30
0.0
 10
6.8326873898
 20
4.7719135595
 30
0.0
 10
6.8286731459
 20
4.7696642668
 30
0.0
 10
6.8254419952
 20
4.768280972
 30
0.0
 10
6.8238220889
 20
4.7677251068
 30
0.0
 10
6.8230120061
 20
4.7674821406
 30
0.0
 11
6.8592018464
 21
4.8032381948
 31
0.0
 11
6.8549916255
 21
4.7962475421
 31
0.0
 11
6.8506774262
 21
4.7899463373
 31
0.0
 11
6.8462664507
 21
4.7843500202
 31
0.0
 11
6.8417659011
 21
4.7794740304
 31
0.0
 11
6.8371829797
 21
4.7753338078
 31
0.0
 11
6.8325248886
 21
4.7719447921
 31
0.0
 11
6.82779883
 21
4.7693224232
 31
0.0
 11
6.8254125636
 21
4.7683035561
 31
0.0
 11
6.8230120061
 21
4.7674821406
 31
0.0
  0
SPLINE
  5
4BC
100
AcDbEntity
  8
0
100
AcDbSpline
 62
9
  6
CONTINUOUS
 70
0
 71
3
 72
8
 73
4
 74
2
 42
0.0000001
 43
0.0000001
 44
0.0000000001
 12
-0.0000506875
 22
-0.0000151575
 32
0.0
 13
-0.0000506875
 23
-0.0000151575
 33
0.0
 40
0.0
 40
0.0
 40
0.0
 40
0.0
 40
1.0
 40
1.0
 40
1.0
 40
1.0
 10
6.8230120061
 20
4.7674821406
 30
0.0
 10
6.8229951103
 20
4.7674770881
 30
0.0
 10
6.8229782145
 20
4.7674720357
 30
0.0
 10
6.8229613186
 20
4.7674669832
 30
0.0
 11
6.8230120061
 21
4.7674821406
 31
0.0
 11
6.8229613186
 21
4.7674669832
 31
0.0
  0
SPLINE
  5
4BD
100
AcDbEntity
  8
0
100
AcDbSpline
 62
9
  6
CONTINUOUS
 70
0
 71
3
 72
9
 73
5
 74
3
 42
0.0000001
 43
0.0000001
 44
0.0000000001
 12
-0.0076120595
 22
-0.0022695262
 32
0.0
 13
-0.0079403721
 23
-0.0002114034
 33
0.0
 40
0.0
 40
0.0
 40
0.0
 40
0.0
 40
0.5033613772
 40
1.0
 40
1.0
 40
1.0
 40
1.0
 10
6.8229613186
 20
4.7674669832
 30
0.0
 10
6.8216841131
 20
4.7670861859
 30
0.0
 10
6.8190968329
 20
4.7664861608
 30
0.0
 10
6.8164518763
 20
4.7662349084
 30
0.0
 10
6.8151373778
 20
4.7661999114
 30
0.0
 11
6.8229613186
 21
4.7674669832
 31
0.0
 11
6.8190648256
 21
4.7665704965
 31
0.0
 11
6.8151373778
 21
4.7661999114
 31
0.0
  0
SPLINE
  5
4BE
100
AcDbEntity
  8
0
100
AcDbSpline
 62
9
  6
CONTINUOUS
 70
0
 71
3
 72
15
 73
11
 74
9
 42
0.0000001
 43
0.0000001
 44
0.0000000001
 12
0.0742756678
 22
-0.0635494447
 32
0.0
 13
0.0977482527
 23
-0.0008281525
 33
0.0
 40
0.0
 40
0.0
 40
0.0
 40
0.0
 40
0.1337371487
 40
0.2648379548
 40
0.393339955
 40
0.5192921596
 40
0.6427723788
 40
0.7639062019
 40
0.8828875014
 40
1.0
 40
1.0
 40
1.0
 40
1.0
 10
6.725955642
 20
4.8020962296
 30
0.0
 10
6.7292667807
 20
4.7992632557
 30
0.0
 10
6.73604301
 20
4.7939031956
 30
0.0
 10
6.7467016536
 20
4.7867624947
 30
0.0
 10
6.7576804263
 20
4.7806266934
 30
0.0
 10
6.7689039637
 20
4.7755237804
 30
0.0
 10
6.780297882
 20
4.7714811955
 30
0.0
 10
6.7917882525
 20
4.768526968
 30
0.0
 10
6.8032991392
 20
4.7666895469
 30
0.0
 10
6.8109934114
 20
4.7662253569
 30
0.0
 10
6.8148092587
 20
4.7661930279
 30
0.0
 11
6.725955642
 21
4.8020962296
 31
0.0
 11
6.7362125401
 21
4.7939906474
 31
0.0
 11
6.746863272
 21
4.7868636065
 31
0.0
 11
6.7578323213
 21
4.7807426478
 31
0.0
 11
6.7690441717
 21
4.7756553126
 31
0.0
 11
6.780423307
 21
4.7716291418
 31
0.0
 11
6.7918942107
 21
4.7686916767
 31
0.0
 11
6.8033813668
 21
4.7668704584
 31
0.0
 11
6.8148092587
 21
4.7661930279
 31
0.0
  0
ENDSEC
  0
SECTION
  2
OBJECTS
  0
DICTIONARY
  5
C
100
AcDbDictionary
280
0
281
1
  3
ACAD_GROUP
350
D
  3
ACAD_MLINESTYLE
350
17
  3
ACAD_LAYOUT
350
1A
  3
ACAD_PLOTSETTINGS
350
19
  3
ACAD_PLOTSTYLENAME
350
E
  0
DICTIONARY
  5
D
102
{ACAD_REACTORS
330
C
102
}
100
AcDbDictionary
280
0
281
1
  0
ACDBDICTIONARYWDFLT
  5
E
102
{ACAD_REACTORS
330
C
102
}
100
AcDbDictionary
281
1
  3
Normal
350
F
100
AcDbDictionaryWithDefault
340
F
  0
DICTIONARY
  5
17
102
{ACAD_REACTORS
330
C
102
}
100
AcDbDictionary
280
0
281
1
  3
Standard
350
18
  0
DICTIONARY
  5
19
102
{ACAD_REACTORS
330
C
102
}
100
AcDbDictionary
281
1
  0
DICTIONARY
  5
1A
102
{ACAD_REACTORS
330
C
102
}
100
AcDbDictionary
281
1
  3
Model
350
4BF
  3
Layout1
350
4C0
  0
ACDBPLACEHOLDER
  5
F
102
{ACAD_REACTORS
330
E
102
}
  0
MLINESTYLE
  5
18
102
{ACAD_REACTORS
330
17
102
}
100
AcDbMlineStyle
  2
STANDARD
 70
0
  3

 62
256
 51
90.0
 52
90.0
 71
2
 49
0.5
 62
256
  6
BYLAYER
 49
-0.5
 62
256
  6
BYLAYER
  0
LAYOUT
  5
4BF
102
{ACAD_REACTORS
330
1A
102
}
100
AcDbPlotSettings
  1

  2
none_device
  4
ISO_A4_(297.00_x_210.00_MM)
  6

 40
0.0
 41
0.0
 42
0.0
 43
0.0
 44
297.0
 45
210.0
 46
0.0
 47
0.0
 48
0.0
 49
0.0
140
0.0
141
0.0
142
1.0
143
1.0
 70
1024
 72
0
 73
0
 74
0
  7

 75
0
147
1.0
148
0.0
149
0.0
100
AcDbLayout
  1
Model
 70
0
 71
0
 10
0.0
 20
0.0
 11
11.6929133858
 21
8.2677165354
 12
0.0
 22
0.0
 32
0.0
 14
0.0
 24
0.0
 34
0.0
 15
0.0
 25
0.0
 35
0.0
146
0.0
 13
0.0
 23
0.0
 33
0.0
 16
1.0
 26
0.0
 36
0.0
 17
0.0
 27
1.0
 37
0.0
 76
0
330
203
345
0
346
0
  0
LAYOUT
  5
4C0
102
{ACAD_REACTORS
330
1A
102
}
100
AcDbPlotSettings
  1

  2
none_device
  4
ISO_A4_(297.00_x_210.00_MM)
  6

 40
0.0
 41
0.0
 42
0.0
 43
0.0
 44
297.0
 45
210.0
 46
0.0
 47
0.0
 48
0.0
 49
0.0
140
0.0
141
0.0
142
1.0
143
1.0
 70
0
 72
0
 73
0
 74
0
  7

 75
0
147
1.0
148
0.0
149
0.0
100
AcDbLayout
  1
Layout1
 70
0
 71
1
 10
0.0
 20
0.0
 11
11.6929133858
 21
8.2677165354
 12
0.0
 22
0.0
 32
0.0
 14
0.0
 24
0.0
 34
0.0
 15
0.0
 25
0.0
 35
0.0
146
0.0
 13
0.0
 23
0.0
 33
0.0
 16
1.0
 26
0.0
 36
0.0
 17
0.0
 27
1.0
 37
0.0
 76
0
330
204
345
0
346
0
  0
ENDSEC
  0
EOF
