  0
SECTION
  2
HEADER
  9
$ACADVER
  1
AC1015
  9
$DWGCODEPAGE
  3
ANSI_1252
  9
$EXTMAX
 10
11.6929133858
 20
8.2677165354
 30
0.0
  9
$EXTMIN
 10
0.0
 20
0.0
 30
0.0
  9
$LIMMIN
 10
0.0
 20
0.0
  9
$LIMMAX
 10
11.6929133858
 20
8.2677165354
  9
$VIEWCTR
 10
5.8464566929
 20
4.1338582677
  9
$VIEWSIZE
 40
8.2677165354
  9
$CLAYER
  8
0
  9
$LTSCALE
 40
0.6431102362
  9
$CELTYPE
  6
BYLAYER
  9
$DIMSCALE
 40
1.0
  9
$DIMASZ
 40
0.1
  9
$DIMEXO
 40
0.0730807087
  9
$DIMDLI
 40
0.4443307087
  9
$DIMEXE
 40
0.2104724409
  9
$DIMCEN
 40
0.1052362205
  9
$DIMLFAC
 40
1.0
  9
$DIMBLK
  1
_FILLED
  9
$DIMTXT
 40
0.08
  9
$DIMTOL
 70
1
  9
$DIMLIM
 70
0
  9
$DIMTFAC
 40
1.0
  9
$DIMTP
 40
0.01
  9
$DIMTM
 40
0.01
  9
$PDMODE
 70
3
  9
$PDSIZE
 40
0.06
  9
$HANDSEED
  5
569
  9
$TILEMODE
 70
1
  9
$MEASUREMENT
 70
0
  9
$INSUNITS
 70
1
  0
ENDSEC
  0
SECTION
  2
CLASSES
  0
CLASS
  1
ACDBDICTIONARYWDFLT
  2
AcDbDictionaryWithDefault
  3
AutoCAD 2000
 90
0
280
0
281
0
  0
CLASS
  1
ACDBPLACEHOLDER
  2
AcDbPlaceHolder
  3
AutoCAD 2000
 90
0
280
0
281
0
  0
CLASS
  1
LAYOUT
  2
AcDbLayout
  3
AutoCAD 2000
 90
0
280
0
281
0
  0
ENDSEC
  0
SECTION
  2
TABLES
  0
TABLE
  2
VPORT
  5
8
100
AcDbSymbolTable
 70
2
  0
VPORT
  5
1F4
100
AcDbSymbolTableRecord
100
AcDbViewportTableRecord
  2
*ACTIVE
 70
0
 10
0.0
 20
0.0
 11
1.0
 21
1.0
 12
5.8464566929
 22
4.1338582677
 13
0.0
 23
0.0
 14
1.0
 24
1.0
 15
0.0
 25
0.0
 16
0.0
 26
0.0
 36
1.0
 17
0.0
 27
0.0
 37
0.0
 40
8.2677165354
 41
1.4142857143
 42
50.0
 43
0.0
 44
0.0
 50
0.0
 51
0.0
 71
0
 72
100
 73
1
 74
1
 75
0
 76
0
 77
0
 78
0
  0
ENDTAB
  0
TABLE
  2
LTYPE
  5
5
100
AcDbSymbolTable
 70
6
  0
LTYPE
  5
14
100
AcDbSymbolTableRecord
100
AcDbLinetypeTableRecord
  2
BYBLOCK
 70
0
  3

 72
65
 73
0
 40
0.0
  0
LTYPE
  5
15
100
AcDbSymbolTableRecord
100
AcDbLinetypeTableRecord
  2
BYLAYER
 70
0
  3

 72
65
 73
0
 40
0.0
  0
LTYPE
  5
16
100
AcDbSymbolTableRecord
100
AcDbLinetypeTableRecord
  2
CONTINUOUS
 70
64
  3
Solid line
 72
65
 73
0
 40
0.0
  0
LTYPE
  5
1F5
100
AcDbSymbolTableRecord
100
AcDbLinetypeTableRecord
  2
CENTER
 70
64
  3
____ _ ____ _ ____ _ ____ _ ____ _ ____ _ ____
 72
65
 73
4
 40
0.6
 49
0.375
 74
0
 49
-0.075
 74
0
 49
0.075
 74
0
 49
-0.075
 74
0
  0
LTYPE
  5
1F6
100
AcDbSymbolTableRecord
100
AcDbLinetypeTableRecord
  2
HIDDEN
 70
64
  3
- - - - - - - - - - - - - - - - - - - -
 72
65
 73
2
 40
0.2
 49
0.1
 74
0
 49
-0.1
 74
0
  0
LTYPE
  5
1F7
100
AcDbSymbolTableRecord
100
AcDbLinetypeTableRecord
  2
PHANTOM
 70
64
  3
_____ _ _ _____ _ _ _____ _ _ _____
 72
65
 73
6
 40
0.8
 49
0.45
 74
0
 49
-0.05
 74
0
 49
0.1
 74
0
 49
-0.05
 74
0
 49
0.1
 74
0
 49
-0.05
 74
0
  0
LTYPE
  5
1F8
100
AcDbSymbolTableRecord
100
AcDbLinetypeTableRecord
  2
DOT
 70
64
  3
. . . . . . . . . . . . . . . . . . . .
 72
65
 73
2
 40
0.2
 49
0.1
 74
0
 49
-0.1
 74
0
  0
LTYPE
  5
1F9
100
AcDbSymbolTableRecord
100
AcDbLinetypeTableRecord
  2
DASHED
 70
64
  3
- - - - - - - - - - - - - - - - - - - -
 72
65
 73
2
 40
0.2
 49
0.1
 74
0
 49
-0.1
 74
0
  0
ENDTAB
  0
TABLE
  2
LAYER
  5
2
100
AcDbSymbolTable
 70
36
  0
LAYER
  5
10
100
AcDbSymbolTableRecord
100
AcDbLayerTableRecord
  2
0
 70
0
 62
7
  6
CONTINUOUS
370
-3
390
F
  0
LAYER
  5
1FA
100
AcDbSymbolTableRecord
100
AcDbLayerTableRecord
  2
DEFAULT_1
 70
0
 62
7
  6
CENTER
370
-3
390
F
  0
LAYER
  5
1FB
100
AcDbSymbolTableRecord
100
AcDbLayerTableRecord
  2
DEFAULT_2
 70
0
 62
8
  6
HIDDEN
370
-3
390
F
  0
LAYER
  5
1FC
100
AcDbSymbolTableRecord
100
AcDbLayerTableRecord
  2
DEFAULT_3
 70
0
 62
7
  6
PHANTOM
370
-3
390
F
  0
LAYER
  5
1FD
100
AcDbSymbolTableRecord
100
AcDbLayerTableRecord
  2
DEFAULT_COORDINATE_SYSTEM
 70
0
 62
7
  6
CONTINUOUS
370
-3
390
F
  0
LAYER
  5
1FE
100
AcDbSymbolTableRecord
100
AcDbLayerTableRecord
  2
DEFAULT_DATUM_AXES
 70
0
 62
7
  6
CONTINUOUS
370
-3
390
F
  0
LAYER
  5
1FF
100
AcDbSymbolTableRecord
100
AcDbLayerTableRecord
  2
DEFAULT_DATUM_CURVES
 70
0
 62
7
  6
CONTINUOUS
370
-3
390
F
  0
LAYER
  5
200
100
AcDbSymbolTableRecord
100
AcDbLayerTableRecord
  2
DEFAULT_DATUM_PLANES
 70
0
 62
7
  6
CONTINUOUS
370
-3
390
F
  0
ENDTAB
  0
TABLE
  2
STYLE
  5
3
100
AcDbSymbolTable
 70
1
  0
STYLE
  5
11
100
AcDbSymbolTableRecord
100
AcDbTextStyleTableRecord
  2
STANDARD
 70
0
 40
0.0
 41
0.8
 50
0.0
 71
0
 42
0.2
  3
txt
  4

  0
STYLE
  5
201
100
AcDbSymbolTableRecord
100
AcDbTextStyleTableRecord
  2
TEXTSTYLE_1
 70
0
 40
0.0
 41
0.8
 50
0.0
 71
0
 42
0.2
  3
gdt
  4

  0
ENDTAB
  0
TABLE
  2
VIEW
  5
6
100
AcDbSymbolTable
 70
0
  0
ENDTAB
  0
TABLE
  2
UCS
  5
7
100
AcDbSymbolTable
 70
0
  0
ENDTAB
  0
TABLE
  2
APPID
  5
9
100
AcDbSymbolTable
 70
1
  0
APPID
  5
202
100
AcDbSymbolTableRecord
100
AcDbRegAppTableRecord
  2
ACAD
 70
0
  0
ENDTAB
  0
TABLE
  2
BLOCK_RECORD
  5
1
100
AcDbSymbolTable
 70
0
  0
BLOCK_RECORD
  5
203
100
AcDbSymbolTableRecord
100
AcDbBlockTableRecord
  2
*Model_Space
  0
BLOCK_RECORD
  5
204
100
AcDbSymbolTableRecord
100
AcDbBlockTableRecord
  2
*Paper_Space
  0
ENDTAB
  0
TABLE
  2
DIMSTYLE
  5
A
100
AcDbSymbolTable
 70
1
100
AcDbDimStyleTable
 71
0
  0
DIMSTYLE
105
205
100
AcDbSymbolTableRecord
100
AcDbDimStyleTableRecord
  2
STANDARD
 70
0
  3

  4

 40
1.0
 41
0.1
 42
0.0625
 43
0.38
 44
0.18
 45
0.0
 46
0.0
 47
0.01
 48
0.01
140
0.08
141
0.09
142
0.0
143
25.4
144
1.0
145
0.0
146
1.0
147
0.09
 71
1.0
 72
0.0
 73
1
 74
1
 75
0
 76
0
 77
0
 78
4
170
0
171
2
172
0
173
0
174
0
175
0
176
0
177
0
178
0
270
2
271
2
272
2
273
2
274
2
275
0
280
0
281
0
282
0
283
1
284
4
285
0
286
0
287
3
288
0
340
11
  0
ENDTAB
  0
ENDSEC
  0
SECTION
  2
BLOCKS
  0
BLOCK
  5
20
100
AcDbEntity
  8
0
100
AcDbBlockBegin
  2
*Model_Space
 70
0
 10
0.0
 20
0.0
 30
0.0
  3
*Model_Space
  1

  0
ENDBLK
  5
21
100
AcDbEntity
  8
0
100
AcDbBlockEnd
  0
BLOCK
  5
1C
100
AcDbEntity
  8
0
100
AcDbBlockBegin
  2
*Paper_Space
 70
0
 10
0.0
 20
0.0
 30
0.0
  3
*Paper_Space
  1

  0
ENDBLK
  5
1D
100
AcDbEntity
  8
0
100
AcDbBlockEnd
  0
ENDSEC
  0
SECTION
  2
ENTITIES
  0
LINE
  5
206
100
AcDbEntity
  8
0
100
AcDbLine
 62
6
  6
CONTINUOUS
 10
5.4753726129
 20
5.7928760521
 11
5.4173726129
 21
5.7740307097
  0
LINE
  5
207
100
AcDbEntity
  8
0
100
AcDbLine
 62
6
  6
CONTINUOUS
 10
6.9798726129
 20
2.0628760521
 11
4.8798726129
 21
2.0628760521
  0
LINE
  5
208
100
AcDbEntity
  8
0
100
AcDbLine
 62
6
  6
CONTINUOUS
 10
5.4173726129
 20
5.7740307097
 11
5.4023726129
 21
5.7590307097
  0
LWPOLYLINE
  5
209
100
AcDbEntity
  8
0
100
AcDbPolyline
 62
6
  6
CONTINUOUS
 90
5
 70
0
 10
5.1029580938
 20
5.392006521
 10
5.0850845332
 20
5.3782897023
 10
5.0627983377
 20
5.3577484061
 10
5.0415681773
 20
5.3340205719
 10
5.0220118106
 20
5.3077920783
  0
LINE
  5
20A
100
AcDbEntity
  8
0
100
AcDbLine
 62
9
  6
CONTINUOUS
 10
5.1029580938
 20
5.392006521
 11
5.1029377492
 21
5.3919921531
  0
LINE
  5
20B
100
AcDbEntity
  8
0
100
AcDbLine
 62
6
  6
CONTINUOUS
 10
5.1203997837
 20
5.4033497621
 11
5.1029377492
 21
5.3919921531
  0
LINE
  5
20C
100
AcDbEntity
  8
0
100
AcDbLine
 62
6
  6
CONTINUOUS
 10
5.1450327024
 20
5.4163290339
 11
5.1199363984
 21
5.4030726103
  0
LINE
  5
20D
100
AcDbEntity
  8
0
100
AcDbLine
 62
6
  6
CONTINUOUS
 10
5.1701421601
 20
5.4262551293
 11
5.144710052
 21
5.4161804169
  0
LINE
  5
20E
100
AcDbEntity
  8
0
100
AcDbLine
 62
9
  6
CONTINUOUS
 10
7.0363843193
 20
2.2993723617
 11
4.8233609065
 21
2.2993723617
  0
LINE
  5
20F
100
AcDbEntity
  8
0
100
AcDbLine
 62
6
  6
CONTINUOUS
 10
5.0221083519
 20
5.3079336807
 11
5.0049250515
 21
5.2804205697
  0
LINE
  5
210
100
AcDbEntity
  8
0
100
AcDbLine
 62
6
  6
CONTINUOUS
 10
5.041492539
 20
5.3339191749
 11
5.0414117162
 21
5.3338286933
  0
LINE
  5
211
100
AcDbEntity
  8
0
100
AcDbLine
 62
6
  6
CONTINUOUS
 10
5.4179976129
 20
5.6675010521
 11
5.4023726129
 21
5.6518760521
  0
LINE
  5
212
100
AcDbEntity
  8
0
100
AcDbLine
 62
9
  6
CONTINUOUS
 10
5.4704718509
 20
5.4676344618
 11
5.4704617804
 21
5.4676284873
  0
LWPOLYLINE
  5
213
100
AcDbEntity
  8
0
100
AcDbPolyline
 62
6
  6
CONTINUOUS
 90
3
 70
0
 10
5.4704613286
 20
5.4676292519
 10
5.4696801242
 20
5.4672475717
 10
5.4675381028
 20
5.4665745334
  0
LWPOLYLINE
  5
214
100
AcDbEntity
  8
0
100
AcDbPolyline
 62
6
  6
CONTINUOUS
 90
4
 70
0
 10
4.9914311839
 20
5.2547458885
 10
4.9717033558
 20
5.2104688938
 10
4.9534882523
 20
5.1617802695
 10
4.9380005341
 20
5.1109100261
  0
LINE
  5
215
100
AcDbEntity
  8
0
100
AcDbLine
 62
6
  6
CONTINUOUS
 10
5.0049690931
 20
5.2804977205
 11
4.9914307492
 21
5.254744987
  0
LINE
  5
216
100
AcDbEntity
  8
0
100
AcDbLine
 62
6
  6
CONTINUOUS
 10
4.9380005404
 20
5.1109100466
 11
4.925508847
 21
5.0580963783
  0
LINE
  5
217
100
AcDbEntity
  8
0
100
AcDbLine
 62
7
  6
CONTINUOUS
 10
6.6798726129
 20
2.6878760521
 11
5.1798726129
 21
2.6878760521
  0
LINE
  5
218
100
AcDbEntity
  8
0
100
AcDbLine
 62
6
  6
CONTINUOUS
 10
4.9091111738
 20
4.8926216325
 11
4.9091108519
 21
4.8926055464
  0
LINE
  5
219
100
AcDbEntity
  8
0
100
AcDbLine
 62
6
  6
CONTINUOUS
 10
4.9107342531
 20
4.9476763995
 11
4.9091108489
 21
4.8926060546
  0
LINE
  5
21A
100
AcDbEntity
  8
0
100
AcDbLine
 62
6
  6
CONTINUOUS
 10
4.9163074742
 20
5.0035672558
 11
4.9107342487
 21
4.9476763558
  0
LINE
  5
21B
100
AcDbEntity
  8
0
100
AcDbLine
 62
6
  6
CONTINUOUS
 10
4.9255088537
 20
5.0580964065
 11
4.9163074681
 21
5.0035672195
  0
LINE
  5
21C
100
AcDbEntity
  8
0
100
AcDbLine
 62
6
  6
CONTINUOUS
 10
5.4023726129
 20
5.6518760521
 11
5.3723726129
 21
5.5718760521
  0
LINE
  5
21D
100
AcDbEntity
  8
0
100
AcDbLine
 62
9
  6
CONTINUOUS
 10
5.3696257039
 20
5.1485591845
 11
5.3696248569
 21
5.148557582
  0
LWPOLYLINE
  5
21E
100
AcDbEntity
  8
0
100
AcDbPolyline
 62
6
  6
CONTINUOUS
 90
10
 70
0
 10
5.3696248569
 20
5.148557582
 10
5.3783045595
 20
5.1639399423
 10
5.3867471419
 20
5.1771096979
 10
5.3943209217
 20
5.1875803012
 10
5.401217055
 20
5.1960581097
 10
5.407415556
 20
5.2027979435
 10
5.4124527408
 20
5.2075776626
 10
5.4168344185
 20
5.2111056687
 10
5.4204198144
 20
5.2134831688
 10
5.4214631759
 20
5.2140612058
  0
LWPOLYLINE
  5
21F
100
AcDbEntity
  8
0
100
AcDbPolyline
 62
6
  6
CONTINUOUS
 90
3
 70
0
 10
6.4339625801
 20
5.2099945364
 10
6.4400067131
 20
5.2118840634
 10
6.4413484643
 20
5.2121424555
  0
LINE
  5
220
100
AcDbEntity
  8
0
100
AcDbLine
 62
6
  6
CONTINUOUS
 10
6.6773726129
 20
2.8178760521
 11
5.1823726129
 21
2.8178760521
  0
LINE
  5
221
100
AcDbEntity
  8
0
100
AcDbLine
 62
6
  6
CONTINUOUS
 10
4.9091203846
 20
4.8676672394
 11
4.9116957724
 21
4.8415970336
  0
LINE
  5
222
100
AcDbEntity
  8
0
100
AcDbLine
 62
6
  6
CONTINUOUS
 10
4.9090594365
 20
4.8926224536
 11
4.9091203849
 21
4.867667131
  0
LWPOLYLINE
  5
223
100
AcDbEntity
  8
0
100
AcDbPolyline
 62
6
  6
CONTINUOUS
 90
5
 70
0
 10
5.3337135232
 20
5.0576958872
 10
5.3409438293
 20
5.0812617498
 10
5.3495085954
 20
5.1047158783
 10
5.3593779649
 20
5.1278026762
 10
5.3696257039
 20
5.1485591845
  0
LINE
  5
224
100
AcDbEntity
  8
0
100
AcDbLine
 62
6
  6
CONTINUOUS
 10
5.2885254917
 20
4.811280354
 11
5.296639923
 21
4.8329740771
  0
LWPOLYLINE
  5
225
100
AcDbEntity
  8
0
100
AcDbPolyline
 62
6
  6
CONTINUOUS
 90
5
 70
0
 10
5.2450316377
 20
4.7388237648
 10
5.2574985507
 20
4.7550468443
 10
5.2696502453
 20
4.77360387
 10
5.2802597345
 20
4.7929866175
 10
5.2885255241
 20
4.8112804333
  0
LWPOLYLINE
  5
226
100
AcDbEntity
  8
0
100
AcDbPolyline
 62
6
  6
CONTINUOUS
 90
4
 70
0
 10
5.2424578966
 20
4.7357707296
 10
5.2429702346
 20
4.7363695991
 10
5.2446240429
 20
4.7383327458
 10
5.2450316639
 20
4.7388237963
  0
LWPOLYLINE
  5
227
100
AcDbEntity
  8
0
100
AcDbPolyline
 62
6
  6
CONTINUOUS
 90
4
 70
0
 10
5.2048989327
 20
4.7012058873
 10
5.2176059592
 20
4.7111266449
 10
5.2310729114
 20
4.7234931847
 10
5.24245789
 20
4.7357707219
  0
LINE
  5
228
100
AcDbEntity
  8
0
100
AcDbLine
 62
9
  6
CONTINUOUS
 10
6.4339650896
 20
5.2099954801
 11
6.4339625801
 21
5.2099945364
  0
LINE
  5
229
100
AcDbEntity
  8
0
100
AcDbLine
 62
6
  6
CONTINUOUS
 10
5.3092940755
 20
4.8796226076
 11
5.3092973952
 21
4.8796483086
  0
LINE
  5
22A
100
AcDbEntity
  8
0
100
AcDbLine
 62
6
  6
CONTINUOUS
 10
5.3183956124
 20
4.9781964249
 11
5.3237546677
 21
5.0135574489
  0
LINE
  5
22B
100
AcDbEntity
  8
0
100
AcDbLine
 62
9
  6
CONTINUOUS
 10
5.323753443
 20
5.0135632311
 11
5.3237529934
 21
5.013560629
  0
LINE
  5
22C
100
AcDbEntity
  8
0
100
AcDbLine
 62
6
  6
CONTINUOUS
 10
5.323753443
 20
5.0135632311
 11
5.3279497941
 21
5.0347233642
  0
LINE
  5
22D
100
AcDbEntity
  8
0
100
AcDbLine
 62
6
  6
CONTINUOUS
 10
5.3278665146
 20
5.0343575839
 11
5.3337936415
 21
5.0579570182
  0
LWPOLYLINE
  5
22E
100
AcDbEntity
  8
0
100
AcDbPolyline
 62
6
  6
CONTINUOUS
 90
3
 70
0
 10
5.2966399236
 20
4.8329740789
 10
5.3039585429
 20
4.8570117886
 10
5.3092916846
 20
4.8796231686
  0
LINE
  5
22F
100
AcDbEntity
  8
0
100
AcDbLine
 62
6
  6
CONTINUOUS
 10
6.4573726129
 20
5.6831260521
 11
6.4417476129
 21
5.6675010521
  0
LINE
  5
230
100
AcDbEntity
  8
0
100
AcDbLine
 62
6
  6
CONTINUOUS
 10
6.4873726129
 20
5.0028760521
 11
6.2733726129
 21
4.9333432371
  0
LWPOLYLINE
  5
231
100
AcDbEntity
  8
0
100
AcDbPolyline
 62
6
  6
CONTINUOUS
 90
5
 70
0
 10
4.9163219223
 20
4.8182884065
 10
4.9222825637
 20
4.7982861486
 10
4.9306767647
 20
4.7775911117
 10
4.9408702319
 20
4.7582789515
 10
4.951651707
 20
4.7419190402
  0
LINE
  5
232
100
AcDbEntity
  8
0
100
AcDbLine
 62
6
  6
CONTINUOUS
 10
4.9116957674
 20
4.8415970835
 11
4.9163219037
 21
4.8182884812
  0
LINE
  5
233
100
AcDbEntity
  8
0
100
AcDbLine
 62
6
  6
CONTINUOUS
 10
5.3092973952
 20
4.8796483086
 11
5.3116834912
 21
4.9136804936
  0
LINE
  5
234
100
AcDbEntity
  8
0
100
AcDbLine
 62
6
  6
CONTINUOUS
 10
5.311678223
 20
4.9136053545
 11
5.314599119
 21
4.9456856797
  0
LINE
  5
235
100
AcDbEntity
  8
0
100
AcDbLine
 62
6
  6
CONTINUOUS
 10
5.3145830985
 20
4.9455249829
 11
5.3184068464
 21
4.9782930898
  0
LWPOLYLINE
  5
236
100
AcDbEntity
  8
0
100
AcDbPolyline
 62
6
  6
CONTINUOUS
 90
5
 70
0
 10
6.4033653712
 20
5.1901267975
 10
6.4081213599
 20
5.1943584346
 10
6.4187382078
 20
5.2021824671
 10
6.4281738241
 20
5.2074949465
 10
6.4339650896
 20
5.2099954801
  0
LINE
  5
237
100
AcDbEntity
  8
0
100
AcDbLine
 62
6
  6
CONTINUOUS
 10
5.3723726129
 20
5.5718760521
 11
5.3723726129
 21
5.4602326141
  0
LINE
  5
238
100
AcDbEntity
  8
0
100
AcDbLine
 62
6
  6
CONTINUOUS
 10
5.3723726129
 20
5.1534272158
 11
5.3723726129
 21
5.0028760521
  0
LINE
  5
239
100
AcDbEntity
  8
0
100
AcDbLine
 62
6
  6
CONTINUOUS
 10
5.4023726129
 20
5.7590307097
 11
5.4023726129
 21
5.6831260521
  0
LINE
  5
23A
100
AcDbEntity
  8
0
100
AcDbLine
 62
6
  6
CONTINUOUS
 10
5.3458139402
 20
3.7813196654
 11
5.1823726129
 21
2.8178760521
  0
LINE
  5
23B
100
AcDbEntity
  8
0
100
AcDbLine
 62
9
  6
CONTINUOUS
 10
6.4034320467
 20
5.1901894122
 11
6.4033665911
 21
5.1901279379
  0
LINE
  5
23C
100
AcDbEntity
  8
0
100
AcDbLine
 62
6
  6
CONTINUOUS
 10
6.8112676305
 20
4.6731979659
 11
6.8126105871
 21
4.6735910012
  0
LINE
  5
23D
100
AcDbEntity
  8
0
100
AcDbLine
 62
6
  6
CONTINUOUS
 10
6.8103706422
 20
4.6729415923
 11
6.8117061149
 21
4.6733250788
  0
LINE
  5
23E
100
AcDbEntity
  8
0
100
AcDbLine
 62
6
  6
CONTINUOUS
 10
5.5863726129
 20
4.9333432371
 11
5.5863726129
 21
4.5928760521
  0
LWPOLYLINE
  5
23F
100
AcDbEntity
  8
0
100
AcDbPolyline
 62
6
  6
CONTINUOUS
 90
3
 70
0
 10
6.8347295015
 20
4.6817435736
 10
6.835911188
 20
4.6822742062
 10
6.8374064651
 20
4.6829605372
  0
LINE
  5
240
100
AcDbEntity
  8
0
100
AcDbLine
 62
6
  6
CONTINUOUS
 10
6.8335508534
 20
4.681224516
 11
6.8350596917
 21
4.6818908074
  0
LINE
  5
241
100
AcDbEntity
  8
0
100
AcDbLine
 62
6
  6
CONTINUOUS
 10
6.8323750936
 20
4.6807167741
 11
6.8338908836
 21
4.6813732201
  0
LINE
  5
242
100
AcDbEntity
  8
0
100
AcDbLine
 62
6
  6
CONTINUOUS
 10
6.8312020662
 20
4.6802200972
 11
6.8327249388
 21
4.6808668101
  0
LINE
  5
243
100
AcDbEntity
  8
0
100
AcDbLine
 62
6
  6
CONTINUOUS
 10
6.8300320499
 20
4.6797344238
 11
6.8315617078
 21
4.6803713317
  0
LINE
  5
244
100
AcDbEntity
  8
0
100
AcDbLine
 62
6
  6
CONTINUOUS
 10
6.8288667365
 20
4.679260258
 11
6.8304011492
 21
4.679886594
  0
LINE
  5
245
100
AcDbEntity
  8
0
100
AcDbLine
 62
6
  6
CONTINUOUS
 10
6.8277081155
 20
4.6787981723
 11
6.8292444544
 21
4.6794129129
  0
LINE
  5
246
100
AcDbEntity
  8
0
100
AcDbLine
 62
6
  6
CONTINUOUS
 10
6.8265581932
 20
4.6783486887
 11
6.8280935828
 21
4.678950876
  0
LINE
  5
247
100
AcDbEntity
  8
0
100
AcDbLine
 62
6
  6
CONTINUOUS
 10
6.8254189911
 20
4.6779122801
 11
6.8269505216
 21
4.6785010257
  0
LINE
  5
248
100
AcDbEntity
  8
0
100
AcDbLine
 62
6
  6
CONTINUOUS
 10
6.824292545
 20
4.6774893716
 11
6.8258172741
 21
4.6780638553
  0
LINE
  5
249
100
AcDbEntity
  8
0
100
AcDbLine
 62
6
  6
CONTINUOUS
 10
6.8231809032
 20
4.6770803422
 11
6.8246958578
 21
4.6776398104
  0
LINE
  5
24A
100
AcDbEntity
  8
0
100
AcDbLine
 62
6
  6
CONTINUOUS
 10
6.8220861253
 20
4.676685526
 11
6.8235883034
 21
4.6772292905
  0
LINE
  5
24B
100
AcDbEntity
  8
0
100
AcDbLine
 62
6
  6
CONTINUOUS
 10
6.8210102808
 20
4.6763052148
 11
6.8224966533
 21
4.6768326502
  0
LINE
  5
24C
100
AcDbEntity
  8
0
100
AcDbLine
 62
6
  6
CONTINUOUS
 10
6.8199554099
 20
4.675939647
 11
6.8214229602
 21
4.6764502013
  0
LINE
  5
24D
100
AcDbEntity
  8
0
100
AcDbLine
 62
6
  6
CONTINUOUS
 10
6.8189220985
 20
4.6755885325
 11
6.8203692859
 21
4.6760822152
  0
LINE
  5
24E
100
AcDbEntity
  8
0
100
AcDbLine
 62
6
  6
CONTINUOUS
 10
6.8179090332
 20
4.6752509555
 11
6.819337108
 21
4.6757287239
  0
LINE
  5
24F
100
AcDbEntity
  8
0
100
AcDbLine
 62
6
  6
CONTINUOUS
 10
6.8169147543
 20
4.674926003
 11
6.8183255814
 21
4.6753889641
  0
LINE
  5
250
100
AcDbEntity
  8
0
100
AcDbLine
 62
6
  6
CONTINUOUS
 10
6.8159377831
 20
4.6746128062
 11
6.8173332739
 21
4.6750620189
  0
LINE
  5
251
100
AcDbEntity
  8
0
100
AcDbLine
 62
6
  6
CONTINUOUS
 10
6.8149766228
 20
4.6743105391
 11
6.8163587341
 21
4.6747470157
  0
LINE
  5
252
100
AcDbEntity
  8
0
100
AcDbLine
 62
6
  6
CONTINUOUS
 10
6.8140298403
 20
4.6740184409
 11
6.8154004923
 21
4.674443124
  0
LINE
  5
253
100
AcDbEntity
  8
0
100
AcDbLine
 62
6
  6
CONTINUOUS
 10
6.8130965363
 20
4.6737359534
 11
6.8144570726
 21
4.6741495574
  0
LINE
  5
254
100
AcDbEntity
  8
0
100
AcDbLine
 62
6
  6
CONTINUOUS
 10
6.8121760294
 20
4.6734626105
 11
6.8135273414
 21
4.6738656766
  0
LWPOLYLINE
  5
255
100
AcDbEntity
  8
0
100
AcDbPolyline
 62
6
  6
CONTINUOUS
 90
4
 70
0
 10
4.9516517492
 20
4.7419189821
 10
4.9520137672
 20
4.7414236013
 10
4.9535262176
 20
4.7393866845
 10
4.9539913704
 20
4.7387705721
  0
LINE
  5
256
100
AcDbEntity
  8
0
100
AcDbLine
 62
7
  6
CONTINUOUS
 10
5.7343726129
 20
5.859186858
 11
5.7343700129
 21
5.859494523
  0
LINE
  5
257
100
AcDbEntity
  8
0
100
AcDbLine
 62
6
  6
CONTINUOUS
 10
5.6533726129
 20
4.5628760521
 11
5.6533726129
 21
3.9378760521
  0
LINE
  5
258
100
AcDbEntity
  8
0
100
AcDbLine
 62
7
  6
CONTINUOUS
 10
5.7198726129
 20
5.8569951091
 11
5.7198726129
 21
5.8577767764
  0
LINE
  5
259
100
AcDbEntity
  8
0
100
AcDbLine
 62
7
  6
CONTINUOUS
 10
5.7343726129
 20
5.8601951086
 11
5.7343726129
 21
5.8605029023
  0
LINE
  5
25A
100
AcDbEntity
  8
0
100
AcDbLine
 62
7
  6
CONTINUOUS
 10
5.7673726129
 20
5.8643173319
 11
5.7673726129
 21
5.8640310544
  0
LINE
  5
25B
100
AcDbEntity
  8
0
100
AcDbLine
 62
7
  6
CONTINUOUS
 10
5.7673726129
 20
5.8633117783
 11
5.7673726129
 21
5.863025314
  0
LINE
  5
25C
100
AcDbEntity
  8
0
100
AcDbLine
 62
7
  6
CONTINUOUS
 10
5.7798726129
 20
5.8648161176
 11
5.7798726129
 21
5.8640158488
  0
LINE
  5
25D
100
AcDbEntity
  8
0
100
AcDbLine
 62
7
  6
CONTINUOUS
 10
5.7948726129
 20
5.8654015839
 11
5.7948726129
 21
5.8662011344
  0
LINE
  5
25E
100
AcDbEntity
  8
0
100
AcDbLine
 62
6
  6
CONTINUOUS
 10
6.854080378
 20
4.6918252462
 11
6.8554783397
 21
4.6926779601
  0
LINE
  5
25F
100
AcDbEntity
  8
0
100
AcDbLine
 62
6
  6
CONTINUOUS
 10
6.8528403084
 20
4.691084007
 11
6.8542450199
 21
4.691924725
  0
LINE
  5
260
100
AcDbEntity
  8
0
100
AcDbLine
 62
6
  6
CONTINUOUS
 10
6.8516045667
 20
4.6903592783
 11
6.8530159315
 21
4.6911881275
  0
LINE
  5
261
100
AcDbEntity
  8
0
100
AcDbLine
 62
6
  6
CONTINUOUS
 10
6.8503731346
 20
4.6896506673
 11
6.8517910697
 21
4.6904677761
  0
LINE
  5
262
100
AcDbEntity
  8
0
100
AcDbLine
 62
6
  6
CONTINUOUS
 10
6.8491459823
 20
4.6889577908
 11
6.8505704187
 21
4.6897632886
  0
LINE
  5
263
100
AcDbEntity
  8
0
100
AcDbLine
 62
6
  6
CONTINUOUS
 10
6.8479230693
 20
4.6882802747
 11
6.8493539517
 21
4.6890742917
  0
LINE
  5
264
100
AcDbEntity
  8
0
100
AcDbLine
 62
6
  6
CONTINUOUS
 10
6.8467043448
 20
4.6876177544
 11
6.8481416312
 21
4.6884004212
  0
LINE
  5
265
100
AcDbEntity
  8
0
100
AcDbLine
 62
6
  6
CONTINUOUS
 10
6.8454897477
 20
4.6869698744
 11
6.8469334101
 21
4.6877413218
  0
LINE
  5
266
100
AcDbEntity
  8
0
100
AcDbLine
 62
6
  6
CONTINUOUS
 10
6.8442792072
 20
4.6863362884
 11
6.845729231
 21
4.6870966469
  0
LINE
  5
267
100
AcDbEntity
  8
0
100
AcDbLine
 62
6
  6
CONTINUOUS
 10
6.8430726432
 20
4.6857166591
 11
6.8445290274
 21
4.6864660591
  0
LINE
  5
268
100
AcDbEntity
  8
0
100
AcDbLine
 62
6
  6
CONTINUOUS
 10
6.8418699667
 20
4.6851106582
 11
6.8433327237
 21
4.6858492293
  0
LINE
  5
269
100
AcDbEntity
  8
0
100
AcDbLine
 62
6
  6
CONTINUOUS
 10
6.8406710799
 20
4.6845179662
 11
6.8421402357
 21
4.6852458372
  0
LINE
  5
26A
100
AcDbEntity
  8
0
100
AcDbLine
 62
6
  6
CONTINUOUS
 10
6.8394758766
 20
4.6839382725
 11
6.8409514705
 21
4.684655571
  0
LINE
  5
26B
100
AcDbEntity
  8
0
100
AcDbLine
 62
6
  6
CONTINUOUS
 10
6.8382842427
 20
4.6833712753
 11
6.8397663273
 21
4.6840781274
  0
LINE
  5
26C
100
AcDbEntity
  8
0
100
AcDbLine
 62
6
  6
CONTINUOUS
 10
6.8370960563
 20
4.6828166814
 11
6.8385846975
 21
4.6835132117
  0
LINE
  5
26D
100
AcDbEntity
  8
0
100
AcDbLine
 62
6
  6
CONTINUOUS
 10
6.8350596917
 20
4.6818908074
 11
6.8362315065
 21
4.6824198258
  0
LINE
  5
26E
100
AcDbEntity
  8
0
100
AcDbLine
 62
9
  6
CONTINUOUS
 10
5.3458139402
 20
3.7813196654
 11
6.5139312857
 21
3.7813196654
  0
LWPOLYLINE
  5
26F
100
AcDbEntity
  8
0
100
AcDbPolyline
 62
6
  6
CONTINUOUS
 90
4
 70
0
 10
4.9539913497
 20
4.7387705994
 10
4.9642820441
 20
4.7263214098
 10
4.976967144
 20
4.7134929235
 10
4.989360627
 20
4.7030080022
  0
LINE
  5
270
100
AcDbEntity
  8
0
100
AcDbLine
 62
7
  6
CONTINUOUS
 10
5.8073726129
 20
5.8677235504
 11
5.8073726129
 21
5.8680091441
  0
LINE
  5
271
100
AcDbEntity
  8
0
100
AcDbLine
 62
7
  6
CONTINUOUS
 10
5.8073726129
 20
5.8667202144
 11
5.8073726129
 21
5.8670059936
  0
LINE
  5
272
100
AcDbEntity
  8
0
100
AcDbLine
 62
7
  6
CONTINUOUS
 10
5.8403726129
 20
5.8702910624
 11
5.8403726129
 21
5.8699852151
  0
LINE
  5
273
100
AcDbEntity
  8
0
100
AcDbLine
 62
7
  6
CONTINUOUS
 10
5.8403726129
 20
5.8692893915
 11
5.8403726129
 21
5.8689833462
  0
LINE
  5
274
100
AcDbEntity
  8
0
100
AcDbLine
 62
7
  6
CONTINUOUS
 10
5.8548726129
 20
5.870254
 11
5.8548726129
 21
5.8694786361
  0
LINE
  5
275
100
AcDbEntity
  8
0
100
AcDbLine
 62
7
  6
CONTINUOUS
 10
5.8598726129
 20
5.8697129016
 11
5.8598726129
 21
5.8704881482
  0
LINE
  5
276
100
AcDbEntity
  8
0
100
AcDbLine
 62
7
  6
CONTINUOUS
 10
5.9048726129
 20
5.8718680956
 11
5.9048726129
 21
5.8710935396
  0
LINE
  5
277
100
AcDbEntity
  8
0
100
AcDbLine
 62
7
  6
CONTINUOUS
 10
5.9439099463
 20
5.8712316821
 11
5.9439099463
 21
5.872006169
  0
LINE
  5
278
100
AcDbEntity
  8
0
100
AcDbLine
 62
7
  6
CONTINUOUS
 10
6.1008726129
 20
5.8634157042
 11
6.1008730203
 21
5.8634186623
  0
LWPOLYLINE
  5
279
100
AcDbEntity
  8
0
100
AcDbPolyline
 62
6
  6
CONTINUOUS
 90
3
 70
0
 10
6.8679990858
 20
4.7011902861
 10
6.8692875675
 20
4.7021636231
 10
6.8703846289
 20
4.7030080255
  0
LINE
  5
27A
100
AcDbEntity
  8
0
100
AcDbLine
 62
6
  6
CONTINUOUS
 10
6.8667140344
 20
4.7002388719
 11
6.8680359957
 21
4.701217896
  0
LINE
  5
27B
100
AcDbEntity
  8
0
100
AcDbLine
 62
6
  6
CONTINUOUS
 10
6.8654325786
 20
4.6993088816
 11
6.8667630699
 21
4.7002748278
  0
LINE
  5
27C
100
AcDbEntity
  8
0
100
AcDbLine
 62
6
  6
CONTINUOUS
 10
6.8641548666
 20
4.6983998254
 11
6.8654936436
 21
4.6993527798
  0
LINE
  5
27D
100
AcDbEntity
  8
0
100
AcDbLine
 62
6
  6
CONTINUOUS
 10
6.8628810293
 20
4.6975112225
 11
6.8642278613
 21
4.6984512765
  0
LINE
  5
27E
100
AcDbEntity
  8
0
100
AcDbLine
 62
6
  6
CONTINUOUS
 10
6.8616111864
 20
4.6966426048
 11
6.8629658512
 21
4.6975698514
  0
LINE
  5
27F
100
AcDbEntity
  8
0
100
AcDbLine
 62
6
  6
CONTINUOUS
 10
6.8603454473
 20
4.6957935166
 11
6.8617077309
 21
4.6967080499
  0
LINE
  5
280
100
AcDbEntity
  8
0
100
AcDbLine
 62
6
  6
CONTINUOUS
 10
6.8590838859
 20
4.6949634978
 11
6.8604536081
 21
4.6958654298
  0
LINE
  5
281
100
AcDbEntity
  8
0
100
AcDbLine
 62
6
  6
CONTINUOUS
 10
6.8578265606
 20
4.6941520976
 11
6.8592035562
 21
4.6950415443
  0
LINE
  5
282
100
AcDbEntity
  8
0
100
AcDbLine
 62
6
  6
CONTINUOUS
 10
6.8565735158
 20
4.6933588748
 11
6.8579576332
 21
4.6942359551
  0
LINE
  5
283
100
AcDbEntity
  8
0
100
AcDbLine
 62
6
  6
CONTINUOUS
 10
6.8553247823
 20
4.6925833982
 11
6.8567158838
 21
4.6934482335
  0
LINE
  5
284
100
AcDbEntity
  8
0
100
AcDbLine
 62
6
  6
CONTINUOUS
 10
5.5311657656
 20
3.9378760521
 11
6.3285794602
 21
3.9378760521
  0
LWPOLYLINE
  5
285
100
AcDbEntity
  8
0
100
AcDbPolyline
 62
6
  6
CONTINUOUS
 90
3
 70
0
 10
4.9893605969
 20
4.7030080255
 10
4.9906367971
 20
4.7020271194
 10
4.9920128434
 20
4.7009912549
  0
LINE
  5
286
100
AcDbEntity
  8
0
100
AcDbLine
 62
7
  6
CONTINUOUS
 10
5.9948726129
 20
5.8705365882
 11
5.9948726129
 21
5.8699309789
  0
LINE
  5
287
100
AcDbEntity
  8
0
100
AcDbLine
 62
7
  6
CONTINUOUS
 10
6.0048726129
 20
5.870254
 11
6.0048726129
 21
5.8694786361
  0
LINE
  5
288
100
AcDbEntity
  8
0
100
AcDbLine
 62
7
  6
CONTINUOUS
 10
6.0108726129
 20
5.8706864198
 11
6.0108726129
 21
5.8707406506
  0
LINE
  5
289
100
AcDbEntity
  8
0
100
AcDbLine
 62
7
  6
CONTINUOUS
 10
6.0568726129
 20
5.8661146411
 11
6.0568726129
 21
5.8666876639
  0
LINE
  5
28A
100
AcDbEntity
  8
0
100
AcDbLine
 62
7
  6
CONTINUOUS
 10
6.0848726129
 20
5.8641293476
 11
6.0848726129
 21
5.8636746441
  0
LINE
  5
28B
100
AcDbEntity
  8
0
100
AcDbLine
 62
7
  6
CONTINUOUS
 10
6.0408739594
 20
5.8688980544
 11
6.0408726129
 21
5.8684063784
  0
LINE
  5
28C
100
AcDbEntity
  8
0
100
AcDbLine
 62
7
  6
CONTINUOUS
 10
6.1008730203
 20
5.8634186623
 11
6.1008726129
 21
5.8633457113
  0
LINE
  5
28D
100
AcDbEntity
  8
0
100
AcDbLine
 62
7
  6
CONTINUOUS
 10
6.1008726659
 20
5.8623490212
 11
6.1008730204
 21
5.862412522
  0
LINE
  5
28E
100
AcDbEntity
  8
0
100
AcDbLine
 62
7
  6
CONTINUOUS
 10
6.0408726129
 20
5.8688254135
 11
6.0408739594
 21
5.8688980544
  0
LINE
  5
28F
100
AcDbEntity
  8
0
100
AcDbLine
 62
7
  6
CONTINUOUS
 10
6.0408739594
 20
5.8678954808
 11
6.0408726129
 21
5.8678227928
  0
LWPOLYLINE
  5
290
100
AcDbEntity
  8
0
100
AcDbPolyline
 62
6
  6
CONTINUOUS
 90
4
 70
0
 10
6.8703845988
 20
4.7030080022
 10
6.8827780818
 20
4.7134929235
 10
6.8954631817
 20
4.7263214098
 10
6.9057538761
 20
4.7387705994
  0
LINE
  5
291
100
AcDbEntity
  8
0
100
AcDbLine
 62
6
  6
CONTINUOUS
 10
5.0081064534
 20
4.6903791541
 11
5.0094464316
 21
4.6896083184
  0
LWPOLYLINE
  5
292
100
AcDbEntity
  8
0
100
AcDbPolyline
 62
6
  6
CONTINUOUS
 90
3
 70
0
 10
4.9933840599
 20
4.6999809347
 10
4.9947502424
 20
4.6989955181
 10
4.9961112104
 20
4.6980343775
  0
LWPOLYLINE
  5
293
100
AcDbEntity
  8
0
100
AcDbPolyline
 62
6
  6
CONTINUOUS
 90
13
 70
0
 10
4.9920223611
 20
4.7009841675
 10
4.9933964863
 20
4.6999718771
 10
4.994765441
 20
4.6989846725
 10
4.9961290423
 20
4.698021918
 10
4.9974871313
 20
4.6970829906
 10
4.998839571
 20
4.6961672805
 10
5.0001862466
 20
4.6952741907
 10
5.0015270616
 20
4.6944031388
 10
5.0028619425
 20
4.6935535532
 10
5.0041908455
 20
4.6927248691
 10
5.0055137452
 20
4.6919165349
 10
5.006830634
 20
4.6911280126
 10
5.0081415211
 20
4.6903587775
  0
LINE
  5
294
100
AcDbEntity
  8
0
100
AcDbLine
 62
7
  6
CONTINUOUS
 10
6.1008726129
 20
5.8629251859
 11
6.1008726129
 21
5.8633457113
  0
LINE
  5
295
100
AcDbEntity
  8
0
100
AcDbLine
 62
7
  6
CONTINUOUS
 10
6.1208726129
 20
5.8610681152
 11
6.1208726129
 21
5.8609950075
  0
LINE
  5
296
100
AcDbEntity
  8
0
100
AcDbLine
 62
7
  6
CONTINUOUS
 10
6.1398726129
 20
5.8569951091
 11
6.1398726129
 21
5.8577767764
  0
LINE
  5
297
100
AcDbEntity
  8
0
100
AcDbLine
 62
7
  6
CONTINUOUS
 10
6.1478726129
 20
5.8569085524
 11
6.1478726129
 21
5.8574758816
  0
LINE
  5
298
100
AcDbEntity
  8
0
100
AcDbLine
 62
7
  6
CONTINUOUS
 10
6.1848726129
 20
5.8511035142
 11
6.1848726129
 21
5.8509481656
  0
LINE
  5
299
100
AcDbEntity
  8
0
100
AcDbLine
 62
6
  6
CONTINUOUS
 10
6.2063726129
 20
4.5628760521
 11
6.2063726129
 21
3.9378760521
  0
LINE
  5
29A
100
AcDbEntity
  8
0
100
AcDbLine
 62
7
  6
CONTINUOUS
 10
6.1848726129
 20
5.8511035142
 11
6.1848787662
 21
5.8517645869
  0
LINE
  5
29B
100
AcDbEntity
  8
0
100
AcDbLine
 62
7
  6
CONTINUOUS
 10
6.1478726129
 20
5.8560260413
 11
6.1478771034
 21
5.8564652061
  0
LWPOLYLINE
  5
29C
100
AcDbEntity
  8
0
100
AcDbPolyline
 62
6
  6
CONTINUOUS
 90
4
 70
0
 10
6.9057538554
 20
4.7387705721
 10
6.9062190082
 20
4.7393866845
 10
6.9077314586
 20
4.7414236013
 10
6.9080934766
 20
4.7419189821
  0
LWPOLYLINE
  5
29D
100
AcDbEntity
  8
0
100
AcDbPolyline
 62
6
  6
CONTINUOUS
 90
18
 70
0
 10
5.0283585912
 20
4.680297596
 10
5.0295758614
 20
4.6797909231
 10
5.030785054
 20
4.6792979276
 10
5.0319851984
 20
4.6788186777
 10
5.0331753206
 20
4.6783532211
 10
5.0343544434
 20
4.6779015853
 10
5.0355215869
 20
4.677463778
 10
5.0366757694
 20
4.6770397883
 10
5.0378160074
 20
4.6766295869
 10
5.0389413166
 20
4.6762331271
 10
5.0400507606
 20
4.6758503291
 10
5.0411440818
 20
4.6754808718
 10
5.0422215291
 20
4.6751242731
 10
5.0432833728
 20
4.6747800629
 10
5.0443298932
 20
4.6744477865
 10
5.0453613795
 20
4.6741270038
 10
5.0463781296
 20
4.6738172898
 10
5.0473804553
 20
4.6735182317
  0
LINE
  5
29E
100
AcDbEntity
  8
0
100
AcDbLine
 62
6
  6
CONTINUOUS
 10
5.0270965594
 20
4.6808340246
 11
5.0283224374
 21
4.680312805
  0
LINE
  5
29F
100
AcDbEntity
  8
0
100
AcDbLine
 62
6
  6
CONTINUOUS
 10
5.0258649025
 20
4.6813685892
 11
5.0271342096
 21
4.6808178562
  0
LINE
  5
2A0
100
AcDbEntity
  8
0
100
AcDbLine
 62
6
  6
CONTINUOUS
 10
5.0246284929
 20
4.6819163237
 11
5.025903678
 21
4.6813515922
  0
LINE
  5
2A1
100
AcDbEntity
  8
0
100
AcDbLine
 62
6
  6
CONTINUOUS
 10
5.0233877519
 20
4.682477301
 11
5.0246679513
 21
4.6818986702
  0
LINE
  5
2A2
100
AcDbEntity
  8
0
100
AcDbLine
 62
6
  6
CONTINUOUS
 10
5.0221425208
 20
4.6830518574
 11
5.0234276822
 21
4.6824590692
  0
LINE
  5
2A3
100
AcDbEntity
  8
0
100
AcDbLine
 62
6
  6
CONTINUOUS
 10
5.0208926256
 20
4.6836403516
 11
5.0221827954
 21
4.683033092
  0
LINE
  5
2A4
100
AcDbEntity
  8
0
100
AcDbLine
 62
6
  6
CONTINUOUS
 10
5.0196379021
 20
4.6842431535
 11
5.0209331145
 21
4.6836211013
  0
LINE
  5
2A5
100
AcDbEntity
  8
0
100
AcDbLine
 62
6
  6
CONTINUOUS
 10
5.0183781965
 20
4.6848606449
 11
5.0196784733
 21
4.6842234717
  0
LINE
  5
2A6
100
AcDbEntity
  8
0
100
AcDbLine
 62
6
  6
CONTINUOUS
 10
5.0171133653
 20
4.6854932193
 11
5.0184187157
 21
4.6848405894
  0
LINE
  5
2A7
100
AcDbEntity
  8
0
100
AcDbLine
 62
6
  6
CONTINUOUS
 10
5.0158432765
 20
4.6861412822
 11
5.0171536964
 21
4.6854728524
  0
LINE
  5
2A8
100
AcDbEntity
  8
0
100
AcDbLine
 62
6
  6
CONTINUOUS
 10
5.0145678094
 20
4.6868052511
 11
5.0158832815
 21
4.6861206712
  0
LINE
  5
2A9
100
AcDbEntity
  8
0
100
AcDbLine
 62
6
  6
CONTINUOUS
 10
5.0132868556
 20
4.6874855555
 11
5.0146073488
 21
4.686784468
  0
LINE
  5
2AA
100
AcDbEntity
  8
0
100
AcDbLine
 62
6
  6
CONTINUOUS
 10
5.0120003191
 20
4.6881826374
 11
5.0133257881
 21
4.6874646777
  0
LINE
  5
2AB
100
AcDbEntity
  8
0
100
AcDbLine
 62
6
  6
CONTINUOUS
 10
5.010708117
 20
4.6888969511
 11
5.012038502
 21
4.6881617473
  0
LINE
  5
2AC
100
AcDbEntity
  8
0
100
AcDbLine
 62
6
  6
CONTINUOUS
 10
5.0094101801
 20
4.6896289634
 11
5.0107454067
 21
4.6888761367
  0
LINE
  5
2AD
100
AcDbEntity
  8
0
100
AcDbLine
 62
6
  6
CONTINUOUS
 10
6.2733726129
 20
4.9333432371
 11
6.2733726129
 21
4.5928760521
  0
LWPOLYLINE
  5
2AE
100
AcDbEntity
  8
0
100
AcDbPolyline
 62
6
  6
CONTINUOUS
 90
5
 70
0
 10
6.9080935188
 20
4.7419190402
 10
6.9188749939
 20
4.7582789515
 10
6.9290684611
 20
4.7775911117
 10
6.9374626621
 20
4.7982861486
 10
6.9434233035
 20
4.8182884065
  0
LINE
  5
2AF
100
AcDbEntity
  8
0
100
AcDbLine
 62
6
  6
CONTINUOUS
 10
6.8094843599
 20
4.6726930809
 11
6.8108132222
 21
4.6730674761
  0
LINE
  5
2B0
100
AcDbEntity
  8
0
100
AcDbLine
 62
6
  6
CONTINUOUS
 10
6.8086080716
 20
4.6724520407
 11
6.8099311986
 21
4.6728177783
  0
LINE
  5
2B1
100
AcDbEntity
  8
0
100
AcDbLine
 62
6
  6
CONTINUOUS
 10
6.8077410589
 20
4.6722180981
 11
6.8090593266
 21
4.6725755888
  0
LINE
  5
2B2
100
AcDbEntity
  8
0
100
AcDbLine
 62
6
  6
CONTINUOUS
 10
6.8068825967
 20
4.6719908967
 11
6.8081968815
 21
4.6723405285
  0
LINE
  5
2B3
100
AcDbEntity
  8
0
100
AcDbLine
 62
6
  6
CONTINUOUS
 10
6.8060319544
 20
4.6717700965
 11
6.8073431329
 21
4.6721122353
  0
LINE
  5
2B4
100
AcDbEntity
  8
0
100
AcDbLine
 62
6
  6
CONTINUOUS
 10
6.8051883956
 20
4.6715553739
 11
6.8064973437
 21
4.671890364
  0
LINE
  5
2B5
100
AcDbEntity
  8
0
100
AcDbLine
 62
6
  6
CONTINUOUS
 10
5.0530685137
 20
4.6719370607
 11
5.0540339323
 21
4.671687978
  0
LINE
  5
2B6
100
AcDbEntity
  8
0
100
AcDbLine
 62
6
  6
CONTINUOUS
 10
5.0521439699
 20
4.6721807975
 11
5.0531185715
 21
4.6719240094
  0
LINE
  5
2B7
100
AcDbEntity
  8
0
100
AcDbLine
 62
6
  6
CONTINUOUS
 10
5.0512082309
 20
4.6724326924
 11
5.0521924064
 21
4.6721679015
  0
LINE
  5
2B8
100
AcDbEntity
  8
0
100
AcDbLine
 62
6
  6
CONTINUOUS
 10
5.0502607484
 20
4.6726931135
 11
5.0512548857
 21
4.6724200088
  0
LINE
  5
2B9
100
AcDbEntity
  8
0
100
AcDbLine
 62
6
  6
CONTINUOUS
 10
5.0493009806
 20
4.6729624448
 11
5.0503054646
 21
4.6726807012
  0
LINE
  5
2BA
100
AcDbEntity
  8
0
100
AcDbLine
 62
6
  6
CONTINUOUS
 10
5.0483283932
 20
4.6732410863
 11
5.0493436051
 21
4.6729503648
  0
LINE
  5
2BB
100
AcDbEntity
  8
0
100
AcDbLine
 62
6
  6
CONTINUOUS
 10
5.0473424594
 20
4.6735294554
 11
5.0483687764
 21
4.6732294019
  0
LINE
  5
2BC
100
AcDbEntity
  8
0
100
AcDbLine
 62
6
  6
CONTINUOUS
 10
5.0411198352
 20
4.675488982
 11
5.0421956413
 21
4.6751327543
  0
LINE
  5
2BD
100
AcDbEntity
  8
0
100
AcDbLine
 62
6
  6
CONTINUOUS
 10
6.4573726129
 20
5.7590307097
 11
6.4573726129
 21
5.6831260521
  0
LINE
  5
2BE
100
AcDbEntity
  8
0
100
AcDbLine
 62
6
  6
CONTINUOUS
 10
6.4873726129
 20
5.0028760521
 11
6.4873726129
 21
5.1534267271
  0
LINE
  5
2BF
100
AcDbEntity
  8
0
100
AcDbLine
 62
6
  6
CONTINUOUS
 10
6.4873726129
 20
5.4602326141
 11
6.4873726129
 21
5.5718760521
  0
LINE
  5
2C0
100
AcDbEntity
  8
0
100
AcDbLine
 62
6
  6
CONTINUOUS
 10
6.8043511786
 20
4.6713464208
 11
6.8056587716
 21
4.6716745856
  0
LINE
  5
2C1
100
AcDbEntity
  8
0
100
AcDbLine
 62
6
  6
CONTINUOUS
 10
6.803519557
 20
4.6711429449
 11
6.8048266688
 21
4.671464587
  0
LINE
  5
2C2
100
AcDbEntity
  8
0
100
AcDbLine
 62
6
  6
CONTINUOUS
 10
6.802692949
 20
4.6709447094
 11
6.8040002824
 21
4.6712600707
  0
LINE
  5
2C3
100
AcDbEntity
  8
0
100
AcDbLine
 62
6
  6
CONTINUOUS
 10
6.8018713764
 20
4.6707516305
 11
6.8031788925
 21
4.6710607636
  0
LINE
  5
2C4
100
AcDbEntity
  8
0
100
AcDbLine
 62
6
  6
CONTINUOUS
 10
6.8010549953
 20
4.6705636562
 11
6.8023622793
 21
4.6708665258
  0
LINE
  5
2C5
100
AcDbEntity
  8
0
100
AcDbLine
 62
6
  6
CONTINUOUS
 10
6.8002439617
 20
4.6703807326
 11
6.8015505806
 21
4.6706773053
  0
LINE
  5
2C6
100
AcDbEntity
  8
0
100
AcDbLine
 62
6
  6
CONTINUOUS
 10
6.7994384307
 20
4.6702028045
 11
6.8007439416
 21
4.6704930507
  0
LINE
  5
2C7
100
AcDbEntity
  8
0
100
AcDbLine
 62
6
  6
CONTINUOUS
 10
6.798355827
 20
4.6699695456
 11
6.799942507
 21
4.670313709
  0
LINE
  5
2C8
100
AcDbEntity
  8
0
100
AcDbLine
 62
6
  6
CONTINUOUS
 10
6.7970563982
 20
4.6696984166
 11
6.7986385571
 21
4.670029815
  0
LINE
  5
2C9
100
AcDbEntity
  8
0
100
AcDbLine
 62
6
  6
CONTINUOUS
 10
6.7960184276
 20
4.6694887431
 11
6.7975708685
 21
4.6698046109
  0
LINE
  5
2CA
100
AcDbEntity
  8
0
100
AcDbLine
 62
6
  6
CONTINUOUS
 10
6.7947294288
 20
4.6692368515
 11
6.7962744198
 21
4.6695398866
  0
LINE
  5
2CB
100
AcDbEntity
  8
0
100
AcDbLine
 62
6
  6
CONTINUOUS
 10
6.7937355824
 20
4.6690490318
 11
6.7952512292
 21
4.6693376894
  0
LINE
  5
2CC
100
AcDbEntity
  8
0
100
AcDbLine
 62
6
  6
CONTINUOUS
 10
6.7924616339
 20
4.6688163834
 11
6.7939667203
 21
4.6690922173
  0
LINE
  5
2CD
100
AcDbEntity
  8
0
100
AcDbLine
 62
6
  6
CONTINUOUS
 10
6.791511094
 20
4.6686487051
 11
6.7929874153
 21
4.6689113003
  0
LINE
  5
2CE
100
AcDbEntity
  8
0
100
AcDbLine
 62
6
  6
CONTINUOUS
 10
6.7902570902
 20
4.6684351888
 11
6.7917195576
 21
4.6686850475
  0
LINE
  5
2CF
100
AcDbEntity
  8
0
100
AcDbLine
 62
6
  6
CONTINUOUS
 10
6.7893487374
 20
4.668285973
 11
6.7907832189
 21
4.6685237078
  0
LINE
  5
2D0
100
AcDbEntity
  8
0
100
AcDbLine
 62
6
  6
CONTINUOUS
 10
6.7881203653
 20
4.6680914393
 11
6.7895370018
 21
4.6683165242
  0
LINE
  5
2D1
100
AcDbEntity
  8
0
100
AcDbLine
 62
6
  6
CONTINUOUS
 10
6.7872538607
 20
4.6679592129
 11
6.7886425102
 21
4.6681731128
  0
LINE
  5
2D2
100
AcDbEntity
  8
0
100
AcDbLine
 62
6
  6
CONTINUOUS
 10
6.7860596885
 20
4.6677837398
 11
6.7874245386
 21
4.6679849315
  0
LINE
  5
2D3
100
AcDbEntity
  8
0
100
AcDbLine
 62
6
  6
CONTINUOUS
 10
6.7852363042
 20
4.6676672975
 11
6.7865722256
 21
4.6678580952
  0
LINE
  5
2D4
100
AcDbEntity
  8
0
100
AcDbLine
 62
6
  6
CONTINUOUS
 10
6.7839394778
 20
4.6674914031
 11
6.7853913933
 21
4.6676889469
  0
LINE
  5
2D5
100
AcDbEntity
  8
0
100
AcDbLine
 62
6
  6
CONTINUOUS
 10
6.7826840386
 20
4.6673298371
 11
6.7840848858
 21
4.6675106695
  0
LINE
  5
2D6
100
AcDbEntity
  8
0
100
AcDbLine
 62
6
  6
CONTINUOUS
 10
6.7814682218
 20
4.6671815148
 11
6.7828199745
 21
4.6673469181
  0
LINE
  5
2D7
100
AcDbEntity
  8
0
100
AcDbLine
 62
6
  6
CONTINUOUS
 10
6.7802890623
 20
4.6670452956
 11
6.7815947519
 21
4.6671965779
  0
LINE
  5
2D8
100
AcDbEntity
  8
0
100
AcDbLine
 62
6
  6
CONTINUOUS
 10
6.7791435864
 20
4.6669201416
 11
6.7804063017
 21
4.6670585036
  0
LINE
  5
2D9
100
AcDbEntity
  8
0
100
AcDbLine
 62
6
  6
CONTINUOUS
 10
6.7780288345
 20
4.6668051133
 11
6.7792516991
 21
4.6669316524
  0
LINE
  5
2DA
100
AcDbEntity
  8
0
100
AcDbLine
 62
6
  6
CONTINUOUS
 10
6.7769420074
 20
4.6666993763
 11
6.7781280311
 21
4.666815079
  0
LINE
  5
2DB
100
AcDbEntity
  8
0
100
AcDbLine
 62
6
  6
CONTINUOUS
 10
6.2063726129
 20
4.5628760521
 11
5.6533726129
 21
4.5628760521
  0
LINE
  5
2DC
100
AcDbEntity
  8
0
100
AcDbLine
 62
6
  6
CONTINUOUS
 10
5.0818593392
 20
4.6667908449
 11
5.083156408
 21
4.666666374
  0
LINE
  5
2DD
100
AcDbEntity
  8
0
100
AcDbLine
 62
6
  6
CONTINUOUS
 10
5.0805332729
 20
4.6669274133
 11
5.0818593392
 21
4.6667908449
  0
LINE
  5
2DE
100
AcDbEntity
  8
0
100
AcDbLine
 62
6
  6
CONTINUOUS
 10
5.0791832696
 20
4.6670761539
 11
5.0805153149
 21
4.6669293275
  0
LINE
  5
2DF
100
AcDbEntity
  8
0
100
AcDbLine
 62
6
  6
CONTINUOUS
 10
5.0778116267
 20
4.667237343
 11
5.0791832696
 21
4.6670761539
  0
LINE
  5
2E0
100
AcDbEntity
  8
0
100
AcDbLine
 62
6
  6
CONTINUOUS
 10
5.0764174969
 20
4.6674116063
 11
5.0778116267
 21
4.667237343
  0
LINE
  5
2E1
100
AcDbEntity
  8
0
100
AcDbLine
 62
6
  6
CONTINUOUS
 10
5.0749998931
 20
4.6675996267
 11
5.0764174969
 21
4.6674116063
  0
LINE
  5
2E2
100
AcDbEntity
  8
0
100
AcDbLine
 62
6
  6
CONTINUOUS
 10
5.0735578103
 20
4.667802135
 11
5.0749998931
 21
4.6675996267
  0
LINE
  5
2E3
100
AcDbEntity
  8
0
100
AcDbLine
 62
6
  6
CONTINUOUS
 10
5.0720491539
 20
4.6680261774
 11
5.0735578103
 21
4.667802135
  0
LINE
  5
2E4
100
AcDbEntity
  8
0
100
AcDbLine
 62
6
  6
CONTINUOUS
 10
5.070551412
 20
4.6682609793
 11
5.0720902472
 21
4.6680199093
  0
LINE
  5
2E5
100
AcDbEntity
  8
0
100
AcDbLine
 62
6
  6
CONTINUOUS
 10
5.069026574
 20
4.6685127619
 11
5.0705962173
 21
4.6682537756
  0
LINE
  5
2E6
100
AcDbEntity
  8
0
100
AcDbLine
 62
6
  6
CONTINUOUS
 10
5.067524936
 20
4.6687733321
 11
5.0690747538
 21
4.6685046092
  0
LINE
  5
2E7
100
AcDbEntity
  8
0
100
AcDbLine
 62
6
  6
CONTINUOUS
 10
5.0666868265
 20
4.6689242332
 11
5.0682537361
 21
4.6686452998
  0
LINE
  5
2E8
100
AcDbEntity
  8
0
100
AcDbLine
 62
6
  6
CONTINUOUS
 10
5.0651456091
 20
4.6692120037
 11
5.0667391742
 21
4.668914693
  0
LINE
  5
2E9
100
AcDbEntity
  8
0
100
AcDbLine
 62
6
  6
CONTINUOUS
 10
5.0643376757
 20
4.6693681975
 11
5.0658926296
 21
4.669070857
  0
LINE
  5
2EA
100
AcDbEntity
  8
0
100
AcDbLine
 62
6
  6
CONTINUOUS
 10
5.0635222236
 20
4.6695295843
 11
5.0650911898
 21
4.6692224087
  0
LINE
  5
2EB
100
AcDbEntity
  8
0
100
AcDbLine
 62
6
  6
CONTINUOUS
 10
5.0626991911
 20
4.6696962929
 11
5.0642824474
 21
4.6693790091
  0
LINE
  5
2EC
100
AcDbEntity
  8
0
100
AcDbLine
 62
6
  6
CONTINUOUS
 10
5.0618685181
 20
4.6698684553
 11
5.0634663439
 21
4.6695407813
  0
LINE
  5
2ED
100
AcDbEntity
  8
0
100
AcDbLine
 62
6
  6
CONTINUOUS
 10
5.0610301461
 20
4.670046206
 11
5.0626428223
 21
4.6697078515
  0
LINE
  5
2EE
100
AcDbEntity
  8
0
100
AcDbLine
 62
6
  6
CONTINUOUS
 10
5.0601840182
 20
4.6702296827
 11
5.0618118272
 21
4.6698803482
  0
LINE
  5
2EF
100
AcDbEntity
  8
0
100
AcDbLine
 62
6
  6
CONTINUOUS
 10
5.0593300795
 20
4.670419026
 11
5.0609733046
 21
4.670058403
  0
LINE
  5
2F0
100
AcDbEntity
  8
0
100
AcDbLine
 62
6
  6
CONTINUOUS
 10
5.05927347
 20
4.6704317265
 11
5.0601272023
 21
4.6702421501
  0
LINE
  5
2F1
100
AcDbEntity
  8
0
100
AcDbLine
 62
6
  6
CONTINUOUS
 10
5.0584120589
 20
4.6706272721
 11
5.0593300795
 21
4.670419026
  0
LINE
  5
2F2
100
AcDbEntity
  8
0
100
AcDbLine
 62
6
  6
CONTINUOUS
 10
5.0575429226
 20
4.6708289296
 11
5.0584682769
 21
4.6706143793
  0
LINE
  5
2F3
100
AcDbEntity
  8
0
100
AcDbLine
 62
6
  6
CONTINUOUS
 10
5.0566659192
 20
4.6710368679
 11
5.0575985593
 21
4.6708158892
  0
LINE
  5
2F4
100
AcDbEntity
  8
0
100
AcDbLine
 62
6
  6
CONTINUOUS
 10
5.0557805508
 20
4.6712513487
 11
5.0567207886
 21
4.6710237267
  0
LINE
  5
2F5
100
AcDbEntity
  8
0
100
AcDbLine
 62
6
  6
CONTINUOUS
 10
5.0548862406
 20
4.6714726665
 11
5.0558344752
 21
4.6712381541
  0
LINE
  5
2F6
100
AcDbEntity
  8
0
100
AcDbLine
 62
6
  6
CONTINUOUS
 10
5.053982417
 20
4.6717011295
 11
5.0549390459
 21
4.6714594678
  0
LINE
  5
2F7
100
AcDbEntity
  8
0
100
AcDbLine
 62
6
  6
CONTINUOUS
 10
5.4516521091
 20
5.1943332049
 11
5.4563693958
 21
5.19013423
  0
LINE
  5
2F8
100
AcDbEntity
  8
0
100
AcDbLine
 62
9
  6
CONTINUOUS
 10
5.4563044149
 20
5.1901954275
 11
5.4563688457
 21
5.1901349092
  0
LINE
  5
2F9
100
AcDbEntity
  8
0
100
AcDbLine
 62
6
  6
CONTINUOUS
 10
6.5139312857
 20
3.7813196654
 11
6.6773726129
 21
2.8178760521
  0
LINE
  5
2FA
100
AcDbEntity
  8
0
100
AcDbLine
 62
6
  6
CONTINUOUS
 10
6.5451446024
 20
4.9456992473
 11
6.548066846
 21
4.9136042523
  0
LINE
  5
2FB
100
AcDbEntity
  8
0
100
AcDbLine
 62
6
  6
CONTINUOUS
 10
6.5480599083
 20
4.9137031924
 11
6.5504478304
 21
4.8796483126
  0
LINE
  5
2FC
100
AcDbEntity
  8
0
100
AcDbLine
 62
6
  6
CONTINUOUS
 10
6.7758820507
 20
4.6666023318
 11
6.7770325831
 21
4.6667079471
  0
LINE
  5
2FD
100
AcDbEntity
  8
0
100
AcDbLine
 62
6
  6
CONTINUOUS
 10
5.1121770283
 20
4.6664621618
 11
5.1129675576
 21
4.6665300614
  0
LINE
  5
2FE
100
AcDbEntity
  8
0
100
AcDbLine
 62
6
  6
CONTINUOUS
 10
6.7748483025
 20
4.6665134504
 11
6.7759642504
 21
4.6666096433
  0
LINE
  5
2FF
100
AcDbEntity
  8
0
100
AcDbLine
 62
6
  6
CONTINUOUS
 10
5.1113868922
 20
4.666397972
 11
5.1121648817
 21
4.6664611472
  0
LINE
  5
300
100
AcDbEntity
  8
0
100
AcDbLine
 62
6
  6
CONTINUOUS
 10
6.7738397979
 20
4.6664322044
 11
6.774922202
 21
4.6665196158
  0
LINE
  5
301
100
AcDbEntity
  8
0
100
AcDbLine
 62
6
  6
CONTINUOUS
 10
5.1106332959
 20
4.6663401777
 11
5.1113986158
 21
4.6663988975
  0
LINE
  5
302
100
AcDbEntity
  8
0
100
AcDbLine
 62
6
  6
CONTINUOUS
 10
6.7728556119
 20
4.6663580965
 11
6.7739053336
 21
4.6664373205
  0
LINE
  5
303
100
AcDbEntity
  8
0
100
AcDbLine
 62
6
  6
CONTINUOUS
 10
6.7718941321
 20
4.6662906024
 11
6.7729126327
 21
4.666362251
  0
LINE
  5
304
100
AcDbEntity
  8
0
100
AcDbLine
 62
6
  6
CONTINUOUS
 10
5.1091375533
 20
4.6662353918
 11
5.1106220825
 21
4.666339343
  0
LINE
  5
305
100
AcDbEntity
  8
0
100
AcDbLine
 62
6
  6
CONTINUOUS
 10
6.7709863679
 20
4.6662312661
 11
6.7719422438
 21
4.6662938654
  0
LINE
  5
306
100
AcDbEntity
  8
0
100
AcDbLine
 62
6
  6
CONTINUOUS
 10
5.1077308593
 20
4.6661489099
 11
5.1091474774
 21
4.6662360435
  0
LINE
  5
307
100
AcDbEntity
  8
0
100
AcDbLine
 62
6
  6
CONTINUOUS
 10
6.7699183242
 20
4.6661666759
 11
6.7710264669
 21
4.6662337987
  0
LINE
  5
308
100
AcDbEntity
  8
0
100
AcDbLine
 62
9
  6
CONTINUOUS
 10
6.7696700532
 20
4.6661524067
 11
6.7696498009
 21
4.6661512238
  0
LINE
  5
309
100
AcDbEntity
  8
0
100
AcDbLine
 62
6
  6
CONTINUOUS
 10
6.7696174993
 20
4.6661493477
 11
6.7698968632
 21
4.6661654307
  0
LINE
  5
30A
100
AcDbEntity
  8
0
100
AcDbLine
 62
6
  6
CONTINUOUS
 10
5.1063883658
 20
4.6660773087
 11
5.1077225692
 21
4.666148435
  0
LINE
  5
30B
100
AcDbEntity
  8
0
100
AcDbLine
 62
6
  6
CONTINUOUS
 10
5.1051100119
 20
4.6660190815
 11
5.106381609
 21
4.6660769754
  0
LINE
  5
30C
100
AcDbEntity
  8
0
100
AcDbLine
 62
6
  6
CONTINUOUS
 10
5.1038804748
 20
4.665972269
 11
5.1051045206
 21
4.6660188524
  0
LINE
  5
30D
100
AcDbEntity
  8
0
100
AcDbLine
 62
6
  6
CONTINUOUS
 10
5.1027092047
 20
4.6659360928
 11
5.1038804748
 21
4.665972269
  0
LWPOLYLINE
  5
30E
100
AcDbEntity
  8
0
100
AcDbPolyline
 62
6
  6
CONTINUOUS
 90
4
 70
0
 10
6.7630801295
 20
4.6658934164
 10
6.7653009772
 20
4.6659500455
 10
6.7678175997
 20
4.666053304
 10
6.7696700532
 20
4.6661524067
  0
LINE
  5
30F
100
AcDbEntity
  8
0
100
AcDbLine
 62
6
  6
CONTINUOUS
 10
5.1015768189
 20
4.6659089767
 11
5.1027058221
 21
4.6659360003
  0
LINE
  5
310
100
AcDbEntity
  8
0
100
AcDbLine
 62
6
  6
CONTINUOUS
 10
5.1004986848
 20
4.6658904239
 11
5.1015768189
 21
4.6659089767
  0
LINE
  5
311
100
AcDbEntity
  8
0
100
AcDbLine
 62
6
  6
CONTINUOUS
 10
6.76119779
 20
4.6658764739
 11
6.7630784684
 21
4.665893401
  0
LINE
  5
312
100
AcDbEntity
  8
0
100
AcDbLine
 62
6
  6
CONTINUOUS
 10
5.0994966048
 20
4.6658797156
 11
5.1004986848
 21
4.6658904239
  0
LINE
  5
313
100
AcDbEntity
  8
0
100
AcDbLine
 62
6
  6
CONTINUOUS
 10
5.0986276091
 20
4.6658760622
 11
5.0994966048
 21
4.6658797156
  0
LINE
  5
314
100
AcDbEntity
  8
0
100
AcDbLine
 62
6
  6
CONTINUOUS
 10
6.7612006598
 20
4.6658760614
 11
6.761158734
 21
4.6658760521
  0
LINE
  5
315
100
AcDbEntity
  8
0
100
AcDbLine
 62
9
  6
CONTINUOUS
 10
5.0986262606
 20
4.6658760619
 11
5.0985864918
 21
4.6658760521
  0
LINE
  5
316
100
AcDbEntity
  8
0
100
AcDbLine
 62
6
  6
CONTINUOUS
 10
6.2733726129
 20
4.5928760521
 11
5.5863726129
 21
4.5928760521
  0
LINE
  5
317
100
AcDbEntity
  8
0
100
AcDbLine
 62
6
  6
CONTINUOUS
 10
5.0985445661
 20
4.6658760614
 11
5.0985864918
 21
4.6658760521
  0
LINE
  5
318
100
AcDbEntity
  8
0
100
AcDbLine
 62
9
  6
CONTINUOUS
 10
6.7611189652
 20
4.6658760619
 11
6.761158734
 21
4.6658760521
  0
LINE
  5
319
100
AcDbEntity
  8
0
100
AcDbLine
 62
6
  6
CONTINUOUS
 10
6.7602487318
 20
4.6658797146
 11
6.7611176167
 21
4.6658760622
  0
LINE
  5
31A
100
AcDbEntity
  8
0
100
AcDbLine
 62
6
  6
CONTINUOUS
 10
5.0966667574
 20
4.665893401
 11
5.0985444343
 21
4.6658760614
  0
LINE
  5
31B
100
AcDbEntity
  8
0
100
AcDbLine
 62
9
  6
CONTINUOUS
 10
5.0985511895
 20
4.6658764349
 11
5.0985864918
 21
4.6658760521
  0
LINE
  5
31C
100
AcDbEntity
  8
0
100
AcDbLine
 62
6
  6
CONTINUOUS
 10
6.759246541
 20
4.6658904239
 11
6.7602487318
 21
4.6658797146
  0
LINE
  5
31D
100
AcDbEntity
  8
0
100
AcDbLine
 62
6
  6
CONTINUOUS
 10
6.7581684069
 20
4.6659089767
 11
6.759246541
 21
4.6658904239
  0
LINE
  5
31E
100
AcDbEntity
  8
0
100
AcDbLine
 62
6
  6
CONTINUOUS
 10
5.0944524817
 20
4.6659498355
 11
5.0966683887
 21
4.6658933595
  0
LINE
  5
31F
100
AcDbEntity
  8
0
100
AcDbLine
 62
6
  6
CONTINUOUS
 10
6.7570394037
 20
4.6659360003
 11
6.7581684069
 21
4.6659089767
  0
LINE
  5
320
100
AcDbEntity
  8
0
100
AcDbLine
 62
6
  6
CONTINUOUS
 10
6.755864751
 20
4.665972269
 11
6.7570394037
 21
4.6659360003
  0
LINE
  5
321
100
AcDbEntity
  8
0
100
AcDbLine
 62
6
  6
CONTINUOUS
 10
6.7546407052
 20
4.6660188524
 11
6.755864751
 21
4.665972269
  0
LINE
  5
322
100
AcDbEntity
  8
0
100
AcDbLine
 62
6
  6
CONTINUOUS
 10
5.0919687608
 20
4.6660513165
 11
5.0944607127
 21
4.6659494992
  0
LINE
  5
323
100
AcDbEntity
  8
0
100
AcDbLine
 62
6
  6
CONTINUOUS
 10
6.7533636168
 20
4.6660769754
 11
6.7546407052
 21
4.6660188524
  0
LINE
  5
324
100
AcDbEntity
  8
0
100
AcDbLine
 62
6
  6
CONTINUOUS
 10
6.7520226566
 20
4.666148435
 11
6.7533636168
 21
4.6660769754
  0
LINE
  5
325
100
AcDbEntity
  8
0
100
AcDbLine
 62
9
  6
CONTINUOUS
 10
5.0900751726
 20
4.6661524067
 11
5.0901003906
 21
4.6661509342
  0
LINE
  5
326
100
AcDbEntity
  8
0
100
AcDbLine
 62
6
  6
CONTINUOUS
 10
5.0894528628
 20
4.6661886888
 11
5.0919444946
 21
4.6660526118
  0
LINE
  5
327
100
AcDbEntity
  8
0
100
AcDbLine
 62
6
  6
CONTINUOUS
 10
5.0885024292
 20
4.6662476017
 11
5.0898383878
 21
4.6661660092
  0
LINE
  5
328
100
AcDbEntity
  8
0
100
AcDbLine
 62
6
  6
CONTINUOUS
 10
6.7506076725
 20
4.6662353918
 11
6.7520226566
 21
4.666148435
  0
LINE
  5
329
100
AcDbEntity
  8
0
100
AcDbLine
 62
6
  6
CONTINUOUS
 10
5.0874074972
 20
4.666321143
 11
5.0885024292
 21
4.6662476017
  0
LINE
  5
32A
100
AcDbEntity
  8
0
100
AcDbLine
 62
6
  6
CONTINUOUS
 10
6.7491119299
 20
4.6663401777
 11
6.7498627776
 21
4.6662859252
  0
LINE
  5
32B
100
AcDbEntity
  8
0
100
AcDbLine
 62
6
  6
CONTINUOUS
 10
5.0862415476
 20
4.6664063213
 11
5.0874001189
 21
4.6663216596
  0
LINE
  5
32C
100
AcDbEntity
  8
0
100
AcDbLine
 62
6
  6
CONTINUOUS
 10
5.0850357582
 20
4.6665019459
 11
5.0862415476
 21
4.6664063213
  0
LWPOLYLINE
  5
32D
100
AcDbEntity
  8
0
100
AcDbPolyline
 62
6
  6
CONTINUOUS
 90
3
 70
0
 10
5.083147564
 20
4.6666671923
 10
5.083786199
 20
4.6666091776
 10
5.0850357582
 20
4.6665019459
  0
LINE
  5
32E
100
AcDbEntity
  8
0
100
AcDbLine
 62
6
  6
CONTINUOUS
 10
6.5359905605
 20
5.0135574352
 11
6.5413490001
 21
4.9782006299
  0
LINE
  5
32F
100
AcDbEntity
  8
0
100
AcDbLine
 62
6
  6
CONTINUOUS
 10
6.5504478304
 20
4.8796483126
 11
6.5504511507
 21
4.879622605
  0
LINE
  5
330
100
AcDbEntity
  8
0
100
AcDbLine
 62
6
  6
CONTINUOUS
 10
6.5413385245
 20
4.9782903319
 11
6.545163685
 21
4.9455098088
  0
LINE
  5
331
100
AcDbEntity
  8
0
100
AcDbLine
 62
6
  6
CONTINUOUS
 10
6.9434233221
 20
4.8182884812
 11
6.9480494495
 21
4.8415970077
  0
LWPOLYLINE
  5
332
100
AcDbEntity
  8
0
100
AcDbPolyline
 62
6
  6
CONTINUOUS
 90
38
 70
0
 10
5.1452103476
 20
4.6724319937
 10
5.1464196857
 20
4.6727737681
 10
5.1476559102
 20
4.6731323681
 10
5.1489235407
 20
4.6735098062
 10
5.1502270417
 20
4.673908243
 10
5.15157086
 20
4.6743300098
 10
5.1529620103
 20
4.6747784654
 10
5.1544114901
 20
4.6752586041
 10
5.1559288762
 20
4.675775408
 10
5.1575078291
 20
4.676328677
 10
5.1591331144
 20
4.6769148123
 10
5.1607895477
 20
4.6775296826
 10
5.1624621307
 20
4.6781686317
 10
5.1641399054
 20
4.6788279899
 10
5.1658218306
 20
4.6795076833
 10
5.1675083992
 20
4.6802082509
 10
5.1692000851
 20
4.6809302607
 10
5.1708973428
 20
4.6816743094
 10
5.1726006059
 20
4.6824410227
 10
5.174310286
 20
4.6832310556
 10
5.1760267723
 20
4.6840450919
 10
5.1777504295
 20
4.6848838452
 10
5.1794815973
 20
4.6857480583
 10
5.1812205888
 20
4.6866385041
 10
5.1829676896
 20
4.6875559852
 10
5.1847231559
 20
4.6885013345
 10
5.1864872135
 20
4.6894754154
 10
5.1882600564
 20
4.6904791219
 10
5.1900418448
 20
4.6915133791
 10
5.1918327042
 20
4.6925791431
 10
5.1936327232
 20
4.693677402
 10
5.195441952
 20
4.6948091756
 10
5.1972604005
 20
4.6959755158
 10
5.1990880366
 20
4.6971775074
 10
5.2009247795
 20
4.6984162646
 10
5.2027704632
 20
4.6996929075
 10
5.2046248895
 20
4.701008598
 10
5.2048988863
 20
4.7012058537
  0
LWPOLYLINE
  5
333
100
AcDbEntity
  8
0
100
AcDbPolyline
 62
6
  6
CONTINUOUS
 90
3
 70
0
 10
5.1428394127
 20
4.6717877141
 10
5.1440086763
 20
4.6721011945
 10
5.1451958032
 20
4.6724279375
  0
LINE
  5
334
100
AcDbEntity
  8
0
100
AcDbLine
 62
6
  6
CONTINUOUS
 10
5.1417009651
 20
4.6714904272
 11
5.1428541975
 21
4.6717916264
  0
LINE
  5
335
100
AcDbEntity
  8
0
100
AcDbLine
 62
6
  6
CONTINUOUS
 10
5.140548301
 20
4.6711973757
 11
5.1416860579
 21
4.6714865862
  0
LWPOLYLINE
  5
336
100
AcDbEntity
  8
0
100
AcDbPolyline
 62
6
  6
CONTINUOUS
 90
3
 70
0
 10
5.1383335965
 20
4.6706566717
 10
5.1394409564
 20
4.6709233559
 10
5.1405633141
 20
4.6712011413
  0
LWPOLYLINE
  5
337
100
AcDbEntity
  8
0
100
AcDbPolyline
 62
6
  6
CONTINUOUS
 90
6
 70
0
 10
5.1329956276
 20
4.6694735451
 10
5.1340326646
 20
4.6696901673
 10
5.1350831377
 20
4.6699160883
 10
5.1361473743
 20
4.6701516443
 10
5.1372256963
 20
4.6703971838
 10
5.1383184196
 20
4.6706530676
  0
LWPOLYLINE
  5
338
100
AcDbEntity
  8
0
100
AcDbPolyline
 62
6
  6
CONTINUOUS
 90
4
 70
0
 10
5.1299768434
 20
4.6688791194
 10
5.1309757572
 20
4.6690698647
 10
5.1319869989
 20
4.6692689557
 10
5.1330109517
 20
4.6694766998
  0
LWPOLYLINE
  5
339
100
AcDbEntity
  8
0
100
AcDbPolyline
 62
6
  6
CONTINUOUS
 90
3
 70
0
 10
5.1279992772
 20
4.6685188206
 10
5.1289746525
 20
4.6686936524
 10
5.1299615851
 20
4.6688762513
  0
LINE
  5
33A
100
AcDbEntity
  8
0
100
AcDbLine
 62
6
  6
CONTINUOUS
 10
5.1270501822
 20
4.668354066
 11
5.1280144485
 21
4.6685214972
  0
LWPOLYLINE
  5
33B
100
AcDbEntity
  8
0
100
AcDbPolyline
 62
6
  6
CONTINUOUS
 90
3
 70
0
 10
5.1251385207
 20
4.6680382706
 10
5.1260816121
 20
4.6681913839
 10
5.1270350635
 20
4.6683514844
  0
LINE
  5
33C
100
AcDbEntity
  8
0
100
AcDbLine
 62
6
  6
CONTINUOUS
 10
5.1242203248
 20
4.6678942106
 11
5.125153523
 21
4.6680406654
  0
LWPOLYLINE
  5
33D
100
AcDbEntity
  8
0
100
AcDbPolyline
 62
6
  6
CONTINUOUS
 90
6
 70
0
 10
5.1196787763
 20
4.6672543204
 10
5.1205656003
 20
4.667369777
 10
5.1214618711
 20
4.6674911446
 10
5.1223673405
 20
4.6676185365
 10
5.1232817925
 20
4.6677520676
 10
5.1242053836
 20
4.6678919073
  0
LINE
  5
33E
100
AcDbEntity
  8
0
100
AcDbLine
 62
6
  6
CONTINUOUS
 10
5.1188160063
 20
4.6671464173
 11
5.1196932851
 21
4.6672561722
  0
LWPOLYLINE
  5
33F
100
AcDbEntity
  8
0
100
AcDbPolyline
 62
6
  6
CONTINUOUS
 90
5
 70
0
 10
5.1153952584
 20
4.6667615438
 10
5.1162310197
 20
4.6668492416
 10
5.1170775134
 20
4.6669422424
 10
5.1179344769
 20
4.6670406733
 10
5.1188016503
 20
4.6671446588
  0
LINE
  5
340
100
AcDbEntity
  8
0
100
AcDbLine
 62
6
  6
CONTINUOUS
 10
5.1145836841
 20
4.6666803074
 11
5.115408737
 21
4.6667629256
  0
LWPOLYLINE
  5
341
100
AcDbEntity
  8
0
100
AcDbPolyline
 62
6
  6
CONTINUOUS
 90
3
 70
0
 10
5.1129550334
 20
4.666528957
 10
5.1137569958
 20
4.6666015351
 10
5.1145704945
 20
4.6666790191
  0
LINE
  5
342
100
AcDbEntity
  8
0
100
AcDbLine
 62
6
  6
CONTINUOUS
 10
5.5863726129
 20
4.9333432371
 11
5.3723726129
 21
5.0028760521
  0
LINE
  5
343
100
AcDbEntity
  8
0
100
AcDbLine
 62
6
  6
CONTINUOUS
 10
5.4023726129
 20
5.6831260521
 11
5.4179976129
 21
5.6675010521
  0
LINE
  5
344
100
AcDbEntity
  8
0
100
AcDbLine
 62
6
  6
CONTINUOUS
 10
6.5259470441
 20
5.0579750688
 11
6.5318731984
 21
5.0343819427
  0
LWPOLYLINE
  5
345
100
AcDbEntity
  8
0
100
AcDbPolyline
 62
6
  6
CONTINUOUS
 90
4
 70
0
 10
6.5504535404
 20
4.8796231727
 10
6.5557866816
 20
4.8570117937
 10
6.563105302
 20
4.8329740796
 10
6.5712197341
 20
4.811280354
  0
LINE
  5
346
100
AcDbEntity
  8
0
100
AcDbLine
 62
6
  6
CONTINUOUS
 10
6.5317954317
 20
5.0347233642
 11
6.5359901189
 21
5.0135599916
  0
LINE
  5
347
100
AcDbEntity
  8
0
100
AcDbLine
 62
9
  6
CONTINUOUS
 10
6.5359921846
 20
5.0135599337
 11
6.5359917424
 21
5.0135624934
  0
LINE
  5
348
100
AcDbEntity
  8
0
100
AcDbLine
 62
6
  6
CONTINUOUS
 10
6.9506343729
 20
4.8926053772
 11
6.9490109819
 21
4.947676281
  0
LINE
  5
349
100
AcDbEntity
  8
0
100
AcDbLine
 62
6
  6
CONTINUOUS
 10
6.9506343729
 20
4.8926053772
 11
6.9506339771
 21
4.8926230248
  0
LINE
  5
34A
100
AcDbEntity
  8
0
100
AcDbLine
 62
6
  6
CONTINUOUS
 10
6.9506248386
 20
4.8676671603
 11
6.9506858106
 21
4.8926219655
  0
LINE
  5
34B
100
AcDbEntity
  8
0
100
AcDbLine
 62
6
  6
CONTINUOUS
 10
6.9480494533
 20
4.8415970456
 11
6.9506248384
 21
4.867667078
  0
LINE
  5
34C
100
AcDbEntity
  8
0
100
AcDbLine
 62
6
  6
CONTINUOUS
 10
6.2733726129
 20
4.9333432371
 11
5.5863726129
 21
4.9333432371
  0
LINE
  5
34D
100
AcDbEntity
  8
0
100
AcDbLine
 62
6
  6
CONTINUOUS
 10
6.4873726129
 20
5.0028760521
 11
5.3723726129
 21
5.0028760521
  0
LINE
  5
34E
100
AcDbEntity
  8
0
100
AcDbLine
 62
9
  6
CONTINUOUS
 10
5.4257830405
 20
5.209994388
 11
5.4257800593
 21
5.209995509
  0
LWPOLYLINE
  5
34F
100
AcDbEntity
  8
0
100
AcDbPolyline
 62
6
  6
CONTINUOUS
 90
4
 70
0
 10
5.4257800593
 20
5.209995509
 10
5.4315646788
 20
5.2074982207
 10
5.4410229786
 20
5.2021718955
 10
5.4516521091
 20
5.1943332049
  0
LWPOLYLINE
  5
350
100
AcDbEntity
  8
0
100
AcDbPolyline
 62
6
  6
CONTINUOUS
 90
75
 70
0
 10
6.6548463395
 20
4.7012058537
 10
6.6551209487
 20
4.701008158
 10
6.6569759819
 20
4.6996920534
 10
6.6588222668
 20
4.6984150213
 10
6.6606596049
 20
4.6971758987
 10
6.6624878304
 20
4.6959735643
 10
6.6643068623
 20
4.6948069028
 10
6.6661166686
 20
4.6936748285
 10
6.6679172594
 20
4.6925762884
 10
6.6697086852
 20
4.6915102618
 10
6.6714910346
 20
4.6904757599
 10
6.6732644334
 20
4.6894718255
 10
6.6750290423
 20
4.6884975328
 10
6.6767850553
 20
4.6875519869
 10
6.6785326988
 20
4.6866343239
 10
6.6802722295
 20
4.6857437101
 10
6.6820039332
 20
4.6848793422
 10
6.6837281237
 20
4.6840404468
 10
6.6854451409
 20
4.6832262804
 10
6.6871553505
 20
4.6824361291
 10
6.6888591417
 20
4.6816693084
 10
6.6905569271
 20
4.6809251629
 10
6.6922491408
 20
4.6802030664
 10
6.6939362377
 20
4.679502422
 10
6.6956186926
 20
4.6788226613
 10
6.697296999
 20
4.6781632449
 10
6.6989700708
 20
4.6775242635
 10
6.7006268594
 20
4.6769094174
 10
6.702252343
 20
4.6763233653
 10
6.7038313151
 20
4.6757702398
 10
6.7053485306
 20
4.6752536367
 10
6.7067978274
 20
4.6747736923
 10
6.7081888654
 20
4.6743253991
 10
6.7095326426
 20
4.673903766
 10
6.710836125
 20
4.6735054511
 10
6.7121037603
 20
4.673128124
 10
6.7133400179
 20
4.6727696237
 10
6.7145494226
 20
4.6724279375
 10
6.7157365495
 20
4.6721011944
 10
6.7169058131
 20
4.6717877141
 10
6.718059168
 20
4.6714865862
 10
6.7191969248
 20
4.6711973757
 10
6.7203193723
 20
4.6709196694
 10
6.7214268062
 20
4.6706530676
 10
6.7225195295
 20
4.6703971838
 10
6.7235978515
 20
4.6701516443
 10
6.7246620882
 20
4.6699160883
 10
6.7257125612
 20
4.6696901673
 10
6.7267495982
 20
4.6694735451
 10
6.7277735394
 20
4.669265896
 10
6.7287847589
 20
4.6690669007
 10
6.7297836408
 20
4.6688762513
 10
6.7307705733
 20
4.6686936524
 10
6.7317459486
 20
4.6685188206
 10
6.7327101623
 20
4.6683514844
 10
6.7336636137
 20
4.6681913839
 10
6.7346067051
 20
4.6680382706
 10
6.7355398422
 20
4.6678919073
 10
6.7364634334
 20
4.6677520676
 10
6.7373778853
 20
4.6676185365
 10
6.7382833548
 20
4.6674911446
 10
6.7391796255
 20
4.667369777
 10
6.7400664495
 20
4.6672543204
 10
6.7409435755
 20
4.6671446588
 10
6.741810749
 20
4.6670406733
 10
6.7426677125
 20
4.6669422424
 10
6.7435142061
 20
4.6668492416
 10
6.7443499674
 20
4.6667615437
 10
6.7451747314
 20
4.6666790191
 10
6.74598823
 20
4.6666015351
 10
6.7467901924
 20
4.666528957
 10
6.7475803441
 20
4.6664611472
 10
6.7483583336
 20
4.666397972
 10
6.7491231433
 20
4.666339343
 10
6.7506076725
 20
4.6662353918
  0
LWPOLYLINE
  5
351
100
AcDbEntity
  8
0
100
AcDbPolyline
 62
6
  6
CONTINUOUS
 90
4
 70
0
 10
6.6172873358
 20
4.7357707219
 10
6.6286723144
 20
4.7234931847
 10
6.6421392666
 20
4.7111266449
 10
6.6548462932
 20
4.7012058873
  0
LWPOLYLINE
  5
352
100
AcDbEntity
  8
0
100
AcDbPolyline
 62
6
  6
CONTINUOUS
 90
4
 70
0
 10
6.6147135619
 20
4.7388237963
 10
6.6151211829
 20
4.7383327458
 10
6.6167749912
 20
4.7363695991
 10
6.6172873292
 20
4.7357707296
  0
LINE
  5
353
100
AcDbEntity
  8
0
100
AcDbLine
 62
9
  6
CONTINUOUS
 10
6.4901206982
 20
5.1485571021
 11
6.4901198315
 21
5.148558742
  0
LWPOLYLINE
  5
354
100
AcDbEntity
  8
0
100
AcDbPolyline
 62
6
  6
CONTINUOUS
 90
5
 70
0
 10
6.4901198315
 20
5.148558742
 10
6.5003601181
 20
5.1278183434
 10
6.5102252028
 20
5.1047449364
 10
6.5187890148
 20
5.081298773
 10
6.5260216365
 20
5.0577320173
  0
LWPOLYLINE
  5
355
100
AcDbEntity
  8
0
100
AcDbPolyline
 62
6
  6
CONTINUOUS
 90
5
 70
0
 10
6.5712197017
 20
4.8112804333
 10
6.5794854913
 20
4.7929866175
 10
6.5900949805
 20
4.77360387
 10
6.6022466751
 20
4.7550468443
 10
6.6147135881
 20
4.7388237648
  0
LINE
  5
356
100
AcDbEntity
  8
0
100
AcDbLine
 62
6
  6
CONTINUOUS
 10
6.949010983
 20
4.9476762433
 11
6.943437766
 21
5.0035671582
  0
LWPOLYLINE
  5
357
100
AcDbEntity
  8
0
100
AcDbPolyline
 62
6
  6
CONTINUOUS
 90
3
 70
0
 10
5.4183976892
 20
5.212142284
 10
5.4197325398
 20
5.2118854465
 10
5.4257830405
 20
5.209994388
  0
LINE
  5
358
100
AcDbEntity
  8
0
100
AcDbLine
 62
6
  6
CONTINUOUS
 10
6.4573726129
 20
5.6518760521
 11
6.4873726129
 21
5.5718760521
  0
LINE
  5
359
100
AcDbEntity
  8
0
100
AcDbLine
 62
6
  6
CONTINUOUS
 10
6.943437769
 20
5.0035671276
 11
6.9342363885
 21
5.0580963303
  0
LINE
  5
35A
100
AcDbEntity
  8
0
100
AcDbLine
 62
9
  6
CONTINUOUS
 10
6.2658881704
 20
5.3078760652
 11
6.3067681936
 21
5.3078760521
  0
LINE
  5
35B
100
AcDbEntity
  8
0
100
AcDbLine
 62
9
  6
CONTINUOUS
 10
5.5938495075
 20
5.3078760693
 11
5.5529770322
 21
5.3078760521
  0
LWPOLYLINE
  5
35C
100
AcDbEntity
  8
0
100
AcDbPolyline
 62
6
  6
CONTINUOUS
 90
11
 70
0
 10
6.4378055078
 20
5.2143013981
 10
6.4377004173
 20
5.2143416856
 10
6.4393436677
 20
5.2134711849
 10
6.4429028794
 20
5.2111122278
 10
6.4472712648
 20
5.207596454
 10
6.4523091537
 20
5.2028184647
 10
6.4585048059
 20
5.1960848301
 10
6.4653982537
 20
5.1876140796
 10
6.4729732675
 20
5.1771460313
 10
6.4814241865
 20
5.1639673772
 10
6.4901206982
 20
5.1485571021
  0
LINE
  5
35D
100
AcDbEntity
  8
0
100
AcDbLine
 62
6
  6
CONTINUOUS
 10
6.9062569847
 20
5.1617802354
 11
6.8880418745
 21
5.210468883
  0
LINE
  5
35E
100
AcDbEntity
  8
0
100
AcDbLine
 62
6
  6
CONTINUOUS
 10
6.9217447053
 20
5.1109099735
 11
6.9062569812
 21
5.1617802469
  0
LINE
  5
35F
100
AcDbEntity
  8
0
100
AcDbLine
 62
6
  6
CONTINUOUS
 10
6.9342363926
 20
5.0580963063
 11
6.9217447011
 21
5.1109099911
  0
LINE
  5
360
100
AcDbEntity
  8
0
100
AcDbLine
 62
9
  6
CONTINUOUS
 10
5.4555410584
 20
5.4658955058
 11
5.4539201716
 21
5.4658631289
  0
LINE
  5
361
100
AcDbEntity
  8
0
100
AcDbLine
 62
9
  6
CONTINUOUS
 10
5.466634867
 20
5.4663047865
 11
5.4653028292
 21
5.4662828085
  0
LINE
  5
362
100
AcDbEntity
  8
0
100
AcDbLine
 62
9
  6
CONTINUOUS
 10
6.3931103586
 20
5.4663047752
 11
6.39444044
 21
5.4662828436
  0
LINE
  5
363
100
AcDbEntity
  8
0
100
AcDbLine
 62
9
  6
CONTINUOUS
 10
6.4058250542
 20
5.4658631289
 11
6.4042041674
 21
5.4658955058
  0
LINE
  5
364
100
AcDbEntity
  8
0
100
AcDbLine
 62
6
  6
CONTINUOUS
 10
6.8548201743
 20
5.2804205697
 11
6.8376368739
 21
5.3079336807
  0
LINE
  5
365
100
AcDbEntity
  8
0
100
AcDbLine
 62
6
  6
CONTINUOUS
 10
6.8683144766
 20
5.254744987
 11
6.8547761327
 21
5.2804977205
  0
LINE
  5
366
100
AcDbEntity
  8
0
100
AcDbLine
 62
6
  6
CONTINUOUS
 10
6.8880418765
 20
5.2104688776
 11
6.8683140419
 21
5.2547458885
  0
LINE
  5
367
100
AcDbEntity
  8
0
100
AcDbLine
 62
6
  6
CONTINUOUS
 10
5.1940162518
 20
5.4327887464
 11
5.1699749762
 21
5.4261995199
  0
LINE
  5
368
100
AcDbEntity
  8
0
100
AcDbLine
 62
9
  6
CONTINUOUS
 10
5.194012461
 20
5.43278793
 11
5.1940162518
 21
5.4327887464
  0
LINE
  5
369
100
AcDbEntity
  8
0
100
AcDbLine
 62
6
  6
CONTINUOUS
 10
5.2797003457
 20
5.4487081856
 11
5.194012461
 21
5.43278793
  0
LINE
  5
36A
100
AcDbEntity
  8
0
100
AcDbLine
 62
6
  6
CONTINUOUS
 10
5.4675381028
 20
5.4665745334
 11
5.4653024843
 21
5.4662827968
  0
LWPOLYLINE
  5
36B
100
AcDbEntity
  8
0
100
AcDbPolyline
 62
6
  6
CONTINUOUS
 90
3
 70
0
 10
5.4539197783
 20
5.4658631132
 10
5.3670966185
 20
5.4598683282
 10
5.2797003457
 20
5.4487081856
  0
LWPOLYLINE
  5
36C
100
AcDbEntity
  8
0
100
AcDbPolyline
 62
6
  6
CONTINUOUS
 90
3
 70
0
 10
5.4652816762
 20
5.4662821144
 10
5.4635845013
 20
5.4662240795
 10
5.4539201716
 20
5.4658631289
  0
LINE
  5
36D
100
AcDbEntity
  8
0
100
AcDbLine
 62
9
  6
CONTINUOUS
 10
5.4653028292
 20
5.4662828085
 11
5.4652816519
 21
5.4662821008
  0
LINE
  5
36E
100
AcDbEntity
  8
0
100
AcDbLine
 62
6
  6
CONTINUOUS
 10
6.4873726129
 20
5.5718760521
 11
5.3723726129
 21
5.5718760521
  0
LINE
  5
36F
100
AcDbEntity
  8
0
100
AcDbLine
 62
9
  6
CONTINUOUS
 10
6.39444044
 20
5.4662828436
 11
6.3944635366
 21
5.4662820721
  0
LWPOLYLINE
  5
370
100
AcDbEntity
  8
0
100
AcDbPolyline
 62
6
  6
CONTINUOUS
 90
3
 70
0
 10
6.4058250542
 20
5.4658631289
 10
6.401570387
 20
5.4660281734
 10
6.3944635065
 20
5.4662821158
  0
LINE
  5
371
100
AcDbEntity
  8
0
100
AcDbLine
 62
6
  6
CONTINUOUS
 10
6.4926486074
 20
5.4598683282
 11
6.4058254475
 21
5.4658631132
  0
LINE
  5
372
100
AcDbEntity
  8
0
100
AcDbLine
 62
6
  6
CONTINUOUS
 10
6.3944404064
 20
5.4662828447
 11
6.3922264421
 21
5.4665703031
  0
LWPOLYLINE
  5
373
100
AcDbEntity
  8
0
100
AcDbPolyline
 62
6
  6
CONTINUOUS
 90
3
 70
0
 10
6.6657327648
 20
5.43278793
 10
6.5800448801
 20
5.4487081856
 10
6.4926486074
 20
5.4598683282
  0
LINE
  5
374
100
AcDbEntity
  8
0
100
AcDbLine
 62
9
  6
CONTINUOUS
 10
6.6657327648
 20
5.43278793
 11
6.6657289741
 21
5.4327887464
  0
LINE
  5
375
100
AcDbEntity
  8
0
100
AcDbLine
 62
6
  6
CONTINUOUS
 10
6.6897702496
 20
5.4261995199
 11
6.6657290075
 21
5.4327887392
  0
LWPOLYLINE
  5
376
100
AcDbEntity
  8
0
100
AcDbPolyline
 62
6
  6
CONTINUOUS
 90
3
 70
0
 10
6.3922264421
 20
5.4665703031
 10
6.3900710166
 20
5.467245081
 10
6.3892843117
 20
5.4676289933
  0
LINE
  5
377
100
AcDbEntity
  8
0
100
AcDbLine
 62
6
  6
CONTINUOUS
 10
6.7150351739
 20
5.4161804169
 11
6.6896030657
 21
5.4262551293
  0
LINE
  5
378
100
AcDbEntity
  8
0
100
AcDbLine
 62
6
  6
CONTINUOUS
 10
6.7398088275
 20
5.4030726103
 11
6.7147125234
 21
5.4163290339
  0
LINE
  5
379
100
AcDbEntity
  8
0
100
AcDbLine
 62
9
  6
CONTINUOUS
 10
6.3892842748
 20
5.4676289316
 11
6.3892748913
 21
5.4676344983
  0
LINE
  5
37A
100
AcDbEntity
  8
0
100
AcDbLine
 62
6
  6
CONTINUOUS
 10
6.7568074766
 20
5.3919921531
 11
6.7393454421
 21
5.4033497621
  0
LINE
  5
37B
100
AcDbEntity
  8
0
100
AcDbLine
 62
9
  6
CONTINUOUS
 10
6.756787801
 20
5.3920060485
 11
6.7568069967
 21
5.3919924921
  0
LINE
  5
37C
100
AcDbEntity
  8
0
100
AcDbLine
 62
6
  6
CONTINUOUS
 10
6.774954988
 20
5.3780445944
 11
6.756787801
 21
5.3920060485
  0
LINE
  5
37D
100
AcDbEntity
  8
0
100
AcDbLine
 62
6
  6
CONTINUOUS
 10
6.4417476129
 20
5.6675010521
 11
6.4573726129
 21
5.6518760521
  0
LINE
  5
37E
100
AcDbEntity
  8
0
100
AcDbLine
 62
6
  6
CONTINUOUS
 10
6.4423726129
 20
5.7740307097
 11
6.4573726129
 21
5.7590307097
  0
LWPOLYLINE
  5
37F
100
AcDbEntity
  8
0
100
AcDbPolyline
 62
6
  6
CONTINUOUS
 90
3
 70
0
 10
6.8183335097
 20
5.3338286933
 10
6.7971699167
 20
5.3575214531
 10
6.7747843319
 20
5.3781757433
  0
LINE
  5
380
100
AcDbEntity
  8
0
100
AcDbLine
 62
6
  6
CONTINUOUS
 10
6.8377334152
 20
5.3077920783
 11
6.8182526868
 21
5.3339191749
  0
LINE
  5
381
100
AcDbEntity
  8
0
100
AcDbLine
 62
6
  6
CONTINUOUS
 10
5.4023726129
 20
5.6518760521
 11
6.4573726129
 21
5.6518760521
  0
LINE
  5
382
100
AcDbEntity
  8
0
100
AcDbLine
 62
6
  6
CONTINUOUS
 10
5.4179976129
 20
5.6675010521
 11
6.4417476129
 21
5.6675010521
  0
LINE
  5
383
100
AcDbEntity
  8
0
100
AcDbLine
 62
6
  6
CONTINUOUS
 10
5.4023726129
 20
5.6831260521
 11
6.4573726129
 21
5.6831260521
  0
LINE
  5
384
100
AcDbEntity
  8
0
100
AcDbLine
 62
6
  6
CONTINUOUS
 10
5.4023726129
 20
5.7590307097
 11
6.4573726129
 21
5.7590307097
  0
LINE
  5
385
100
AcDbEntity
  8
0
100
AcDbLine
 62
6
  6
CONTINUOUS
 10
5.4173726129
 20
5.7740307097
 11
6.4423726129
 21
5.7740307097
  0
LINE
  5
386
100
AcDbEntity
  8
0
100
AcDbLine
 62
6
  6
CONTINUOUS
 10
5.4753726129
 20
5.7928760521
 11
6.3843726129
 21
5.7928760521
  0
LINE
  5
387
100
AcDbEntity
  8
0
100
AcDbLine
 62
9
  6
CONTINUOUS
 10
6.3250172695
 20
5.8216853454
 11
5.5347279564
 21
5.8216853454
  0
LINE
  5
388
100
AcDbEntity
  8
0
100
AcDbLine
 62
6
  6
CONTINUOUS
 10
6.4423726129
 20
5.7740307097
 11
6.3843726129
 21
5.7928760521
  0
ARC
  5
389
100
AcDbEntity
  8
0
100
AcDbCircle
 62
9
  6
CONTINUOUS
 10
5.5273649738
 20
3.6701120201
 40
1.7972192415
100
AcDbArc
 50
91.9795968401
 51
92.290373551
  0
ARC
  5
38A
100
AcDbEntity
  8
0
100
AcDbCircle
 62
9
  6
CONTINUOUS
 10
5.5468228144
 20
3.6853804398
 40
1.7755912663
100
AcDbArc
 50
91.7750497459
 51
92.2037105742
  0
ARC
  5
38B
100
AcDbEntity
  8
0
100
AcDbCircle
 62
6
  6
CONTINUOUS
 10
4.4842906682
 20
2.9683502189
 40
0.75
100
AcDbArc
 50
296.8780899777
 51
338.0396077086
  0
ARC
  5
38C
100
AcDbEntity
  8
0
100
AcDbCircle
 62
6
  6
CONTINUOUS
 10
5.5311657656
 20
3.7498760521
 40
0.188
100
AcDbArc
 50
90.0
 51
170.3718438715
  0
ARC
  5
38D
100
AcDbEntity
  8
0
100
AcDbCircle
 62
6
  6
CONTINUOUS
 10
4.8798726129
 20
2.1878760521
 40
0.125
100
AcDbArc
 50
116.8780899777
 51
270.0
  0
ARC
  5
38E
100
AcDbEntity
  8
0
100
AcDbCircle
 62
6
  6
CONTINUOUS
 10
5.1823726129
 20
2.7528760521
 40
0.065
100
AcDbArc
 50
90.0
 51
267.8004275869
  0
ARC
  5
38F
100
AcDbEntity
  8
0
100
AcDbCircle
 62
6
  6
CONTINUOUS
 10
5.199593322
 20
5.1345838181
 40
1.36
100
AcDbArc
 50
18.7559867836
 51
22.3561036556
  0
ARC
  5
390
100
AcDbEntity
  8
0
100
AcDbCircle
 62
9
  6
CONTINUOUS
 10
4.9662547046
 20
4.9107409846
 40
0.3092786662
100
AcDbArc
 50
341.5540697657
 51
355.0008347719
  0
ARC
  5
391
100
AcDbEntity
  8
0
100
AcDbCircle
 62
9
  6
CONTINUOUS
 10
5.2141957775
 20
4.866133213
 40
0.2572024307
100
AcDbArc
 50
208.7369575462
 51
209.5704153837
  0
ARC
  5
392
100
AcDbEntity
  8
0
100
AcDbCircle
 62
9
  6
CONTINUOUS
 10
5.0340682167
 20
4.8762497303
 40
0.2325143665
100
AcDbArc
 50
323.0229797467
 51
323.9554950668
  0
ARC
  5
393
100
AcDbEntity
  8
0
100
AcDbCircle
 62
9
  6
CONTINUOUS
 10
5.1357980055
 20
4.8598704404
 40
0.211538955
100
AcDbArc
 50
213.715744983
 51
214.7702743725
  0
ARC
  5
394
100
AcDbEntity
  8
0
100
AcDbCircle
 62
9
  6
CONTINUOUS
 10
5.1091494614
 20
4.8411740649
 40
0.1789847303
100
AcDbArc
 50
214.7188268662
 51
230.5731710703
  0
ARC
  5
395
100
AcDbEntity
  8
0
100
AcDbCircle
 62
9
  6
CONTINUOUS
 10
5.0996538005
 20
4.829946399
 40
0.1640738307
100
AcDbArc
 50
266.6619476907
 51
269.5042254276
  0
ARC
  5
396
100
AcDbEntity
  8
0
100
AcDbCircle
 62
6
  6
CONTINUOUS
 10
5.0986109978
 20
4.7620646086
 40
0.0961886412
100
AcDbArc
 50
264.9387768796
 51
269.7773042315
  0
ARC
  5
397
100
AcDbEntity
  8
0
100
AcDbCircle
 62
9
  6
CONTINUOUS
 10
5.2033635475
 20
5.3893683284
 40
0.0444151397
100
AcDbArc
 50
100.3834108269
 51
102.1489398557
  0
ARC
  5
398
100
AcDbEntity
  8
0
100
AcDbCircle
 62
9
  6
CONTINUOUS
 10
5.099032426
 20
4.6949564422
 40
0.0290838089
100
AcDbArc
 50
268.4547417435
 51
269.1214647483
  0
ARC
  5
399
100
AcDbEntity
  8
0
100
AcDbCircle
 62
7
  6
CONTINUOUS
 10
4.4528536112
 20
12.5356582471
 40
6.7955069614
100
AcDbArc
 50
280.1354865717
 51
280.3466097568
  0
ARC
  5
39A
100
AcDbEntity
  8
0
100
AcDbCircle
 62
7
  6
CONTINUOUS
 10
4.6052301397
 20
11.5835095251
 40
5.8312738414
100
AcDbArc
 50
280.1440778456
 51
280.2942078673
  0
ARC
  5
39B
100
AcDbEntity
  8
0
100
AcDbCircle
 62
7
  6
CONTINUOUS
 10
4.6375436104
 20
11.4989011945
 40
5.7424280086
100
AcDbArc
 50
279.9784947296
 51
280.1276712026
  0
ARC
  5
39C
100
AcDbEntity
  8
0
100
AcDbCircle
 62
9
  6
CONTINUOUS
 10
5.4672865824
 20
4.8941562646
 40
0.4564891783
100
AcDbArc
 50
199.4103039527
 51
199.8391772034
  0
ARC
  5
39D
100
AcDbEntity
  8
0
100
AcDbCircle
 62
9
  6
CONTINUOUS
 10
5.2420810898
 20
5.1949962619
 40
0.2411809495
100
AcDbArc
 50
125.2345590781
 51
126.9526076316
  0
ARC
  5
39E
100
AcDbEntity
  8
0
100
AcDbCircle
 62
9
  6
CONTINUOUS
 10
5.2411474057
 20
5.2607647976
 40
0.1770366071
100
AcDbArc
 50
102.1943084711
 51
105.2427934074
  0
ARC
  5
39F
100
AcDbEntity
  8
0
100
AcDbCircle
 62
9
  6
CONTINUOUS
 10
5.4599052603
 20
5.3004275739
 40
0.096658884
100
AcDbArc
 50
245.3305636804
 51
245.9394893559
  0
ARC
  5
3A0
100
AcDbEntity
  8
0
100
AcDbCircle
 62
9
  6
CONTINUOUS
 10
5.4590766937
 20
5.2985158494
 40
0.0945754542
100
AcDbArc
 50
245.9256551385
 51
249.3863753549
  0
ARC
  5
3A1
100
AcDbEntity
  8
0
100
AcDbCircle
 62
7
  6
CONTINUOUS
 10
5.4767753686
 20
6.6613749211
 40
0.833571047
100
AcDbArc
 50
279.5579080098
 51
279.947927441
  0
ARC
  5
3A2
100
AcDbEntity
  8
0
100
AcDbCircle
 62
9
  6
CONTINUOUS
 10
5.4649393946
 20
5.5163168835
 40
0.0500408281
100
AcDbArc
 50
271.9416546791
 51
276.5029686118
  0
ARC
  5
3A3
100
AcDbEntity
  8
0
100
AcDbCircle
 62
6
  6
CONTINUOUS
 10
5.5423726129
 20
5.7926757052
 40
0.03
100
AcDbArc
 50
104.7630312681
 51
179.6177286235
  0
ARC
  5
3A4
100
AcDbEntity
  8
0
100
AcDbCircle
 62
7
  6
CONTINUOUS
 10
5.8078518437
 20
4.5738565749
 40
1.2697230182
100
AcDbArc
 50
90.1547877809
 51
90.8245065396
  0
ARC
  5
3A5
100
AcDbEntity
  8
0
100
AcDbCircle
 62
7
  6
CONTINUOUS
 10
5.8078516042
 20
4.5738918463
 40
1.2696877463
100
AcDbArc
 50
89.4846894128
 51
90.1328555751
  0
ARC
  5
3A6
100
AcDbEntity
  8
0
100
AcDbCircle
 62
7
  6
CONTINUOUS
 10
5.8058179331
 20
4.5737263485
 40
1.2688587517
100
AcDbArc
 50
89.7731161097
 51
90.0412513144
  0
ARC
  5
3A7
100
AcDbEntity
  8
0
100
AcDbCircle
 62
7
  6
CONTINUOUS
 10
5.7980899368
 20
4.5730752946
 40
1.2655744426
100
AcDbArc
 50
89.7725273163
 51
90.0413583654
  0
ARC
  5
3A8
100
AcDbEntity
  8
0
100
AcDbCircle
 62
7
  6
CONTINUOUS
 10
5.7956495089
 20
4.5728578538
 40
1.2644975144
100
AcDbArc
 50
89.6688475878
 51
90.0413932216
  0
ARC
  5
3A9
100
AcDbEntity
  8
0
100
AcDbCircle
 62
7
  6
CONTINUOUS
 10
5.7858878293
 20
4.5719600155
 40
1.2599683456
100
AcDbArc
 50
89.6676571874
 51
90.0415420127
  0
ARC
  5
3AA
100
AcDbEntity
  8
0
100
AcDbCircle
 62
6
  6
CONTINUOUS
 10
5.8165447785
 20
4.8032322604
 40
0.7706786497
100
AcDbArc
 50
17.878269959
 51
22.2928424536
  0
ARC
  5
3AB
100
AcDbEntity
  8
0
100
AcDbCircle
 62
7
  6
CONTINUOUS
 10
5.8438127851
 20
5.1645392961
 40
0.7029411262
100
AcDbArc
 50
95.8330626187
 51
95.9587522779
  0
ARC
  5
3AC
100
AcDbEntity
  8
0
100
AcDbCircle
 62
7
  6
CONTINUOUS
 10
5.8386520949
 20
5.2099371603
 40
0.6572612147
100
AcDbArc
 50
95.9221244592
 51
96.044827758
  0
ARC
  5
3AD
100
AcDbEntity
  8
0
100
AcDbCircle
 62
7
  6
CONTINUOUS
 10
5.8317327404
 20
5.2765472226
 40
0.5912926264
100
AcDbArc
 50
95.9468312595
 51
96.1058989684
  0
ARC
  5
3AE
100
AcDbEntity
  8
0
100
AcDbCircle
 62
7
  6
CONTINUOUS
 10
5.8258338244
 20
5.3368125256
 40
0.5297322678
100
AcDbArc
 50
95.9590001029
 51
96.111188725
  0
ARC
  5
3AF
100
AcDbEntity
  8
0
100
AcDbCircle
 62
7
  6
CONTINUOUS
 10
5.8451998156
 20
5.3604292194
 40
0.5089962397
100
AcDbArc
 50
94.4249097502
 51
94.6083065092
  0
ARC
  5
3B0
100
AcDbEntity
  8
0
100
AcDbCircle
 62
7
  6
CONTINUOUS
 10
5.8425219704
 20
5.3869186235
 40
0.4813689795
100
AcDbArc
 50
94.4304307719
 51
94.5975196813
  0
ARC
  5
3B1
100
AcDbEntity
  8
0
100
AcDbCircle
 62
7
  6
CONTINUOUS
 10
5.8674993913
 20
4.3879043199
 40
1.4556752683
100
AcDbArc
 50
89.5380043288
 51
91.0010663079
  0
ARC
  5
3B2
100
AcDbEntity
  8
0
100
AcDbCircle
 62
7
  6
CONTINUOUS
 10
5.8661665787
 20
4.3879092779
 40
1.4543924641
100
AcDbArc
 50
89.7915643043
 51
90.2504726422
  0
ARC
  5
3B3
100
AcDbEntity
  8
0
100
AcDbCircle
 62
7
  6
CONTINUOUS
 10
5.8613468161
 20
4.3876992885
 40
1.4497451264
100
AcDbArc
 50
89.7908961354
 51
90.251275569
  0
ARC
  5
3B4
100
AcDbEntity
  8
0
100
AcDbCircle
 62
7
  6
CONTINUOUS
 10
5.8800859607
 20
4.6038682286
 40
1.2646406179
100
AcDbArc
 50
97.5127069525
 51
98.1253403315
  0
ARC
  5
3B5
100
AcDbEntity
  8
0
100
AcDbCircle
 62
6
  6
CONTINUOUS
 10
5.9298726129
 20
4.3222060367
 40
1.5496700155
100
AcDbArc
 50
80.3415207167
 51
81.8989309388
  0
ARC
  5
3B6
100
AcDbEntity
  8
0
100
AcDbCircle
 62
6
  6
CONTINUOUS
 10
5.9298726129
 20
4.3222060367
 40
1.5496700155
100
AcDbArc
 50
94.9952381467
 51
94.996842025
  0
ARC
  5
3B7
100
AcDbEntity
  8
0
100
AcDbCircle
 62
6
  6
CONTINUOUS
 10
5.9298726129
 20
4.3222060367
 40
1.5506700155
100
AcDbArc
 50
78.0210826601
 51
80.5169896729
  0
ARC
  5
3B8
100
AcDbEntity
  8
0
100
AcDbCircle
 62
6
  6
CONTINUOUS
 10
5.9298726129
 20
4.3222060367
 40
1.5506700155
100
AcDbArc
 50
83.6638755136
 51
85.8874829419
  0
ARC
  5
3B9
100
AcDbEntity
  8
0
100
AcDbCircle
 62
6
  6
CONTINUOUS
 10
5.9298726129
 20
4.3222060367
 40
1.5506700155
100
AcDbArc
 50
103.2342699908
 51
104.7630312681
  0
ARC
  5
3BA
100
AcDbEntity
  8
0
100
AcDbCircle
 62
6
  6
CONTINUOUS
 10
5.9298726129
 20
4.3222060367
 40
1.5506700155
100
AcDbArc
 50
97.2428130036
 51
101.9087934462
  0
ARC
  5
3BB
100
AcDbEntity
  8
0
100
AcDbCircle
 62
6
  6
CONTINUOUS
 10
5.9298726129
 20
4.3222060367
 40
1.5506700155
100
AcDbArc
 50
91.403388145
 51
93.3087785184
  0
ARC
  5
3BC
100
AcDbEntity
  8
0
100
AcDbCircle
 62
6
  6
CONTINUOUS
 10
5.9298726129
 20
4.3222060367
 40
1.5506700155
100
AcDbArc
 50
75.2369687319
 51
76.9554333656
  0
ARC
  5
3BD
100
AcDbEntity
  8
0
100
AcDbCircle
 62
6
  6
CONTINUOUS
 10
5.9298726129
 20
4.3222060367
 40
1.5506700155
100
AcDbArc
 50
81.9183361545
 51
82.924764186
  0
ARC
  5
3BE
100
AcDbEntity
  8
0
100
AcDbCircle
 62
6
  6
CONTINUOUS
 10
5.9298726129
 20
4.3222060367
 40
1.5506700155
100
AcDbArc
 50
87.0057644753
 51
88.4118035648
  0
ARC
  5
3BF
100
AcDbEntity
  8
0
100
AcDbCircle
 62
7
  6
CONTINUOUS
 10
5.9298726129
 20
4.3222060367
 40
1.5506671135
100
AcDbArc
 50
94.7163367288
 51
95.8295384817
  0
ARC
  5
3C0
100
AcDbEntity
  8
0
100
AcDbCircle
 62
7
  6
CONTINUOUS
 10
5.9298726129
 20
4.3222060367
 40
1.5506619544
100
AcDbArc
 50
89.5243678793
 51
90.8807235312
  0
ARC
  5
3C1
100
AcDbEntity
  8
0
100
AcDbCircle
 62
7
  6
CONTINUOUS
 10
5.9298726129
 20
4.3222060367
 40
1.5504684766
100
AcDbArc
 50
89.2552909932
 51
91.1498779633
  0
ARC
  5
3C2
100
AcDbEntity
  8
0
100
AcDbCircle
 62
7
  6
CONTINUOUS
 10
5.9298726129
 20
4.3222060367
 40
1.5498637027
100
AcDbArc
 50
79.5917336892
 51
80.3425863685
  0
ARC
  5
3C3
100
AcDbEntity
  8
0
100
AcDbCircle
 62
7
  6
CONTINUOUS
 10
5.9298726129
 20
4.3222060367
 40
1.5496943237
100
AcDbArc
 50
79.5905834001
 51
80.3415207167
  0
ARC
  5
3C4
100
AcDbEntity
  8
0
100
AcDbCircle
 62
6
  6
CONTINUOUS
 10
5.9298726129
 20
4.3222060367
 40
1.5496700155
100
AcDbArc
 50
78.0162970462
 51
79.5905834001
  0
ARC
  5
3C5
100
AcDbEntity
  8
0
100
AcDbCircle
 62
6
  6
CONTINUOUS
 10
5.9298726129
 20
4.3222060367
 40
1.5496700155
100
AcDbArc
 50
83.6028279021
 51
83.6597700516
  0
ARC
  5
3C6
100
AcDbEntity
  8
0
100
AcDbCircle
 62
6
  6
CONTINUOUS
 10
5.9298726129
 20
4.3222060367
 40
1.5496700155
100
AcDbArc
 50
85.8848245723
 51
86.3353745634
  0
ARC
  5
3C7
100
AcDbEntity
  8
0
100
AcDbCircle
 62
6
  6
CONTINUOUS
 10
5.9298726129
 20
4.3222060367
 40
1.5496700155
100
AcDbArc
 50
101.9131855167
 51
102.1225369552
  0
ARC
  5
3C8
100
AcDbEntity
  8
0
100
AcDbCircle
 62
6
  6
CONTINUOUS
 10
5.9298726129
 20
4.3222060367
 40
1.5496700155
100
AcDbArc
 50
93.3109160478
 51
94.7194110228
  0
ARC
  5
3C9
100
AcDbEntity
  8
0
100
AcDbCircle
 62
6
  6
CONTINUOUS
 10
5.9298726129
 20
4.3222060367
 40
1.5496700155
100
AcDbArc
 50
95.8333429594
 51
97.2575661027
  0
ARC
  5
3CA
100
AcDbEntity
  8
0
100
AcDbCircle
 62
6
  6
CONTINUOUS
 10
5.9298726129
 20
4.3222060367
 40
1.5496700155
100
AcDbArc
 50
90.9247775619
 51
91.4042939308
  0
ARC
  5
3CB
100
AcDbEntity
  8
0
100
AcDbCircle
 62
6
  6
CONTINUOUS
 10
5.9298726129
 20
4.3222060367
 40
1.5496700155
100
AcDbArc
 50
88.4107784409
 51
89.4811198454
  0
ARC
  5
3CC
100
AcDbEntity
  8
0
100
AcDbCircle
 62
7
  6
CONTINUOUS
 10
5.9298726129
 20
4.3222060367
 40
1.5496592693
100
AcDbArc
 50
95.5542911914
 51
95.8333429594
  0
ARC
  5
3CD
100
AcDbEntity
  8
0
100
AcDbCircle
 62
7
  6
CONTINUOUS
 10
5.9298726129
 20
4.3222060367
 40
1.5496592693
100
AcDbArc
 50
94.7194110228
 51
94.9952381467
  0
ARC
  5
3CE
100
AcDbEntity
  8
0
100
AcDbCircle
 62
7
  6
CONTINUOUS
 10
5.9298726129
 20
4.3222060367
 40
1.5494683465
100
AcDbArc
 50
89.2548102814
 51
89.4825151449
  0
ARC
  5
3CF
100
AcDbEntity
  8
0
100
AcDbCircle
 62
7
  6
CONTINUOUS
 10
5.9298726129
 20
4.3222060367
 40
1.5494683465
100
AcDbArc
 50
90.9228538673
 51
91.1506202709
  0
ARC
  5
3D0
100
AcDbEntity
  8
0
100
AcDbCircle
 62
7
  6
CONTINUOUS
 10
5.9298726129
 20
4.3222060367
 40
1.5490892475
100
AcDbArc
 50
95.5567194915
 51
97.7912071013
  0
ARC
  5
3D1
100
AcDbEntity
  8
0
100
AcDbCircle
 62
7
  6
CONTINUOUS
 10
5.9298726129
 20
4.3222060367
 40
1.5490892475
100
AcDbArc
 50
92.7750912715
 51
94.9995535744
  0
ARC
  5
3D2
100
AcDbEntity
  8
0
100
AcDbCircle
 62
7
  6
CONTINUOUS
 10
5.9298726129
 20
4.3222060367
 40
1.5490892475
100
AcDbArc
 50
90.9247089383
 51
92.5899545588
  0
ARC
  5
3D3
100
AcDbEntity
  8
0
100
AcDbCircle
 62
7
  6
CONTINUOUS
 10
5.9298726129
 20
4.3222060367
 40
1.5490892475
100
AcDbArc
 50
87.2249087285
 51
89.4807975274
  0
ARC
  5
3D4
100
AcDbEntity
  8
0
100
AcDbCircle
 62
7
  6
CONTINUOUS
 10
5.9298726129
 20
4.3222060367
 40
1.5490892475
100
AcDbArc
 50
79.5864721087
 51
82.2087928987
  0
ARC
  5
3D5
100
AcDbEntity
  8
0
100
AcDbCircle
 62
7
  6
CONTINUOUS
 10
5.9298726129
 20
4.3222060367
 40
1.5147123479
100
AcDbArc
 50
89.799039071
 51
90.4070880332
  0
ARC
  5
3D6
100
AcDbEntity
  8
0
100
AcDbCircle
 62
7
  6
CONTINUOUS
 10
5.8668187543
 20
4.9397247379
 40
0.9299375948
100
AcDbArc
 50
95.8291132966
 51
95.9468635778
  0
ARC
  5
3D7
100
AcDbEntity
  8
0
100
AcDbCircle
 62
7
  6
CONTINUOUS
 10
5.8757507451
 20
4.9787435332
 40
0.8919026202
100
AcDbArc
 50
94.5945737815
 51
94.7191414321
  0
ARC
  5
3D8
100
AcDbEntity
  8
0
100
AcDbCircle
 62
7
  6
CONTINUOUS
 10
5.8606009758
 20
5.1661400908
 40
0.7028946274
100
AcDbArc
 50
94.5094388465
 51
94.6238350105
  0
ARC
  5
3D9
100
AcDbEntity
  8
0
100
AcDbCircle
 62
7
  6
CONTINUOUS
 10
5.8586413535
 20
5.1853028618
 40
0.6836280801
100
AcDbArc
 50
94.5897125787
 51
94.7212992783
  0
ARC
  5
3DA
100
AcDbEntity
  8
0
100
AcDbCircle
 62
7
  6
CONTINUOUS
 10
5.8251605833
 20
6.6297701605
 40
0.7610106175
100
AcDbArc
 50
273.516460702
 51
274.0731602102
  0
ARC
  5
3DB
100
AcDbEntity
  8
0
100
AcDbCircle
 62
7
  6
CONTINUOUS
 10
6.0185891302
 20
6.4301847354
 40
0.5601504457
100
AcDbArc
 50
267.5733971566
 51
268.4083498335
  0
ARC
  5
3DC
100
AcDbEntity
  8
0
100
AcDbCircle
 62
7
  6
CONTINUOUS
 10
5.9605915533
 20
5.5242637482
 40
0.35516477
100
AcDbArc
 50
118.3213862927
 51
119.7170947764
  0
ARC
  5
3DD
100
AcDbEntity
  8
0
100
AcDbCircle
 62
7
  6
CONTINUOUS
 10
6.0123498815
 20
6.2122106175
 40
0.3420871755
100
AcDbArc
 50
268.4388998563
 51
268.7615830349
  0
ARC
  5
3DE
100
AcDbEntity
  8
0
100
AcDbCircle
 62
7
  6
CONTINUOUS
 10
5.9531971137
 20
5.5382464895
 40
0.3393466743
100
AcDbArc
 50
116.4090138834
 51
117.4454455582
  0
ARC
  5
3DF
100
AcDbEntity
  8
0
100
AcDbCircle
 62
7
  6
CONTINUOUS
 10
5.8025709151
 20
5.5497359806
 40
0.3155521719
100
AcDbArc
 50
96.0271199364
 51
96.2302345163
  0
ARC
  5
3E0
100
AcDbEntity
  8
0
100
AcDbCircle
 62
7
  6
CONTINUOUS
 10
5.797556563
 20
5.6097304405
 40
0.2656159095
100
AcDbArc
 50
58.7917857385
 51
60.7979883446
  0
ARC
  5
3E1
100
AcDbEntity
  8
0
100
AcDbCircle
 62
7
  6
CONTINUOUS
 10
5.8613229495
 20
6.1194825821
 40
0.2484452055
100
AcDbArc
 50
274.125354745
 51
274.6173693334
  0
ARC
  5
3E2
100
AcDbEntity
  8
0
100
AcDbCircle
 62
7
  6
CONTINUOUS
 10
6.003919014
 20
6.1142233568
 40
0.2444060639
100
AcDbArc
 50
265.174357437
 51
265.6876359384
  0
ARC
  5
3E3
100
AcDbEntity
  8
0
100
AcDbCircle
 62
7
  6
CONTINUOUS
 10
5.8230765087
 20
5.6391475934
 40
0.2283915904
100
AcDbArc
 50
94.1781599273
 51
94.454757546
  0
ARC
  5
3E4
100
AcDbEntity
  8
0
100
AcDbCircle
 62
7
  6
CONTINUOUS
 10
6.0012512103
 20
6.0820303396
 40
0.2111055921
100
AcDbArc
 50
265.1560363031
 51
265.7301714876
  0
ARC
  5
3E5
100
AcDbEntity
  8
0
100
AcDbCircle
 62
7
  6
CONTINUOUS
 10
5.8645539547
 20
6.0760775417
 40
0.2059184186
100
AcDbArc
 50
274.0829052048
 51
274.6888268213
  0
ARC
  5
3E6
100
AcDbEntity
  8
0
100
AcDbCircle
 62
7
  6
CONTINUOUS
 10
5.9805854813
 20
5.7041564026
 40
0.19269289
100
AcDbArc
 50
135.5726913816
 51
137.3651312286
  0
ARC
  5
3E7
100
AcDbEntity
  8
0
100
AcDbCircle
 62
7
  6
CONTINUOUS
 10
5.8963670396
 20
5.690266617
 40
0.1821991995
100
AcDbArc
 50
91.4065491127
 51
94.716195411
  0
ARC
  5
3E8
100
AcDbEntity
  8
0
100
AcDbCircle
 62
7
  6
CONTINUOUS
 10
5.8963667315
 20
5.6893898549
 40
0.1820756911
100
AcDbArc
 50
91.4074064483
 51
94.696352677
  0
ARC
  5
3E9
100
AcDbEntity
  8
0
100
AcDbCircle
 62
7
  6
CONTINUOUS
 10
5.9678025653
 20
5.6903316923
 40
0.1820186761
100
AcDbArc
 50
85.0972818238
 51
88.3974871574
  0
ARC
  5
3EA
100
AcDbEntity
  8
0
100
AcDbCircle
 62
7
  6
CONTINUOUS
 10
5.9678029036
 20
5.6894555847
 40
0.1818944368
100
AcDbArc
 50
85.1164937971
 51
88.4098206289
  0
ARC
  5
3EB
100
AcDbEntity
  8
0
100
AcDbCircle
 62
7
  6
CONTINUOUS
 10
5.9678231278
 20
5.6907015195
 40
0.1816484204
100
AcDbArc
 50
88.4140480169
 51
94.8163530057
  0
ARC
  5
3EC
100
AcDbEntity
  8
0
100
AcDbCircle
 62
7
  6
CONTINUOUS
 10
5.8963310907
 20
5.6899529714
 40
0.1815121731
100
AcDbArc
 50
87.3751519645
 51
88.5305775454
  0
ARC
  5
3ED
100
AcDbEntity
  8
0
100
AcDbCircle
 62
7
  6
CONTINUOUS
 10
5.9396327121
 20
5.6913563138
 40
0.1814849559
100
AcDbArc
 50
89.9504831035
 51
92.4816086116
  0
ARC
  5
3EE
100
AcDbEntity
  8
0
100
AcDbCircle
 62
7
  6
CONTINUOUS
 10
5.9104321677
 20
5.6912694082
 40
0.1814686328
100
AcDbArc
 50
87.9626312034
 51
90.5162214517
  0
ARC
  5
3EF
100
AcDbEntity
  8
0
100
AcDbCircle
 62
7
  6
CONTINUOUS
 10
5.8963362862
 20
5.6910370697
 40
0.1814282724
100
AcDbArc
 50
88.67969619
 51
89.2348792428
  0
ARC
  5
3F0
100
AcDbEntity
  8
0
100
AcDbCircle
 62
7
  6
CONTINUOUS
 10
5.896337653
 20
5.6910642393
 40
0.1814010965
100
AcDbArc
 50
90.0083343009
 51
91.4034540962
  0
ARC
  5
3F1
100
AcDbEntity
  8
0
100
AcDbCircle
 62
7
  6
CONTINUOUS
 10
5.8963371955
 20
5.6911022404
 40
0.1813630955
100
AcDbArc
 50
89.234891571
 51
89.9276869844
  0
ARC
  5
3F2
100
AcDbEntity
  8
0
100
AcDbCircle
 62
7
  6
CONTINUOUS
 10
5.9827385813
 20
5.7145286158
 40
0.1779732574
100
AcDbArc
 50
134.2176413105
 51
136.1055578327
  0
ARC
  5
3F3
100
AcDbEntity
  8
0
100
AcDbCircle
 62
7
  6
CONTINUOUS
 10
5.7605047398
 20
6.028142937
 40
0.1653451405
100
AcDbArc
 50
273.1504217547
 51
273.9514273321
  0
ARC
  5
3F4
100
AcDbEntity
  8
0
100
AcDbCircle
 62
7
  6
CONTINUOUS
 10
7.6086229972
 20
-4.9089249237
 40
10.9323968857
100
AcDbArc
 50
100.0481037693
 51
100.3341476763
  0
ARC
  5
3F5
100
AcDbEntity
  8
0
100
AcDbCircle
 62
6
  6
CONTINUOUS
 10
7.6217733217
 20
-4.7315111351
 40
10.759535118
100
AcDbArc
 50
100.2906223337
 51
100.5712991366
  0
ARC
  5
3F6
100
AcDbEntity
  8
0
100
AcDbCircle
 62
6
  6
CONTINUOUS
 10
6.2606373776
 20
2.7685362854
 40
3.1369747655
100
AcDbArc
 50
100.0219545379
 51
100.2658571424
  0
ARC
  5
3F7
100
AcDbEntity
  8
0
100
AcDbCircle
 62
9
  6
CONTINUOUS
 10
6.3323802824
 20
3.6701128268
 40
1.7972184342
100
AcDbArc
 50
87.7096263889
 51
88.0204046149
  0
ARC
  5
3F8
100
AcDbEntity
  8
0
100
AcDbCircle
 62
9
  6
CONTINUOUS
 10
6.3129224114
 20
3.6853804398
 40
1.7755912663
100
AcDbArc
 50
87.7962894258
 51
88.2249502541
  0
ARC
  5
3F9
100
AcDbEntity
  8
0
100
AcDbCircle
 62
6
  6
CONTINUOUS
 10
7.3754545576
 20
2.9683502189
 40
0.75
100
AcDbArc
 50
201.9603922914
 51
243.1219100223
  0
ARC
  5
3FA
100
AcDbEntity
  8
0
100
AcDbCircle
 62
6
  6
CONTINUOUS
 10
6.3285794602
 20
3.7498760521
 40
0.188
100
AcDbArc
 50
9.6281561285
 51
90.0
  0
ARC
  5
3FB
100
AcDbEntity
  8
0
100
AcDbCircle
 62
6
  6
CONTINUOUS
 10
6.9798726129
 20
2.1878760521
 40
0.125
100
AcDbArc
 50
270.0
 51
63.1219100223
  0
ARC
  5
3FC
100
AcDbEntity
  8
0
100
AcDbCircle
 62
6
  6
CONTINUOUS
 10
6.6773726129
 20
2.7528760521
 40
0.065
100
AcDbArc
 50
272.1995724131
 51
90.0
  0
ARC
  5
3FD
100
AcDbEntity
  8
0
100
AcDbCircle
 62
7
  6
CONTINUOUS
 10
6.5298619224
 20
11.1332500352
 40
5.2883316655
100
AcDbArc
 50
264.6928560774
 51
265.3465496256
  0
ARC
  5
3FE
100
AcDbEntity
  8
0
100
AcDbCircle
 62
6
  6
CONTINUOUS
 10
6.6601519038
 20
5.1345838181
 40
1.36
100
AcDbArc
 50
157.6438963444
 51
161.2440132164
  0
ARC
  5
3FF
100
AcDbEntity
  8
0
100
AcDbCircle
 62
6
  6
CONTINUOUS
 10
6.0432006473
 20
4.8032321923
 40
0.7706788629
100
AcDbArc
 50
157.7071736922
 51
162.1217297425
  0
ARC
  5
400
100
AcDbEntity
  8
0
100
AcDbCircle
 62
7
  6
CONTINUOUS
 10
6.0426394031
 20
6.6380092808
 40
0.769621041
100
AcDbArc
 50
265.745313066
 51
266.3049566446
  0
ARC
  5
401
100
AcDbEntity
  8
0
100
AcDbCircle
 62
9
  6
CONTINUOUS
 10
6.3924586436
 20
4.8941562645
 40
0.4564891782
100
AcDbArc
 50
340.1608227966
 51
340.5896960474
  0
ARC
  5
402
100
AcDbEntity
  8
0
100
AcDbCircle
 62
9
  6
CONTINUOUS
 10
6.893490521
 20
4.9107409846
 40
0.3092786662
100
AcDbArc
 50
184.9991652233
 51
198.4459302386
  0
ARC
  5
403
100
AcDbEntity
  8
0
100
AcDbCircle
 62
7
  6
CONTINUOUS
 10
6.057606726
 20
5.6096584381
 40
0.2661031293
100
AcDbArc
 50
119.7716172839
 51
121.3631273848
  0
ARC
  5
404
100
AcDbEntity
  8
0
100
AcDbCircle
 62
7
  6
CONTINUOUS
 10
6.0545338707
 20
5.6150101968
 40
0.2599319333
100
AcDbArc
 50
119.34544491
 51
119.7694372664
  0
ARC
  5
405
100
AcDbEntity
  8
0
100
AcDbCircle
 62
9
  6
CONTINUOUS
 10
6.6455494483
 20
4.8661332131
 40
0.2572024307
100
AcDbArc
 50
330.4295846164
 51
331.2630424537
  0
ARC
  5
406
100
AcDbEntity
  8
0
100
AcDbCircle
 62
9
  6
CONTINUOUS
 10
6.6176574493
 20
5.1949869117
 40
0.2411924444
100
AcDbArc
 50
53.0331322995
 51
54.7655644939
  0
ARC
  5
407
100
AcDbEntity
  8
0
100
AcDbCircle
 62
9
  6
CONTINUOUS
 10
6.8256770091
 20
4.8762497303
 40
0.2325143664
100
AcDbArc
 50
216.0445049331
 51
216.9770202534
  0
ARC
  5
408
100
AcDbEntity
  8
0
100
AcDbCircle
 62
9
  6
CONTINUOUS
 10
6.7239472203
 20
4.8598704403
 40
0.2115389549
100
AcDbArc
 50
325.2297256274
 51
326.2842550171
  0
ARC
  5
409
100
AcDbEntity
  8
0
100
AcDbCircle
 62
9
  6
CONTINUOUS
 10
6.7505957644
 20
4.8411740648
 40
0.1789847303
100
AcDbArc
 50
309.4268289279
 51
325.2811731349
  0
ARC
  5
40A
100
AcDbEntity
  8
0
100
AcDbCircle
 62
9
  6
CONTINUOUS
 10
6.618597823
 20
5.2607648103
 40
0.1770365941
100
AcDbArc
 50
74.7572173278
 51
77.8056915736
  0
ARC
  5
40B
100
AcDbEntity
  8
0
100
AcDbCircle
 62
9
  6
CONTINUOUS
 10
6.7600914389
 20
4.8299462268
 40
0.1640736581
100
AcDbArc
 50
270.4920492852
 51
273.3397441927
  0
ARC
  5
40C
100
AcDbEntity
  8
0
100
AcDbCircle
 62
7
  6
CONTINUOUS
 10
6.2155308337
 20
6.0007406462
 40
0.1529738927
100
AcDbArc
 50
259.6105202539
 51
260.3441716632
  0
ARC
  5
40D
100
AcDbEntity
  8
0
100
AcDbCircle
 62
9
  6
CONTINUOUS
 10
6.3998699851
 20
5.3003617529
 40
0.0965865405
100
AcDbArc
 50
293.8013288757
 51
294.6296330755
  0
ARC
  5
40E
100
AcDbEntity
  8
0
100
AcDbCircle
 62
6
  6
CONTINUOUS
 10
6.7611344172
 20
4.762060702
 40
0.0961847316
100
AcDbArc
 50
270.2163069881
 51
275.0501271257
  0
ARC
  5
40F
100
AcDbEntity
  8
0
100
AcDbCircle
 62
9
  6
CONTINUOUS
 10
6.4005221391
 20
5.2988701063
 40
0.0949585706
100
AcDbArc
 50
290.6209961579
 51
293.8045207865
  0
ARC
  5
410
100
AcDbEntity
  8
0
100
AcDbCircle
 62
9
  6
CONTINUOUS
 10
6.3947938025
 20
5.5161539426
 40
0.0498775849
100
AcDbArc
 50
263.4912450371
 51
268.0658134555
  0
ARC
  5
411
100
AcDbEntity
  8
0
100
AcDbCircle
 62
9
  6
CONTINUOUS
 10
6.6563960658
 20
5.3894407933
 40
0.0443412699
100
AcDbArc
 50
77.8495729188
 51
79.6634983099
  0
ARC
  5
412
100
AcDbEntity
  8
0
100
AcDbCircle
 62
6
  6
CONTINUOUS
 10
6.3173726129
 20
5.7926757052
 40
0.03
100
AcDbArc
 50
0.3822713765
 51
75.2369687319
  0
ARC
  5
413
100
AcDbEntity
  8
0
100
AcDbCircle
 62
9
  6
CONTINUOUS
 10
6.7607128028
 20
4.6949562889
 40
0.0290836556
100
AcDbArc
 50
270.8785338572
 51
271.52508806
  0
SPLINE
  5
414
100
AcDbEntity
  8
0
100
AcDbSpline
 62
7
  6
CONTINUOUS
 70
0
 71
3
 72
11
 73
7
 74
5
 42
0.0000001
 43
0.0000001
 44
0.0000000001
 12
0.0000005319
 22
-0.0011580919
 32
0.0
 13
-0.0008921387
 23
-0.000738421
 33
0.0
 40
0.0
 40
0.0
 40
0.0
 40
0.0
 40
0.2084783467
 40
0.4365897139
 40
0.6975498026
 40
1.0
 40
1.0
 40
1.0
 40
1.0
 10
5.893494449
 20
5.8404106166
 30
0.0
 10
5.893494486
 20
5.8403301375
 30
0.0
 10
5.8934669779
 20
5.8401607798
 30
0.0
 10
5.8933500235
 20
5.839915293
 30
0.0
 10
5.8931612049
 20
5.8396728399
 30
0.0
 10
5.8930010761
 20
5.8395244807
 30
0.0
 10
5.8929111336
 20
5.8394500355
 30
0.0
 11
5.893494449
 21
5.8404106166
 31
0.0
 11
5.8934577961
 21
5.8401719779
 31
0.0
 11
5.8933479891
 21
5.8399317066
 31
0.0
 11
5.8931655832
 21
5.839690745
 31
0.0
 11
5.8929111336
 21
5.8394500355
 31
0.0
  0
SPLINE
  5
415
100
AcDbEntity
  8
0
100
AcDbSpline
 62
7
  6
CONTINUOUS
 70
0
 71
3
 72
24
 73
20
 74
18
 42
0.0000001
 43
0.0000001
 44
0.0000000001
 12
-0.0185434831
 22
-0.0153483964
 32
0.0
 13
-0.0240527766
 23
0.0009476169
 33
0.0
 40
0.0
 40
0.0
 40
0.0
 40
0.0
 40
0.0133299501
 40
0.0281832201
 40
0.0445952124
 40
0.0625816165
 40
0.1032704236
 40
0.1501249869
 40
0.1757679423
 40
0.2028252149
 40
0.2609788323
 40
0.3240886667
 40
0.3915622829
 40
0.4627749119
 40
0.5369874242
 40
0.6912640577
 40
0.8479580137
 40
0.9250520893
 40
1.0
 40
1.0
 40
1.0
 40
1.0
 10
5.8929111336
 20
5.8394500355
 30
0.0
 10
5.892828739
 20
5.8393818377
 30
0.0
 10
5.8926470175
 20
5.8392466483
 30
0.0
 10
5.8923439525
 20
5.8390559321
 30
0.0
 10
5.8919966475
 20
5.8388669054
 30
0.0
 10
5.891452866
 20
5.8386069934
 30
0.0
 10
5.8906649235
 20
5.8382943876
 30
0.0
 10
5.8898006351
 20
5.8380140355
 30
0.0
 10
5.8890322518
 20
5.8377954621
 30
0.0
 10
5.8881713116
 20
5.8375717113
 30
0.0
 10
5.8870102672
 20
5.8373089049
 30
0.0
 10
5.8855223612
 20
5.8370256258
 30
0.0
 10
5.8839231913
 20
5.8367704948
 30
0.0
 10
5.8822294187
 20
5.8365470219
 30
0.0
 10
5.8798381313
 20
5.8362910348
 30
0.0
 10
5.8767543772
 20
5.8360692354
 30
0.0
 10
5.8736409034
 20
5.8359786569
 30
0.0
 10
5.871163519
 20
5.8359886417
 30
0.0
 10
5.8699438603
 20
5.8360213407
 30
0.0
 10
5.8693429586
 20
5.8360450146
 30
0.0
 11
5.8929111336
 21
5.8394500355
 31
0.0
 11
5.8926546453
 21
5.8392572351
 31
0.0
 11
5.8923527409
 21
5.8390656933
 31
0.0
 11
5.8920062591
 21
5.8388758962
 31
0.0
 11
5.8916160388
 21
5.8386883296
 31
0.0
 11
5.8907077561
 21
5.8383218307
 31
0.0
 11
5.8896361741
 21
5.8379700175
 31
0.0
 11
5.8890425657
 21
5.8378007767
 31
0.0
 11
5.8884122913
 21
5.8376365954
 31
0.0
 11
5.8870475148
 21
5.8373252433
 31
0.0
 11
5.8855555065
 21
5.8370393925
 31
0.0
 11
5.8839518014
 21
5.8367822679
 31
0.0
 11
5.8822524787
 21
5.8365569892
 31
0.0
 11
5.880476302
 21
5.8363661291
 31
0.0
 11
5.8767724186
 21
5.8360968356
 31
0.0
 11
5.8730021409
 21
5.8359879873
 31
0.0
 11
5.8711463925
 21
5.835995854
 31
0.0
 11
5.8693429586
 21
5.8360450146
 31
0.0
  0
LINE
  5
416
100
AcDbEntity
  8
0
100
AcDbLine
 62
7
  6
CONTINUOUS
 10
6.0156879762
 20
5.8338675657
 11
6.0156427823
 21
5.8339895889
  0
SPLINE
  5
417
100
AcDbEntity
  8
0
100
AcDbSpline
 62
7
  6
CONTINUOUS
 70
0
 71
3
 72
14
 73
10
 74
8
 42
0.0000001
 43
0.0000001
 44
0.0000000001
 12
-0.0011189619
 22
0.0014816319
 32
0.0
 13
-0.0018137707
 23
0.000396919
 33
0.0
 40
0.0
 40
0.0
 40
0.0
 40
0.0
 40
0.0680245916
 40
0.1551439102
 40
0.2608167616
 40
0.3833300987
 40
0.5206122701
 40
0.6706164998
 40
1.0
 40
1.0
 40
1.0
 40
1.0
 10
6.0156427823
 20
5.8339895889
 30
0.0
 10
6.0156174099
 20
5.8340231847
 30
0.0
 10
6.0155450506
 20
5.8340883798
 30
0.0
 10
6.015407739
 20
5.8341736062
 30
0.0
 10
6.015231399
 20
5.8342579954
 30
0.0
 10
6.0150205106
 20
5.8343400939
 30
0.0
 10
6.0147793713
 20
5.8344190184
 30
0.0
 10
6.0144121515
 20
5.8345232208
 30
0.0
 10
6.0141232136
 20
5.8345912781
 30
0.0
 10
6.0139240716
 20
5.8346348577
 30
0.0
 11
6.0156427823
 21
5.8339895889
 31
0.0
 11
6.0155521649
 21
5.8340775683
 31
0.0
 11
6.0154162156
 21
5.8341652159
 31
0.0
 11
6.0152399478
 21
5.8342513837
 31
0.0
 11
6.0150283743
 21
5.8343349248
 31
0.0
 11
6.0147863944
 21
5.8344150189
 31
0.0
 11
6.0145186302
 21
5.8344916423
 31
0.0
 11
6.0139240716
 21
5.8346348577
 31
0.0
  0
SPLINE
  5
418
100
AcDbEntity
  8
0
100
AcDbSpline
 62
7
  6
CONTINUOUS
 70
0
 71
3
 72
26
 73
22
 74
20
 42
0.0000001
 43
0.0000001
 44
0.0000000001
 12
-0.0395271868
 22
0.0086499867
 32
0.0
 13
-0.040104783
 23
0.0053690925
 33
0.0
 40
0.0
 40
0.0
 40
0.0
 40
0.0
 40
0.0273784051
 40
0.0565844135
 40
0.0868418209
 40
0.1177316584
 40
0.1806262826
 40
0.2443325313
 40
0.3084341051
 40
0.372688859
 40
0.4368909506
 40
0.5009312468
 40
0.5648622468
 40
0.6288728132
 40
0.6609840904
 40
0.693169613
 40
0.7572968501
 40
0.8203408027
 40
0.8818368482
 40
0.9416106304
 40
1.0
 40
1.0
 40
1.0
 40
1.0
 10
6.0139240716
 20
5.8346348577
 30
0.0
 10
6.0135633412
 20
5.8347137986
 30
0.0
 10
6.012812956
 20
5.8348547276
 30
0.0
 10
6.0116552589
 20
5.8350331408
 30
0.0
 10
6.0104469378
 20
5.8351920522
 30
0.0
 10
6.0087848609
 20
5.8353834866
 30
0.0
 10
6.0066702319
 20
5.8355864411
 30
0.0
 10
6.0041058378
 20
5.8357866417
 30
0.0
 10
6.0015204706
 20
5.8359502548
 30
0.0
 10
5.9989263755
 20
5.83607771
 30
0.0
 10
5.9963316005
 20
5.8361690455
 30
0.0
 10
5.9937403859
 20
5.836231872
 30
0.0
 10
5.9911514592
 20
5.8362791037
 30
0.0
 10
5.988993096
 20
5.8363190856
 30
0.0
 10
5.9872631809
 20
5.8363666997
 30
0.0
 10
5.9855321802
 20
5.8364293302
 30
0.0
 10
5.9833854083
 20
5.8365387444
 30
0.0
 10
5.9808482466
 20
5.836737666
 30
0.0
 10
5.9783748028
 20
5.8369881046
 30
0.0
 10
5.9759683154
 20
5.83727255
 30
0.0
 10
5.9743879593
 20
5.8374787714
 30
0.0
 10
5.973607395
 20
5.8375832707
 30
0.0
 11
6.0139240716
 21
5.8346348577
 31
0.0
 11
6.0128362684
 21
5.8348443983
 31
0.0
 11
6.0116686699
 21
5.8350267393
 31
0.0
 11
6.0104550059
 21
5.8351877138
 31
0.0
 11
6.0092134216
 21
5.8353315029
 31
0.0
 11
6.0066805019
 21
5.8355779315
 31
0.0
 11
6.0041107101
 21
5.8357799414
 31
0.0
 11
6.0015221912
 21
5.8359440429
 31
0.0
 11
5.9989254147
 21
5.8360717208
 31
0.0
 11
5.9963292852
 21
5.8361643798
 31
0.0
 11
5.993738863
 21
5.836229315
 31
0.0
 11
5.9911525306
 21
5.836279205
 31
0.0
 11
5.9885630404
 21
5.8363322244
 31
0.0
 11
5.9872642428
 21
5.8363685419
 31
0.0
 11
5.9859627944
 21
5.8364158922
 31
0.0
 11
5.9833715804
 21
5.8365513801
 31
0.0
 11
5.9808283264
 21
5.8367490129
 31
0.0
 11
5.9783524704
 21
5.8369974453
 31
0.0
 11
5.9759503878
 21
5.8372796395
 31
0.0
 11
5.973607395
 21
5.8375832707
 31
0.0
  0
SPLINE
  5
419
100
AcDbEntity
  8
0
100
AcDbSpline
 62
6
  6
CONTINUOUS
 70
0
 71
3
 72
16
 73
12
 74
10
 42
0.0000001
 43
0.0000001
 44
0.0000000001
 12
0.0579775436
 22
-0.0587533757
 32
0.0
 13
0.0822217801
 23
-0.0072755477
 33
0.0
 40
0.0
 40
0.0
 40
0.0
 40
0.0
 40
0.1344056705
 40
0.2003638478
 40
0.2655261911
 40
0.3935726012
 40
0.5188657237
 40
0.6417403001
 40
0.7625808845
 40
0.8818308355
 40
1.0
 40
1.0
 40
1.0
 40
1.0
 10
5.0178607548
 20
4.702556528
 30
0.0
 10
5.0204582583
 20
4.6999242657
 30
0.0
 10
5.0244807127
 20
4.6961437533
 30
0.0
 10
5.0300934839
 20
4.6914648043
 30
0.0
 10
5.0357506054
 20
4.6871209301
 30
0.0
 10
5.0430218969
 20
4.682210215
 30
0.0
 10
5.0520700304
 20
4.6771563929
 30
0.0
 10
5.0613463737
 20
4.6729960615
 30
0.0
 10
5.0708064007
 20
4.6697505809
 30
0.0
 10
5.0804041422
 20
4.667441379
 30
0.0
 10
5.0868865263
 20
4.6665375888
 30
0.0
 10
5.0901252193
 20
4.666251007
 30
0.0
 11
5.0178607548
 21
4.702556528
 31
0.0
 11
5.025950647
 21
4.6949646831
 31
0.0
 11
5.0301331936
 21
4.6914793316
 31
0.0
 11
5.0343999771
 21
4.6882044338
 31
0.0
 11
5.043163764
 21
4.6822962187
 31
0.0
 11
5.0521970269
 21
4.6772604763
 31
0.0
 11
5.0614547848
 21
4.6731176453
 31
0.0
 11
5.0708920568
 21
4.6698881644
 31
0.0
 11
5.080463862
 21
4.6675924721
 31
0.0
 11
5.0901252193
 21
4.666251007
 31
0.0
  0
LINE
  5
41A
100
AcDbEntity
  8
0
100
AcDbLine
 62
6
  6
CONTINUOUS
 10
5.0982371352
 20
4.665876694
 11
5.0985445661
 21
4.6658760614
  0
SPLINE
  5
41B
100
AcDbEntity
  8
0
100
AcDbSpline
 62
6
  6
CONTINUOUS
 70
0
 71
3
 72
16
 73
12
 74
10
 42
0.0000001
 43
0.0000001
 44
0.0000000001
 12
-0.0579907235
 22
-0.058766732
 32
0.0
 13
-0.0822418777
 23
-0.0072612921
 33
0.0
 40
0.0
 40
0.0
 40
0.0
 40
0.0
 40
0.1344071266
 40
0.2003657361
 40
0.2655283321
 40
0.3935747699
 40
0.5188674443
 40
0.6417413019
 40
0.7625811473
 40
0.8818306434
 40
1.0
 40
1.0
 40
1.0
 40
1.0
 10
6.841884471
 20
4.702556528
 30
0.0
 10
6.8392863488
 20
4.6999236388
 30
0.0
 10
6.8352629057
 20
4.696142265
 30
0.0
 10
6.8296487009
 20
4.6914623481
 30
0.0
 10
6.8239901292
 20
4.6871176667
 30
0.0
 10
6.8167169397
 20
4.6822061962
 30
0.0
 10
6.8076664048
 20
4.6771518922
 30
0.0
 10
6.7983875913
 20
4.6729915309
 30
0.0
 10
6.7889250573
 20
4.6697464885
 30
0.0
 10
6.7793248055
 20
4.6674382088
 30
0.0
 10
6.7728407859
 20
4.6665353739
 30
0.0
 10
6.769601296
 20
4.6662493532
 30
0.0
 11
6.841884471
 21
4.702556528
 31
0.0
 11
6.8337925812
 21
4.6949629505
 31
0.0
 11
6.8296089728
 21
4.6914768841
 31
0.0
 11
6.825341091
 21
4.6882013749
 31
0.0
 11
6.8165750137
 21
4.6822922547
 31
0.0
 11
6.8075393631
 21
4.6772560432
 31
0.0
 11
6.7982791524
 21
4.6731131939
 31
0.0
 11
6.7888393953
 21
4.6698841602
 31
0.0
 11
6.7792651054
 21
4.6675893955
 31
0.0
 11
6.769601296
 21
4.6662493532
 31
0.0
  0
LINE
  5
41C
100
AcDbEntity
  8
0
100
AcDbLine
 62
6
  6
CONTINUOUS
 10
6.7614975396
 20
4.6658766558
 11
6.7612006598
 21
4.6658760614
  0
SPLINE
  5
41D
100
AcDbEntity
  8
0
100
AcDbSpline
 62
7
  6
CONTINUOUS
 70
0
 71
3
 72
30
 73
26
 74
24
 42
0.0000001
 43
0.0000001
 44
0.0000000001
 12
-0.0000755313
 22
0.287035438
 32
0.0
 13
-0.2495599632
 23
0.1418068162
 33
0.0
 40
0.0
 40
0.0
 40
0.0
 40
0.0
 40
0.0656040142
 40
0.1312068732
 40
0.1966673927
 40
0.2619308068
 40
0.294483807
 40
0.3269719959
 40
0.3917211114
 40
0.4561288559
 40
0.488184766
 40
0.5201249929
 40
0.583600294
 40
0.6151149881
 40
0.6464628453
 40
0.7085702318
 40
0.7697272743
 40
0.7998965179
 40
0.8297476323
 40
0.8592399843
 40
0.8883402939
 40
0.9170214315
 40
0.9452319056
 40
0.9729078352
 40
1.0
 40
1.0
 40
1.0
 40
1.0
 10
5.704931813
 20
5.3077181732
 30
0.0
 10
5.7049301613
 20
5.3139950656
 30
0.0
 10
5.7044506311
 20
5.3265529312
 30
0.0
 10
5.702408626
 20
5.3452724693
 30
0.0
 10
5.6991416879
 20
5.3637834644
 30
0.0
 10
5.6954765721
 20
5.3789798323
 30
0.0
 10
5.6920285819
 20
5.3909623473
 30
0.0
 10
5.6882611143
 20
5.4027966967
 30
0.0
 10
5.6829671445
 20
5.41733685
 30
0.0
 10
5.6769301806
 20
5.4315388674
 30
0.0
 10
5.6716941485
 20
5.4426539893
 30
0.0
 10
5.6662184925
 20
5.4535531191
 30
0.0
 10
5.6603523066
 20
5.4641942159
 30
0.0
 10
5.6541049411
 20
5.4745437714
 30
0.0
 10
5.647656489
 20
5.4846142538
 30
0.0
 10
5.639178279
 20
5.4967465543
 30
0.0
 10
5.6300717501
 20
5.5082738514
 30
0.0
 10
5.6224518018
 20
5.5170146607
 30
0.0
 10
5.6166049283
 20
5.5232752841
 30
0.0
 10
5.6106036405
 20
5.5292441591
 30
0.0
 10
5.6044522207
 20
5.5348944668
 30
0.0
 10
5.5981577402
 20
5.5401970143
 30
0.0
 10
5.5917318364
 20
5.5451193059
 30
0.0
 10
5.5851903297
 20
5.5496243512
 30
0.0
 10
5.5807134697
 20
5.5523545409
 30
0.0
 10
5.5784597631
 20
5.5536351588
 30
0.0
 11
5.704931813
 21
5.3077181732
 31
0.0
 11
5.704229924
 21
5.3265357653
 31
0.0
 11
5.7022016778
 21
5.3452565598
 31
0.0
 11
5.6989480592
 21
5.3637622044
 31
0.0
 11
5.6945675385
 21
5.3819757456
 31
0.0
 11
5.6919850542
 21
5.3909556447
 31
0.0
 11
5.6891571486
 21
5.3998417832
 31
0.0
 11
5.6828035123
 21
5.4173073024
 31
0.0
 11
5.6755754631
 21
5.4343230534
 31
0.0
 11
5.6716544574
 21
5.4426469632
 31
0.0
 11
5.6675382569
 21
5.4508389532
 31
0.0
 11
5.6587380533
 21
5.4667924006
 31
0.0
 11
5.6540627173
 21
5.4745363241
 31
0.0
 11
5.6492096625
 21
5.4821133219
 31
0.0
 11
5.6389848383
 21
5.4967165978
 31
0.0
 11
5.6280879661
 21
5.5104792097
 31
0.0
 11
5.6223948511
 21
5.5170043799
 31
0.0
 11
5.6165434241
 21
5.5232635369
 31
0.0
 11
5.6105379985
 21
5.529229861
 31
0.0
 11
5.6043828949
 21
5.5348764801
 31
0.0
 11
5.5980829912
 21
5.5401760388
 31
0.0
 11
5.5916506596
 21
5.5450946866
 31
0.0
 11
5.5851036337
 21
5.549593926
 31
0.0
 11
5.5784597631
 21
5.5536351588
 31
0.0
  0
SPLINE
  5
41E
100
AcDbEntity
  8
0
100
AcDbSpline
 62
7
  6
CONTINUOUS
 70
0
 71
3
 72
19
 73
15
 74
13
 42
0.0000001
 43
0.0000001
 44
0.0000000001
 12
-0.0863428184
 22
-0.0604293628
 32
0.0
 13
-0.0323013082
 23
-0.1003165773
 33
0.0
 40
0.0
 40
0.0
 40
0.0
 40
0.0
 40
0.0559756461
 40
0.1127387195
 40
0.1703572864
 40
0.22885477
 40
0.3484818987
 40
0.4718194729
 40
0.5348672901
 40
0.5987973675
 40
0.7292601672
 40
0.7957670744
 40
0.8630769242
 40
1.0
 40
1.0
 40
1.0
 40
1.0
 10
5.4970743487
 20
5.5536351586
 30
0.0
 10
5.495463317
 20
5.5525076344
 30
0.0
 10
5.4923005287
 20
5.5501175387
 30
0.0
 10
5.4877755531
 20
5.5461950534
 30
0.0
 10
5.4834380897
 20
5.5419389248
 30
0.0
 10
5.4778631378
 20
5.5358098904
 30
0.0
 10
5.4713649211
 20
5.5274246864
 30
0.0
 10
5.4655467821
 20
5.5183712899
 30
0.0
 10
5.4612054751
 20
5.5107225405
 30
0.0
 10
5.4570113137
 20
5.5027084126
 30
0.0
 10
5.4531522183
 20
5.494388177
 30
0.0
 10
5.4495917697
 20
5.4858132443
 30
0.0
 10
5.4461684114
 20
5.4769388408
 30
0.0
 10
5.4438256092
 20
5.4701541602
 30
0.0
 10
5.4423513443
 20
5.4655756088
 30
0.0
 11
5.4970743487
 21
5.5536351586
 31
0.0
 11
5.4923640984
 21
5.5500835185
 31
0.0
 11
5.4878397446
 21
5.546169848
 31
0.0
 11
5.4835013459
 21
5.5419211163
 31
0.0
 11
5.4793489607
 21
5.5373642928
 31
0.0
 11
5.4715946801
 21
5.5274236431
 31
0.0
 11
5.4645367595
 21
5.5165083329
 31
0.0
 11
5.4612536962
 21
5.5107315441
 31
0.0
 11
5.4581267915
 21
5.5047635857
 31
0.0
 11
5.4523202107
 21
5.492300552
 31
0.0
 11
5.44962995
 21
5.4858283264
 31
0.0
 11
5.4470746593
 21
5.4792108428
 31
0.0
 11
5.4423513443
 21
5.4655756088
 31
0.0
  0
SPLINE
  5
41F
100
AcDbEntity
  8
0
100
AcDbSpline
 62
7
  6
CONTINUOUS
 70
0
 71
3
 72
61
 73
57
 74
55
 42
0.0000001
 43
0.0000001
 44
0.0000000001
 12
0.0980811708
 22
-0.4707674044
 32
0.0
 13
0.0013142665
 23
0.4808743472
 33
0.0
 40
0.0
 40
0.0
 40
0.0
 40
0.0
 40
0.0335358505
 40
0.065924655
 40
0.0816634652
 40
0.0970953409
 40
0.1270488224
 40
0.1558523889
 40
0.1836034843
 40
0.2104348492
 40
0.2365103058
 40
0.2493258209
 40
0.2620250759
 40
0.2746345161
 40
0.2871848057
 40
0.2997113387
 40
0.3122437837
 40
0.3248121233
 40
0.3374563453
 40
0.3502238574
 40
0.3631549287
 40
0.3762841136
 40
0.382934059
 40
0.3896450584
 40
0.403261007
 40
0.4171527974
 40
0.431328201
 40
0.445786145
 40
0.4605238797
 40
0.4755362845
 40
0.4908125721
 40
0.5063392546
 40
0.5221062334
 40
0.5381028793
 40
0.5543172587
 40
0.5707375356
 40
0.5873521547
 40
0.6041494571
 40
0.6382420804
 40
0.6555221758
 40
0.6729425862
 40
0.6904936076
 40
0.7081661439
 40
0.7259498026
 40
0.7438351185
 40
0.7618122521
 40
0.7798708317
 40
0.7980013719
 40
0.816194635
 40
0.8344421305
 40
0.8527360839
 40
0.8710693738
 40
0.8894350576
 40
0.9262354244
 40
0.9631019145
 40
1.0
 40
1.0
 40
1.0
 40
1.0
 10
5.4289323366
 20
5.2085036092
 30
0.0
 10
5.4300287484
 20
5.2032410808
 30
0.0
 10
5.4324323943
 20
5.192945416
 30
0.0
 10
5.4361190465
 20
5.1803764733
 30
0.0
 10
5.4394561465
 20
5.170748544
 30
0.0
 10
5.442974022
 20
5.1616025753
 30
0.0
 10
5.447823934
 20
5.1507318197
 30
0.0
 10
5.4544517256
 20
5.1385343333
 30
0.0
 10
5.4618363644
 20
5.1273708777
 30
0.0
 10
5.4699812735
 20
5.1173034003
 30
0.0
 10
5.4774473045
 20
5.1098374217
 30
0.0
 10
5.4837857368
 20
5.1045196617
 30
0.0
 10
5.4886992048
 20
5.1008794374
 30
0.0
 10
5.4937973398
 20
5.0975799553
 30
0.0
 10
5.4990779562
 20
5.0946369478
 30
0.0
 10
5.5045361867
 20
5.0920661747
 30
0.0
 10
5.5101670146
 20
5.0898899204
 30
0.0
 10
5.5159636619
 20
5.0881361488
 30
0.0
 10
5.521917143
 20
5.0868330119
 30
0.0
 10
5.5280144288
 20
5.0860088954
 30
0.0
 10
5.5342347988
 20
5.0856640212
 30
0.0
 10
5.5394821888
 20
5.0857763022
 30
0.0
 10
5.5437165603
 20
5.0861030648
 30
0.0
 10
5.5480136451
 20
5.0865941327
 30
0.0
 10
5.5534265098
 20
5.0875094962
 30
0.0
 10
5.5599313082
 20
5.0890544267
 30
0.0
 10
5.5664594916
 20
5.0910291763
 30
0.0
 10
5.5729939549
 20
5.0934120475
 30
0.0
 10
5.5795194266
 20
5.0961822704
 30
0.0
 10
5.5860221693
 20
5.099319478
 30
0.0
 10
5.5924894847
 20
5.1028035962
 30
0.0
 10
5.5989096332
 20
5.1066161742
 30
0.0
 10
5.6052682383
 20
5.1107463487
 30
0.0
 10
5.611552043
 20
5.1151832404
 30
0.0
 10
5.6177482539
 20
5.1199161237
 30
0.0
 10
5.6238430896
 20
5.1249360348
 30
0.0
 10
5.6298224996
 20
5.1302350236
 30
0.0
 10
5.6376605134
 20
5.1376972395
 30
0.0
 10
5.645167668
 20
5.1456525333
 30
0.0
 10
5.6522990539
 20
5.1540654117
 30
0.0
 10
5.657481833
 20
5.1606472759
 30
0.0
 10
5.6624565642
 20
5.1674656957
 30
0.0
 10
5.6672058211
 20
5.1745134939
 30
0.0
 10
5.6717136479
 20
5.1817813185
 30
0.0
 10
5.6759625579
 20
5.189259756
 30
0.0
 10
5.6799409254
 20
5.1969352228
 30
0.0
 10
5.6836383731
 20
5.2047933512
 30
0.0
 10
5.6870473252
 20
5.2128184711
 30
0.0
 10
5.6901631392
 20
5.220994245
 30
0.0
 10
5.6929814981
 20
5.2293049093
 30
0.0
 10
5.6954983157
 20
5.2377351502
 30
0.0
 10
5.6977142986
 20
5.2462690081
 30
0.0
 10
5.7002720519
 20
5.2577714026
 30
0.0
 10
5.7027243105
 20
5.2723310459
 30
0.0
 10
5.7044936882
 20
5.2899771925
 30
0.0
 10
5.7049026222
 20
5.3018037618
 30
0.0
 10
5.7049187869
 20
5.3077182093
 30
0.0
 11
5.4289323366
 21
5.2085036092
 31
0.0
 11
5.4326223615
 21
5.1928048629
 31
0.0
 11
5.4370311075
 21
5.1778668681
 31
0.0
 11
5.4395123884
 21
5.1707167491
 31
0.0
 11
5.4421792909
 21
5.1637917066
 31
0.0
 11
5.4480707734
 21
5.1506477654
 31
0.0
 11
5.4547075912
 21
5.1384904051
 31
0.0
 11
5.462093071
 21
5.1273755756
 31
0.0
 11
5.4702293129
 21
5.1173616999
 31
0.0
 11
5.4791155471
 21
5.1085150625
 31
0.0
 11
5.4838387674
 21
5.1045565578
 31
0.0
 11
5.4887476154
 21
5.1009239505
 31
0.0
 11
5.4938398053
 21
5.0976320526
 31
0.0
 11
5.4991127499
 21
5.0946962549
 31
0.0
 11
5.5045636157
 21
5.0921324384
 31
0.0
 11
5.5101862125
 21
5.0899631628
 31
0.0
 11
5.5159719248
 21
5.0882158137
 31
0.0
 11
5.5219120833
 21
5.0869178838
 31
0.0
 11
5.5279959287
 21
5.0860924054
 31
0.0
 11
5.5342044489
 21
5.0857447971
 31
0.0
 11
5.5405165946
 21
5.0858761297
 31
0.0
 11
5.5437049491
 21
5.0861217336
 31
0.0
 11
5.5469113276
 21
5.0864873774
 31
0.0
 11
5.5533685152
 21
5.087571626
 31
0.0
 11
5.5598695855
 21
5.0891083647
 31
0.0
 11
5.566396121
 21
5.0910757367
 31
0.0
 11
5.5729299209
 21
5.0934519611
 31
0.0
 11
5.5794556114
 21
5.0962162488
 31
0.0
 11
5.5859598006
 21
5.0993485057
 31
0.0
 11
5.5924291375
 21
5.1028286535
 31
0.0
 11
5.5988503026
 21
5.106638632
 31
0.0
 11
5.6052100718
 21
5.1107665265
 31
0.0
 11
5.6114952394
 21
5.1152015879
 31
0.0
 11
5.6176925579
 21
5.1199331986
 31
0.0
 11
5.6237883182
 21
5.1249522033
 31
0.0
 11
5.6297685233
 21
5.1302503576
 31
0.0
 11
5.6356191448
 21
5.1358194665
 31
0.0
 11
5.6468729784
 21
5.1477410964
 31
0.0
 11
5.6522459989
 21
5.1540798553
 31
0.0
 11
5.6574281674
 21
5.1606616681
 31
0.0
 11
5.6624022189
 21
5.1674800384
 31
0.0
 11
5.6671510502
 21
5.1745277134
 31
0.0
 11
5.6716580095
 21
5.1817954178
 31
0.0
 11
5.6759069298
 21
5.1892732096
 31
0.0
 11
5.6798854089
 21
5.1969480929
 31
0.0
 11
5.6835832117
 21
5.204805387
 31
0.0
 11
5.6869928182
 21
5.2128295752
 31
0.0
 11
5.6901091325
 21
5.2210044419
 31
0.0
 11
5.6929278367
 21
5.229314181
 31
0.0
 11
5.6954456268
 21
5.2377433064
 31
0.0
 11
5.6976626569
 21
5.2462760298
 31
0.0
 11
5.6995806747
 21
5.2548968596
 31
0.0
 11
5.7025269005
 21
5.2723463002
 31
0.0
 11
5.7043004665
 21
5.2899855772
 31
0.0
 11
5.7049187869
 21
5.3077182093
 31
0.0
  0
SPLINE
  5
420
100
AcDbEntity
  8
0
100
AcDbSpline
 62
7
  6
CONTINUOUS
 70
0
 71
3
 72
18
 73
14
 74
12
 42
0.0000001
 43
0.0000001
 44
0.0000000001
 12
0.0865402142
 22
-0.0605709373
 32
0.0
 13
0.0322908254
 23
-0.1005750949
 33
0.0
 40
0.0
 40
0.0
 40
0.0
 40
0.0
 40
0.0559696626
 40
0.1127341585
 40
0.1703510913
 40
0.2288352434
 40
0.3484576577
 40
0.409679423
 40
0.4718191068
 40
0.5987794872
 40
0.7292623759
 40
0.8630498516
 40
1.0
 40
1.0
 40
1.0
 40
1.0
 10
6.3626709386
 20
5.5536351587
 30
0.0
 10
6.3642854808
 20
5.5525051137
 30
0.0
 10
6.3674553734
 20
5.5501095267
 30
0.0
 10
6.3719904038
 20
5.5461779046
 30
0.0
 10
6.3763368829
 20
5.5419115676
 30
0.0
 10
6.3819216991
 20
5.5357668165
 30
0.0
 10
6.3870876114
 20
5.5290891493
 30
0.0
 10
6.3918688812
 20
5.5219924689
 30
0.0
 10
6.3964965695
 20
5.5144884794
 30
0.0
 10
6.4018647154
 20
5.5045876972
 30
0.0
 10
6.4076537148
 20
5.4920793868
 30
0.0
 10
6.4128871614
 20
5.4789509661
 30
0.0
 10
6.4159911791
 20
5.4699337252
 30
0.0
 10
6.4174652569
 20
5.4653424671
 30
0.0
 11
6.3626709386
 21
5.5536351587
 31
0.0
 11
6.3673914365
 21
5.5500755755
 31
0.0
 11
6.3719260748
 21
5.5461524895
 31
0.0
 11
6.3762735758
 21
5.5418932963
 31
0.0
 11
6.3804327302
 21
5.5373253236
 31
0.0
 11
6.3881972405
 21
5.527356437
 31
0.0
 11
6.3918146522
 21
5.5219958531
 31
0.0
 11
6.3952637312
 21
5.5164111534
 31
0.0
 11
6.4016802949
 21
5.504634754
 31
0.0
 11
6.4074918741
 21
5.4921367521
 31
0.0
 11
6.4127415316
 21
5.4790157777
 31
0.0
 11
6.4174652569
 21
5.4653424671
 31
0.0
  0
SPLINE
  5
421
100
AcDbEntity
  8
0
100
AcDbSpline
 62
7
  6
CONTINUOUS
 70
0
 71
3
 72
30
 73
26
 74
24
 42
0.0000001
 43
0.0000001
 44
0.0000000001
 12
0.000052656
 22
0.287015182
 32
0.0
 13
0.2495701774
 23
0.1417478183
 33
0.0
 40
0.0
 40
0.0
 40
0.0
 40
0.0
 40
0.1311315502
 40
0.196580468
 40
0.2618501111
 40
0.3268886871
 40
0.3916482617
 40
0.4560610498
 40
0.5200516996
 40
0.5518666622
 40
0.5835434828
 40
0.6150647609
 40
0.6464134048
 40
0.6775735039
 40
0.708528601
 40
0.7392506045
 40
0.7697086547
 40
0.7998756591
 40
0.8297263582
 40
0.859222492
 40
0.8883248009
 40
0.9170025624
 40
0.9452167524
 40
0.9729011366
 40
1.0
 40
1.0
 40
1.0
 40
1.0
 10
6.1548277172
 20
5.3077182114
 30
0.0
 10
6.1548300188
 20
5.3202637933
 30
0.0
 10
6.1562459389
 20
5.3391004825
 30
0.0
 10
6.1606056304
 20
5.3637795283
 30
0.0
 10
6.1650011707
 20
5.3819978142
 30
0.0
 10
6.1704196591
 20
5.3998661836
 30
0.0
 10
6.1767820888
 20
5.4173329668
 30
0.0
 10
6.1840074112
 20
5.4343508336
 30
0.0
 10
6.1907171427
 20
5.4481407744
 30
0.0
 10
6.196470075
 20
5.458896411
 30
0.0
 10
6.2009610998
 20
5.466800784
 30
0.0
 10
6.2056336872
 20
5.4745471265
 30
0.0
 10
6.2104843897
 20
5.4821246375
 30
0.0
 10
6.2155098224
 20
5.4895220652
 30
0.0
 10
6.2207052662
 20
5.4967274003
 30
0.0
 10
6.2260685438
 20
5.5037244018
 30
0.0
 10
6.2315972215
 20
5.5104945664
 30
0.0
 10
6.237288278
 20
5.5170187879
 30
0.0
 10
6.2431370244
 20
5.5232769005
 30
0.0
 10
6.2491397106
 20
5.5292442512
 30
0.0
 10
6.2552916633
 20
5.5348934268
 30
0.0
 10
6.2615861237
 20
5.5401954256
 30
0.0
 10
6.2680120479
 20
5.5451181226
 30
0.0
 10
6.2745543408
 20
5.5496242269
 30
0.0
 10
6.2790322876
 20
5.5523547571
 30
0.0
 10
6.2812866437
 20
5.5536351587
 30
0.0
 11
6.1548277172
 21
5.3077182114
 31
0.0
 11
6.1575453761
 21
5.3452567118
 31
0.0
 11
6.1607988242
 21
5.3637576588
 31
0.0
 11
6.1651803959
 21
5.3819714259
 31
0.0
 11
6.1705897992
 21
5.3998375236
 31
0.0
 11
6.1769442544
 21
5.4173045433
 31
0.0
 11
6.1841677454
 21
5.4343223847
 31
0.0
 11
6.1922034648
 21
5.4508374614
 31
0.0
 11
6.1965104281
 21
5.458889301
 31
0.0
 11
6.2010026435
 21
5.4667937004
 31
0.0
 11
6.2056764474
 21
5.4745400101
 31
0.0
 11
6.2105284205
 21
5.4821172145
 31
0.0
 11
6.2155551439
 21
5.4895142979
 31
0.0
 11
6.2207532363
 21
5.4967195495
 31
0.0
 11
6.2261195904
 21
5.5037162453
 31
0.0
 11
6.2316512188
 21
5.5104854627
 31
0.0
 11
6.2373451349
 21
5.5170082696
 31
0.0
 11
6.2431981322
 21
5.5232649668
 31
0.0
 11
6.2492053724
 21
5.5292301561
 31
0.0
 11
6.2553612825
 21
5.5348758728
 31
0.0
 11
6.2616602642
 21
5.5401741194
 31
0.0
 11
6.2680928512
 21
5.545093248
 31
0.0
 11
6.2746412634
 21
5.5495937647
 31
0.0
 11
6.2812866437
 21
5.5536351587
 31
0.0
  0
SPLINE
  5
422
100
AcDbEntity
  8
0
100
AcDbSpline
 62
7
  6
CONTINUOUS
 70
0
 71
3
 72
56
 73
52
 74
50
 42
0.0000001
 43
0.0000001
 44
0.0000000001
 12
-0.0980425672
 22
-0.470811531
 32
0.0
 13
-0.001314726
 23
0.4809096736
 33
0.0
 40
0.0
 40
0.0
 40
0.0
 40
0.0
 40
0.0169119637
 40
0.0335535061
 40
0.0499069145
 40
0.0659596955
 40
0.0971414028
 40
0.127108876
 40
0.1559246851
 40
0.1836866749
 40
0.210526383
 40
0.2236545897
 40
0.2366147095
 40
0.2494314883
 40
0.2621296575
 40
0.274737359
 40
0.2872830906
 40
0.299798741
 40
0.3123173348
 40
0.3248754873
 40
0.337511424
 40
0.3502653118
 40
0.3631781945
 40
0.3697079434
 40
0.3762920317
 40
0.3896370654
 40
0.4032411558
 40
0.4171204521
 40
0.4312830091
 40
0.4457300685
 40
0.4604584253
 40
0.4754605914
 40
0.4907277864
 40
0.5062489039
 40
0.5220128529
 40
0.5380076141
 40
0.5706362142
 40
0.6040463774
 40
0.63814722
 40
0.6728524705
 40
0.7080808352
 40
0.7258706145
 40
0.7437622357
 40
0.7617452979
 40
0.7798100895
 40
0.8161400274
 40
0.8526884726
 40
0.8893949163
 40
0.9262086439
 40
0.9630885325
 40
1.0
 40
1.0
 40
1.0
 40
1.0
 10
6.4308224211
 20
5.2085501735
 30
0.0
 10
6.4302697236
 20
5.2058960576
 30
0.0
 10
6.4291094975
 20
5.2006432386
 30
0.0
 10
6.4271807022
 20
5.1928780194
 30
0.0
 10
6.4250714404
 20
5.1853024264
 30
0.0
 10
6.422042589
 20
5.1755681858
 30
0.0
 10
6.4178089129
 20
5.1639285119
 30
0.0
 10
6.4119281829
 20
5.1507460022
 30
0.0
 10
6.4052967335
 20
5.1385419331
 30
0.0
 10
6.3979090993
 20
5.1273744283
 30
0.0
 10
6.3910675422
 20
5.1189176891
 30
0.0
 10
6.3852216998
 20
5.1127634338
 30
0.0
 10
6.3806811528
 20
5.1084830624
 30
0.0
 10
6.3759540576
 20
5.1045158177
 30
0.0
 10
6.3710408256
 20
5.1008751194
 30
0.0
 10
6.3659436811
 20
5.0975754167
 30
0.0
 10
6.3606648787
 20
5.0946337896
 30
0.0
 10
6.3552085165
 20
5.0920687979
 30
0.0
 10
6.3495799327
 20
5.0899010571
 30
0.0
 10
6.3437868232
 20
5.088152507
 30
0.0
 10
6.3378396418
 20
5.0868444554
 30
0.0
 10
6.331751753
 20
5.0859984638
 30
0.0
 10
6.3265933002
 20
5.0856985452
 30
0.0
 10
6.3224202113
 20
5.0857029057
 30
0.0
 10
6.3181812355
 20
5.0858738791
 30
0.0
 10
6.3128259992
 20
5.0863978667
 30
0.0
 10
6.3063686723
 20
5.087494779
 30
0.0
 10
6.2998696293
 20
5.0890408774
 30
0.0
 10
6.2933467235
 20
5.0910143943
 30
0.0
 10
6.2868160144
 20
5.0933934592
 30
0.0
 10
6.280292727
 20
5.0961575209
 30
0.0
 10
6.2737906194
 20
5.0992866377
 30
0.0
 10
6.2673235471
 20
5.1027640272
 30
0.0
 10
6.2609041255
 20
5.1065733829
 30
0.0
 10
6.2545456495
 20
5.11070182
 30
0.0
 10
6.246110703
 20
5.1166540625
 30
0.0
 10
6.2358014921
 20
5.1248388666
 30
0.0
 10
6.2239691309
 20
5.1357066235
 30
0.0
 10
6.2127087048
 20
5.1476293897
 30
0.0
 10
6.2021436096
 20
5.1605511473
 30
0.0
 10
6.1940533426
 20
5.1720708165
 30
0.0
 10
6.1880604976
 20
5.1817325851
 30
0.0
 10
6.1838080124
 20
5.1892131596
 30
0.0
 10
6.1798266002
 20
5.1968911848
 30
0.0
 10
6.1748835901
 20
5.2073906025
 30
0.0
 10
6.1694320463
 20
5.2209278052
 30
0.0
 10
6.1640967883
 20
5.2376810805
 30
0.0
 10
6.1599659989
 20
5.2548503337
 30
0.0
 10
6.1570227391
 20
5.272315346
 30
0.0
 10
6.1552519079
 20
5.2899695391
 30
0.0
 10
6.15484262
 20
5.3018011832
 30
0.0
 10
6.1548264438
 20
5.3077182105
 30
0.0
 11
6.4308224211
 21
5.2085501735
 31
0.0
 11
6.4290654581
 21
5.2006090571
 31
0.0
 11
6.4271330012
 21
5.1928427608
 31
0.0
 11
6.4250203172
 21
5.1852673016
 31
0.0
 11
6.4227239023
 21
5.1778967954
 31
0.0
 11
6.4175749273
 21
5.1638128578
 31
0.0
 11
6.411680923
 21
5.1506615136
 31
0.0
 11
6.4050407788
 21
5.1384981021
 31
0.0
 11
6.3976516798
 21
5.1273782099
 31
0.0
 11
6.3895124299
 21
5.1173603871
 31
0.0
 11
6.3851617829
 21
5.112785213
 31
0.0
 11
6.3806243302
 21
5.1085123098
 31
0.0
 11
6.3759007379
 21
5.1045525981
 31
0.0
 11
6.3709923267
 21
5.1009195242
 31
0.0
 11
6.3659007379
 21
5.0976274161
 31
0.0
 11
6.3606289024
 21
5.0946932212
 31
0.0
 11
6.3551805785
 21
5.0921352605
 31
0.0
 11
6.3495615764
 21
5.0899739523
 31
0.0
 11
6.343779319
 21
5.0882305753
 31
0.0
 11
6.3378441527
 21
5.0869263906
 31
0.0
 11
6.3317689358
 21
5.0860829157
 31
0.0
 11
6.325569572
 21
5.0857204103
 31
0.0
 11
6.3224293422
 21
5.0857233616
 31
0.0
 11
6.3192655171
 21
5.0858501247
 31
0.0
 11
6.3128775594
 21
5.0864680999
 31
0.0
 11
6.3064263597
 21
5.0875564648
 31
0.0
 11
6.299931244
 21
5.0890944061
 31
0.0
 11
6.2934102246
 21
5.0910604062
 31
0.0
 11
6.2868800941
 21
5.0934328978
 31
0.0
 11
6.2803562287
 21
5.0961912625
 31
0.0
 11
6.2738532056
 21
5.0993158082
 31
0.0
 11
6.267384655
 21
5.1027893225
 31
0.0
 11
6.2609638776
 21
5.1065957834
 31
0.0
 11
6.2546039421
 21
5.1107217682
 31
0.0
 11
6.248317847
 21
5.1151549228
 31
0.0
 11
6.2360208151
 21
5.1249019827
 31
0.0
 11
6.2241829461
 21
5.1357658665
 31
0.0
 11
6.2129207852
 21
5.1476867257
 31
0.0
 11
6.2023574068
 21
5.1606086546
 31
0.0
 11
6.1926255726
 21
5.1744763667
 31
0.0
 11
6.1881158608
 21
5.1817465669
 31
0.0
 11
6.1838637061
 21
5.189226735
 31
0.0
 11
6.1798821358
 21
5.1969039425
 31
0.0
 11
6.1761810959
 21
5.2047637197
 31
0.0
 11
6.1696490401
 21
5.2209681942
 31
0.0
 11
6.1643079242
 21
5.2377135868
 31
0.0
 11
6.1601692203
 21
5.2548741126
 31
0.0
 11
6.1572203518
 21
5.2723309418
 31
0.0
 11
6.1554452836
 21
5.2899778526
 31
0.0
 11
6.1548264438
 21
5.3077182105
 31
0.0
  0
SPLINE
  5
423
100
AcDbEntity
  8
0
100
AcDbSpline
 62
7
  6
CONTINUOUS
 70
0
 71
3
 72
14
 73
10
 74
8
 42
0.0000001
 43
0.0000001
 44
0.0000000001
 12
-0.0392249221
 22
0.0222854261
 32
0.0
 13
-0.0451135759
 23
0.0000003721
 33
0.0
 40
0.0
 40
0.0
 40
0.0
 40
0.0
 40
0.1333576444
 40
0.2643130052
 40
0.5186848562
 40
0.6422743062
 40
0.7635548509
 40
0.88272228
 40
1.0
 40
1.0
 40
1.0
 40
1.0
 10
5.5784590593
 20
5.5536351586
 30
0.0
 10
5.5767154116
 20
5.5546258026
 30
0.0
 10
5.5732116912
 20
5.5565072165
 30
0.0
 10
5.5661559663
 20
5.559837007
 30
0.0
 10
5.5589668591
 20
5.5625255594
 30
0.0
 10
5.5517074101
 20
5.5644579572
 30
0.0
 10
5.546327997
 20
5.5654989374
 30
0.0
 10
5.5409811361
 20
5.5661318416
 30
0.0
 10
5.5374240381
 20
5.5662763963
 30
0.0
 10
5.5356604324
 20
5.5662764109
 30
0.0
 11
5.5784590593
 21
5.5536351586
 31
0.0
 11
5.5731564884
 21
5.5564773213
 31
0.0
 11
5.5678115289
 21
5.5589941191
 31
0.0
 11
5.5570484021
 21
5.5629747026
 31
0.0
 11
5.5516591065
 21
5.564403823
 31
0.0
 11
5.5462863884
 21
5.565438283
 31
0.0
 11
5.5409470499
 21
5.5660656429
 31
0.0
 11
5.5356604324
 21
5.5662764109
 31
0.0
  0
SPLINE
  5
424
100
AcDbEntity
  8
0
100
AcDbSpline
 62
7
  6
CONTINUOUS
 70
0
 71
3
 72
15
 73
11
 74
9
 42
0.0000001
 43
0.0000001
 44
0.0000000001
 12
-0.0412504449
 22
-0.0000000935
 32
0.0
 13
-0.0337982333
 23
-0.0236490725
 33
0.0
 40
0.0
 40
0.0
 40
0.0
 40
0.0
 40
0.1265628852
 40
0.2518559907
 40
0.3762810601
 40
0.5002857135
 40
0.6242911698
 40
0.7486873006
 40
0.873832314
 40
1.0
 40
1.0
 40
1.0
 40
1.0
 10
5.5356604237
 20
5.5662764109
 30
0.0
 10
5.5339201653
 20
5.566276407
 30
0.0
 10
5.5304554061
 20
5.5661374205
 30
0.0
 10
5.5253142433
 20
5.5655092701
 30
0.0
 10
5.5202754749
 20
5.5644718868
 30
0.0
 10
5.5153536381
 20
5.563038109
 30
0.0
 10
5.510559893
 20
5.5612234485
 30
0.0
 10
5.5059033436
 20
5.5590446482
 30
0.0
 10
5.5013911083
 20
5.5565207226
 30
0.0
 10
5.4984952696
 20
5.5546297416
 30
0.0
 10
5.4970738546
 20
5.5536351587
 30
0.0
 11
5.5356604237
 21
5.5662764109
 31
0.0
 11
5.5304439045
 21
5.5660656452
 31
0.0
 11
5.5253137276
 21
5.5654382652
 31
0.0
 11
5.5202864673
 21
5.5644037949
 31
0.0
 11
5.5153749111
 21
5.5629746801
 31
0.0
 11
5.5105900911
 21
5.5611659267
 31
0.0
 11
5.5059409471
 21
5.5589941343
 31
0.0
 11
5.501433744
 21
5.5564773243
 31
0.0
 11
5.4970738546
 21
5.5536351587
 31
0.0
  0
SPLINE
  5
425
100
AcDbEntity
  8
0
100
AcDbSpline
 62
7
  6
CONTINUOUS
 70
0
 71
3
 72
15
 73
11
 74
9
 42
0.0000001
 43
0.0000001
 44
0.0000000001
 12
0.0412504557
 22
-0.0000016815
 32
0.0
 13
0.0337988727
 23
-0.0236481776
 33
0.0
 40
0.0
 40
0.0
 40
0.0
 40
0.0
 40
0.1265531197
 40
0.2518574551
 40
0.376288724
 40
0.5002908371
 40
0.6242907529
 40
0.748695157
 40
0.8738443105
 40
1.0
 40
1.0
 40
1.0
 40
1.0
 10
6.3240848028
 20
5.5662764109
 30
0.0
 10
6.3258249274
 20
5.56627634
 30
0.0
 10
6.3292896833
 20
5.5661371164
 30
0.0
 10
6.3344310217
 20
5.5655094831
 30
0.0
 10
6.3394699284
 20
5.5644717306
 30
0.0
 10
6.3443918279
 20
5.5630382598
 30
0.0
 10
6.3491854517
 20
5.5612232627
 30
0.0
 10
6.3538422021
 20
5.5590446718
 30
0.0
 10
6.3583542844
 20
5.5565204443
 30
0.0
 10
6.3612500798
 20
5.5546296094
 30
0.0
 10
6.3626713865
 20
5.5536351587
 30
0.0
 11
6.3240848028
 21
5.5662764109
 31
0.0
 11
6.3293009148
 21
5.5660655121
 31
0.0
 11
6.3344315827
 21
5.5654383197
 31
0.0
 11
6.3394590774
 21
5.5644037133
 31
0.0
 11
6.3443705596
 21
5.5629747142
 31
0.0
 11
6.3491551182
 21
5.5611659117
 31
0.0
 11
6.3538046023
 21
5.5589940379
 31
0.0
 11
6.3583118779
 21
5.5564770047
 31
0.0
 11
6.3626713865
 21
5.5536351587
 31
0.0
  0
SPLINE
  5
426
100
AcDbEntity
  8
0
100
AcDbSpline
 62
7
  6
CONTINUOUS
 70
0
 71
3
 72
14
 73
10
 74
8
 42
0.0000001
 43
0.0000001
 44
0.0000000001
 12
0.0392256761
 22
0.0222841391
 32
0.0
 13
0.0451135957
 23
0.0000016965
 33
0.0
 40
0.0
 40
0.0
 40
0.0
 40
0.0
 40
0.1333448589
 40
0.2643049042
 40
0.5186795111
 40
0.6422630125
 40
0.7635519848
 40
0.8827323558
 40
1.0
 40
1.0
 40
1.0
 40
1.0
 10
6.2812861826
 20
5.5536351586
 30
0.0
 10
6.2830296966
 20
5.5546256504
 30
0.0
 10
6.2865333234
 20
5.5565069745
 30
0.0
 10
6.2935888382
 20
5.559837025
 30
0.0
 10
6.3007780003
 20
5.5625255774
 30
0.0
 10
6.3080375694
 20
5.5644577905
 30
0.0
 10
6.3134171683
 20
5.5654990926
 30
0.0
 10
6.3187642564
 20
5.5661315424
 30
0.0
 10
6.322321378
 20
5.5662763446
 30
0.0
 10
6.324084833
 20
5.5662764109
 30
0.0
 11
6.2812861826
 21
5.5536351586
 31
0.0
 11
6.2865882696
 21
5.5564770085
 31
0.0
 11
6.2919333505
 21
5.5589940508
 31
0.0
 11
6.3026965948
 21
5.5629746896
 31
0.0
 11
6.3080856498
 21
5.5644036796
 31
0.0
 11
6.3134587275
 21
5.5654382957
 31
0.0
 11
6.3187986734
 21
5.5660655097
 31
0.0
 11
6.324084833
 21
5.5662764109
 31
0.0
  0
LINE
  5
427
100
AcDbEntity
  8
0
100
AcDbLine
 62
7
  6
CONTINUOUS
 10
5.9078573631
 20
5.8727197663
 11
5.9069421649
 21
5.8727044626
  0
LINE
  5
428
100
AcDbEntity
  8
0
100
AcDbLine
 62
7
  6
CONTINUOUS
 10
5.9069421649
 20
5.8727044626
 11
5.9060375119
 21
5.8726847965
  0
LINE
  5
429
100
AcDbEntity
  8
0
100
AcDbLine
 62
7
  6
CONTINUOUS
 10
5.9427450473
 20
5.8728145615
 11
5.941839119
 21
5.8728278457
  0
LINE
  5
42A
100
AcDbEntity
  8
0
100
AcDbLine
 62
7
  6
CONTINUOUS
 10
5.941839119
 20
5.8728278457
 11
5.9409251961
 21
5.8728366623
  0
LINE
  5
42B
100
AcDbEntity
  8
0
100
AcDbLine
 62
7
  6
CONTINUOUS
 10
5.6324624566
 20
5.8425306087
 11
5.6322771891
 21
5.8424958474
  0
LINE
  5
42C
100
AcDbEntity
  8
0
100
AcDbLine
 62
7
  6
CONTINUOUS
 10
5.6322771891
 20
5.8424958474
 11
5.61512774
 21
5.8392749689
  0
LINE
  5
42D
100
AcDbEntity
  8
0
100
AcDbLine
 62
7
  6
CONTINUOUS
 10
5.61512774
 20
5.8392749689
 11
5.6149380809
 21
5.8392393137
  0
LINE
  5
42E
100
AcDbEntity
  8
0
100
AcDbLine
 62
7
  6
CONTINUOUS
 10
5.6149380809
 20
5.8392393137
 11
5.6099639415
 21
5.8383039255
  0
LINE
  5
42F
100
AcDbEntity
  8
0
100
AcDbLine
 62
7
  6
CONTINUOUS
 10
5.6099639415
 20
5.8383039255
 11
5.6097821944
 21
5.8382697382
  0
LINE
  5
430
100
AcDbEntity
  8
0
100
AcDbLine
 62
7
  6
CONTINUOUS
 10
5.6097821944
 20
5.8382697382
 11
5.5761813308
 21
5.8319392509
  0
LINE
  5
431
100
AcDbEntity
  8
0
100
AcDbLine
 62
7
  6
CONTINUOUS
 10
5.5761813308
 20
5.8319392509
 11
5.5748726145
 21
5.8316935212
  0
LINE
  5
432
100
AcDbEntity
  8
0
100
AcDbLine
 62
6
  6
CONTINUOUS
 10
5.7148726129
 20
5.8576706221
 11
5.7147237048
 21
5.8576443996
  0
LINE
  5
433
100
AcDbEntity
  8
0
100
AcDbLine
 62
6
  6
CONTINUOUS
 10
5.7015786557
 20
5.8552925156
 11
5.7013911702
 21
5.8552586278
  0
LINE
  5
434
100
AcDbEntity
  8
0
100
AcDbLine
 62
6
  6
CONTINUOUS
 10
5.7013911702
 20
5.8552586278
 11
5.699677401
 21
5.8549485574
  0
LINE
  5
435
100
AcDbEntity
  8
0
100
AcDbLine
 62
6
  6
CONTINUOUS
 10
5.6478403062
 20
5.8454063298
 11
5.6476195185
 21
5.845365175
  0
LINE
  5
436
100
AcDbEntity
  8
0
100
AcDbLine
 62
6
  6
CONTINUOUS
 10
5.6476195185
 20
5.845365175
 11
5.6474359583
 21
5.8453309564
  0
LINE
  5
437
100
AcDbEntity
  8
0
100
AcDbLine
 62
6
  6
CONTINUOUS
 10
5.6474359583
 20
5.8453309564
 11
5.6324624566
 21
5.8425306087
  0
LINE
  5
438
100
AcDbEntity
  8
0
100
AcDbLine
 62
7
  6
CONTINUOUS
 10
5.7147391701
 20
5.8576530313
 11
5.7148726129
 21
5.8576706221
  0
LINE
  5
439
100
AcDbEntity
  8
0
100
AcDbLine
 62
7
  6
CONTINUOUS
 10
5.7011937244
 20
5.8557871435
 11
5.7013428216
 21
5.8558134282
  0
LINE
  5
43A
100
AcDbEntity
  8
0
100
AcDbLine
 62
7
  6
CONTINUOUS
 10
5.6150489886
 20
5.8403739392
 11
5.6313355277
 21
5.8432254396
  0
LINE
  5
43B
100
AcDbEntity
  8
0
100
AcDbLine
 62
7
  6
CONTINUOUS
 10
5.6313355277
 20
5.8432254396
 11
5.6320879139
 21
5.8433599114
  0
LINE
  5
43C
100
AcDbEntity
  8
0
100
AcDbLine
 62
7
  6
CONTINUOUS
 10
5.6320879139
 20
5.8433599114
 11
5.6322577397
 21
5.8433902823
  0
LINE
  5
43D
100
AcDbEntity
  8
0
100
AcDbLine
 62
7
  6
CONTINUOUS
 10
5.64729482
 20
5.846101067
 11
5.6474752547
 21
5.8461338167
  0
LINE
  5
43E
100
AcDbEntity
  8
0
100
AcDbLine
 62
7
  6
CONTINUOUS
 10
5.6098850955
 20
5.8395014876
 11
5.610569214
 21
5.8396216335
  0
LINE
  5
43F
100
AcDbEntity
  8
0
100
AcDbLine
 62
7
  6
CONTINUOUS
 10
5.610569214
 20
5.8396216335
 11
5.6148550967
 21
5.8403415916
  0
LINE
  5
440
100
AcDbEntity
  8
0
100
AcDbLine
 62
7
  6
CONTINUOUS
 10
5.6148550967
 20
5.8403415916
 11
5.6150489886
 21
5.8403739392
  0
LINE
  5
441
100
AcDbEntity
  8
0
100
AcDbLine
 62
7
  6
CONTINUOUS
 10
5.7198726129
 20
5.8577767764
 11
5.7326437901
 21
5.8597900734
  0
LINE
  5
442
100
AcDbEntity
  8
0
100
AcDbLine
 62
7
  6
CONTINUOUS
 10
5.7326437901
 20
5.8597900734
 11
5.7341665528
 21
5.8601089698
  0
LINE
  5
443
100
AcDbEntity
  8
0
100
AcDbLine
 62
7
  6
CONTINUOUS
 10
5.7341665528
 20
5.8601089698
 11
5.7342708355
 21
5.8601405767
  0
LINE
  5
444
100
AcDbEntity
  8
0
100
AcDbLine
 62
7
  6
CONTINUOUS
 10
5.7342708355
 20
5.8601405767
 11
5.7343726129
 21
5.8601951086
  0
LINE
  5
445
100
AcDbEntity
  8
0
100
AcDbLine
 62
7
  6
CONTINUOUS
 10
5.7673726129
 20
5.8640310544
 11
5.7679303997
 21
5.863988996
  0
LINE
  5
446
100
AcDbEntity
  8
0
100
AcDbLine
 62
7
  6
CONTINUOUS
 10
5.7679303997
 20
5.863988996
 11
5.7695922835
 21
5.864053441
  0
LINE
  5
447
100
AcDbEntity
  8
0
100
AcDbLine
 62
7
  6
CONTINUOUS
 10
5.7695922835
 20
5.864053441
 11
5.7797193368
 21
5.8648032102
  0
LINE
  5
448
100
AcDbEntity
  8
0
100
AcDbLine
 62
7
  6
CONTINUOUS
 10
5.7797193368
 20
5.8648032102
 11
5.7798726129
 21
5.8648161176
  0
LINE
  5
449
100
AcDbEntity
  8
0
100
AcDbLine
 62
7
  6
CONTINUOUS
 10
5.7688390462
 20
5.864485445
 11
5.7673726129
 21
5.8643173319
  0
LINE
  5
44A
100
AcDbEntity
  8
0
100
AcDbLine
 62
7
  6
CONTINUOUS
 10
5.8073726129
 20
5.8680091441
 11
5.8070006134
 21
5.8679882552
  0
LINE
  5
44B
100
AcDbEntity
  8
0
100
AcDbLine
 62
7
  6
CONTINUOUS
 10
5.8070006134
 20
5.8679882552
 11
5.8059294849
 21
5.8679082959
  0
LINE
  5
44C
100
AcDbEntity
  8
0
100
AcDbLine
 62
7
  6
CONTINUOUS
 10
5.7948726129
 20
5.8662011344
 11
5.8058906103
 21
5.867436453
  0
LINE
  5
44D
100
AcDbEntity
  8
0
100
AcDbLine
 62
7
  6
CONTINUOUS
 10
5.8058906103
 20
5.867436453
 11
5.807165794
 21
5.8676473772
  0
LINE
  5
44E
100
AcDbEntity
  8
0
100
AcDbLine
 62
7
  6
CONTINUOUS
 10
5.807165794
 20
5.8676473772
 11
5.8072667473
 21
5.8676729029
  0
LINE
  5
44F
100
AcDbEntity
  8
0
100
AcDbLine
 62
7
  6
CONTINUOUS
 10
5.8072667473
 20
5.8676729029
 11
5.8073726129
 21
5.8677235504
  0
LINE
  5
450
100
AcDbEntity
  8
0
100
AcDbLine
 62
7
  6
CONTINUOUS
 10
5.8403726129
 20
5.8699852151
 11
5.8408410447
 21
5.869920696
  0
LINE
  5
451
100
AcDbEntity
  8
0
100
AcDbLine
 62
7
  6
CONTINUOUS
 10
5.8408410447
 20
5.869920696
 11
5.8422449828
 21
5.8699013109
  0
LINE
  5
452
100
AcDbEntity
  8
0
100
AcDbLine
 62
7
  6
CONTINUOUS
 10
5.8422449828
 20
5.8699013109
 11
5.8548726129
 21
5.870254
  0
LINE
  5
453
100
AcDbEntity
  8
0
100
AcDbLine
 62
7
  6
CONTINUOUS
 10
5.8598726129
 20
5.8704881482
 11
5.8791958065
 21
5.8716810868
  0
SPLINE
  5
454
100
AcDbEntity
  8
0
100
AcDbSpline
 62
7
  6
CONTINUOUS
 70
0
 71
3
 72
8
 73
4
 74
2
 42
0.0000001
 43
0.0000001
 44
0.0000000001
 12
0.000063522
 22
0.0000052082
 32
0.0
 13
0.0000635195
 23
0.0000052388
 33
0.0
 40
0.0
 40
0.0
 40
0.0
 40
0.0
 40
1.0
 40
1.0
 40
1.0
 40
1.0
 10
5.8813230609
 20
5.8718437005
 30
0.0
 10
5.8813442349
 20
5.8718454366
 30
0.0
 10
5.8813654085
 20
5.8718471777
 30
0.0
 10
5.8813865817
 20
5.8718489239
 30
0.0
 11
5.8813230609
 21
5.8718437005
 31
0.0
 11
5.8813865817
 21
5.8718489239
 31
0.0
  0
SPLINE
  5
455
100
AcDbEntity
  8
0
100
AcDbSpline
 62
7
  6
CONTINUOUS
 70
0
 71
3
 72
33
 73
29
 74
27
 42
0.0000001
 43
0.0000001
 44
0.0000000001
 12
-0.0022543676
 22
-0.0001724445
 32
0.0
 13
0.0022592028
 23
-0.0000889567
 33
0.0
 40
0.0
 40
0.0
 40
0.0
 40
0.0
 40
0.1023386818
 40
0.1901040925
 40
0.2631037163
 40
0.3211604021
 40
0.3641345742
 40
0.3799555484
 40
0.3920409283
 40
0.4005249186
 40
0.4035320858
 40
0.4058602753
 40
0.4077758349
 40
0.4097216203
 40
0.4121230627
 40
0.4152227767
 40
0.4239060386
 40
0.4361779313
 40
0.4521561335
 40
0.4718891705
 40
0.4953998466
 40
0.5226987331
 40
0.5537793477
 40
0.5886223268
 40
0.6695061837
 40
0.7651636936
 40
0.8753962878
 40
1.0
 40
1.0
 40
1.0
 40
1.0
 10
5.8965631763
 20
5.872207677
 30
0.0
 10
5.8964862733
 20
5.8722017944
 30
0.0
 10
5.8963434642
 20
5.8721902404
 30
0.0
 10
5.8961460305
 20
5.8721717929
 30
0.0
 10
5.895982099
 20
5.8721536747
 30
0.0
 10
5.8958521345
 20
5.8721359239
 30
0.0
 10
5.8957653616
 20
5.8721205951
 30
0.0
 10
5.8957134539
 20
5.8721077608
 30
0.0
 10
5.8956873816
 20
5.8720992925
 30
0.0
 10
5.8956710681
 20
5.8720918641
 30
0.0
 10
5.8956627815
 20
5.8720854741
 30
0.0
 10
5.8956593171
 20
5.8720811235
 30
0.0
 10
5.8956581643
 20
5.8720763843
 30
0.0
 10
5.8956597635
 20
5.8720717275
 30
0.0
 10
5.8956635807
 20
5.8720675036
 30
0.0
 10
5.8956723785
 20
5.8720613478
 30
0.0
 10
5.895689251
 20
5.8720543374
 30
0.0
 10
5.8957159575
 20
5.8720465245
 30
0.0
 10
5.8957513136
 20
5.8720387729
 30
0.0
 10
5.8957952796
 20
5.8720310728
 30
0.0
 10
5.8958479062
 20
5.8720234738
 30
0.0
 10
5.8959091701
 20
5.8720159884
 30
0.0
 10
5.8959790436
 20
5.8720086293
 30
0.0
 10
5.8960892216
 20
5.8719984861
 30
0.0
 10
5.8962480875
 20
5.8719864697
 30
0.0
 10
5.8964638129
 20
5.8719732226
 30
0.0
 10
5.8967125737
 20
5.8719606001
 30
0.0
 10
5.8968894005
 20
5.8719530845
 30
0.0
 10
5.8969832355
 20
5.8719493898
 30
0.0
 11
5.8965631763
 21
5.872207677
 31
0.0
 11
5.8963325613
 21
5.8721888402
 31
0.0
 11
5.89613501
 21
5.8721701499
 31
0.0
 11
5.8959710005
 21
5.8721516568
 31
0.0
 11
5.8958410112
 21
5.8721334119
 31
0.0
 11
5.8957455203
 21
5.8721154661
 31
0.0
 11
5.8957108605
 21
5.8721066213
 31
0.0
 11
5.8956849755
 21
5.8720978696
 31
0.0
 11
5.8956678566
 21
5.8720892157
 31
0.0
 11
5.8956625809
 21
5.8720849269
 31
0.0
 11
5.8956594923
 21
5.8720806643
 31
0.0
 11
5.8956585896
 21
5.8720764284
 31
0.0
 11
5.8956598712
 21
5.8720722199
 31
0.0
 11
5.8956633356
 21
5.8720680393
 31
0.0
 11
5.8956689815
 21
5.8720638872
 31
0.0
 11
5.8956868119
 21
5.8720556707
 31
0.0
 11
5.8957133508
 21
5.8720475751
 31
0.0
 11
5.8957485866
 21
5.8720396049
 31
0.0
 11
5.8957925078
 21
5.8720317648
 31
0.0
 11
5.8958451029
 21
5.8720240594
 31
0.0
 11
5.8959063589
 21
5.8720164932
 31
0.0
 11
5.8959762376
 21
5.8720090706
 31
0.0
 11
5.8960546793
 21
5.8720017956
 31
0.0
 11
5.8962370103
 21
5.8719877043
 31
0.0
 11
5.8964528686
 21
5.8719742515
 31
0.0
 11
5.8967017714
 21
5.8719614693
 31
0.0
 11
5.8969832355
 21
5.8719493898
 31
0.0
  0
LINE
  5
456
100
AcDbEntity
  8
0
100
AcDbLine
 62
7
  6
CONTINUOUS
 10
5.8969832355
 20
5.8719493898
 11
5.8989466201
 21
5.8718988647
  0
LINE
  5
457
100
AcDbEntity
  8
0
100
AcDbLine
 62
7
  6
CONTINUOUS
 10
5.8989466201
 20
5.8718988647
 11
5.9048726129
 21
5.8718680956
  0
LINE
  5
458
100
AcDbEntity
  8
0
100
AcDbLine
 62
7
  6
CONTINUOUS
 10
5.8987581072
 20
5.8723622818
 11
5.8976569261
 21
5.8722880408
  0
LINE
  5
459
100
AcDbEntity
  8
0
100
AcDbLine
 62
7
  6
CONTINUOUS
 10
5.8976569261
 20
5.8722880408
 11
5.8965631763
 21
5.872207677
  0
LINE
  5
45A
100
AcDbEntity
  8
0
100
AcDbLine
 62
7
  6
CONTINUOUS
 10
5.952219383
 20
5.8724044838
 11
5.9511009784
 21
5.8724786638
  0
LINE
  5
45B
100
AcDbEntity
  8
0
100
AcDbLine
 62
7
  6
CONTINUOUS
 10
5.9511009784
 20
5.8724786638
 11
5.95008452
 21
5.8725400964
  0
SPLINE
  5
45C
100
AcDbEntity
  8
0
100
AcDbSpline
 62
7
  6
CONTINUOUS
 70
0
 71
3
 72
8
 73
4
 74
2
 42
0.0000001
 43
0.0000001
 44
0.0000000001
 12
-0.000060068
 22
0.000003452
 32
0.0
 13
-0.000060068
 23
0.000003452
 33
0.0
 40
0.0
 40
0.0
 40
0.0
 40
0.0
 40
1.0
 40
1.0
 40
1.0
 40
1.0
 10
5.95008452
 20
5.8725400964
 30
0.0
 10
5.9500644973
 20
5.872541247
 30
0.0
 10
5.9500444747
 20
5.8725423977
 30
0.0
 10
5.950024452
 20
5.8725435484
 30
0.0
 11
5.95008452
 21
5.8725400964
 31
0.0
 11
5.950024452
 21
5.8725435484
 31
0.0
  0
LINE
  5
45D
100
AcDbEntity
  8
0
100
AcDbLine
 62
7
  6
CONTINUOUS
 10
5.9439099463
 20
5.872006169
 11
5.9509207135
 21
5.8721091454
  0
SPLINE
  5
45E
100
AcDbEntity
  8
0
100
AcDbSpline
 62
7
  6
CONTINUOUS
 70
0
 71
3
 72
35
 73
31
 74
29
 42
0.0000001
 43
0.0000001
 44
0.0000000001
 12
0.0031386724
 22
0.0001030775
 32
0.0
 13
-0.0031328265
 23
0.0002174559
 33
0.0
 40
0.0
 40
0.0
 40
0.0
 40
0.0
 40
0.1334070299
 40
0.2535803543
 40
0.3601962086
 40
0.4529330344
 40
0.5314732046
 40
0.5653226566
 40
0.5955147327
 40
0.6220399881
 40
0.6448949199
 40
0.6640803076
 40
0.6796052864
 40
0.6914976548
 40
0.6961047959
 40
0.6998438264
 40
0.7027567939
 40
0.7049358997
 40
0.7066024497
 40
0.7082086022
 40
0.7102489965
 40
0.7129940913
 40
0.7209851744
 40
0.7325502404
 40
0.7477631638
 40
0.7666379804
 40
0.789168072
 40
0.8451253555
 40
0.9154685581
 40
1.0
 40
1.0
 40
1.0
 40
1.0
 10
5.9509207135
 20
5.8721091454
 30
0.0
 10
5.9510602871
 20
5.8721137292
 30
0.0
 10
5.9513255699
 20
5.8721230472
 30
0.0
 10
5.9517023063
 20
5.8721384573
 30
0.0
 10
5.9520364007
 20
5.8721545133
 30
0.0
 10
5.9523268237
 20
5.8721711522
 30
0.0
 10
5.9525410392
 20
5.8721860591
 30
0.0
 10
5.9526897734
 20
5.8721985216
 30
0.0
 10
5.9527841525
 20
5.8722075148
 30
0.0
 10
5.9528669544
 20
5.8722166051
 30
0.0
 10
5.9529381434
 20
5.8722257803
 30
0.0
 10
5.9529977046
 20
5.8722350051
 30
0.0
 10
5.9530456063
 20
5.8722442726
 30
0.0
 10
5.9530781571
 20
5.8722524813
 30
0.0
 10
5.9530981895
 20
5.8722594184
 30
0.0
 10
5.9531089996
 20
5.8722641635
 30
0.0
 10
5.953116956
 20
5.872268939
 30
0.0
 10
5.9531222251
 20
5.8722737777
 30
0.0
 10
5.9531246392
 20
5.872279299
 30
0.0
 10
5.9531231086
 20
5.8722850033
 30
0.0
 10
5.9531184438
 20
5.8722899838
 30
0.0
 10
5.9531072528
 20
5.8722973907
 30
0.0
 10
5.9530852812
 20
5.872305824
 30
0.0
 10
5.9530502121
 20
5.8723154491
 30
0.0
 10
5.9530033794
 20
5.8723251821
 30
0.0
 10
5.9529449422
 20
5.8723350576
 30
0.0
 10
5.9528440188
 20
5.8723493525
 30
0.0
 10
5.9526891596
 20
5.8723666149
 30
0.0
 10
5.9524693367
 20
5.8723863232
 30
0.0
 10
5.9523076571
 20
5.8723983565
 30
0.0
 10
5.952219383
 20
5.8724044838
 30
0.0
 11
5.9509207135
 21
5.8721091454
 31
0.0
 11
5.9513393983
 21
5.8721239571
 31
0.0
 11
5.9517164656
 21
5.8721395128
 31
0.0
 11
5.9520508838
 21
5.8721557596
 31
0.0
 11
5.9523416213
 21
5.8721726448
 31
0.0
 11
5.9525876465
 21
5.8721901156
 31
0.0
 11
5.9526935697
 21
5.8721990541
 31
0.0
 11
5.9527879495
 21
5.8722081191
 31
0.0
 11
5.9528707406
 21
5.8722173034
 31
0.0
 11
5.9529419088
 21
5.8722265998
 31
0.0
 11
5.9530014199
 21
5.8722360011
 31
0.0
 11
5.9530492396
 21
5.8722455002
 31
0.0
 11
5.9530853339
 21
5.8722550897
 31
0.0
 11
5.9530989732
 21
5.8722599161
 31
0.0
 11
5.9531096683
 21
5.8722647624
 31
0.0
 11
5.953117415
 21
5.8722696277
 31
0.0
 11
5.9531222088
 21
5.8722745112
 31
0.0
 11
5.9531240457
 21
5.8722794118
 31
0.0
 11
5.9531229212
 21
5.8722843288
 31
0.0
 11
5.953118831
 21
5.8722892612
 31
0.0
 11
5.9531117711
 21
5.872294208
 31
0.0
 11
5.9530887259
 21
5.8723041416
 31
0.0
 11
5.9530538055
 21
5.8723141214
 31
0.0
 11
5.9530070932
 21
5.8723241382
 31
0.0
 11
5.9529486767
 21
5.8723341826
 31
0.0
 11
5.9528786432
 21
5.8723442453
 31
0.0
 11
5.9527040752
 21
5.8723643883
 31
0.0
 11
5.9524840887
 21
5.8723844926
 31
0.0
 11
5.952219383
 21
5.8724044838
 31
0.0
  0
SPLINE
  5
45F
100
AcDbEntity
  8
0
100
AcDbSpline
 62
7
  6
CONTINUOUS
 70
0
 71
3
 72
8
 73
4
 74
2
 42
0.0000001
 43
0.0000001
 44
0.0000000001
 12
0.0000662937
 22
-0.0000056821
 32
0.0
 13
0.0000662965
 23
-0.0000056488
 33
0.0
 40
0.0
 40
0.0
 40
0.0
 40
0.0
 40
1.0
 40
1.0
 40
1.0
 40
1.0
 10
5.9833586442
 20
5.8716844062
 30
0.0
 10
5.9833807421
 20
5.8716825122
 30
0.0
 10
5.9834028404
 20
5.8716806238
 30
0.0
 10
5.9834249393
 20
5.8716787409
 30
0.0
 11
5.9833586442
 21
5.8716844062
 31
0.0
 11
5.9834249393
 21
5.8716787409
 31
0.0
  0
LINE
  5
460
100
AcDbEntity
  8
0
100
AcDbLine
 62
7
  6
CONTINUOUS
 10
5.9855336376
 20
5.8715106756
 11
6.0048726129
 21
5.870254
  0
LINE
  5
461
100
AcDbEntity
  8
0
100
AcDbLine
 62
7
  6
CONTINUOUS
 10
6.1208726129
 20
5.8609950075
 11
6.1195681978
 21
5.8609942217
  0
LINE
  5
462
100
AcDbEntity
  8
0
100
AcDbLine
 62
7
  6
CONTINUOUS
 10
6.1195681978
 20
5.8609942217
 11
6.1012255927
 21
5.8623201573
  0
LINE
  5
463
100
AcDbEntity
  8
0
100
AcDbLine
 62
7
  6
CONTINUOUS
 10
6.1012255927
 20
5.8623201573
 11
6.1008262057
 21
5.8623521923
  0
LINE
  5
464
100
AcDbEntity
  8
0
100
AcDbLine
 62
7
  6
CONTINUOUS
 10
6.0407190338
 20
5.8675881721
 11
6.0116060638
 21
5.8705352758
  0
LINE
  5
465
100
AcDbEntity
  8
0
100
AcDbLine
 62
7
  6
CONTINUOUS
 10
6.0116060638
 20
5.8705352758
 11
6.0108726129
 21
5.8706864198
  0
LINE
  5
466
100
AcDbEntity
  8
0
100
AcDbLine
 62
7
  6
CONTINUOUS
 10
6.1398726129
 20
5.8577767764
 11
6.1400912387
 21
5.8577506899
  0
LINE
  5
467
100
AcDbEntity
  8
0
100
AcDbLine
 62
7
  6
CONTINUOUS
 10
6.1400912387
 20
5.8577506899
 11
6.145723778
 21
5.857135424
  0
LINE
  5
468
100
AcDbEntity
  8
0
100
AcDbLine
 62
7
  6
CONTINUOUS
 10
6.145723778
 20
5.857135424
 11
6.1478692746
 21
5.8570292774
  0
SPLINE
  5
469
100
AcDbEntity
  8
0
100
AcDbSpline
 62
7
  6
CONTINUOUS
 70
0
 71
3
 72
40
 73
36
 74
34
 42
0.0000001
 43
0.0000001
 44
0.0000000001
 12
0.0253753263
 22
-0.0001471907
 32
0.0
 13
-0.0253753293
 23
0.0001466635
 33
0.0
 40
0.0
 40
0.0
 40
0.0
 40
0.0
 40
0.0890672083
 40
0.182357951
 40
0.2759496521
 40
0.3663649538
 40
0.4503484077
 40
0.4889921732
 40
0.5249931985
 40
0.5580687013
 40
0.5879710823
 40
0.6145295343
 40
0.6376108568
 40
0.6571443966
 40
0.6656065191
 40
0.673231269
 40
0.680065009
 40
0.6861795691
 40
0.6916834824
 40
0.696735274
 40
0.7015463702
 40
0.7063611447
 40
0.7168970867
 40
0.7230452332
 40
0.7299386619
 40
0.7376542661
 40
0.7462381811
 40
0.7661029653
 40
0.7896438196
 40
0.8168287277
 40
0.8475060609
 40
0.881485753
 40
0.9185108723
 40
0.9581658336
 40
1.0
 40
1.0
 40
1.0
 40
1.0
 10
5.7931962049
 20
5.831907165
 30
0.0
 10
5.7939495747
 20
5.831902795
 30
0.0
 10
5.7954924121
 20
5.8319333668
 30
0.0
 10
5.7978226412
 20
5.8320785071
 30
0.0
 10
5.8001564553
 20
5.8323195423
 30
0.0
 10
5.8024003631
 20
5.8326454407
 30
0.0
 10
5.8041711548
 20
5.8329840252
 30
0.0
 10
5.8054775609
 20
5.8332908025
 30
0.0
 10
5.8063579516
 20
5.8335262285
 30
0.0
 10
5.8071587769
 20
5.8337711221
 30
0.0
 10
5.8078731551
 20
5.8340234076
 30
0.0
 10
5.8084953859
 20
5.834280432
 30
0.0
 10
5.8090204318
 20
5.8345397342
 30
0.0
 10
5.8093898215
 20
5.8347657999
 30
0.0
 10
5.809629545
 20
5.8349487499
 30
0.0
 10
5.8097737888
 20
5.8350786844
 30
0.0
 10
5.8098909948
 20
5.8352078018
 30
0.0
 10
5.8099808281
 20
5.8353360653
 30
0.0
 10
5.8100427769
 20
5.8354635495
 30
0.0
 10
5.8100759861
 20
5.8355902308
 30
0.0
 10
5.8100796373
 20
5.8357154859
 30
0.0
 10
5.8100437379
 20
5.8358838012
 30
0.0
 10
5.8099438224
 20
5.8360423293
 30
0.0
 10
5.8098015834
 20
5.8361822735
 30
0.0
 10
5.8096614801
 20
5.8362889369
 30
0.0
 10
5.8094938973
 20
5.8363913677
 30
0.0
 10
5.809220516
 20
5.8365292387
 30
0.0
 10
5.8088086702
 20
5.8366863627
 30
0.0
 10
5.8082333906
 20
5.8368481386
 30
0.0
 10
5.8075590055
 20
5.8369892209
 30
0.0
 10
5.806791081
 20
5.8371084314
 30
0.0
 10
5.8059361024
 20
5.8372040435
 30
0.0
 10
5.8050025725
 20
5.8372746192
 30
0.0
 10
5.8040009979
 20
5.8373197861
 30
0.0
 10
5.8033117363
 20
5.8373322028
 30
0.0
 10
5.8029578844
 20
5.837334248
 30
0.0
 11
5.7931962049
 21
5.831907165
 31
0.0
 11
5.795455979
 21
5.8319482464
 31
0.0
 11
5.79781879
 21
5.8320943346
 31
0.0
 11
5.8001811329
 21
5.8323388148
 31
0.0
 11
5.8024513501
 21
5.832670756
 31
0.0
 11
5.8045436276
 21
5.8330759066
 31
0.0
 11
5.805498071
 21
5.8333009468
 31
0.0
 11
5.8063803219
 21
5.8335380386
 31
0.0
 11
5.8071825007
 21
5.8337849398
 31
0.0
 11
5.8078973648
 21
5.83403938
 31
0.0
 11
5.8085192846
 21
5.834299018
 31
0.0
 11
5.8090428815
 21
5.8345615017
 31
0.0
 11
5.8094630474
 21
5.8348244801
 31
0.0
 11
5.8096332363
 21
5.8349554224
 31
0.0
 11
5.8097763697
 21
5.8350856099
 31
0.0
 11
5.8098921034
 21
5.8352147501
 31
0.0
 11
5.8099800929
 21
5.8353425506
 31
0.0
 11
5.8100399944
 21
5.8354687187
 31
0.0
 11
5.810071558
 21
5.8355929652
 31
0.0
 11
5.8100747566
 21
5.8357150084
 31
0.0
 11
5.8100495953
 21
5.8358345681
 31
0.0
 11
5.8099142129
 21
5.8360651144
 31
0.0
 11
5.809804002
 21
5.8361755403
 31
0.0
 11
5.8096654813
 21
5.836282363
 31
0.0
 11
5.8094989521
 21
5.8363853264
 31
0.0
 11
5.8093048545
 21
5.8364841856
 31
0.0
 11
5.8088357197
 21
5.8366686119
 31
0.0
 11
5.8082616132
 21
5.8368336845
 31
0.0
 11
5.8075869569
 21
5.8369776105
 31
0.0
 11
5.8068180095
 21
5.8370989386
 31
0.0
 11
5.8059612591
 21
5.8371962603
 31
0.0
 11
5.8050244888
 21
5.8372683534
 31
0.0
 11
5.8040192749
 21
5.8373145416
 31
0.0
 11
5.8029578844
 21
5.837334248
 31
0.0
  0
SPLINE
  5
46A
100
AcDbEntity
  8
0
100
AcDbSpline
 62
7
  6
CONTINUOUS
 70
0
 71
3
 72
21
 73
17
 74
15
 42
0.0000001
 43
0.0000001
 44
0.0000000001
 12
-0.0013334608
 22
-0.0007641505
 32
0.0
 13
0.0015368938
 23
0.0000011143
 33
0.0
 40
0.0
 40
0.0
 40
0.0
 40
0.0
 40
0.0539896528
 40
0.0987388068
 40
0.1349885369
 40
0.1646007802
 40
0.1914337676
 40
0.2207621228
 40
0.2566954631
 40
0.3014682527
 40
0.3561254163
 40
0.4209076975
 40
0.4956845093
 40
0.5801777509
 40
0.7759283736
 40
1.0
 40
1.0
 40
1.0
 40
1.0
 10
5.7839606782
 20
5.8323929446
 30
0.0
 10
5.7839366805
 20
5.8323791925
 30
0.0
 10
5.7838937979
 20
5.8323521598
 30
0.0
 10
5.7838403031
 20
5.8323079008
 30
0.0
 10
5.7838039499
 20
5.8322638368
 30
0.0
 10
5.7837855054
 20
5.8322187287
 30
0.0
 10
5.7837892975
 20
5.8321731845
 30
0.0
 10
5.7838149717
 20
5.832132071
 30
0.0
 10
5.7838585756
 20
5.8320955361
 30
0.0
 10
5.7839197213
 20
5.8320621949
 30
0.0
 10
5.7839984295
 20
5.8320320365
 30
0.0
 10
5.7840943218
 20
5.8320051231
 30
0.0
 10
5.7842067699
 20
5.8319817513
 30
0.0
 10
5.7843866544
 20
5.831954438
 30
0.0
 10
5.7846443906
 20
5.8319330286
 30
0.0
 10
5.7848595044
 20
5.8319279467
 30
0.0
 10
5.7849742958
 20
5.8319280299
 30
0.0
 11
5.7839606782
 21
5.8323929446
 31
0.0
 11
5.7838909069
 21
5.8323480331
 31
0.0
 11
5.7838386069
 21
5.8323033712
 31
0.0
 11
5.7838043557
 21
5.8322594317
 31
0.0
 11
5.7837887304
 21
5.8322166872
 31
0.0
 11
5.7837921945
 21
5.8321755935
 31
0.0
 11
5.783814679
 21
5.8321365274
 31
0.0
 11
5.7838559598
 21
5.8320998425
 31
0.0
 11
5.7839158126
 21
5.8320658927
 31
0.0
 11
5.7839939374
 21
5.8320350236
 31
0.0
 11
5.784089632
 21
5.8320075383
 31
0.0
 11
5.7842020621
 21
5.8319837261
 31
0.0
 11
5.7843303931
 21
5.8319638759
 31
0.0
 11
5.7846300383
 21
5.8319370008
 31
0.0
 11
5.7849742958
 21
5.8319280299
 31
0.0
  0
LINE
  5
46B
100
AcDbEntity
  8
0
100
AcDbLine
 62
7
  6
CONTINUOUS
 10
5.7845300508
 20
5.8327185443
 11
5.7839606782
 21
5.8323929446
  0
SPLINE
  5
46C
100
AcDbEntity
  8
0
100
AcDbSpline
 62
7
  6
CONTINUOUS
 70
0
 71
3
 72
15
 73
11
 74
9
 42
0.0000001
 43
0.0000001
 44
0.0000000001
 12
-0.0026938803
 22
-0.0000019462
 32
0.0
 13
-0.0023714658
 23
-0.0012779455
 33
0.0
 40
0.0
 40
0.0
 40
0.0
 40
0.0
 40
0.1395723116
 40
0.286040038
 40
0.4329460514
 40
0.57478324
 40
0.7064699576
 40
0.8236665795
 40
0.9224904948
 40
1.0
 40
1.0
 40
1.0
 40
1.0
 10
5.7947359752
 20
5.8373550382
 30
0.0
 10
5.7946106449
 20
5.8373549477
 30
0.0
 10
5.7943537778
 20
5.837348415
 30
0.0
 10
5.793965748
 20
5.8373230032
 30
0.0
 10
5.7935769884
 20
5.8372821337
 30
0.0
 10
5.7932032458
 20
5.8372280265
 30
0.0
 10
5.7928584179
 20
5.8371627129
 30
0.0
 10
5.7925547507
 20
5.8370891615
 30
0.0
 10
5.7923032255
 20
5.8370099452
 30
0.0
 10
5.7921566814
 20
5.8369484313
 30
0.0
 10
5.792095411
 20
5.8369154137
 30
0.0
 11
5.7947359752
 21
5.8373550382
 31
0.0
 11
5.7943600896
 21
5.8373461305
 31
0.0
 11
5.7939663593
 21
5.837320454
 31
0.0
 11
5.793572783
 21
5.8372790576
 31
0.0
 11
5.793194694
 21
5.8372238909
 31
0.0
 11
5.7928462709
 21
5.8371571991
 31
0.0
 11
5.7925397506
 21
5.8370815655
 31
0.0
 11
5.7922863921
 21
5.836999819
 31
0.0
 11
5.792095411
 21
5.8369154137
 31
0.0
  0
SPLINE
  5
46D
100
AcDbEntity
  8
0
100
AcDbSpline
 62
7
  6
CONTINUOUS
 70
0
 71
3
 72
40
 73
36
 74
34
 42
0.0000001
 43
0.0000001
 44
0.0000000001
 12
0.0199406136
 22
-0.0000791676
 32
0.0
 13
-0.0199406144
 23
0.0000789627
 33
0.0
 40
0.0
 40
0.0
 40
0.0
 40
0.0
 40
0.0895431872
 40
0.1833324929
 40
0.2774373572
 40
0.3683584068
 40
0.4527930959
 40
0.4916210801
 40
0.5277648052
 40
0.5609296203
 40
0.5908554075
 40
0.6173581204
 40
0.6402885328
 40
0.65955672
 40
0.6678364932
 40
0.6752421044
 40
0.6818170681
 40
0.6876316131
 40
0.6974265715
 40
0.7018611999
 40
0.7063188336
 40
0.7110676519
 40
0.716331722
 40
0.7222773745
 40
0.7290197812
 40
0.7366284808
 40
0.745142874
 40
0.7649597194
 40
0.7885441701
 40
0.8158373535
 40
0.8466685752
 40
0.8808336811
 40
0.9180639826
 40
0.9579375272
 40
1.0
 40
1.0
 40
1.0
 40
1.0
 10
5.8031144406
 20
5.8386397632
 30
0.0
 10
5.8037096226
 20
5.8386374002
 30
0.0
 10
5.8049284177
 20
5.838661007
 30
0.0
 10
5.8067698141
 20
5.8387679655
 30
0.0
 10
5.8086151381
 20
5.8389441213
 30
0.0
 10
5.8103908313
 20
5.839181584
 30
0.0
 10
5.8117935709
 20
5.839427991
 30
0.0
 10
5.8128294688
 20
5.8396512208
 30
0.0
 10
5.8135276649
 20
5.8398224457
 30
0.0
 10
5.8141629292
 20
5.8400005025
 30
0.0
 10
5.8147297046
 20
5.8401838725
 30
0.0
 10
5.8152233538
 20
5.8403705762
 30
0.0
 10
5.8156397734
 20
5.840558791
 30
0.0
 10
5.8159332142
 20
5.8407229962
 30
0.0
 10
5.8161238695
 20
5.8408561302
 30
0.0
 10
5.8162381961
 20
5.8409503047
 30
0.0
 10
5.8163311165
 20
5.8410440237
 30
0.0
 10
5.816420944
 20
5.841160956
 30
0.0
 10
5.8164767614
 20
5.8412870918
 30
0.0
 10
5.8164803946
 20
5.8414126589
 30
0.0
 10
5.8164591242
 20
5.8415018239
 30
0.0
 10
5.8164145084
 20
5.8415879427
 30
0.0
 10
5.8163473862
 20
5.8416708161
 30
0.0
 10
5.8162581397
 20
5.8417506179
 30
0.0
 10
5.8161468879
 20
5.8418274099
 30
0.0
 10
5.8160138394
 20
5.841901266
 30
0.0
 10
5.8157964629
 20
5.8420007849
 30
0.0
 10
5.8154696735
 20
5.8421138526
 30
0.0
 10
5.8150140165
 20
5.8422299976
 30
0.0
 10
5.8144801046
 20
5.8423310995
 30
0.0
 10
5.8138724305
 20
5.8424163066
 30
0.0
 10
5.813196209
 20
5.8424843742
 30
0.0
 10
5.8124581881
 20
5.8425342935
 30
0.0
 10
5.8116666405
 20
5.8425658119
 30
0.0
 10
5.8111220206
 20
5.8425740449
 30
0.0
 10
5.8108424368
 20
5.842575152
 30
0.0
 11
5.8031144406
 21
5.8386397632
 31
0.0
 11
5.8048997153
 21
5.8386716895
 31
0.0
 11
5.8067668436
 21
5.8387793736
 31
0.0
 11
5.8086348392
 21
5.838958072
 31
0.0
 11
5.8104316626
 21
5.8391999905
 31
0.0
 11
5.8120893239
 21
5.8394949147
 31
0.0
 11
5.8128460708
 21
5.8396586604
 31
0.0
 11
5.8135458627
 21
5.8398311376
 31
0.0
 11
5.8141823469
 21
5.8400107143
 31
0.0
 11
5.8147496829
 21
5.8401957342
 31
0.0
 11
5.8152433137
 21
5.8403844789
 31
0.0
 11
5.8156588798
 21
5.8405752208
 31
0.0
 11
5.8159922583
 21
5.8407662331
 31
0.0
 11
5.816127245
 21
5.8408613029
 31
0.0
 11
5.8162407292
 21
5.8409557954
 31
0.0
 11
5.8163324354
 21
5.8410494957
 31
0.0
 11
5.8164020883
 21
5.8411421892
 31
0.0
 11
5.8164742237
 21
5.8413236995
 31
0.0
 11
5.8164765117
 21
5.8414120998
 31
0.0
 11
5.8164562891
 21
5.8414986576
 31
0.0
 11
5.8164135682
 21
5.8415831684
 31
0.0
 11
5.8163483611
 21
5.8416654281
 31
0.0
 11
5.81626068
 21
5.8417452323
 31
0.0
 11
5.8161505672
 21
5.8418223792
 31
0.0
 11
5.8160182851
 21
5.8418966854
 31
0.0
 11
5.8158641936
 21
5.8419679755
 31
0.0
 11
5.8154920244
 21
5.8421008063
 31
0.0
 11
5.8150369492
 21
5.8422194705
 31
0.0
 11
5.814502581
 21
5.8423226965
 31
0.0
 11
5.8138939363
 21
5.842409464
 31
0.0
 11
5.8132161934
 21
5.842478782
 31
0.0
 11
5.8124755474
 21
5.8425297972
 31
0.0
 11
5.8116810926
 21
5.8425620505
 31
0.0
 11
5.8108424368
 21
5.842575152
 31
0.0
  0
SPLINE
  5
46E
100
AcDbEntity
  8
0
100
AcDbSpline
 62
7
  6
CONTINUOUS
 70
0
 71
3
 72
21
 73
17
 74
15
 42
0.0000001
 43
0.0000001
 44
0.0000000001
 12
-0.0013412234
 22
-0.0006999972
 32
0.0
 13
0.0015129028
 23
0.0000010921
 33
0.0
 40
0.0
 40
0.0
 40
0.0
 40
0.0
 40
0.0535617549
 40
0.0974153895
 40
0.1322560569
 40
0.1599905333
 40
0.184866372
 40
0.2127682183
 40
0.2479858832
 40
0.2926366772
 40
0.3476231009
 40
0.413074582
 40
0.4887831488
 40
0.5744120685
 40
0.7728614202
 40
1.0
 40
1.0
 40
1.0
 40
1.0
 10
5.7961627775
 20
5.8390727074
 30
0.0
 10
5.7961388314
 20
5.8390602097
 30
0.0
 10
5.7960961361
 20
5.8390357218
 30
0.0
 10
5.7960426385
 20
5.8389954476
 30
0.0
 10
5.7960062625
 20
5.8389554394
 30
0.0
 10
5.7959874983
 20
5.8389140043
 30
0.0
 10
5.7959916772
 20
5.8388716478
 30
0.0
 10
5.7960179885
 20
5.838834264
 30
0.0
 10
5.7960617009
 20
5.8388012718
 30
0.0
 10
5.7961229342
 20
5.8387710614
 30
0.0
 10
5.7962017073
 20
5.8387437111
 30
0.0
 10
5.7962976507
 20
5.8387192878
 30
0.0
 10
5.7964100962
 20
5.8386980841
 30
0.0
 10
5.7965898965
 20
5.8386733112
 30
0.0
 10
5.7968471915
 20
5.8386539176
 30
0.0
 10
5.7970618489
 20
5.8386493248
 30
0.0
 10
5.7971763951
 20
5.8386494075
 30
0.0
 11
5.7961627775
 21
5.8390727074
 31
0.0
 11
5.7960928761
 21
5.8390317164
 31
0.0
 11
5.7960405253
 21
5.8389909582
 31
0.0
 11
5.7960063016
 21
5.8389508691
 31
0.0
 11
5.795990781
 21
5.8389118855
 31
0.0
 11
5.7959944174
 21
5.8388744269
 31
0.0
 11
5.7960171158
 21
5.8388388361
 31
0.0
 11
5.7960586273
 21
5.8388054348
 31
0.0
 11
5.7961187031
 21
5.8387745444
 31
0.0
 11
5.7961970147
 21
5.838746478
 31
0.0
 11
5.7962928361
 21
5.8387215064
 31
0.0
 11
5.796405317
 21
5.838699887
 31
0.0
 11
5.7965336073
 21
5.8386818774
 31
0.0
 11
5.7968328521
 21
5.8386575178
 31
0.0
 11
5.7971763951
 21
5.8386494075
 31
0.0
  0
LINE
  5
46F
100
AcDbEntity
  8
0
100
AcDbLine
 62
7
  6
CONTINUOUS
 10
5.7967909309
 20
5.8393997252
 11
5.7961627775
 21
5.8390727074
  0
SPLINE
  5
470
100
AcDbEntity
  8
0
100
AcDbSpline
 62
7
  6
CONTINUOUS
 70
0
 71
3
 72
15
 73
11
 74
9
 42
0.0000001
 43
0.0000001
 44
0.0000000001
 12
-0.0026860163
 22
-0.0000019339
 32
0.0
 13
-0.0024057288
 23
-0.0011946364
 33
0.0
 40
0.0
 40
0.0
 40
0.0
 40
0.0
 40
0.1397234505
 40
0.2863487357
 40
0.4334339818
 40
0.5754508593
 40
0.7072750844
 40
0.8244803765
 40
0.9230778266
 40
1.0
 40
1.0
 40
1.0
 40
1.0
 10
5.8049043913
 20
5.8425847713
 30
0.0
 10
5.8047792915
 20
5.8425846813
 30
0.0
 10
5.8045229003
 20
5.8425786714
 30
0.0
 10
5.8041354554
 20
5.8425553069
 30
0.0
 10
5.8037470616
 20
5.8425177203
 30
0.0
 10
5.8033733997
 20
5.8424679238
 30
0.0
 10
5.8030283958
 20
5.8424077663
 30
0.0
 10
5.8027244213
 20
5.8423399983
 30
0.0
 10
5.8024726053
 20
5.8422669777
 30
0.0
 10
5.8023255117
 20
5.8422101865
 30
0.0
 10
5.8022638271
 20
5.8421795551
 30
0.0
 11
5.8049043913
 21
5.8425847713
 31
0.0
 11
5.8045291813
 21
5.842576572
 31
0.0
 11
5.8041360516
 21
5.8425529633
 31
0.0
 11
5.8037428174
 21
5.8425148854
 31
0.0
 11
5.8033647533
 21
5.8424641008
 31
0.0
 11
5.8030160445
 21
5.8424026488
 31
0.0
 11
5.8027090527
 21
5.8423329012
 31
0.0
 11
5.8024551889
 21
5.8422574661
 31
0.0
 11
5.8022638271
 21
5.8421795551
 31
0.0
  0
LINE
  5
471
100
AcDbEntity
  8
0
100
AcDbLine
 62
7
  6
CONTINUOUS
 10
5.8544877827
 20
5.8379231578
 11
5.8542186186
 21
5.837643028
  0
LINE
  5
472
100
AcDbEntity
  8
0
100
AcDbLine
 62
7
  6
CONTINUOUS
 10
5.8598086171
 20
5.8422878448
 11
5.8586225578
 21
5.8420813228
  0
SPLINE
  5
473
100
AcDbEntity
  8
0
100
AcDbSpline
 62
7
  6
CONTINUOUS
 70
0
 71
3
 72
27
 73
23
 74
21
 42
0.0000001
 43
0.0000001
 44
0.0000000001
 12
0.0150025265
 22
-0.000054753
 32
0.0
 13
-0.0078412642
 23
0.0127903625
 33
0.0
 40
0.0
 40
0.0
 40
0.0
 40
0.0
 40
0.0917679553
 40
0.1847943381
 40
0.3683855839
 40
0.4563299228
 40
0.540126321
 40
0.6187132984
 40
0.6910942002
 40
0.7563686777
 40
0.8138901497
 40
0.8631220138
 40
0.88453217
 40
0.903801727
 40
0.9209607141
 40
0.9360761329
 40
0.9492751402
 40
0.96079151
 40
0.9710104078
 40
0.9804858685
 40
0.9899118219
 40
1.0
 40
1.0
 40
1.0
 40
1.0
 10
5.866637723
 20
5.8374347601
 30
0.0
 10
5.86709664
 20
5.8374330853
 30
0.0
 10
5.8680208583
 20
5.8374419357
 30
0.0
 10
5.8698621468
 20
5.8375048657
 30
0.0
 10
5.8716816729
 20
5.837633535
 30
0.0
 10
5.8734480828
 20
5.8378285657
 30
0.0
 10
5.8746881799
 20
5.8380011469
 30
0.0
 10
5.8758456111
 20
5.838199112
 30
0.0
 10
5.876904646
 20
5.838419207
 30
0.0
 10
5.8778512903
 20
5.8386585762
 30
0.0
 10
5.8786734976
 20
5.8389131238
 30
0.0
 10
5.8792722115
 20
5.8391442863
 30
0.0
 10
5.8796782806
 20
5.8393378656
 30
0.0
 10
5.8799316157
 20
5.8394778882
 30
0.0
 10
5.880147584
 20
5.839619142
 30
0.0
 10
5.8803256294
 20
5.8397613054
 30
0.0
 10
5.8804652361
 20
5.839904309
 30
0.0
 10
5.8805658142
 20
5.8400483893
 30
0.0
 10
5.8806264789
 20
5.8401938349
 30
0.0
 10
5.8806452308
 20
5.8403402729
 30
0.0
 10
5.8806205973
 20
5.8404851521
 30
0.0
 10
5.8805781472
 20
5.8405743429
 30
0.0
 10
5.8805517791
 20
5.8406173534
 30
0.0
 11
5.866637723
 21
5.8374347601
 31
0.0
 11
5.8680144246
 21
5.8374474777
 31
0.0
 11
5.8694092522
 21
5.8374950923
 31
0.0
 11
5.8721565833
 21
5.8376916133
 31
0.0
 11
5.8734679256
 21
5.837837172
 31
0.0
 11
5.8747129615
 21
5.8380113903
 31
0.0
 11
5.8758748688
 21
5.8382114866
 31
0.0
 11
5.8769376508
 21
5.8384343793
 31
0.0
 11
5.8778864412
 21
5.8386768725
 31
0.0
 11
5.87870977
 21
5.8389354308
 31
0.0
 11
5.8793968562
 21
5.8392064532
 31
0.0
 11
5.8796864125
 21
5.8393454933
 31
0.0
 11
5.8799389229
 21
5.8394862547
 31
0.0
 11
5.8801536413
 21
5.8396282623
 31
0.0
 11
5.8803298214
 21
5.8397710406
 31
0.0
 11
5.8804667217
 21
5.8399141145
 31
0.0
 11
5.8805638423
 21
5.8400570098
 31
0.0
 11
5.8806210322
 21
5.8401992539
 31
0.0
 11
5.8806381675
 21
5.8403403742
 31
0.0
 11
5.8806151244
 21
5.8404798982
 31
0.0
 11
5.8805517791
 21
5.8406173534
 31
0.0
  0
SPLINE
  5
474
100
AcDbEntity
  8
0
100
AcDbSpline
 62
7
  6
CONTINUOUS
 70
0
 71
3
 72
19
 73
15
 74
13
 42
0.0000001
 43
0.0000001
 44
0.0000000001
 12
-0.0049211178
 22
0.0080271342
 32
0.0
 13
-0.0094154719
 23
0.0000342527
 33
0.0
 40
0.0
 40
0.0
 40
0.0
 40
0.0
 40
0.0239063904
 40
0.052477612
 40
0.086420649
 40
0.1260988127
 40
0.1716694925
 40
0.2230797528
 40
0.2801766948
 40
0.3427673143
 40
0.4833857153
 40
0.642260649
 40
0.816056134
 40
1.0
 40
1.0
 40
1.0
 40
1.0
 10
5.8805517791
 20
5.8406173534
 30
0.0
 10
5.8805125637
 20
5.84068132
 30
0.0
 10
5.8804045545
 20
5.8408083099
 30
0.0
 10
5.8801902924
 20
5.840976254
 30
0.0
 10
5.8799121627
 20
5.8411375746
 30
0.0
 10
5.87957074
 20
5.8412915582
 30
0.0
 10
5.8791670498
 20
5.841437419
 30
0.0
 10
5.8787030797
 20
5.8415744952
 30
0.0
 10
5.8781812605
 20
5.84170196
 30
0.0
 10
5.8773803731
 20
5.841864154
 30
0.0
 10
5.8762556341
 20
5.842031699
 30
0.0
 10
5.87477686
 20
5.842176826
 30
0.0
 10
5.8731575859
 20
5.8422673696
 30
0.0
 10
5.8720347917
 20
5.8422900179
 30
0.0
 10
5.8714574856
 20
5.8422921181
 30
0.0
 11
5.8805517791
 21
5.8406173534
 31
0.0
 11
5.8804095696
 21
5.8407918315
 31
0.0
 11
5.8802004463
 21
5.840961052
 31
0.0
 11
5.879925536
 21
5.8411240345
 31
0.0
 11
5.8795859658
 21
5.8412797985
 31
0.0
 11
5.8791830734
 21
5.8414273815
 31
0.0
 11
5.8787192646
 21
5.841565912
 31
0.0
 11
5.878197283
 21
5.8416945472
 31
0.0
 11
5.8776198722
 21
5.841812444
 31
0.0
 11
5.8763111445
 21
5.8420129458
 31
0.0
 11
5.8748227251
 21
5.8421622831
 31
0.0
 11
5.8731890416
 21
5.8422561384
 31
0.0
 11
5.8714574856
 21
5.8422921181
 31
0.0
  0
SPLINE
  5
475
100
AcDbEntity
  8
0
100
AcDbSpline
 62
7
  6
CONTINUOUS
 70
0
 71
3
 72
18
 73
14
 74
12
 42
0.0000001
 43
0.0000001
 44
0.0000000001
 12
-0.0006152676
 22
-0.0006416568
 32
0.0
 13
0.0008889671
 23
0.0000038987
 33
0.0
 40
0.0
 40
0.0
 40
0.0
 40
0.0
 40
0.0525255045
 40
0.0757275556
 40
0.1020919389
 40
0.1346558282
 40
0.1750930036
 40
0.2240727417
 40
0.2816542111
 40
0.4217950186
 40
0.5929645556
 40
0.7887132699
 40
1.0
 40
1.0
 40
1.0
 40
1.0
 10
5.8542186186
 20
5.837643028
 30
0.0
 10
5.8542078462
 20
5.8376317935
 30
0.0
 10
5.8541940834
 20
5.8376105642
 30
0.0
 10
5.8541993673
 20
5.8375795932
 30
0.0
 10
5.8542133655
 20
5.8375590713
 30
0.0
 10
5.8542361895
 20
5.8375401152
 30
0.0
 10
5.8542678453
 20
5.8375223937
 30
0.0
 10
5.8543082188
 20
5.8375058551
 30
0.0
 10
5.8543780586
 20
5.8374840376
 30
0.0
 10
5.8544853446
 20
5.8374619206
 30
0.0
 10
5.8546345456
 20
5.8374434464
 30
0.0
 10
5.8548056027
 20
5.8374323336
 30
0.0
 10
5.8549262455
 20
5.8374301985
 30
0.0
 10
5.8549888545
 20
5.8374304731
 30
0.0
 11
5.8542186186
 21
5.837643028
 31
0.0
 11
5.854197261
 21
5.8376015048
 31
0.0
 11
5.8542004926
 21
5.8375811335
 31
0.0
 11
5.8542130078
 21
5.8375613175
 31
0.0
 11
5.8542348142
 21
5.837542278
 31
0.0
 11
5.8542659052
 21
5.8375242341
 31
0.0
 11
5.8543060464
 21
5.8375073648
 31
0.0
 11
5.8543548164
 21
5.8374918165
 31
0.0
 11
5.8544765358
 21
5.8374652648
 31
0.0
 11
5.8546274405
 21
5.8374457165
 31
0.0
 11
5.8548010579
 21
5.8374339477
 31
0.0
 11
5.8549888545
 21
5.8374304731
 31
0.0
  0
LINE
  5
476
100
AcDbEntity
  8
0
100
AcDbLine
 62
7
  6
CONTINUOUS
 10
6.1879437444
 20
5.8502748217
 11
6.186317793
 21
5.8505873337
  0
LINE
  5
477
100
AcDbEntity
  8
0
100
AcDbLine
 62
7
  6
CONTINUOUS
 10
6.186317793
 20
5.8505873337
 11
6.1848726129
 21
5.8509481656
  0
LINE
  5
478
100
AcDbEntity
  8
0
100
AcDbLine
 62
7
  6
CONTINUOUS
 10
6.2478693233
 20
5.8396708102
 11
6.2101615868
 21
5.846342088
  0
LINE
  5
479
100
AcDbEntity
  8
0
100
AcDbLine
 62
7
  6
CONTINUOUS
 10
6.2101615868
 20
5.846342088
 11
6.2098726129
 21
5.8463951643
  0
LINE
  5
47A
100
AcDbEntity
  8
0
100
AcDbLine
 62
7
  6
CONTINUOUS
 10
6.2478693233
 20
5.8396708102
 11
6.2518367137
 21
5.8390832926
  0
LINE
  5
47B
100
AcDbEntity
  8
0
100
AcDbLine
 62
7
  6
CONTINUOUS
 10
6.2098726129
 20
5.8465673773
 11
6.2100121406
 21
5.8465417498
  0
LINE
  5
47C
100
AcDbEntity
  8
0
100
AcDbLine
 62
7
  6
CONTINUOUS
 10
6.2100121406
 20
5.8465417498
 11
6.2101926291
 21
5.8465086029
  0
LINE
  5
47D
100
AcDbEntity
  8
0
100
AcDbLine
 62
7
  6
CONTINUOUS
 10
6.2101926291
 20
5.8465086029
 11
6.2478693233
 21
5.8397531822
  0
LINE
  5
47E
100
AcDbEntity
  8
0
100
AcDbLine
 62
7
  6
CONTINUOUS
 10
6.1848726129
 20
5.8511035142
 11
6.1898726129
 21
5.8501057378
  0
LINE
  5
47F
100
AcDbEntity
  8
0
100
AcDbLine
 62
7
  6
CONTINUOUS
 10
6.1478726129
 20
5.8569085524
 11
6.1473155082
 21
5.8568721085
  0
LINE
  5
480
100
AcDbEntity
  8
0
100
AcDbLine
 62
7
  6
CONTINUOUS
 10
6.1473155082
 20
5.8568721085
 11
6.1456903821
 21
5.8569853298
  0
LINE
  5
481
100
AcDbEntity
  8
0
100
AcDbLine
 62
7
  6
CONTINUOUS
 10
6.1456903821
 20
5.8569853298
 11
6.1399934975
 21
5.8575915913
  0
LINE
  5
482
100
AcDbEntity
  8
0
100
AcDbLine
 62
7
  6
CONTINUOUS
 10
6.1008726129
 20
5.8629251859
 11
6.1003238765
 21
5.8628752314
  0
LINE
  5
483
100
AcDbEntity
  8
0
100
AcDbLine
 62
7
  6
CONTINUOUS
 10
6.1003238765
 20
5.8628752314
 11
6.0986824706
 21
5.8629409892
  0
LINE
  5
484
100
AcDbEntity
  8
0
100
AcDbLine
 62
7
  6
CONTINUOUS
 10
6.0986824706
 20
5.8629409892
 11
6.0850282194
 21
5.8641137247
  0
LINE
  5
485
100
AcDbEntity
  8
0
100
AcDbLine
 62
7
  6
CONTINUOUS
 10
6.0850282194
 20
5.8641137247
 11
6.0848726129
 21
5.8641293476
  0
LINE
  5
486
100
AcDbEntity
  8
0
100
AcDbLine
 62
7
  6
CONTINUOUS
 10
6.0408726129
 20
5.8688254135
 11
6.0416562262
 21
5.8686879018
  0
SPLINE
  5
487
100
AcDbEntity
  8
0
100
AcDbSpline
 62
7
  6
CONTINUOUS
 70
0
 71
3
 72
24
 73
20
 74
18
 42
0.0000001
 43
0.0000001
 44
0.0000000001
 12
0.0580039954
 22
-0.0077029765
 32
0.0
 13
0.0584290458
 23
-0.0031378245
 33
0.0
 40
0.0
 40
0.0
 40
0.0
 40
0.0
 40
0.0115060778
 40
0.0263960325
 40
0.0658930267
 40
0.1173699988
 40
0.1793882469
 40
0.2502363895
 40
0.3279611207
 40
0.4104293326
 40
0.4953913476
 40
0.6635521261
 40
0.7421544155
 40
0.8141603659
 40
0.8775785796
 40
0.9306281033
 40
0.9718207192
 40
0.9875949204
 40
1.0
 40
1.0
 40
1.0
 40
1.0
 10
6.0416562262
 20
5.8686879018
 30
0.0
 10
6.0418786924
 20
5.8686583581
 30
0.0
 10
6.0423896008
 20
5.868594751
 30
0.0
 10
6.0436661456
 20
5.8684457737
 30
0.0
 10
6.0457189055
 20
5.868222745
 30
0.0
 10
6.0486870133
 20
5.8679149439
 30
0.0
 10
6.0522646156
 20
5.8675564735
 30
0.0
 10
6.0563526194
 20
5.8671571699
 30
0.0
 10
6.0608384799
 20
5.8667282077
 30
0.0
 10
6.0655991591
 20
5.866281341
 30
0.0
 10
6.0721169974
 20
5.8656801315
 30
0.0
 10
6.0785610967
 20
5.8651004812
 30
0.0
 10
6.0847549247
 20
5.8645595274
 30
0.0
 10
6.0889142765
 20
5.8642046533
 30
0.0
 10
6.0925777925
 20
5.8639010403
 30
0.0
 10
6.0956431899
 20
5.8636572651
 30
0.0
 10
6.0977830329
 20
5.8634971208
 30
0.0
 10
6.0991330188
 20
5.863405936
 30
0.0
 10
6.0996816422
 20
5.8633726694
 30
0.0
 10
6.0999232479
 20
5.8633596945
 30
0.0
 11
6.0416562262
 21
5.8686879018
 31
0.0
 11
6.0423241918
 21
5.8686036516
 31
0.0
 11
6.0431895053
 21
5.868502036
 31
0.0
 11
6.0454867757
 21
5.8682496107
 31
0.0
 11
6.0484826694
 21
5.8679377228
 31
0.0
 11
6.0520933894
 21
5.8675750471
 31
0.0
 11
6.0562192596
 21
5.8671715417
 31
0.0
 11
6.0607465021
 21
5.8667382914
 31
0.0
 11
6.0655508499
 21
5.866287158
 31
0.0
 11
6.0705012292
 21
5.8658304397
 31
0.0
 11
6.0803013702
 21
5.8649497609
 31
0.0
 11
6.0848832326
 21
5.8645499301
 31
0.0
 11
6.0890813218
 21
5.8641922205
 31
0.0
 11
6.0927795179
 21
5.8638865715
 31
0.0
 11
6.0958739388
 21
5.8636416363
 31
0.0
 11
6.0982777217
 21
5.8634643267
 31
0.0
 11
6.099198661
 21
5.8634026899
 31
0.0
 11
6.0999232479
 21
5.8633596945
 31
0.0
  0
LINE
  5
488
100
AcDbEntity
  8
0
100
AcDbLine
 62
7
  6
CONTINUOUS
 10
6.0999232479
 20
5.8633596945
 11
6.1008726129
 21
5.8633457113
  0
LINE
  5
489
100
AcDbEntity
  8
0
100
AcDbLine
 62
7
  6
CONTINUOUS
 10
6.0568726129
 20
5.8666876639
 11
6.0429700608
 21
5.8680343005
  0
LINE
  5
48A
100
AcDbEntity
  8
0
100
AcDbLine
 62
7
  6
CONTINUOUS
 10
6.0429700608
 20
5.8680343005
 11
6.0410788751
 21
5.8683249022
  0
SPLINE
  5
48B
100
AcDbEntity
  8
0
100
AcDbSpline
 62
7
  6
CONTINUOUS
 70
0
 71
3
 72
9
 73
5
 74
3
 42
0.0000001
 43
0.0000001
 44
0.0000000001
 12
-0.0000781181
 22
0.000018591
 32
0.0
 13
-0.0000773217
 23
0.0000216661
 33
0.0
 40
0.0
 40
0.0
 40
0.0
 40
0.0
 40
0.2710081525
 40
1.0
 40
1.0
 40
1.0
 40
1.0
 10
6.0410788751
 20
5.8683249022
 30
0.0
 10
6.0410718182
 20
5.8683265817
 30
0.0
 10
6.0410458035
 20
5.8683328802
 30
0.0
 10
6.0410198873
 20
5.8683395973
 30
0.0
 10
6.0410010983
 20
5.8683448621
 30
0.0
 11
6.0410788751
 21
5.8683249022
 31
0.0
 11
6.0410577251
 21
5.8683300263
 31
0.0
 11
6.0410010983
 21
5.8683448621
 31
0.0
  0
SPLINE
  5
48C
100
AcDbEntity
  8
0
100
AcDbSpline
 62
7
  6
CONTINUOUS
 70
0
 71
3
 72
9
 73
5
 74
3
 42
0.0000001
 43
0.0000001
 44
0.0000000001
 12
-0.0000863963
 22
0.0000242088
 32
0.0
 13
-0.0000826143
 23
0.0000350037
 33
0.0
 40
0.0
 40
0.0
 40
0.0
 40
0.0
 40
0.2958002386
 40
1.0
 40
1.0
 40
1.0
 40
1.0
 10
6.0410010983
 20
5.8683448621
 30
0.0
 10
6.0409925796
 20
5.8683472491
 30
0.0
 10
6.0409638739
 20
5.8683556076
 30
0.0
 10
6.0409353888
 20
5.8683649857
 30
0.0
 10
6.0409159965
 20
5.8683732022
 30
0.0
 11
6.0410010983
 21
5.8683448621
 31
0.0
 11
6.0409756166
 21
5.8683522832
 31
0.0
 11
6.0409159965
 21
5.8683732022
 31
0.0
  0
SPLINE
  5
48D
100
AcDbEntity
  8
0
100
AcDbSpline
 62
7
  6
CONTINUOUS
 70
0
 71
3
 72
10
 73
6
 74
4
 42
0.0000001
 43
0.0000001
 44
0.0000000001
 12
-0.000041469
 22
0.0000194401
 32
0.0
 13
-0.0
 23
0.0000457995
 33
0.0
 40
0.0
 40
0.0
 40
0.0
 40
0.0
 40
0.364779573
 40
0.646835225
 40
1.0
 40
1.0
 40
1.0
 40
1.0
 10
6.04090647
 20
5.86837744
 30
0.0
 10
6.0409014277
 20
5.8683798038
 30
0.0
 10
6.0408925264
 20
5.8683843893
 30
0.0
 10
6.0408801424
 20
5.8683925362
 30
0.0
 10
6.0408726129
 20
5.8684009868
 30
0.0
 10
6.0408726129
 20
5.8684063784
 30
0.0
 11
6.04090647
 21
5.86837744
 31
0.0
 11
6.0408916714
 21
5.8683851933
 31
0.0
 11
6.0408810895
 21
5.8683926027
 31
0.0
 11
6.0408726129
 21
5.8684063784
 31
0.0
  0
LINE
  5
48E
100
AcDbEntity
  8
0
100
AcDbLine
 62
7
  6
CONTINUOUS
 10
5.8548726129
 20
5.8700844223
 11
5.8410164781
 21
5.8698934096
  0
LINE
  5
48F
100
AcDbEntity
  8
0
100
AcDbLine
 62
7
  6
CONTINUOUS
 10
5.7337590766
 20
5.8599905812
 11
5.7198726129
 21
5.8576058207
  0
LINE
  5
490
100
AcDbEntity
  8
0
100
AcDbLine
 62
7
  6
CONTINUOUS
 10
5.6150489886
 20
5.8403279337
 11
5.6148658567
 21
5.840298171
  0
LINE
  5
491
100
AcDbEntity
  8
0
100
AcDbLine
 62
7
  6
CONTINUOUS
 10
5.6148658567
 20
5.840298171
 11
5.6120784971
 21
5.8398465075
  0
LINE
  5
492
100
AcDbEntity
  8
0
100
AcDbLine
 62
7
  6
CONTINUOUS
 10
5.6120784971
 20
5.8398465075
 11
5.6098726469
 21
5.839498279
  0
LINE
  5
493
100
AcDbEntity
  8
0
100
AcDbLine
 62
7
  6
CONTINUOUS
 10
5.6735158299
 20
5.8506826823
 11
5.6733439231
 21
5.8506512717
  0
LINE
  5
494
100
AcDbEntity
  8
0
100
AcDbLine
 62
7
  6
CONTINUOUS
 10
5.6487028148
 20
5.8461994091
 11
5.6474829943
 21
5.845981421
  0
LINE
  5
495
100
AcDbEntity
  8
0
100
AcDbLine
 62
7
  6
CONTINUOUS
 10
5.6474829943
 20
5.845981421
 11
5.647304641
 21
5.8459495677
  0
LINE
  5
496
100
AcDbEntity
  8
0
100
AcDbLine
 62
7
  6
CONTINUOUS
 10
5.6325830938
 20
5.8433396963
 11
5.6323122697
 21
5.8432921068
  0
LINE
  5
497
100
AcDbEntity
  8
0
100
AcDbLine
 62
7
  6
CONTINUOUS
 10
5.6323122697
 20
5.8432921068
 11
5.6321314452
 21
5.8432603427
  0
LINE
  5
498
100
AcDbEntity
  8
0
100
AcDbLine
 62
7
  6
CONTINUOUS
 10
5.6321314452
 20
5.8432603427
 11
5.6150489886
 21
5.8403279337
  0
LINE
  5
499
100
AcDbEntity
  8
0
100
AcDbLine
 62
7
  6
CONTINUOUS
 10
5.6989112165
 20
5.8553832384
 11
5.6739823806
 21
5.8507679487
  0
LINE
  5
49A
100
AcDbEntity
  8
0
100
AcDbLine
 62
7
  6
CONTINUOUS
 10
5.6739823806
 20
5.8507679487
 11
5.6735158299
 21
5.8506826823
  0
LINE
  5
49B
100
AcDbEntity
  8
0
100
AcDbLine
 62
7
  6
CONTINUOUS
 10
5.6098851431
 20
5.838479486
 11
5.6111773441
 21
5.8387030989
  0
LINE
  5
49C
100
AcDbEntity
  8
0
100
AcDbLine
 62
7
  6
CONTINUOUS
 10
5.6111773441
 20
5.8387030989
 11
5.6150489886
 21
5.8393525162
  0
SPLINE
  5
49D
100
AcDbEntity
  8
0
100
AcDbSpline
 62
7
  6
CONTINUOUS
 70
0
 71
3
 72
8
 73
4
 74
2
 42
0.0000001
 43
0.0000001
 44
0.0000000001
 12
0.0000726909
 22
0.0000059845
 32
0.0
 13
0.0000726909
 23
0.0000059845
 33
0.0
 40
0.0
 40
0.0
 40
0.0
 40
0.0
 40
1.0
 40
1.0
 40
1.0
 40
1.0
 10
5.8813865817
 20
5.8708482607
 30
0.0
 10
5.881410812
 20
5.8708502555
 30
0.0
 10
5.8814350422
 20
5.8708522504
 30
0.0
 10
5.8814592725
 20
5.8708542452
 30
0.0
 11
5.8813865817
 21
5.8708482607
 31
0.0
 11
5.8814592725
 21
5.8708542452
 31
0.0
  0
SPLINE
  5
49E
100
AcDbEntity
  8
0
100
AcDbSpline
 62
7
  6
CONTINUOUS
 70
0
 71
3
 72
30
 73
26
 74
24
 42
0.0000001
 43
0.0000001
 44
0.0000000001
 12
0.001636993
 22
-0.0001137004
 32
0.0
 13
-0.0016371457
 23
-0.0001114793
 33
0.0
 40
0.0
 40
0.0
 40
0.0
 40
0.0
 40
0.1211699795
 40
0.2278368793
 40
0.3198318192
 40
0.3969945543
 40
0.4591820646
 40
0.4846271371
 40
0.5062967696
 40
0.5242037939
 40
0.5384003832
 40
0.5489958334
 40
0.5562594296
 40
0.5610520336
 40
0.565829942
 40
0.5730600966
 40
0.5836074439
 40
0.5977382604
 40
0.6155571517
 40
0.6371136532
 40
0.6624341418
 40
0.724398021
 40
0.8013983962
 40
0.8933124897
 40
1.0
 40
1.0
 40
1.0
 40
1.0
 10
5.952219383
 20
5.8714041794
 30
0.0
 10
5.9522855011
 20
5.871399587
 30
0.0
 10
5.9524097919
 20
5.8713904788
 30
0.0
 10
5.9525841293
 20
5.8713759162
 30
0.0
 10
5.9527343038
 20
5.8713613704
 30
0.0
 10
5.9528600182
 20
5.871346877
 30
0.0
 10
5.9529492904
 20
5.8713342441
 30
0.0
 10
5.9530081694
 20
5.8713238368
 30
0.0
 10
5.9530430021
 20
5.8713166147
 30
0.0
 10
5.9530715311
 20
5.8713094165
 30
0.0
 10
5.9530938275
 20
5.8713023884
 30
0.0
 10
5.9531099096
 20
5.8712952436
 30
0.0
 10
5.9531203937
 20
5.8712885918
 30
0.0
 10
5.9531253762
 20
5.8712796188
 30
0.0
 10
5.9531203802
 20
5.8712706738
 30
0.0
 10
5.9531098772
 20
5.8712641329
 30
0.0
 10
5.9530938112
 20
5.8712571623
 30
0.0
 10
5.9530715536
 20
5.8712503752
 30
0.0
 10
5.9530430998
 20
5.8712434848
 30
0.0
 10
5.9530083732
 20
5.8712366355
 30
0.0
 10
5.9529496425
 20
5.8712268556
 30
0.0
 10
5.9528605213
 20
5.8712151803
 30
0.0
 10
5.9527349157
 20
5.8712020328
 30
0.0
 10
5.9525847173
 20
5.8711890854
 30
0.0
 10
5.9524763712
 20
5.8711811903
 30
0.0
 10
5.9524181502
 20
5.8711772258
 30
0.0
 11
5.952219383
 21
5.8714041794
 31
0.0
 11
5.9524176757
 21
5.871389541
 31
0.0
 11
5.9525920905
 21
5.8713748356
 31
0.0
 11
5.9527423267
 21
5.8713600923
 31
0.0
 11
5.9528680836
 21
5.8713453402
 31
0.0
 11
5.9529690604
 21
5.8713306085
 31
0.0
 11
5.9530101623
 21
5.8713232594
 31
0.0
 11
5.9530449565
 21
5.8713159264
 31
0.0
 11
5.9530734161
 21
5.8713086129
 31
0.0
 11
5.9530955414
 21
5.8713013218
 31
0.0
 11
5.9531113369
 21
5.8712940561
 31
0.0
 11
5.9531208071
 21
5.8712868187
 31
0.0
 11
5.9531239565
 21
5.8712796125
 31
0.0
 11
5.9531207895
 21
5.8712724403
 31
0.0
 11
5.9531113106
 21
5.8712653052
 31
0.0
 11
5.9530955243
 21
5.87125821
 31
0.0
 11
5.953073435
 21
5.8712511575
 31
0.0
 11
5.9530450472
 21
5.8712441508
 31
0.0
 11
5.9530103655
 21
5.8712371927
 31
0.0
 11
5.9529693942
 21
5.8712302862
 31
0.0
 11
5.9528686354
 21
5.8712166391
 31
0.0
 11
5.9527429959
 21
5.8712032319
 31
0.0
 11
5.9525927446
 21
5.8711900868
 31
0.0
 11
5.9524181502
 21
5.8711772258
 31
0.0
  0
LINE
  5
49F
100
AcDbEntity
  8
0
100
AcDbLine
 62
7
  6
CONTINUOUS
 10
5.9524181502
 20
5.8711772258
 11
5.9519631218
 21
5.8711507177
  0
LINE
  5
4A0
100
AcDbEntity
  8
0
100
AcDbLine
 62
7
  6
CONTINUOUS
 10
5.952219383
 20
5.8714041794
 11
5.9511005866
 21
5.8714784321
  0
LINE
  5
4A1
100
AcDbEntity
  8
0
100
AcDbLine
 62
7
  6
CONTINUOUS
 10
5.9511005866
 20
5.8714784321
 11
5.950024452
 21
5.8715433338
  0
LINE
  5
4A2
100
AcDbEntity
  8
0
100
AcDbLine
 62
7
  6
CONTINUOUS
 10
5.8987581072
 20
5.8713619502
 11
5.8976569096
 21
5.87128766
  0
LINE
  5
4A3
100
AcDbEntity
  8
0
100
AcDbLine
 62
7
  6
CONTINUOUS
 10
5.8976569096
 20
5.87128766
 11
5.8966363336
 21
5.8712128304
  0
SPLINE
  5
4A4
100
AcDbEntity
  8
0
100
AcDbSpline
 62
7
  6
CONTINUOUS
 70
0
 71
3
 72
8
 73
4
 74
2
 42
0.0000001
 43
0.0000001
 44
0.0000000001
 12
-0.0000731574
 22
-0.0000055849
 32
0.0
 13
-0.0000731574
 23
-0.0000055849
 33
0.0
 40
0.0
 40
0.0
 40
0.0
 40
0.0
 40
1.0
 40
1.0
 40
1.0
 40
1.0
 10
5.8966363336
 20
5.8712128304
 30
0.0
 10
5.8966119479
 20
5.8712109687
 30
0.0
 10
5.8965875621
 20
5.8712091071
 30
0.0
 10
5.8965631763
 20
5.8712072455
 30
0.0
 11
5.8966363336
 21
5.8712128304
 31
0.0
 11
5.8965631763
 21
5.8712072455
 31
0.0
  0
SPLINE
  5
4A5
100
AcDbEntity
  8
0
100
AcDbSpline
 62
7
  6
CONTINUOUS
 70
0
 71
3
 72
33
 73
29
 74
27
 42
0.0000001
 43
0.0000001
 44
0.0000000001
 12
-0.0022540699
 22
0.0000890741
 32
0.0
 13
0.0022492498
 23
0.0001721642
 33
0.0
 40
0.0
 40
0.0
 40
0.0
 40
0.0
 40
0.124511672
 40
0.2346463127
 40
0.3302009002
 40
0.4109778539
 40
0.445766226
 40
0.4767916595
 40
0.5040349789
 40
0.5274899684
 40
0.5471673842
 40
0.5630903585
 40
0.5753081831
 40
0.5839407221
 40
0.5870186516
 40
0.5894039658
 40
0.5913448013
 40
0.5932705997
 40
0.5956198529
 40
0.5986532365
 40
0.6071958105
 40
0.619342782
 40
0.6352266406
 40
0.6783272569
 40
0.7365107308
 40
0.8096377258
 40
0.8975315021
 40
1.0
 40
1.0
 40
1.0
 40
1.0
 10
5.8969780695
 20
5.8709489953
 30
0.0
 10
5.8968845168
 20
5.8709526922
 30
0.0
 10
5.8967082347
 20
5.8709602114
 30
0.0
 10
5.8964602599
 20
5.8709728388
 30
0.0
 10
5.8962452573
 20
5.8709860892
 30
0.0
 10
5.896086953
 20
5.8709981077
 30
0.0
 10
5.8959771906
 20
5.8710082524
 30
0.0
 10
5.8959076022
 20
5.8710156116
 30
0.0
 10
5.8958466053
 20
5.8710230966
 30
0.0
 10
5.8957942269
 20
5.8710306947
 30
0.0
 10
5.8957504907
 20
5.8710383933
 30
0.0
 10
5.8957153443
 20
5.8710461429
 30
0.0
 10
5.8956888289
 20
5.8710539526
 30
0.0
 10
5.8956721002
 20
5.8710609625
 30
0.0
 10
5.8956634149
 20
5.871067121
 30
0.0
 10
5.8956596681
 20
5.8710713525
 30
0.0
 10
5.8956581542
 20
5.8710760195
 30
0.0
 10
5.8956593871
 20
5.8710807452
 30
0.0
 10
5.8956629067
 20
5.8710850857
 30
0.0
 10
5.8956712684
 20
5.8710914691
 30
0.0
 10
5.8956876556
 20
5.8710988952
 30
0.0
 10
5.8957138085
 20
5.8711073632
 30
0.0
 10
5.8957657864
 20
5.8711201904
 30
0.0
 10
5.8958525988
 20
5.8711355159
 30
0.0
 10
5.8959825525
 20
5.8711532617
 30
0.0
 10
5.896146398
 20
5.8711713742
 30
0.0
 10
5.8963436721
 20
5.8711898147
 30
0.0
 10
5.8964863505
 20
5.871201365
 30
0.0
 10
5.8965631763
 20
5.8712072455
 30
0.0
 11
5.8969780695
 21
5.8709489953
 31
0.0
 11
5.8966974526
 21
5.8709610815
 31
0.0
 11
5.896449337
 21
5.8709738689
 31
0.0
 11
5.8962342026
 21
5.8709873254
 31
0.0
 11
5.8960525294
 21
5.8710014189
 31
0.0
 11
5.8959743908
 21
5.8710086945
 31
0.0
 11
5.8959047974
 21
5.8710161173
 31
0.0
 11
5.8958438087
 21
5.8710236833
 31
0.0
 11
5.8957914622
 21
5.8710313883
 31
0.0
 11
5.8957477711
 21
5.8710392276
 31
0.0
 11
5.8957127467
 21
5.8710471966
 31
0.0
 11
5.8956864008
 21
5.8710552909
 31
0.0
 11
5.8956687448
 21
5.8710635058
 31
0.0
 11
5.8956631791
 21
5.871067657
 31
0.0
 11
5.8956597903
 21
5.8710718366
 31
0.0
 11
5.8956585797
 21
5.8710760442
 31
0.0
 11
5.8956595489
 21
5.8710802789
 31
0.0
 11
5.8956626992
 21
5.8710845404
 31
0.0
 11
5.8956680321
 21
5.8710888281
 31
0.0
 11
5.8956852515
 21
5.8710974795
 31
0.0
 11
5.8957112187
 21
5.8711062285
 31
0.0
 11
5.8957459419
 21
5.8711150705
 31
0.0
 11
5.8958415002
 21
5.8711330102
 31
0.0
 11
5.8959714788
 21
5.8711512484
 31
0.0
 11
5.8961354018
 21
5.8711697342
 31
0.0
 11
5.896332793
 21
5.8711884168
 31
0.0
 11
5.8965631763
 21
5.8712072455
 31
0.0
  0
LINE
  5
4A6
100
AcDbEntity
  8
0
100
AcDbLine
 62
7
  6
CONTINUOUS
 10
6.0556554748
 20
5.8662224773
 11
6.0416985722
 21
5.8676795899
  0
LINE
  5
4A7
100
AcDbEntity
  8
0
100
AcDbLine
 62
7
  6
CONTINUOUS
 10
6.0416985722
 20
5.8676795899
 11
6.0408726129
 21
5.8678227928
  0
LINE
  5
4A8
100
AcDbEntity
  8
0
100
AcDbLine
 62
7
  6
CONTINUOUS
 10
5.7694394575
 20
5.8635344171
 11
5.7674620103
 21
5.8633106062
  0
LINE
  5
4A9
100
AcDbEntity
  8
0
100
AcDbLine
 62
7
  6
CONTINUOUS
 10
5.8073726129
 20
5.8669891573
 11
5.8064363464
 21
5.8669321924
  0
LINE
  5
4AA
100
AcDbEntity
  8
0
100
AcDbLine
 62
7
  6
CONTINUOUS
 10
5.8448940625
 20
5.8689345516
 11
5.8410479396
 21
5.8689111692
  0
LINE
  5
4AB
100
AcDbEntity
  8
0
100
AcDbLine
 62
7
  6
CONTINUOUS
 10
5.8410479396
 20
5.8689111692
 11
5.8403726129
 21
5.8689833462
  0
LINE
  5
4AC
100
AcDbEntity
  8
0
100
AcDbLine
 62
7
  6
CONTINUOUS
 10
5.8073726129
 20
5.8667202144
 11
5.8068463882
 21
5.8665808564
  0
LINE
  5
4AD
100
AcDbEntity
  8
0
100
AcDbLine
 62
7
  6
CONTINUOUS
 10
5.8068463882
 20
5.8665808564
 11
5.8052462079
 21
5.8663451927
  0
LINE
  5
4AE
100
AcDbEntity
  8
0
100
AcDbLine
 62
7
  6
CONTINUOUS
 10
5.8052462079
 20
5.8663451927
 11
5.802648768
 21
5.8660270458
  0
LINE
  5
4AF
100
AcDbEntity
  8
0
100
AcDbLine
 62
7
  6
CONTINUOUS
 10
5.8023726129
 20
5.8666191637
 11
5.8039381258
 21
5.866747098
  0
LINE
  5
4B0
100
AcDbEntity
  8
0
100
AcDbLine
 62
7
  6
CONTINUOUS
 10
5.8053370625
 20
5.866858834
 11
5.8073726129
 21
5.8670059936
  0
LINE
  5
4B1
100
AcDbEntity
  8
0
100
AcDbLine
 62
7
  6
CONTINUOUS
 10
5.7673726129
 20
5.8633117783
 11
5.7683259482
 21
5.8634244493
  0
LINE
  5
4B2
100
AcDbEntity
  8
0
100
AcDbLine
 62
7
  6
CONTINUOUS
 10
5.7708380989
 20
5.8636906049
 11
5.7723726129
 21
5.8638486369
  0
LINE
  5
4B3
100
AcDbEntity
  8
0
100
AcDbLine
 62
7
  6
CONTINUOUS
 10
5.7695917003
 20
5.8630476838
 11
5.7673726129
 21
5.863025314
  0
LINE
  5
4B4
100
AcDbEntity
  8
0
100
AcDbLine
 62
7
  6
CONTINUOUS
 10
5.7343726129
 20
5.859186858
 11
5.7339142738
 21
5.8590373564
  0
LINE
  5
4B5
100
AcDbEntity
  8
0
100
AcDbLine
 62
7
  6
CONTINUOUS
 10
5.7339142738
 20
5.8590373564
 11
5.7325660347
 21
5.8587671985
  0
LINE
  5
4B6
100
AcDbEntity
  8
0
100
AcDbLine
 62
7
  6
CONTINUOUS
 10
5.6151851278
 20
5.8393752685
 11
5.6150489886
 21
5.8393525162
  0
LINE
  5
4B7
100
AcDbEntity
  8
0
100
AcDbLine
 62
7
  6
CONTINUOUS
 10
6.1478726129
 20
5.8560260413
 11
6.1475220357
 21
5.8559952271
  0
LINE
  5
4B8
100
AcDbEntity
  8
0
100
AcDbLine
 62
7
  6
CONTINUOUS
 10
6.1475220357
 20
5.8559952271
 11
6.1464773588
 21
5.8560594037
  0
SPLINE
  5
4B9
100
AcDbEntity
  8
0
100
AcDbSpline
 62
7
  6
CONTINUOUS
 70
0
 71
3
 72
16
 73
12
 74
10
 42
0.0000001
 43
0.0000001
 44
0.0000000001
 12
0.0472104781
 22
0.0071924635
 32
0.0
 13
0.0474130428
 23
-0.005706501
 33
0.0
 40
0.0
 40
0.0
 40
0.0
 40
0.0
 40
0.051416237
 40
0.1054677217
 40
0.2205299189
 40
0.3433340655
 40
0.4719189473
 40
0.6041195199
 40
0.7376821581
 40
0.8704047589
 40
1.0
 40
1.0
 40
1.0
 40
1.0
 10
5.9706460115
 20
5.8421071106
 30
0.0
 10
5.9714551399
 20
5.8422303804
 30
0.0
 10
5.9731182425
 20
5.8424614584
 30
0.0
 10
5.9766057416
 20
5.8428645897
 30
0.0
 10
5.9812379551
 20
5.8432498284
 30
0.0
 10
5.9870659319
 20
5.8435231505
 30
0.0
 10
5.9931724544
 20
5.8436107648
 30
0.0
 10
5.9994499552
 20
5.8435104732
 30
0.0
 10
6.005787662
 20
5.8432243446
 30
0.0
 10
6.012072993
 20
5.8427577127
 30
0.0
 10
6.0162269927
 20
5.8423251956
 30
0.0
 10
6.0182751609
 20
5.8420786838
 30
0.0
 11
5.9706460115
 21
5.8421071106
 31
0.0
 11
5.9730778243
 21
5.8424465865
 31
0.0
 11
5.9756418409
 21
5.8427442796
 31
0.0
 11
5.9811170866
 21
5.8432076735
 31
0.0
 11
5.9869749313
 21
5.8434877966
 31
0.0
 11
5.993114848
 21
5.8435793334
 31
0.0
 11
5.9994273387
 21
5.8434803249
 31
0.0
 11
6.0057991712
 21
5.8431928796
 31
0.0
 11
6.0121198863
 21
5.8427224574
 31
0.0
 11
6.0182751609
 21
5.8420786838
 31
0.0
  0
LINE
  5
4BA
100
AcDbEntity
  8
0
100
AcDbLine
 62
7
  6
CONTINUOUS
 10
6.0123138541
 20
5.8329493314
 11
6.0137752117
 21
5.8331416618
  0
SPLINE
  5
4BB
100
AcDbEntity
  8
0
100
AcDbSpline
 62
7
  6
CONTINUOUS
 70
0
 71
3
 72
18
 73
14
 74
12
 42
0.0000001
 43
0.0000001
 44
0.0000000001
 12
0.0020911334
 22
0.0003441338
 32
0.0
 13
0.0000164039
 23
0.0021191974
 33
0.0
 40
0.0
 40
0.0
 40
0.0
 40
0.0
 40
0.1799258086
 40
0.3486671972
 40
0.5041256636
 40
0.6441558353
 40
0.765381637
 40
0.8179000309
 40
0.8646363905
 40
0.9055605379
 40
0.9409839024
 40
0.9718200828
 40
1.0
 40
1.0
 40
1.0
 40
1.0
 10
6.0137752117
 20
5.8331416618
 30
0.0
 10
6.013900628
 20
5.8331623013
 30
0.0
 10
6.0141432526
 20
5.8332049001
 30
0.0
 10
6.0144921739
 20
5.8332764433
 30
0.0
 10
6.0148108473
 20
5.8333543481
 30
0.0
 10
6.0150930369
 20
5.8334385804
 30
0.0
 10
6.0153006477
 20
5.8335174333
 30
0.0
 10
6.0154403606
 20
5.8335865722
 30
0.0
 10
6.0155252242
 20
5.8336379077
 30
0.0
 10
6.0155941286
 20
5.8336913693
 30
0.0
 10
6.0156459707
 20
5.8337471854
 30
0.0
 10
6.0156794753
 20
5.833805782
 30
0.0
 10
6.0156878221
 20
5.8338476594
 30
0.0
 10
6.0156879762
 20
5.8338675657
 30
0.0
 11
6.0137752117
 21
5.8331416618
 31
0.0
 11
6.014150689
 21
5.8332080994
 31
0.0
 11
6.0145008689
 21
5.8332806031
 31
0.0
 11
6.0148206793
 21
5.8333597441
 31
0.0
 11
6.0151046058
 21
5.8334460719
 31
0.0
 11
6.0153437416
 21
5.8335399674
 31
0.0
 11
6.0154432386
 21
5.8335898479
 31
0.0
 11
6.0155276072
 21
5.833641734
 31
0.0
 11
6.0155955377
 21
5.8336956539
 31
0.0
 11
6.0156457483
 21
5.8337514626
 31
0.0
 11
6.0156769803
 21
5.8338088661
 31
0.0
 11
6.0156879762
 21
5.8338675657
 31
0.0
  0
SPLINE
  5
4BC
100
AcDbEntity
  8
0
100
AcDbSpline
 62
7
  6
CONTINUOUS
 70
0
 71
3
 72
18
 73
14
 74
12
 42
0.0000001
 43
0.0000001
 44
0.0000000001
 12
0.0434369499
 22
0.0085576906
 32
0.0
 13
0.0439820305
 23
-0.0050580314
 33
0.0
 40
0.0
 40
0.0
 40
0.0
 40
0.0
 40
0.043852642
 40
0.0912189017
 40
0.1419218485
 40
0.1957738572
 40
0.3121184241
 40
0.4384792016
 40
0.5047748745
 40
0.5727722207
 40
0.7127028331
 40
0.8559505963
 40
1.0
 40
1.0
 40
1.0
 40
1.0
 10
6.0381338553
 20
5.8421071106
 30
0.0
 10
6.0387687969
 20
5.8422322031
 30
0.0
 10
6.0400948903
 20
5.8424657046
 30
0.0
 10
6.042168675
 20
5.8427608406
 30
0.0
 10
6.044396698
 20
5.8430128737
 30
0.0
 10
6.0476444929
 20
5.8432966532
 30
0.0
 10
6.0520162454
 20
5.8435262378
 30
0.0
 10
6.0565766526
 20
5.8435954355
 30
0.0
 10
6.0604231766
 20
5.8435608614
 30
0.0
 10
6.0644689041
 20
5.8434616344
 30
0.0
 10
6.069646398
 20
5.843218671
 30
0.0
 10
6.075934356
 20
5.8427495543
 30
0.0
 10
6.0801530316
 20
5.8423215526
 30
0.0
 10
6.0822648934
 20
5.8420786838
 30
0.0
 11
6.0381338553
 21
5.8421071106
 31
0.0
 11
6.0400453854
 21
5.8424465865
 31
0.0
 11
6.0421211425
 21
5.8427442796
 31
0.0
 11
6.0443514233
 21
5.8429984458
 31
0.0
 11
6.0467263565
 21
5.8432076735
 31
0.0
 11
6.0518695308
 21
5.8434877966
 31
0.0
 11
6.0574630158
 21
5.8435793334
 31
0.0
 11
6.0603979394
 21
5.8435535858
 31
0.0
 11
6.0634074207
 21
5.8434803249
 31
0.0
 11
6.069595745
 21
5.8431928796
 31
0.0
 11
6.0759201268
 21
5.8427224574
 31
0.0
 11
6.0822648934
 21
5.8420786838
 31
0.0
  0
SPLINE
  5
4BD
100
AcDbEntity
  8
0
100
AcDbSpline
 62
7
  6
CONTINUOUS
 70
0
 71
3
 72
18
 73
14
 74
12
 42
0.0000001
 43
0.0000001
 44
0.0000000001
 12
0.0137686927
 22
-0.0001110318
 32
0.0
 13
0.0115366517
 23
-0.0075163085
 33
0.0
 40
0.0
 40
0.0
 40
0.0
 40
0.0
 40
0.1690643092
 40
0.330536031
 40
0.4810949992
 40
0.6183198909
 40
0.7401542581
 40
0.7947919337
 40
0.8450016167
 40
0.8906457978
 40
0.9316777952
 40
0.9681050554
 40
1.0
 40
1.0
 40
1.0
 40
1.0
 10
5.8792368769
 20
5.8435322663
 30
0.0
 10
5.8800128084
 20
5.8435260091
 30
0.0
 10
5.8815297559
 20
5.843492036
 30
0.0
 10
5.8837351072
 20
5.8433749812
 30
0.0
 10
5.8857896135
 20
5.8431941476
 30
0.0
 10
5.8876548216
 20
5.8429542468
 30
0.0
 10
5.8890730019
 20
5.8427007829
 30
0.0
 10
5.890087116
 20
5.8424675087
 30
0.0
 10
5.8907541486
 20
5.8422874442
 30
0.0
 10
5.8913529788
 20
5.8420965806
 30
0.0
 10
5.8918815409
 20
5.8418959225
 30
0.0
 10
5.8923380947
 20
5.8416864606
 30
0.0
 10
5.8926113737
 20
5.8415313628
 30
0.0
 10
5.8927340274
 20
5.841451452
 30
0.0
 11
5.8792368769
 21
5.8435322663
 31
0.0
 11
5.8815641399
 21
5.8434791037
 31
0.0
 11
5.8837842216
 21
5.8433590226
 31
0.0
 11
5.8858490477
 21
5.8431743541
 31
0.0
 11
5.8877225282
 21
5.8429290729
 31
0.0
 11
5.8893728249
 21
5.8426278919
 31
0.0
 11
5.8901057476
 21
5.8424581848
 31
0.0
 11
5.8907728672
 21
5.8422767788
 31
0.0
 11
5.891371208
 21
5.8420844851
 31
0.0
 11
5.8918987332
 21
5.8418822124
 31
0.0
 11
5.8923536155
 21
5.8416708912
 31
0.0
 11
5.8927340274
 21
5.841451452
 31
0.0
  0
SPLINE
  5
4BE
100
AcDbEntity
  8
0
100
AcDbSpline
 62
7
  6
CONTINUOUS
 70
0
 71
3
 72
12
 73
8
 74
6
 42
0.0000001
 43
0.0000001
 44
0.0000000001
 12
0.0011230262
 22
-0.0007316691
 32
0.0
 13
0.0000006157
 23
-0.0013403459
 33
0.0
 40
0.0
 40
0.0
 40
0.0
 40
0.0
 40
0.3099491377
 40
0.5716228712
 40
0.7956559882
 40
0.8990221338
 40
1.0
 40
1.0
 40
1.0
 40
1.0
 10
5.8927340274
 20
5.841451452
 30
0.0
 10
5.8928500544
 20
5.8413758586
 30
0.0
 10
5.8930565323
 20
5.8412237252
 30
0.0
 10
5.8933037492
 20
5.8409651941
 30
0.0
 10
5.8934357334
 20
5.8407327384
 30
0.0
 10
5.8934861895
 20
5.84054723
 30
0.0
 10
5.8934944283
 20
5.8404557317
 30
0.0
 10
5.893494449
 20
5.8404106166
 30
0.0
 11
5.8927340274
 21
5.841451452
 31
0.0
 11
5.893065482
 21
5.8412009975
 31
0.0
 11
5.8933032283
 21
5.8409431398
 31
0.0
 11
5.893446478
 21
5.8406792293
 31
0.0
 11
5.8934824204
 21
5.8405454263
 31
0.0
 11
5.893494449
 21
5.8404106166
 31
0.0
  0
LINE
  5
4BF
100
AcDbEntity
  8
0
100
AcDbLine
 62
7
  6
CONTINUOUS
 10
5.8429759502
 20
5.8390421572
 11
5.8437079919
 21
5.8397841764
  0
LINE
  5
4C0
100
AcDbEntity
  8
0
100
AcDbLine
 62
7
  6
CONTINUOUS
 10
5.8437079919
 20
5.8397841764
 11
5.8442189848
 21
5.8402970793
  0
LINE
  5
4C1
100
AcDbEntity
  8
0
100
AcDbLine
 62
7
  6
CONTINUOUS
 10
5.8044216195
 20
5.8435749596
 11
5.8049074965
 21
5.8435761793
  0
LINE
  5
4C2
100
AcDbEntity
  8
0
100
AcDbLine
 62
7
  6
CONTINUOUS
 10
5.9046436616
 20
5.8712747025
 11
5.904838086
 21
5.8712656859
  0
SPLINE
  5
4C3
100
AcDbEntity
  8
0
100
AcDbSpline
 62
7
  6
CONTINUOUS
 70
0
 71
3
 72
8
 73
4
 74
2
 42
0.0000001
 43
0.0000001
 44
0.0000000001
 12
0.0000710488
 22
-0.0000060797
 32
0.0
 13
0.0000710488
 23
-0.0000060797
 33
0.0
 40
0.0
 40
0.0
 40
0.0
 40
0.0
 40
1.0
 40
1.0
 40
1.0
 40
1.0
 10
5.9832875953
 20
5.8706897164
 30
0.0
 10
5.9833112783
 20
5.8706876898
 30
0.0
 10
5.9833349612
 20
5.8706856632
 30
0.0
 10
5.9833586442
 20
5.8706836367
 30
0.0
 11
5.9832875953
 21
5.8706897164
 31
0.0
 11
5.9833586442
 21
5.8706836367
 31
0.0
  0
LINE
  5
4C4
100
AcDbEntity
  8
0
100
AcDbLine
 62
7
  6
CONTINUOUS
 10
6.2518367137
 20
5.8390832926
 11
6.2478693233
 21
5.8397531822
  0
LINE
  5
4C5
100
AcDbEntity
  8
0
100
AcDbLine
 62
7
  6
CONTINUOUS
 10
5.5762457427
 20
5.8319546382
 11
5.6047291817
 21
5.8373324444
  0
LINE
  5
4C6
100
AcDbEntity
  8
0
100
AcDbLine
 62
7
  6
CONTINUOUS
 10
5.6196937946
 20
5.8401484484
 11
5.6322741713
 21
5.8425113863
  0
LINE
  5
4C7
100
AcDbEntity
  8
0
100
AcDbLine
 62
7
  6
CONTINUOUS
 10
5.6322741713
 20
5.8425113863
 11
5.6324624566
 21
5.8425467213
  0
LINE
  5
4C8
100
AcDbEntity
  8
0
100
AcDbLine
 62
7
  6
CONTINUOUS
 10
5.8963112662
 20
5.8724653339
 11
5.8965660939
 21
5.8724651914
  0
LINE
  5
4C9
100
AcDbEntity
  8
0
100
AcDbLine
 62
7
  6
CONTINUOUS
 10
5.9005166855
 20
5.8724171742
 11
5.9009832065
 21
5.872405822
  0
LINE
  5
4CA
100
AcDbEntity
  8
0
100
AcDbLine
 62
7
  6
CONTINUOUS
 10
6.2798726129
 20
5.832860695
 11
6.2785626166
 21
5.8331034835
  0
LINE
  5
4CB
100
AcDbEntity
  8
0
100
AcDbLine
 62
7
  6
CONTINUOUS
 10
6.2785626166
 20
5.8331034835
 11
6.251803427
 21
5.8380543933
  0
LINE
  5
4CC
100
AcDbEntity
  8
0
100
AcDbLine
 62
7
  6
CONTINUOUS
 10
6.251803427
 20
5.8380543933
 11
6.2516784146
 21
5.8380774849
  0
LINE
  5
4CD
100
AcDbEntity
  8
0
100
AcDbLine
 62
7
  6
CONTINUOUS
 10
6.2516784146
 20
5.8380774849
 11
6.2488349877
 21
5.8386026098
  0
LINE
  5
4CE
100
AcDbEntity
  8
0
100
AcDbLine
 62
7
  6
CONTINUOUS
 10
6.2488349877
 20
5.8386026098
 11
6.2477711013
 21
5.8387990416
  0
LINE
  5
4CF
100
AcDbEntity
  8
0
100
AcDbLine
 62
7
  6
CONTINUOUS
 10
6.2477711013
 20
5.8387990416
 11
6.2100537373
 21
5.8457466719
  0
LINE
  5
4D0
100
AcDbEntity
  8
0
100
AcDbLine
 62
7
  6
CONTINUOUS
 10
6.2100537373
 20
5.8457466719
 11
6.2098726129
 21
5.845779959
  0
SPLINE
  5
4D1
100
AcDbEntity
  8
0
100
AcDbSpline
 62
7
  6
CONTINUOUS
 70
0
 71
3
 72
8
 73
4
 74
2
 42
0.0000001
 43
0.0000001
 44
0.0000000001
 12
0.0000422755
 22
-0.0000011771
 32
0.0
 13
0.0000422755
 23
-0.0000011771
 33
0.0
 40
0.0
 40
0.0
 40
0.0
 40
0.0
 40
1.0
 40
1.0
 40
1.0
 40
1.0
 10
5.9728505293
 20
5.872280356
 30
0.0
 10
5.9728646211
 20
5.8722799637
 30
0.0
 10
5.9728787129
 20
5.8722795713
 30
0.0
 10
5.9728928048
 20
5.872279179
 30
0.0
 11
5.9728505293
 21
5.872280356
 31
0.0
 11
5.9728928048
 21
5.872279179
 31
0.0
  0
SPLINE
  5
4D2
100
AcDbEntity
  8
0
100
AcDbSpline
 62
9
  6
CONTINUOUS
 70
0
 71
3
 72
15
 73
11
 74
9
 42
0.0000001
 43
0.0000001
 44
0.0000000001
 12
-0.1651600325
 22
-0.3492699123
 32
0.0
 13
-0.0015378353
 23
-0.3863482148
 33
0.0
 40
0.0
 40
0.0
 40
0.0
 40
0.0
 40
0.1202169548
 40
0.2423069719
 40
0.3660392554
 40
0.4911579846
 40
0.6173915223
 40
0.7444607966
 40
0.87208716
 40
1.0
 40
1.0
 40
1.0
 40
1.0
 10
5.0047318017
 20
5.2695865967
 30
0.0
 10
4.9981134563
 20
5.2555905417
 30
0.0
 10
4.9856403857
 20
5.2269625271
 30
0.0
 10
4.9693503179
 20
5.1827010695
 30
0.0
 10
4.9553775367
 20
5.136993384
 30
0.0
 10
4.9437796445
 20
5.0900777361
 30
0.0
 10
4.9346133027
 20
5.0421899216
 30
0.0
 10
4.9279358023
 20
4.9935659155
 30
0.0
 10
4.9238045891
 20
4.9444439164
 30
0.0
 10
4.9227868928
 20
4.9115317895
 30
0.0
 10
4.9227213232
 20
4.8950588237
 30
0.0
 11
5.0047318017
 21
5.2695865967
 31
0.0
 11
4.9861526831
 21
5.2270184768
 31
0.0
 11
4.9698378683
 21
5.182760131
 31
0.0
 11
4.9558448922
 21
5.1370498363
 31
0.0
 11
4.9442312901
 21
5.0901258698
 31
0.0
 11
4.935054597
 21
5.0422265083
 31
0.0
 11
4.9283723481
 21
4.9935900288
 31
0.0
 11
4.9242420785
 21
4.9444547083
 31
0.0
 11
4.9227213232
 21
4.8950588237
 31
0.0
  0
SPLINE
  5
4D3
100
AcDbEntity
  8
0
100
AcDbSpline
 62
9
  6
CONTINUOUS
 70
0
 71
3
 72
33
 73
29
 74
27
 42
0.0000001
 43
0.0000001
 44
0.0000000001
 12
-0.0004730852
 22
0.190942243
 32
0.0
 13
-0.1741530546
 23
0.0782935346
 33
0.0
 40
0.0
 40
0.0
 40
0.0
 40
0.0
 40
0.0325384293
 40
0.0651193237
 40
0.0977297512
 40
0.1303221539
 40
0.1628549486
 40
0.1953415963
 40
0.2277911466
 40
0.2602000471
 40
0.2925541815
 40
0.3248447627
 40
0.3570707866
 40
0.3892282356
 40
0.453299952
 40
0.5169856824
 40
0.5802166178
 40
0.6116435676
 40
0.6429314593
 40
0.7050176268
 40
0.7663381995
 40
0.7966771567
 40
0.826766808
 40
0.8860546652
 40
0.9152103323
 40
0.9439750351
 40
0.9722630401
 40
1.0
 40
1.0
 40
1.0
 40
1.0
 10
5.5938548506
 20
5.3078760692
 30
0.0
 10
5.5938497194
 20
5.3099470561
 30
0.0
 10
5.5936939254
 20
5.3140925158
 30
0.0
 10
5.5930664153
 20
5.3202845615
 30
0.0
 10
5.5920869595
 20
5.3264338094
 30
0.0
 10
5.5907976449
 20
5.3325217672
 30
0.0
 10
5.5892347118
 20
5.3385367808
 30
0.0
 10
5.5874204733
 20
5.34447104
 30
0.0
 10
5.5853782178
 20
5.3503221025
 30
0.0
 10
5.5831301379
 20
5.3560878903
 30
0.0
 10
5.5806995553
 20
5.3617679365
 30
0.0
 10
5.5781014548
 20
5.3673604061
 30
0.0
 10
5.5753446293
 20
5.3728623365
 30
0.0
 10
5.5714753076
 20
5.3800656642
 30
0.0
 10
5.5662935899
 20
5.3888321009
 30
0.0
 10
5.5595835638
 20
5.3989741034
 30
0.0
 10
5.5536012917
 20
5.4070906565
 30
0.0
 10
5.54860186
 20
5.4133577332
 30
0.0
 10
5.5434914167
 20
5.4194397415
 30
0.0
 10
5.5368654493
 20
5.4267292596
 30
0.0
 10
5.5298843293
 20
5.4335949163
 30
0.0
 10
5.5241171883
 20
5.4387724254
 30
0.0
 10
5.518286692
 20
5.4436793727
 30
0.0
 10
5.5122679831
 20
5.4482417234
 30
0.0
 10
5.506065944
 20
5.4523904795
 30
0.0
 10
5.5013789775
 20
5.4552469813
 30
0.0
 10
5.4966446275
 20
5.4578413394
 30
0.0
 10
5.4934330811
 20
5.4593955947
 30
0.0
 10
5.4918229224
 20
5.4601194696
 30
0.0
 11
5.5938548506
 21
5.3078760692
 31
0.0
 11
5.5936285303
 21
5.3140849255
 31
0.0
 11
5.5930080562
 21
5.3202749941
 31
0.0
 11
5.5920349906
 21
5.3264252198
 31
0.0
 11
5.5907508635
 21
5.3325145795
 31
0.0
 11
5.5891916213
 21
5.3385276081
 31
0.0
 11
5.5873813284
 21
5.3444606676
 31
0.0
 11
5.5853425271
 21
5.3503116347
 31
0.0
 11
5.58309776
 21
5.3560783863
 31
0.0
 11
5.5806691957
 21
5.3617588057
 31
0.0
 11
5.5780723067
 21
5.3673508954
 31
0.0
 11
5.5753167808
 21
5.372852761
 31
0.0
 11
5.5724121155
 21
5.3782625111
 31
0.0
 11
5.5661933545
 21
5.3887980993
 31
0.0
 11
5.5594829904
 21
5.3989393382
 31
0.0
 11
5.5523188501
 21
5.4086575862
 31
0.0
 11
5.5485765977
 21
5.4133484875
 31
0.0
 11
5.5447328171
 21
5.4179219326
 31
0.0
 11
5.5367522448
 21
5.426688307
 31
0.0
 11
5.5283970565
 21
5.4348910527
 31
0.0
 11
5.5240850668
 21
5.4387596012
 31
0.0
 11
5.5196877091
 21
5.4424572899
 31
0.0
 11
5.510652997
 21
5.4492785627
 31
0.0
 11
5.5060239292
 21
5.4523711264
 31
0.0
 11
5.5013317632
 21
5.4552259796
 31
0.0
 11
5.4965926189
 21
5.4578174163
 31
0.0
 11
5.4918229224
 21
5.4601194696
 31
0.0
  0
LINE
  5
4D4
100
AcDbEntity
  8
0
100
AcDbLine
 62
9
  6
CONTINUOUS
 10
5.704931813
 20
5.3077181732
 11
5.5938548506
 21
5.3078760692
  0
SPLINE
  5
4D5
100
AcDbEntity
  8
0
100
AcDbSpline
 62
9
  6
CONTINUOUS
 70
0
 71
3
 72
26
 73
22
 74
20
 42
0.0000001
 43
0.0000001
 44
0.0000000001
 12
0.0220875349
 22
-0.0936935914
 32
0.0
 13
-0.0827799651
 23
-0.0491306996
 33
0.0
 40
0.0
 40
0.0
 40
0.0
 40
0.0
 40
0.0720618457
 40
0.1431299732
 40
0.2130117523
 40
0.2815330562
 40
0.3485957172
 40
0.4141686939
 40
0.4782417231
 40
0.5408310966
 40
0.6019815352
 40
0.6617625089
 40
0.6911764658
 40
0.7202895752
 40
0.749122092
 40
0.7776956746
 40
0.8341433148
 40
0.8898480954
 40
0.9175009976
 40
0.9450580135
 40
1.0
 40
1.0
 40
1.0
 40
1.0
 10
5.4970743487
 20
5.5536351586
 30
0.0
 10
5.4976049049
 20
5.5513845809
 30
0.0
 10
5.4985312251
 20
5.546883215
 30
0.0
 10
5.4995153474
 20
5.5401156039
 30
0.0
 10
5.500080152
 20
5.5334136908
 30
0.0
 10
5.5002182849
 20
5.5268177234
 30
0.0
 10
5.499927975
 20
5.520364822
 30
0.0
 10
5.4992135198
 20
5.5140883702
 30
0.0
 10
5.4980779794
 20
5.5080198331
 30
0.0
 10
5.4965248673
 20
5.5021907778
 30
0.0
 10
5.494564833
 20
5.4966313571
 30
0.0
 10
5.4925897076
 20
5.4922231343
 30
0.0
 10
5.4908145816
 20
5.488866376
 30
0.0
 10
5.4893952094
 20
5.486448052
 30
0.0
 10
5.4878831495
 20
5.4841186135
 30
0.0
 10
5.4857555075
 20
5.4811475639
 30
0.0
 10
5.4828736722
 20
5.4776620203
 30
0.0
 10
5.4796916305
 20
5.4744892477
 30
0.0
 10
5.4769910802
 20
5.4721691623
 30
0.0
 10
5.4741986933
 20
5.4700006879
 30
0.0
 10
5.4719878967
 20
5.4685342195
 30
0.0
 10
5.4704718648
 20
5.46763444
 30
0.0
 11
5.4970743487
 21
5.5536351586
 31
0.0
 11
5.4984704694
 21
5.5468402962
 31
0.0
 11
5.4994518961
 21
5.5400699084
 31
0.0
 11
5.5000124033
 21
5.5333663496
 31
0.0
 11
5.5001460077
 21
5.5267717138
 31
0.0
 11
5.4998516058
 21
5.5203228529
 31
0.0
 11
5.4991326202
 21
5.5140517568
 31
0.0
 11
5.4979926446
 21
5.5079902317
 31
0.0
 11
5.4964366484
 21
5.5021696524
 31
0.0
 11
5.4944742304
 21
5.4966199427
 31
0.0
 11
5.4921159628
 21
5.4913707215
 31
0.0
 11
5.4907916899
 21
5.4888680492
 31
0.0
 11
5.4893726722
 21
5.4864513787
 31
0.0
 11
5.4878610885
 21
5.4841236416
 31
0.0
 11
5.4862592068
 21
5.4818876896
 31
0.0
 11
5.4827936213
 21
5.4777025471
 31
0.0
 11
5.4789940609
 21
5.4739187622
 31
0.0
 11
5.4769748628
 21
5.4721842138
 31
0.0
 11
5.474879587
 21
5.4705573814
 31
0.0
 11
5.4704718648
 21
5.46763444
 31
0.0
  0
SPLINE
  5
4D6
100
AcDbEntity
  8
0
100
AcDbSpline
 62
9
  6
CONTINUOUS
 70
0
 71
3
 72
15
 73
11
 74
9
 42
0.0000001
 43
0.0000001
 44
0.0000000001
 12
-0.0172303364
 22
-0.0105524752
 32
0.0
 13
-0.0087769668
 23
-0.0181990131
 33
0.0
 40
0.0
 40
0.0
 40
0.0
 40
0.0
 40
0.1249193014
 40
0.2488459577
 40
0.3722885934
 40
0.4957597853
 40
0.6197702596
 40
0.7448231717
 40
0.8714088085
 40
1.0
 40
1.0
 40
1.0
 40
1.0
 10
5.0047318017
 20
5.2695865967
 30
0.0
 10
5.0040143345
 20
5.2691471941
 30
0.0
 10
5.0026155472
 20
5.2682209249
 30
0.0
 10
5.0006289241
 20
5.2666877084
 30
0.0
 10
4.998766684
 20
5.2650199659
 30
0.0
 10
4.9970311265
 20
5.2632200264
 30
0.0
 10
4.9954243531
 20
5.2612901451
 30
0.0
 10
4.9939484588
 20
5.2592325773
 30
0.0
 10
4.9926055741
 20
5.2570497426
 30
0.0
 10
4.9918073975
 20
5.2555259661
 30
0.0
 10
4.9914311839
 20
5.2547458885
 30
0.0
 11
5.0047318017
 21
5.2695865967
 31
0.0
 11
5.0026278302
 21
5.2681923914
 31
0.0
 11
5.0006458712
 21
5.2666621948
 31
0.0
 11
4.9987879748
 21
5.2649981622
 31
0.0
 11
4.997056191
 21
5.2632024487
 31
0.0
 11
4.9954525699
 21
5.2612772094
 31
0.0
 11
4.9939791617
 21
5.2592245995
 31
0.0
 11
4.9926380163
 21
5.2570467741
 31
0.0
 11
4.9914311839
 21
5.2547458885
 31
0.0
  0
SPLINE
  5
4D7
100
AcDbEntity
  8
0
100
AcDbSpline
 62
6
  6
CONTINUOUS
 70
0
 71
3
 72
25
 73
21
 74
19
 42
0.0000001
 43
0.0000001
 44
0.0000000001
 12
-0.0140203878
 22
-0.0009826721
 32
0.0
 13
-0.000635028
 23
-0.0140404294
 33
0.0
 40
0.0
 40
0.0
 40
0.0
 40
0.0
 40
0.2261497241
 40
0.4227946877
 40
0.5100619041
 40
0.589967313
 40
0.6625230772
 40
0.7277477859
 40
0.7856696976
 40
0.8363322815
 40
0.8798042779
 40
0.9161993697
 40
0.9318052747
 40
0.9457301027
 40
0.9580296818
 40
0.9687856209
 40
0.978120615
 40
0.9862227659
 40
0.9933787412
 40
1.0
 40
1.0
 40
1.0
 40
1.0
 10
4.9227213154
 20
4.8950596799
 30
0.0
 10
4.9216644131
 20
4.8949856029
 30
0.0
 10
4.9196893582
 20
4.894834293
 30
0.0
 10
4.9173101263
 20
4.8946098257
 30
0.0
 10
4.9156164109
 20
4.8944183399
 30
0.0
 10
4.9145022703
 20
4.8942763252
 30
0.0
 10
4.9134928844
 20
4.8941302533
 30
0.0
 10
4.9125883082
 20
4.8939802269
 30
0.0
 10
4.9117885832
 20
4.8938263752
 30
0.0
 10
4.9110936511
 20
4.8936688825
 30
0.0
 10
4.9105034928
 20
4.8935078763
 30
0.0
 10
4.9100792527
 20
4.8933646586
 30
0.0
 10
4.9097940563
 20
4.8932457767
 30
0.0
 10
4.909617553
 20
4.8931603293
 30
0.0
 10
4.9094671555
 20
4.8930739647
 30
0.0
 10
4.9093427599
 20
4.8929865844
 30
0.0
 10
4.9092442413
 20
4.8928979924
 30
0.0
 10
4.9091715809
 20
4.8928077227
 30
0.0
 10
4.9091252361
 20
4.8927152331
 30
0.0
 10
4.9091125859
 20
4.892650892
 30
0.0
 10
4.9091111843
 20
4.8926199035
 30
0.0
 11
4.9227213154
 21
4.8950596799
 31
0.0
 11
4.9195523555
 21
4.8948137907
 31
0.0
 11
4.9168011761
 21
4.8945499442
 31
0.0
 11
4.915582498
 21
4.8944114552
 31
0.0
 11
4.9144685575
 21
4.8942686787
 31
0.0
 11
4.9134594524
 21
4.894121682
 31
0.0
 11
4.91255528
 21
4.8939705323
 31
0.0
 11
4.9117561379
 21
4.8938152971
 31
0.0
 11
4.9110621236
 21
4.8936560434
 31
0.0
 11
4.9104733347
 21
4.8934928387
 31
0.0
 11
4.9099898688
 21
4.8933257502
 31
0.0
 11
4.9097876623
 21
4.8932407705
 31
0.0
 11
4.9096118232
 21
4.8931548451
 31
0.0
 11
4.9094623635
 21
4.8930679824
 31
0.0
 11
4.9093392956
 21
4.8929801908
 31
0.0
 11
4.9092426315
 21
4.8928914787
 31
0.0
 11
4.9091723834
 21
4.8928018545
 31
0.0
 11
4.9091285637
 21
4.8927113267
 31
0.0
 11
4.9091111843
 21
4.8926199035
 31
0.0
  0
SPLINE
  5
4D8
100
AcDbEntity
  8
0
100
AcDbSpline
 62
9
  6
CONTINUOUS
 70
0
 71
3
 72
32
 73
28
 74
26
 42
0.0000001
 43
0.0000001
 44
0.0000000001
 12
0.0
 22
-0.1871652112
 32
0.0
 13
-0.1751899174
 23
0.0658734325
 33
0.0
 40
0.0
 40
0.0
 40
0.0
 40
0.0
 40
0.0344607971
 40
0.06847861
 40
0.1021212852
 40
0.1354469135
 40
0.1685040695
 40
0.2013322174
 40
0.2663901601
 40
0.3308065005
 40
0.3946363592
 40
0.4578613232
 40
0.5204189177
 40
0.5822333376
 40
0.6432477414
 40
0.7034586971
 40
0.7333002575
 40
0.7629835339
 40
0.7925398978
 40
0.8220111225
 40
0.8367332651
 40
0.8514550554
 40
0.8809236662
 40
0.9104753202
 40
0.9401522738
 40
0.969986333
 40
1.0
 40
1.0
 40
1.0
 40
1.0
 10
5.5529770322
 20
5.3078760521
 30
0.0
 10
5.5529770322
 20
5.305726098
 30
0.0
 10
5.552841246
 20
5.3014525578
 30
0.0
 10
5.5522353674
 20
5.2951062231
 30
0.0
 10
5.5512446003
 20
5.2888800706
 30
0.0
 10
5.5498848252
 20
5.2827856536
 30
0.0
 10
5.5481717467
 20
5.2768337635
 30
0.0
 10
5.5454468402
 20
5.2691280707
 30
0.0
 10
5.541237677
 20
5.2598915564
 30
0.0
 10
5.5350140592
 20
5.2495330795
 30
0.0
 10
5.527757873
 20
5.2400138146
 30
0.0
 10
5.5195945013
 20
5.2314205791
 30
0.0
 10
5.5106478326
 20
5.2238393439
 30
0.0
 10
5.5010403687
 20
5.2173570527
 30
0.0
 10
5.4908952209
 20
5.2120619698
 30
0.0
 10
5.4820626757
 20
5.2087019469
 30
0.0
 10
5.47485943
 20
5.2067072724
 30
0.0
 10
5.4694154978
 20
5.2055687111
 30
0.0
 10
5.4639312774
 20
5.2047949919
 30
0.0
 10
5.4593380771
 20
5.2044635473
 30
0.0
 10
5.455662471
 20
5.2043923401
 30
0.0
 10
5.4519868212
 20
5.2044520578
 30
0.0
 10
5.4473931055
 20
5.204769478
 30
0.0
 10
5.4419074296
 20
5.2055268751
 30
0.0
 10
5.4364614764
 20
5.2066495681
 30
0.0
 10
5.4310712276
 20
5.2081261467
 30
0.0
 10
5.4275357378
 20
5.2093353536
 30
0.0
 10
5.4257830405
 20
5.209994388
 30
0.0
 11
5.5529770322
 21
5.3078760521
 31
0.0
 11
5.5527718667
 21
5.3014294537
 31
0.0
 11
5.5521668156
 21
5.2950913167
 31
0.0
 11
5.5511775472
 21
5.2888727749
 31
0.0
 11
5.5498197298
 21
5.2827849617
 31
0.0
 11
5.5481090315
 21
5.2768390109
 31
0.0
 11
5.5460611208
 21
5.2710460559
 31
0.0
 11
5.5410163346
 21
5.2599636681
 31
0.0
 11
5.5348107174
 21
5.249626867
 31
0.0
 11
5.5275696151
 21
5.2401247214
 31
0.0
 11
5.5194183737
 21
5.2315463001
 31
0.0
 11
5.5104823393
 21
5.2239806719
 31
0.0
 11
5.500886858
 21
5.2175169056
 31
0.0
 11
5.4907572757
 21
5.2122440699
 31
0.0
 11
5.4802189386
 21
5.2082512336
 31
0.0
 11
5.4748356576
 21
5.2067626493
 31
0.0
 11
5.4693971926
 21
5.2056274656
 31
0.0
 11
5.4639192119
 21
5.2048568161
 31
0.0
 11
5.4584173837
 21
5.2044618345
 31
0.0
 11
5.4556624232
 21
5.2044086984
 31
0.0
 11
5.4529073764
 21
5.2044532491
 31
0.0
 11
5.4474048581
 21
5.2048314276
 31
0.0
 11
5.4419254971
 21
5.2055857643
 31
0.0
 11
5.4364849616
 21
5.2067051257
 31
0.0
 11
5.43109892
 21
5.2081783781
 31
0.0
 11
5.4257830405
 21
5.209994388
 31
0.0
  0
SPLINE
  5
4D9
100
AcDbEntity
  8
0
100
AcDbSpline
 62
9
  6
CONTINUOUS
 70
0
 71
3
 72
35
 73
31
 74
29
 42
0.0000001
 43
0.0000001
 44
0.0000000001
 12
0.0004421207
 22
0.1909439037
 32
0.0
 13
0.1741723677
 23
0.0782544322
 33
0.0
 40
0.0
 40
0.0
 40
0.0
 40
0.0
 40
0.0325488833
 40
0.0651335995
 40
0.0977282426
 40
0.1302840979
 40
0.1628016301
 40
0.1952900701
 40
0.2277423002
 40
0.2601438591
 40
0.2924937302
 40
0.3247895843
 40
0.35702363
 40
0.3891835533
 40
0.4212607384
 40
0.4532504256
 40
0.5169361309
 40
0.5801786019
 40
0.6428889533
 40
0.674020366
 40
0.704985306
 40
0.7357620238
 40
0.7663284864
 40
0.7966656442
 40
0.8267558685
 40
0.8860505937
 40
0.9151971461
 40
0.9439582363
 40
0.9722522101
 40
1.0
 40
1.0
 40
1.0
 40
1.0
 10
6.2658895833
 20
5.3078760629
 30
0.0
 10
6.2658943802
 20
5.3099477331
 30
0.0
 10
6.2660503047
 20
5.3140941585
 30
0.0
 10
6.2666784873
 20
5.3202860891
 30
0.0
 10
6.2676573428
 20
5.3264323163
 30
0.0
 10
6.2689441466
 20
5.3325164978
 30
0.0
 10
6.270509897
 20
5.338527602
 30
0.0
 10
6.2723274738
 20
5.3444601446
 30
0.0
 10
6.2743698232
 20
5.3503109502
 30
0.0
 10
6.2766116262
 20
5.3560786008
 30
0.0
 10
6.2790394799
 20
5.3617595024
 30
0.0
 10
6.2816397857
 20
5.3673516792
 30
0.0
 10
6.2843994524
 20
5.3728533127
 30
0.0
 10
6.2873048377
 20
5.3782635016
 30
0.0
 10
6.2903470929
 20
5.3835800199
 30
0.0
 10
6.29457125
 20
5.3905288203
 30
0.0
 10
6.3001598332
 20
5.398965287
 30
0.0
 10
6.3073210694
 20
5.4086873818
 30
0.0
 10
6.3136547569
 20
5.4164298148
 30
0.0
 10
6.3189238562
 20
5.4223755221
 30
0.0
 10
6.3229618044
 20
5.4266936486
 30
0.0
 10
6.3270933156
 20
5.4308719743
 30
0.0
 10
6.3313159145
 20
5.4349006158
 30
0.0
 10
6.335627112
 20
5.4387694952
 30
0.0
 10
6.3414586565
 20
5.4436757576
 30
0.0
 10
6.3474764716
 20
5.4482391725
 30
0.0
 10
6.3536776309
 20
5.4523886952
 30
0.0
 10
6.3583638564
 20
5.4552456737
 30
0.0
 10
6.3630987318
 20
5.4578409286
 30
0.0
 10
6.3663113958
 20
5.4593954421
 30
0.0
 10
6.3679223619
 20
5.4601192379
 30
0.0
 11
6.2658895833
 21
5.3078760629
 31
0.0
 11
6.2661158328
 21
5.3140869708
 31
0.0
 11
6.2667368639
 21
5.320277769
 31
0.0
 11
6.2677092598
 21
5.3264251016
 31
0.0
 11
6.268991454
 21
5.3325077897
 31
0.0
 11
6.270552672
 21
5.3385173479
 31
0.0
 11
6.2723660406
 21
5.3444498799
 31
0.0
 11
6.2744046926
 21
5.3503014954
 31
0.0
 11
6.2766445043
 21
5.3560687247
 31
0.0
 11
6.279070348
 21
5.3617494772
 31
0.0
 11
6.2816689369
 21
5.367341944
 31
0.0
 11
6.2844269845
 21
5.3728443165
 31
0.0
 11
6.2873314619
 21
5.3782547616
 31
0.0
 11
6.2903731416
 21
5.3835710866
 31
0.0
 11
6.2935456926
 21
5.3887908246
 31
0.0
 11
6.3002583752
 21
5.3989306443
 31
0.0
 11
6.307422385
 21
5.4086518494
 31
0.0
 11
6.3150075584
 21
5.417917183
 31
0.0
 11
6.3189505506
 21
5.4223655916
 31
0.0
 11
6.3229898611
 21
5.4266832994
 31
0.0
 11
6.3271227998
 21
5.4308610672
 31
0.0
 11
6.3313467433
 21
5.4348888432
 31
0.0
 11
6.3356590681
 21
5.4387565756
 31
0.0
 11
6.3400570086
 21
5.4424538154
 31
0.0
 11
6.3490921634
 21
5.4492768343
 31
0.0
 11
6.3537193518
 21
5.4523691613
 31
0.0
 11
6.3584105683
 21
5.4552243357
 31
0.0
 11
6.3631505451
 21
5.4578167188
 31
0.0
 11
6.3679223619
 21
5.4601192379
 31
0.0
  0
LINE
  5
4DA
100
AcDbEntity
  8
0
100
AcDbLine
 62
9
  6
CONTINUOUS
 10
6.2658895833
 20
5.3078760629
 11
6.1548277172
 21
5.3077182114
  0
SPLINE
  5
4DB
100
AcDbEntity
  8
0
100
AcDbSpline
 62
9
  6
CONTINUOUS
 70
0
 71
3
 72
15
 73
11
 74
9
 42
0.0000001
 43
0.0000001
 44
0.0000000001
 12
0.0071502671
 22
-0.03242736
 32
0.0
 13
-0.0155156636
 23
-0.0293585452
 33
0.0
 40
0.0
 40
0.0
 40
0.0
 40
0.0
 40
0.1535122265
 40
0.2962948721
 40
0.4297682145
 40
0.5552817255
 40
0.6740792245
 40
0.7872473676
 40
0.8956671731
 40
1.0
 40
1.0
 40
1.0
 40
1.0
 10
5.3730566717
 20
5.1808838112
 30
0.0
 10
5.3734225562
 20
5.1792244791
 30
0.0
 10
5.3740088689
 20
5.1759934395
 30
0.0
 10
5.374465897
 20
5.1712528055
 30
0.0
 10
5.3745020713
 20
5.1667998221
 30
0.0
 10
5.3741538092
 20
5.1626267465
 30
0.0
 10
5.3734574768
 20
5.1587257918
 30
0.0
 10
5.3724526033
 20
5.1550890759
 30
0.0
 10
5.3711812726
 20
5.1517081841
 30
0.0
 10
5.3701653015
 20
5.1495802045
 30
0.0
 10
5.3696257039
 20
5.1485591845
 30
0.0
 11
5.3730566717
 21
5.1808838112
 31
0.0
 11
5.373957295
 21
5.1758664247
 31
0.0
 11
5.3744039633
 21
5.1711462246
 31
0.0
 11
5.3744331822
 21
5.1667141618
 31
0.0
 11
5.3740814568
 21
5.162561187
 31
0.0
 11
5.3733854115
 21
5.1586782511
 31
0.0
 11
5.3723837612
 21
5.1550563048
 31
0.0
 11
5.3711170061
 21
5.151686299
 31
0.0
 11
5.3696257039
 21
5.1485591845
 31
0.0
  0
SPLINE
  5
4DC
100
AcDbEntity
  8
0
100
AcDbSpline
 62
9
  6
CONTINUOUS
 70
0
 71
3
 72
22
 73
18
 74
16
 42
0.0000001
 43
0.0000001
 44
0.0000000001
 12
0.0214782281
 22
-0.0219708648
 32
0.0
 13
-0.0052267206
 23
-0.0302772947
 33
0.0
 40
0.0
 40
0.0
 40
0.0
 40
0.0
 40
0.1021944432
 40
0.1975571318
 40
0.2863910098
 40
0.3690053143
 40
0.4457164836
 40
0.5168491455
 40
0.5827371498
 40
0.6437270839
 40
0.7001829081
 40
0.7524773116
 40
0.8009887508
 40
0.846099213
 40
0.9275693645
 40
0.9647423021
 40
1.0
 40
1.0
 40
1.0
 40
1.0
 10
5.3097407345
 20
5.0398249497
 30
0.0
 10
5.3104723863
 20
5.0390765163
 30
0.0
 10
5.3118680972
 20
5.0376112225
 30
0.0
 10
5.3138281398
 20
5.0354285396
 30
0.0
 10
5.3155878585
 20
5.0333372877
 30
0.0
 10
5.3171548498
 20
5.0313355153
 30
0.0
 10
5.3185367276
 20
5.0294212399
 30
0.0
 10
5.3197410916
 20
5.0275924791
 30
0.0
 10
5.3207755391
 20
5.0258472109
 30
0.0
 10
5.3216476939
 20
5.0241833556
 30
0.0
 10
5.3223658324
 20
5.0225990378
 30
0.0
 10
5.322938257
 20
5.0210923976
 30
0.0
 10
5.3233732803
 20
5.0196612059
 30
0.0
 10
5.323767857
 20
5.0179109037
 30
0.0
 10
5.3239486712
 20
5.0162341546
 30
0.0
 10
5.3239046396
 20
5.0146568188
 30
0.0
 10
5.3238148703
 20
5.013919067
 30
0.0
 10
5.323753443
 20
5.0135632311
 30
0.0
 11
5.3097407345
 21
5.0398249497
 31
0.0
 11
5.3119046844
 21
5.0375497521
 31
0.0
 11
5.3138605508
 21
5.0353680866
 31
0.0
 11
5.3156159485
 21
5.0332780204
 31
0.0
 11
5.3171784924
 21
5.0312776205
 31
0.0
 11
5.3185557972
 21
5.0293649542
 31
0.0
 11
5.3197554776
 21
5.0275380885
 31
0.0
 11
5.3207851486
 21
5.0257950905
 31
0.0
 11
5.3216525917
 21
5.0241340274
 31
0.0
 11
5.3223661216
 21
5.0225529662
 31
0.0
 11
5.3229341592
 21
5.0210499741
 31
0.0
 11
5.3233651256
 21
5.0196231182
 31
0.0
 11
5.3236674416
 21
5.0182704657
 31
0.0
 11
5.323919805
 21
5.015780039
 31
0.0
 11
5.3238859051
 21
5.0146383991
 31
0.0
 11
5.323753443
 21
5.0135632311
 31
0.0
  0
SPLINE
  5
4DD
100
AcDbEntity
  8
0
100
AcDbSpline
 62
9
  6
CONTINUOUS
 70
0
 71
3
 72
26
 73
22
 74
20
 42
0.0000001
 43
0.0000001
 44
0.0000000001
 12
-0.0373932093
 22
-0.1287936317
 32
0.0
 13
-0.1336656949
 23
-0.0109331453
 33
0.0
 40
0.0
 40
0.0
 40
0.0
 40
0.0
 40
0.0692681426
 40
0.1394435098
 40
0.2100098666
 40
0.2805020684
 40
0.3505328263
 40
0.4197243092
 40
0.4877009922
 40
0.5540937652
 40
0.6185624846
 40
0.6808247304
 40
0.7406359841
 40
0.7978256514
 40
0.8254189932
 40
0.8523351071
 40
0.8785760902
 40
0.9041485612
 40
0.9290621458
 40
0.9533311963
 40
1.0
 40
1.0
 40
1.0
 40
1.0
 10
5.5784590593
 20
5.5536351586
 30
0.0
 10
5.5775956733
 20
5.5506613934
 30
0.0
 10
5.5756788145
 20
5.5447254106
 30
0.0
 10
5.5722911671
 20
5.5359646416
 30
0.0
 10
5.5683963901
 20
5.5273567404
 30
0.0
 10
5.5640284422
 20
5.5189864414
 30
0.0
 10
5.5592306003
 20
5.5109262604
 30
0.0
 10
5.5540417708
 20
5.5032471408
 30
0.0
 10
5.5485091265
 20
5.4960153854
 30
0.0
 10
5.5426828156
 20
5.4892944457
 30
0.0
 10
5.5366109749
 20
5.483147969
 30
0.0
 10
5.5303512524
 20
5.4776273786
 30
0.0
 10
5.5239582248
 20
5.4727823997
 30
0.0
 10
5.5184997828
 20
5.4693039007
 30
0.0
 10
5.5141163476
 20
5.4669091827
 30
0.0
 10
5.5108695942
 20
5.4653280235
 30
0.0
 10
5.5076316202
 20
5.4639447871
 30
0.0
 10
5.5044099428
 20
5.4627630623
 30
0.0
 10
5.5012125201
 20
5.4617844418
 30
0.0
 10
5.4970488324
 20
5.4607666934
 30
0.0
 10
5.493902303
 20
5.460289712
 30
0.0
 10
5.4918229636
 20
5.460119633
 30
0.0
 11
5.5784590593
 21
5.5536351586
 31
0.0
 11
5.5756092412
 21
5.5447933844
 31
0.0
 11
5.5722167404
 21
5.5360147326
 31
0.0
 11
5.5683154457
 21
5.5273924687
 31
0.0
 11
5.5639416084
 21
5.5190112429
 31
0.0
 11
5.5591351423
 21
5.5109423518
 31
0.0
 11
5.5539367784
 21
5.503255705
 31
0.0
 11
5.5483930874
 21
5.4960184426
 31
0.0
 11
5.5425544071
 21
5.4892959183
 31
0.0
 11
5.5364721931
 21
5.4831509541
 31
0.0
 11
5.5302021204
 21
5.4776363655
 31
0.0
 11
5.5238009124
 21
5.4728023622
 31
0.0
 11
5.5173249177
 21
5.4686928955
 31
0.0
 11
5.5140763055
 21
5.466920619
 31
0.0
 11
5.5108299029
 21
5.4653422165
 31
0.0
 11
5.5075926831
 21
5.4639618511
 31
0.0
 11
5.5043721327
 21
5.4627828445
 31
0.0
 11
5.5011765345
 21
5.4618072141
 31
0.0
 11
5.4980142394
 21
5.4610368652
 31
0.0
 11
5.4918229636
 21
5.460119633
 31
0.0
  0
SPLINE
  5
4DE
100
AcDbEntity
  8
0
100
AcDbSpline
 62
9
  6
CONTINUOUS
 70
0
 71
3
 72
12
 73
8
 74
6
 42
0.0000001
 43
0.0000001
 44
0.0000000001
 12
-0.023820831
 22
0.0107048824
 32
0.0
 13
-0.026115637
 23
0.0000000298
 33
0.0
 40
0.0
 40
0.0
 40
0.0
 40
0.0
 40
0.2658477994
 40
0.522146438
 40
0.646241597
 40
0.7673524163
 40
1.0
 40
1.0
 40
1.0
 40
1.0
 10
5.4918229636
 20
5.460119633
 30
0.0
 10
5.4897120585
 20
5.4610682562
 30
0.0
 10
5.4854952473
 20
5.4627795499
 30
0.0
 10
5.4801097176
 20
5.464436626
 30
0.0
 10
5.4758477653
 20
5.4653930891
 30
0.0
 10
5.4717431228
 20
5.4660752998
 30
0.0
 10
5.4686601136
 20
5.4663047844
 30
0.0
 10
5.466634867
 20
5.4663047867
 30
0.0
 11
5.4918229636
 21
5.460119633
 31
0.0
 11
5.4853832482
 21
5.4627143051
 31
0.0
 11
5.4789795405
 21
5.4646621658
 31
0.0
 11
5.4758166621
 21
5.465368665
 31
0.0
 11
5.4726960019
 21
5.465883766
 31
0.0
 11
5.466634867
 21
5.4663047867
 31
0.0
  0
SPLINE
  5
4DF
100
AcDbEntity
  8
0
100
AcDbSpline
 62
9
  6
CONTINUOUS
 70
0
 71
3
 72
23
 73
19
 74
17
 42
0.0000001
 43
0.0000001
 44
0.0000000001
 12
0.0000001425
 22
-0.1293408389
 32
0.0
 13
-0.128509645
 23
-0.0146397997
 33
0.0
 40
0.0
 40
0.0
 40
0.0
 40
0.0
 40
0.0718700925
 40
0.1435646787
 40
0.214662768
 40
0.2848063952
 40
0.4211805042
 40
0.4870906592
 40
0.5512209051
 40
0.6134441983
 40
0.6737089161
 40
0.7320231341
 40
0.7884613731
 40
0.843202732
 40
0.8700249654
 40
0.8965233641
 40
0.9486789825
 40
1.0
 40
1.0
 40
1.0
 40
1.0
 10
5.5356604237
 20
5.5662764109
 30
0.0
 10
5.5356604271
 20
5.5631778315
 30
0.0
 10
5.5354550338
 20
5.5569863002
 30
0.0
 10
5.53454127
 20
5.5477704155
 30
0.0
 10
5.5330273045
 20
5.5387077366
 30
0.0
 10
5.5302471302
 20
5.5270596256
 30
0.0
 10
5.5263305307
 20
5.5159328013
 30
0.0
 10
5.5212848757
 20
5.505603575
 30
0.0
 10
5.5170567629
 20
5.4984623288
 30
0.0
 10
5.5123735617
 20
5.4919071855
 30
0.0
 10
5.5072774142
 20
5.4859937274
 30
0.0
 10
5.5018137129
 20
5.4807709659
 30
0.0
 10
5.4960246956
 20
5.476289238
 30
0.0
 10
5.4909349853
 20
5.4731807401
 30
0.0
 10
5.4867575617
 20
5.4711123976
 30
0.0
 10
5.4825655538
 20
5.4693435205
 30
0.0
 10
5.4772091571
 20
5.4676463659
 30
0.0
 10
5.4728051685
 20
5.4668484618
 30
0.0
 10
5.4706067532
 20
5.4665980186
 30
0.0
 11
5.5356604237
 21
5.5662764109
 31
0.0
 11
5.5353531035
 21
5.5569857543
 31
0.0
 11
5.534436024
 21
5.5477581762
 31
0.0
 11
5.5329165676
 21
5.5386886899
 31
0.0
 11
5.5308064675
 21
5.5298650532
 31
0.0
 11
5.5248980247
 21
5.5132453206
 31
0.0
 11
5.5211492068
 21
5.5055889603
 31
0.0
 11
5.5169137987
 21
5.4984571513
 31
0.0
 11
5.5122267002
 21
5.4919148566
 31
0.0
 11
5.5071295795
 21
5.4860176929
 31
0.0
 11
5.5016681243
 21
5.4808157266
 31
0.0
 11
5.4958886188
 21
5.4763565847
 31
0.0
 11
5.4898400304
 21
5.4726762137
 31
0.0
 11
5.4867303906
 21
5.471138176
 31
0.0
 11
5.4835721652
 21
5.4698069474
 31
0.0
 11
5.477139293
 21
5.4677760198
 31
0.0
 11
5.4706067532
 21
5.4665980186
 31
0.0
  0
SPLINE
  5
4E0
100
AcDbEntity
  8
0
100
AcDbSpline
 62
9
  6
CONTINUOUS
 70
0
 71
3
 72
23
 73
19
 74
17
 42
0.0000001
 43
0.0000001
 44
0.0000000001
 12
-0.1285115333
 22
0.0146362309
 32
0.0
 13
0.0000001534
 23
0.1293423111
 33
0.0
 40
0.0
 40
0.0
 40
0.0
 40
0.0
 40
0.0513209954
 40
0.1034765418
 40
0.1299748902
 40
0.1567970639
 40
0.2115382856
 40
0.26797638
 40
0.3262904661
 40
0.3865550803
 40
0.448778305
 40
0.5129085246
 40
0.5788186974
 40
0.7151929597
 40
0.785336716
 40
0.856434961
 40
0.9281297235
 40
1.0
 40
1.0
 40
1.0
 40
1.0
 10
6.3891399272
 20
5.4665978414
 30
0.0
 10
6.3869414806
 20
5.4668482234
 30
0.0
 10
6.3825374231
 20
5.4676460136
 30
0.0
 10
6.377180928
 20
5.4693430505
 30
0.0
 10
6.3729888382
 20
5.4711118467
 30
0.0
 10
6.3688113313
 20
5.4731801169
 30
0.0
 10
6.3637215141
 20
5.4762885429
 30
0.0
 10
6.3579323681
 20
5.4807702126
 30
0.0
 10
6.3524685403
 20
5.4859929434
 30
0.0
 10
6.3473722708
 20
5.4919063969
 30
0.0
 10
6.342688953
 20
5.4984615597
 30
0.0
 10
6.3384607327
 20
5.5056028486
 30
0.0
 10
6.3334149453
 20
5.5159321632
 30
0.0
 10
6.3294982416
 20
5.5270591088
 30
0.0
 10
6.3267179928
 20
5.5387073618
 30
0.0
 10
6.325203986
 20
5.5477701602
 30
0.0
 10
6.3242901976
 20
5.5569861709
 30
0.0
 10
6.3240847991
 20
5.5631777883
 30
0.0
 10
6.3240848028
 20
5.5662764109
 30
0.0
 11
6.3891399272
 21
5.4665978414
 31
0.0
 11
6.3826072832
 21
5.467775674
 31
0.0
 11
6.3761742954
 21
5.4698064594
 31
0.0
 11
6.3730160089
 21
5.4711376269
 31
0.0
 11
6.3699063071
 21
5.4726756107
 31
0.0
 11
6.3638575925
 21
5.4763558953
 31
0.0
 11
6.3580779599
 21
5.4808149778
 31
0.0
 11
6.3526163791
 21
5.4860169121
 31
0.0
 11
6.3475191366
 21
5.49191407
 31
0.0
 11
6.3428319219
 21
5.4984563833
 31
0.0
 11
6.3385964061
 21
5.5055882341
 31
0.0
 11
6.3348474907
 21
5.5132446574
 31
0.0
 11
6.3289388903
 21
5.529864568
 31
0.0
 11
6.3268287329
 21
5.5386883144
 31
0.0
 11
6.3253092351
 21
5.5477579203
 31
0.0
 11
6.3243921308
 21
5.5569856249
 31
0.0
 11
6.3240848028
 21
5.5662764109
 31
0.0
  0
SPLINE
  5
4E1
100
AcDbEntity
  8
0
100
AcDbSpline
 62
9
  6
CONTINUOUS
 70
0
 71
3
 72
13
 73
9
 74
7
 42
0.0000001
 43
0.0000001
 44
0.0000000001
 12
0.02382244
 22
0.0107058931
 32
0.0
 13
0.0261175189
 23
0.0000001604
 33
0.0
 40
0.0
 40
0.0
 40
0.0
 40
0.0
 40
0.2658212867
 40
0.3953014296
 40
0.5221777084
 40
0.6462582408
 40
0.7673652044
 40
1.0
 40
1.0
 40
1.0
 40
1.0
 10
6.3679222622
 20
5.460119633
 30
0.0
 10
6.3700330994
 20
5.4610682511
 30
0.0
 10
6.3732266051
 20
5.4623643055
 30
0.0
 10
6.3775436794
 20
5.4637926941
 30
0.0
 10
6.3807350486
 20
5.4646834799
 30
0.0
 10
6.3838973586
 20
5.4653930243
 30
0.0
 10
6.388001968
 20
5.4660753331
 30
0.0
 10
6.3910850773
 20
5.4663047596
 30
0.0
 10
6.3931103586
 20
5.4663047721
 30
0.0
 11
6.3679222622
 21
5.460119633
 31
0.0
 11
6.3743618042
 21
5.4627142215
 31
0.0
 11
6.3775731363
 21
5.4637740525
 31
0.0
 11
6.380765601
 21
5.4646621596
 31
0.0
 11
6.3839283379
 21
5.4653686114
 31
0.0
 11
6.3870491189
 21
5.4658837614
 31
0.0
 11
6.3931103586
 21
5.4663047721
 31
0.0
  0
SPLINE
  5
4E2
100
AcDbEntity
  8
0
100
AcDbSpline
 62
9
  6
CONTINUOUS
 70
0
 71
3
 72
26
 73
22
 74
20
 42
0.0000001
 43
0.0000001
 44
0.0000000001
 12
-0.1336656848
 22
0.0109331389
 32
0.0
 13
-0.0373931923
 23
0.1287936256
 33
0.0
 40
0.0
 40
0.0
 40
0.0
 40
0.0
 40
0.0466688
 40
0.0709378493
 40
0.0958514329
 40
0.1214239032
 40
0.1476648859
 40
0.1745809998
 40
0.2021743419
 40
0.2593640104
 40
0.3191752662
 40
0.3814375144
 40
0.4459062364
 40
0.5122990117
 40
0.5802756967
 40
0.649467181
 40
0.7194979393
 40
0.7899901405
 40
0.8605564959
 40
0.9307318607
 40
1.0
 40
1.0
 40
1.0
 40
1.0
 10
6.3679222622
 20
5.460119633
 30
0.0
 10
6.3658429232
 20
5.4602897118
 30
0.0
 10
6.3626963942
 20
5.4607666931
 30
0.0
 10
6.3585327071
 20
5.4617844415
 30
0.0
 10
6.3553352848
 20
5.4627630619
 30
0.0
 10
6.3521136078
 20
5.4639447867
 30
0.0
 10
6.3488756342
 20
5.4653280233
 30
0.0
 10
6.3456288812
 20
5.4669091826
 30
0.0
 10
6.3412454465
 20
5.4693039008
 30
0.0
 10
6.3357870051
 20
5.4727824001
 30
0.0
 10
6.3293939783
 20
5.4776273794
 30
0.0
 10
6.3231342566
 20
5.4831479703
 30
0.0
 10
6.3170624168
 20
5.4892944474
 30
0.0
 10
6.3112361069
 20
5.4960153874
 30
0.0
 10
6.3057034637
 20
5.5032471431
 30
0.0
 10
6.3005146353
 20
5.5109262626
 30
0.0
 10
6.2957167946
 20
5.5189864436
 30
0.0
 10
6.2913488479
 20
5.5273567423
 30
0.0
 10
6.2874540722
 20
5.535964643
 30
0.0
 10
6.2840664261
 20
5.5447254114
 30
0.0
 10
6.2821495682
 20
5.5506613937
 30
0.0
 10
6.2812861826
 20
5.5536351586
 30
0.0
 11
6.3679222622
 21
5.460119633
 31
0.0
 11
6.3617309873
 21
5.4610368649
 31
0.0
 11
6.3585686928
 21
5.4618072137
 31
0.0
 11
6.3553730949
 21
5.4627828441
 31
0.0
 11
6.3521525449
 21
5.4639618508
 31
0.0
 11
6.3489153255
 21
5.4653422163
 31
0.0
 11
6.3456689233
 21
5.4669206189
 31
0.0
 11
6.3424203115
 21
5.4686928955
 31
0.0
 11
6.3359443175
 21
5.4728023626
 31
0.0
 11
6.3295431104
 21
5.4776363663
 31
0.0
 11
6.3232730385
 21
5.4831509553
 31
0.0
 11
6.3171908254
 21
5.4892959199
 31
0.0
 11
6.3113521461
 21
5.4960184446
 31
0.0
 11
6.3058084561
 21
5.5032557072
 31
0.0
 11
6.3006100933
 21
5.5109423541
 31
0.0
 11
6.2958036284
 21
5.5190112451
 31
0.0
 11
6.2914297923
 21
5.5273924706
 31
0.0
 11
6.2875284988
 21
5.536014734
 31
0.0
 11
6.2841359994
 21
5.5447933852
 31
0.0
 11
6.2812861826
 21
5.5536351586
 31
0.0
  0
SPLINE
  5
4E3
100
AcDbEntity
  8
0
100
AcDbSpline
 62
9
  6
CONTINUOUS
 70
0
 71
3
 72
11
 73
7
 74
5
 42
0.0000001
 43
0.0000001
 44
0.0000000001
 12
-0.0261724579
 22
-0.0785506077
 32
0.0
 13
-0.0487187543
 23
-0.0669453397
 33
0.0
 40
0.0
 40
0.0
 40
0.0
 40
0.0
 40
0.2536994214
 40
0.4427156241
 40
0.630319687
 40
1.0
 40
1.0
 40
1.0
 40
1.0
 10
5.2596447515
 20
4.8128818187
 30
0.0
 10
5.257431439
 20
4.8062390708
 30
0.0
 10
5.2531272361
 20
4.794788556
 30
0.0
 10
5.2459389508
 20
4.7789373351
 30
0.0
 10
5.2363767326
 20
4.760686325
 30
0.0
 10
5.2280735303
 20
4.7476845996
 30
0.0
 10
5.2220700756
 20
4.7394351416
 30
0.0
 11
5.2596447515
 21
4.8128818187
 31
0.0
 11
5.2522538459
 21
4.7932197186
 31
0.0
 11
5.2457892199
 21
4.7789675244
 31
0.0
 11
5.238577866
 21
4.7652100926
 31
0.0
 11
5.2220700756
 21
4.7394351416
 31
0.0
  0
SPLINE
  5
4E4
100
AcDbEntity
  8
0
100
AcDbSpline
 62
9
  6
CONTINUOUS
 70
0
 71
3
 72
9
 73
5
 74
3
 42
0.0000001
 43
0.0000001
 44
0.0000000001
 12
-0.0285520698
 22
-0.0379200405
 32
0.0
 13
-0.0360675833
 23
-0.0308590277
 33
0.0
 40
0.0
 40
0.0
 40
0.0
 40
0.0
 40
0.5057672305
 40
1.0
 40
1.0
 40
1.0
 40
1.0
 10
5.2198185537
 20
4.7363935795
 30
0.0
 10
5.2150049866
 20
4.7300006749
 30
0.0
 10
5.2048210759
 20
4.7178478086
 30
0.0
 10
5.1933820357
 20
4.7068631014
 30
0.0
 10
5.1874401085
 20
4.7017792538
 30
0.0
 11
5.2198185537
 21
4.7363935795
 31
0.0
 11
5.2043825473
 21
4.7180064475
 31
0.0
 11
5.1874401085
 21
4.7017792538
 31
0.0
  0
SPLINE
  5
4E5
100
AcDbEntity
  8
0
100
AcDbSpline
 62
9
  6
CONTINUOUS
 70
0
 71
3
 72
15
 73
11
 74
9
 42
0.0000001
 43
0.0000001
 44
0.0000000001
 12
-0.0742756678
 22
-0.0635494447
 32
0.0
 13
-0.0977482527
 23
-0.0008281525
 33
0.0
 40
0.0
 40
0.0
 40
0.0
 40
0.0
 40
0.1337371487
 40
0.2648379548
 40
0.393339955
 40
0.5192921596
 40
0.6427723788
 40
0.7639062019
 40
0.8828875014
 40
1.0
 40
1.0
 40
1.0
 40
1.0
 10
5.1874401085
 20
4.7017792538
 30
0.0
 10
5.1841289698
 20
4.69894628
 30
0.0
 10
5.1773527405
 20
4.6935862198
 30
0.0
 10
5.1666940969
 20
4.686445519
 30
0.0
 10
5.1557153243
 20
4.6803097177
 30
0.0
 10
5.1444917868
 20
4.6752068046
 30
0.0
 10
5.1330978685
 20
4.6711642197
 30
0.0
 10
5.121607498
 20
4.6682099923
 30
0.0
 10
5.1100966113
 20
4.6663725711
 30
0.0
 10
5.1024023392
 20
4.6659083811
 30
0.0
 10
5.0985864918
 20
4.6658760521
 30
0.0
 11
5.1874401085
 21
4.7017792538
 31
0.0
 11
5.1771832104
 21
4.6936736717
 31
0.0
 11
5.1665324785
 21
4.6865466307
 31
0.0
 11
5.1555634292
 21
4.680425672
 31
0.0
 11
5.1443515788
 21
4.6753383368
 31
0.0
 11
5.1329724436
 21
4.6713121661
 31
0.0
 11
5.1215015398
 21
4.668374701
 31
0.0
 11
5.1100143838
 21
4.6665534826
 31
0.0
 11
5.0985864918
 21
4.6658760521
 31
0.0
  0
SPLINE
  5
4E6
100
AcDbEntity
  8
0
100
AcDbSpline
 62
9
  6
CONTINUOUS
 70
0
 71
3
 72
19
 73
15
 74
13
 42
0.0000001
 43
0.0000001
 44
0.0000000001
 12
-0.2449246141
 22
0.0086404227
 32
0.0
 13
-0.2450357443
 23
0.0044952756
 33
0.0
 40
0.0
 40
0.0
 40
0.0
 40
0.0
 40
0.0483271048
 40
0.1026242871
 40
0.2271890032
 40
0.3676283076
 40
0.4412015053
 40
0.5154924577
 40
0.6612487791
 40
0.7303373285
 40
0.795546788
 40
0.8559137204
 40
0.9105602271
 40
1.0
 40
1.0
 40
1.0
 40
1.0
 10
5.2596447515
 20
4.8128818187
 30
0.0
 10
5.2556992523
 20
4.8130210076
 30
0.0
 10
5.2473209327
 20
4.8133189841
 30
0.0
 10
5.2287730814
 20
4.8139791981
 30
0.0
 10
5.2027047038
 20
4.8148950346
 30
0.0
 10
5.1750611516
 20
4.8158247815
 30
0.0
 10
5.1515207797
 20
4.8165707333
 30
0.0
 10
5.1275452087
 20
4.8172961878
 30
0.0
 10
5.1039343493
 20
4.8179611515
 30
0.0
 10
5.0810636261
 20
4.818549784
 30
0.0
 10
5.0651656751
 20
4.8189358162
 30
0.0
 10
5.0504466874
 20
4.8192722894
 30
0.0
 10
5.0337482631
 20
4.8196303005
 30
0.0
 10
5.0219797745
 20
4.8198614115
 30
0.0
 10
5.0146744607
 20
4.8199954303
 30
0.0
 11
5.2596447515
 21
4.8128818187
 31
0.0
 11
5.2478083361
 21
4.8133017052
 31
0.0
 11
5.2345097443
 21
4.8137743774
 31
0.0
 11
5.2040004868
 21
4.8148423466
 31
0.0
 11
5.1696013123
 21
4.8159937769
 31
0.0
 11
5.1515792535
 21
4.8165646054
 31
0.0
 11
5.1333805827
 21
4.8171153306
 31
0.0
 11
5.0976731363
 21
4.8181178972
 31
0.0
 11
5.0807467334
 21
4.8185537152
 31
0.0
 11
5.0647701015
 21
4.8189414887
 31
0.0
 11
5.0499794135
 21
4.8192792966
 31
0.0
 11
5.0365898892
 21
4.8195663267
 31
0.0
 11
5.0146744607
 21
4.8199954303
 31
0.0
  0
SPLINE
  5
4E7
100
AcDbEntity
  8
0
100
AcDbSpline
 62
9
  6
CONTINUOUS
 70
0
 71
3
 72
11
 73
7
 74
5
 42
0.0000001
 43
0.0000001
 44
0.0000000001
 12
0.0146699076
 22
-0.0753253328
 32
0.0
 13
0.0175813934
 23
-0.0746994415
 33
0.0
 40
0.0
 40
0.0
 40
0.0
 40
0.0
 40
0.2532897066
 40
0.5053988597
 40
0.7548055163
 40
1.0
 40
1.0
 40
1.0
 40
1.0
 10
4.9987397636
 20
4.8950588237
 30
0.0
 10
4.9999783424
 20
4.8886991132
 30
0.0
 10
5.0024898356
 20
4.876017088
 30
0.0
 10
5.0063889131
 20
4.857106567
 30
0.0
 10
5.0104238629
 20
4.8384362996
 30
0.0
 10
5.0132375071
 20
4.8261007273
 30
0.0
 10
5.0146744607
 20
4.8199954303
 30
0.0
 11
4.9987397636
 21
4.8950588237
 31
0.0
 11
5.0025206261
 21
4.8759924912
 31
0.0
 11
5.0064330313
 21
4.8570452144
 31
0.0
 11
5.010482477
 21
4.8383388939
 31
0.0
 11
5.0146744607
 21
4.8199954303
 31
0.0
  0
SPLINE
  5
4E8
100
AcDbEntity
  8
0
100
AcDbSpline
 62
9
  6
CONTINUOUS
 70
0
 71
3
 72
12
 73
8
 74
6
 42
0.0000001
 43
0.0000001
 44
0.0000000001
 12
-0.0549249042
 22
0.0010076186
 32
0.0
 13
-0.054934146
 23
0.0
 33
0.0
 40
0.0
 40
0.0
 40
0.0
 40
0.0
 40
0.3104350958
 40
0.4434196994
 40
0.5658541993
 40
0.7901166503
 40
1.0
 40
1.0
 40
1.0
 40
1.0
 10
5.0146744607
 20
4.8199954303
 30
0.0
 10
5.0089909214
 20
4.820099697
 30
0.0
 10
5.0008724189
 20
4.8202362714
 30
0.0
 10
4.9905118376
 20
4.820379979
 30
0.0
 10
4.9817288457
 20
4.8204861745
 30
0.0
 10
4.9715375742
 20
4.8205879247
 30
0.0
 10
4.9635877516
 20
4.8206206717
 30
0.0
 10
4.9597444974
 20
4.8206206717
 30
0.0
 11
5.0146744607
 21
4.8199954303
 31
0.0
 11
4.9976233347
 21
4.8202791826
 31
0.0
 11
4.9903186403
 21
4.8203804027
 31
0.0
 11
4.9835933001
 21
4.8204619632
 31
0.0
 11
4.9712741815
 21
4.8205781134
 31
0.0
 11
4.9597444974
 21
4.8206206717
 31
0.0
  0
SPLINE
  5
4E9
100
AcDbEntity
  8
0
100
AcDbSpline
 62
9
  6
CONTINUOUS
 70
0
 71
3
 72
11
 73
7
 74
5
 42
0.0000001
 43
0.0000001
 44
0.0000000001
 12
0.0
 22
-0.0756344071
 32
0.0
 13
0.0164301359
 23
-0.0738282749
 33
0.0
 40
0.0
 40
0.0
 40
0.0
 40
0.0
 40
0.2518047309
 40
0.5028810236
 40
0.7525135779
 40
1.0
 40
1.0
 40
1.0
 40
1.0
 10
4.9515903811
 20
4.8956729981
 30
0.0
 10
4.9515903811
 20
4.8893246309
 30
0.0
 10
4.951934237
 20
4.8766436437
 30
0.0
 10
4.9534706208
 20
4.857725057
 30
0.0
 10
4.9560153523
 20
4.8390253114
 30
0.0
 10
4.9583890856
 20
4.8267111703
 30
0.0
 10
4.9597444974
 20
4.8206206717
 30
0.0
 11
4.9515903811
 21
4.8956729981
 31
0.0
 11
4.9521059453
 21
4.8766348762
 31
0.0
 11
4.9536447285
 21
4.8577073171
 31
0.0
 11
4.9561948671
 21
4.8389995169
 31
0.0
 11
4.9597444974
 21
4.8206206717
 31
0.0
  0
SPLINE
  5
4EA
100
AcDbEntity
  8
0
100
AcDbSpline
 62
9
  6
CONTINUOUS
 70
0
 71
3
 72
14
 73
10
 74
8
 42
0.0000001
 43
0.0000001
 44
0.0000000001
 12
-0.0323853681
 22
0.0
 32
0.0
 13
-0.0323244998
 23
-0.001984635
 33
0.0
 40
0.0
 40
0.0
 40
0.0
 40
0.0
 40
0.3149695262
 40
0.4500755024
 40
0.5752627879
 40
0.6934706543
 40
0.8043984743
 40
0.9069405101
 40
1.0
 40
1.0
 40
1.0
 40
1.0
 10
4.9597444974
 20
4.8206206717
 30
0.0
 10
4.9563443627
 20
4.8206206717
 30
0.0
 10
4.951485682
 20
4.8206035217
 30
0.0
 10
4.9452760249
 20
4.8205331767
 30
0.0
 10
4.9411905903
 20
4.8204663448
 30
0.0
 10
4.9373664487
 20
4.8203864522
 30
0.0
 10
4.9337872669
 20
4.8202876907
 30
0.0
 10
4.9304804837
 20
4.820164452
 30
0.0
 10
4.9283715555
 20
4.8200569934
 30
0.0
 10
4.927368855
 20
4.8199954303
 30
0.0
 11
4.9597444974
 21
4.8206206717
 31
0.0
 11
4.9495441822
 21
4.8205781134
 31
0.0
 11
4.9451690106
 21
4.8205281568
 31
0.0
 11
4.9411153147
 21
4.8204619632
 31
0.0
 11
4.9372879783
 21
4.8203804027
 31
0.0
 11
4.9336969663
 21
4.8202791826
 31
0.0
 11
4.9303785136
 21
4.8201527196
 31
0.0
 11
4.927368855
 21
4.8199954303
 31
0.0
  0
SPLINE
  5
4EB
100
AcDbEntity
  8
0
100
AcDbSpline
 62
9
  6
CONTINUOUS
 70
0
 71
3
 72
12
 73
8
 74
6
 42
0.0000001
 43
0.0000001
 44
0.0000000001
 12
-0.0062644182
 22
-0.0752033415
 32
0.0
 13
0.0158178123
 23
-0.073787413
 33
0.0
 40
0.0
 40
0.0
 40
0.0
 40
0.0
 40
0.2529344546
 40
0.3787748564
 40
0.5041351959
 40
0.7532312562
 40
1.0
 40
1.0
 40
1.0
 40
1.0
 10
4.9227213232
 20
4.8950588237
 30
0.0
 10
4.9221931608
 20
4.8887183183
 30
0.0
 10
4.9217442851
 20
4.8791899976
 30
0.0
 10
4.9218369074
 20
4.8665070384
 30
0.0
 10
4.9223859904
 20
4.853931684
 30
0.0
 10
4.9239213006
 20
4.838366074
 30
0.0
 10
4.9260677411
 20
4.826064906
 30
0.0
 10
4.927368855
 20
4.8199954303
 30
0.0
 11
4.9227213232
 21
4.8950588237
 31
0.0
 11
4.9218248622
 21
4.8759924912
 31
0.0
 11
4.9218946013
 21
4.8664963521
 31
0.0
 11
4.922307849
 21
4.8570452144
 31
0.0
 11
4.9241594559
 21
4.8383388939
 31
0.0
 11
4.927368855
 21
4.8199954303
 31
0.0
  0
SPLINE
  5
4EC
100
AcDbEntity
  8
0
100
AcDbSpline
 62
9
  6
CONTINUOUS
 70
0
 71
3
 72
25
 73
21
 74
19
 42
0.0000001
 43
0.0000001
 44
0.0000000001
 12
-0.0113389235
 22
-0.0006961786
 32
0.0
 13
0.0027426997
 23
-0.011024221
 33
0.0
 40
0.0
 40
0.0
 40
0.0
 40
0.0
 40
0.1732302604
 40
0.3477417364
 40
0.4329756316
 40
0.5155305871
 40
0.594412735
 40
0.6686335451
 40
0.7372128386
 40
0.7992059888
 40
0.853799117
 40
0.9002525814
 40
0.920221276
 40
0.9379242646
 40
0.953316201
 40
0.966388868
 40
0.9772059357
 40
0.9859800636
 40
0.9932340683
 40
1.0
 40
1.0
 40
1.0
 40
1.0
 10
4.927368855
 20
4.8199954303
 30
0.0
 10
4.9267141068
 20
4.8199552306
 30
0.0
 10
4.9254000916
 20
4.8198691379
 30
0.0
 10
4.9237652179
 20
4.8197443999
 30
0.0
 10
4.9224739594
 20
4.8196310638
 30
0.0
 10
4.9215442261
 20
4.8195408544
 30
0.0
 10
4.9206570149
 20
4.8194447412
 30
0.0
 10
4.9198237486
 20
4.8193426899
 30
0.0
 10
4.9190557517
 20
4.8192347002
 30
0.0
 10
4.9183638016
 20
4.8191207273
 30
0.0
 10
4.9177580179
 20
4.8190010186
 30
0.0
 10
4.9173125551
 20
4.8188922363
 30
0.0
 10
4.9170076307
 20
4.818799736
 30
0.0
 10
4.9168181704
 20
4.8187325131
 30
0.0
 10
4.9166571892
 20
4.8186639529
 30
0.0
 10
4.9165256025
 20
4.8185940424
 30
0.0
 10
4.9164241183
 20
4.8185225168
 30
0.0
 10
4.9163531016
 20
4.8184484651
 30
0.0
 10
4.9163145644
 20
4.8183687379
 30
0.0
 10
4.9163157181
 20
4.8183133443
 30
0.0
 10
4.9163219037
 20
4.8182884812
 30
0.0
 11
4.927368855
 21
4.8199954303
 31
0.0
 11
4.9254051752
 21
4.8198659585
 31
0.0
 11
4.9234285372
 21
4.8197136371
 31
0.0
 11
4.9224639911
 21
4.8196286784
 31
0.0
 11
4.9215305642
 21
4.8195377321
 31
0.0
 11
4.9206397094
 21
4.8194407064
 31
0.0
 11
4.9198028796
 21
4.8193375097
 31
0.0
 11
4.9190315278
 21
4.81922805
 31
0.0
 11
4.9183368526
 21
4.8191122592
 31
0.0
 11
4.9177287925
 21
4.8189901848
 31
0.0
 11
4.9172168956
 21
4.8188619103
 31
0.0
 11
4.9169999922
 21
4.8187954741
 31
0.0
 11
4.9168107101
 21
4.8187275192
 31
0.0
 11
4.916650243
 21
4.818658056
 31
0.0
 11
4.9165197842
 21
4.818587095
 31
0.0
 11
4.9164205274
 21
4.8185146465
 31
0.0
 11
4.916353666
 21
4.8184407212
 31
0.0
 11
4.9163203936
 21
4.8183653292
 31
0.0
 11
4.9163219037
 21
4.8182884812
 31
0.0
  0
SPLINE
  5
4ED
100
AcDbEntity
  8
0
100
AcDbSpline
 62
9
  6
CONTINUOUS
 70
0
 71
3
 72
19
 73
15
 74
13
 42
0.0000001
 43
0.0000001
 44
0.0000000001
 12
-0.1853194374
 22
0.0035907787
 32
0.0
 13
-0.1853531171
 23
0.0006399438
 33
0.0
 40
0.0
 40
0.0
 40
0.0
 40
0.0
 40
0.0480282072
 40
0.1017639727
 40
0.2244650859
 40
0.3624259339
 40
0.5079212574
 40
0.6522708737
 40
0.7212853858
 40
0.7869550056
 40
0.8483963991
 40
0.9048019285
 40
0.9555390785
 40
1.0
 40
1.0
 40
1.0
 40
1.0
 10
5.2220700756
 20
4.7394351416
 30
0.0
 10
5.2191032221
 20
4.7394926278
 30
0.0
 10
5.2128170525
 20
4.7396201553
 30
0.0
 10
5.1989516663
 20
4.7399148613
 30
0.0
 10
5.179531361
 20
4.7403410688
 30
0.0
 10
5.1544427308
 20
4.7408759314
 30
0.0
 10
5.1280157072
 20
4.7413833538
 30
0.0
 10
5.105846658
 20
4.7417497691
 30
0.0
 10
5.088608302
 20
4.7419904032
 30
0.0
 10
5.076491649
 20
4.7421395108
 30
0.0
 10
5.0651537543
 20
4.7422593616
 30
0.0
 10
5.0547382187
 20
4.7423499673
 30
0.0
 10
5.0453716398
 20
4.7424135398
 30
0.0
 10
5.0394899118
 20
4.7424413877
 30
0.0
 10
5.0367429217
 20
4.7424508719
 30
0.0
 11
5.2220700756
 21
4.7394351416
 31
0.0
 11
5.2131696487
 21
4.7396143573
 31
0.0
 11
5.2032117257
 21
4.7398250139
 31
0.0
 11
5.1804739031
 21
4.7403181443
 31
0.0
 11
5.1549079604
 21
4.7408572278
 31
0.0
 11
5.127944714
 21
4.7413726583
 31
0.0
 11
5.1011924973
 21
4.7418111948
 31
0.0
 11
5.0884016113
 21
4.7419896765
 31
0.0
 11
5.0762303871
 21
4.7421390888
 31
0.0
 11
5.0648425961
 21
4.7422589464
 31
0.0
 11
5.0543879853
 21
4.7423495063
 31
0.0
 11
5.044983853
 21
4.7424127426
 31
0.0
 11
5.0367429217
 21
4.7424508719
 31
0.0
  0
SPLINE
  5
4EE
100
AcDbEntity
  8
0
100
AcDbSpline
 62
9
  6
CONTINUOUS
 70
0
 71
3
 72
13
 73
9
 74
7
 42
0.0000001
 43
0.0000001
 44
0.0000000001
 12
0.0184793925
 22
-0.0785148403
 32
0.0
 13
0.0268068618
 23
-0.076075359
 33
0.0
 40
0.0
 40
0.0
 40
0.0
 40
0.0
 40
0.2647550334
 40
0.5208518134
 40
0.6450949134
 40
0.7665080308
 40
0.8848785775
 40
1.0
 40
1.0
 40
1.0
 40
1.0
 10
5.0146744607
 20
4.8199954303
 30
0.0
 10
5.0163052981
 20
4.8130663639
 30
0.0
 10
5.0196406316
 20
4.799464262
 30
0.0
 10
5.0241409073
 20
4.7827118846
 30
0.0
 10
5.027896903
 20
4.7697544043
 30
0.0
 10
5.0307556364
 20
4.7603933152
 30
0.0
 10
5.0336848051
 20
4.7513113657
 30
0.0
 10
5.0357142403
 20
4.7453701731
 30
0.0
 10
5.0367429217
 20
4.7424508719
 30
0.0
 11
5.0146744607
 21
4.8199954303
 31
0.0
 11
5.019773126
 21
4.7992578331
 31
0.0
 11
5.025148613
 21
4.7793127018
 31
0.0
 11
5.0279411701
 21
4.769688173
 31
0.0
 11
5.0308041392
 21
4.7603227951
 31
0.0
 11
5.0337379223
 21
4.7512369132
 31
0.0
 11
5.0367429217
 21
4.7424508719
 31
0.0
  0
LINE
  5
4EF
100
AcDbEntity
  8
0
100
AcDbLine
 62
9
  6
CONTINUOUS
 10
5.0367429217
 20
4.7424508719
 11
4.9886713698
 21
4.7424730663
  0
SPLINE
  5
4F0
100
AcDbEntity
  8
0
100
AcDbSpline
 62
9
  6
CONTINUOUS
 70
0
 71
3
 72
11
 73
7
 74
5
 42
0.0000001
 43
0.0000001
 44
0.0000000001
 12
0.0181576822
 22
-0.0815909472
 32
0.0
 13
0.0401883808
 23
-0.0732917331
 33
0.0
 40
0.0
 40
0.0
 40
0.0
 40
0.0
 40
0.257223579
 40
0.5101306951
 40
0.7579536004
 40
1.0
 40
1.0
 40
1.0
 40
1.0
 10
4.9597444974
 20
4.8206206717
 30
0.0
 10
4.9613013587
 20
4.8136249666
 30
0.0
 10
4.9648463312
 20
4.7998479034
 30
0.0
 10
4.9714806034
 20
4.7797818106
 30
0.0
 10
4.9793362492
 20
4.7606172131
 30
0.0
 10
4.9854288855
 20
4.7483863997
 30
0.0
 10
4.9886713698
 20
4.7424730663
 30
0.0
 11
4.9597444974
 21
4.8206206717
 31
0.0
 11
4.9651102706
 21
4.7998004448
 31
0.0
 11
4.9717579937
 21
4.7797331449
 31
0.0
 11
4.9796306869
 21
4.7605727071
 31
0.0
 11
4.9886713698
 21
4.7424730663
 31
0.0
  0
LINE
  5
4F1
100
AcDbEntity
  8
0
100
AcDbLine
 62
9
  6
CONTINUOUS
 10
4.9886713698
 20
4.7424730663
 11
4.9598395604
 21
4.7424508719
  0
SPLINE
  5
4F2
100
AcDbEntity
  8
0
100
AcDbSpline
 62
9
  6
CONTINUOUS
 70
0
 71
3
 72
11
 73
7
 74
5
 42
0.0000001
 43
0.0000001
 44
0.0000000001
 12
0.0177193361
 22
-0.0826576991
 32
0.0
 13
0.0469235079
 23
-0.0703168152
 33
0.0
 40
0.0
 40
0.0
 40
0.0
 40
0.0
 40
0.253660027
 40
0.5048242029
 40
0.7535652806
 40
1.0
 40
1.0
 40
1.0
 40
1.0
 10
4.927368855
 20
4.8199954303
 30
0.0
 10
4.9288670841
 20
4.8130064456
 30
0.0
 10
4.9324893237
 20
4.7992255171
 30
0.0
 10
4.9397739608
 20
4.7792482227
 30
0.0
 10
4.9488088743
 20
4.7602237507
 30
0.0
 10
4.9559850333
 20
4.7482270401
 30
0.0
 10
4.9598395604
 20
4.7424508719
 30
0.0
 11
4.927368855
 21
4.8199954303
 31
0.0
 11
4.93282481
 21
4.7992578331
 31
0.0
 11
4.9401051301
 21
4.7793127018
 31
0.0
 11
4.949134989
 21
4.7603227951
 31
0.0
 11
4.9598395604
 21
4.7424508719
 31
0.0
  0
SPLINE
  5
4F3
100
AcDbEntity
  8
0
100
AcDbSpline
 62
9
  6
CONTINUOUS
 70
0
 71
3
 72
29
 73
25
 74
23
 42
0.0000001
 43
0.0000001
 44
0.0000000001
 12
-0.0082795089
 22
-0.0000942791
 32
0.0
 13
0.0048684074
 23
-0.006697594
 33
0.0
 40
0.0
 40
0.0
 40
0.0
 40
0.0
 40
0.188673433
 40
0.3722580681
 40
0.4600064664
 40
0.5439208462
 40
0.6231490028
 40
0.6968403364
 40
0.7641467899
 40
0.8242290926
 40
0.8513202316
 40
0.8763284686
 40
0.8991685308
 40
0.9197569
 40
0.9380128429
 40
0.9538603162
 40
0.9672318041
 40
0.9780769695
 40
0.9863853345
 40
0.9896166202
 40
0.9922750425
 40
0.9962196481
 40
0.9979887937
 40
1.0
 40
1.0
 40
1.0
 40
1.0
 10
4.9598395604
 20
4.7424508719
 30
0.0
 10
4.9593188526
 20
4.7424449426
 30
0.0
 10
4.9582915162
 20
4.7424298928
 30
0.0
 10
4.9570221863
 20
4.742401736
 30
0.0
 10
4.9560421213
 20
4.7423727882
 30
0.0
 10
4.9553500835
 20
4.7423484015
 30
0.0
 10
4.9546969892
 20
4.7423209513
 30
0.0
 10
4.9540899225
 20
4.7422903775
 30
0.0
 10
4.9535359538
 20
4.7422566323
 30
0.0
 10
4.9531107511
 20
4.7422248469
 30
0.0
 10
4.952802359
 20
4.742197203
 30
0.0
 10
4.952596572
 20
4.7421763635
 30
0.0
 10
4.9524089234
 20
4.7421547101
 30
0.0
 10
4.9522401506
 20
4.7421322545
 30
0.0
 10
4.9520909811
 20
4.7421090249
 30
0.0
 10
4.9519621416
 20
4.7420850383
 30
0.0
 10
4.9518542912
 20
4.7420603983
 30
0.0
 10
4.9517681111
 20
4.742035052
 30
0.0
 10
4.9517105361
 20
4.7420121614
 30
0.0
 10
4.9516765493
 20
4.7419922417
 30
0.0
 10
4.9516553284
 20
4.7419756702
 30
0.0
 10
4.9516409956
 20
4.7419548039
 30
0.0
 10
4.9516432288
 20
4.7419328259
 30
0.0
 10
4.9516484432
 20
4.7419235302
 30
0.0
 10
4.951651707
 20
4.7419190402
 30
0.0
 11
4.9598395604
 21
4.7424508719
 31
0.0
 11
4.9582775077
 21
4.7424276998
 31
0.0
 11
4.9567578066
 21
4.7423933513
 31
0.0
 11
4.9560315664
 21
4.742371771
 31
0.0
 11
4.9553371883
 21
4.7423471387
 31
0.0
 11
4.9546817636
 21
4.7423193685
 31
0.0
 11
4.9540723837
 21
4.7422883746
 31
0.0
 11
4.9535161399
 21
4.7422540708
 31
0.0
 11
4.9530200859
 21
4.7422163749
 31
0.0
 11
4.9527966752
 21
4.7421962437
 31
0.0
 11
4.9525906719
 21
4.7421752597
 31
0.0
 11
4.9524028198
 21
4.7421534254
 31
0.0
 11
4.9522338629
 21
4.7421307431
 31
0.0
 11
4.9520845451
 21
4.7421072151
 31
0.0
 11
4.9519556104
 21
4.7420828439
 31
0.0
 11
4.9518478027
 21
4.7420576317
 31
0.0
 11
4.951761866
 21
4.742031581
 31
0.0
 11
4.9516985441
 21
4.7420046942
 31
0.0
 11
4.9516755962
 21
4.7419909379
 31
0.0
 11
4.951658581
 21
4.7419769735
 31
0.0
 11
4.9516427207
 21
4.7419484214
 31
0.0
 11
4.9516440615
 21
4.7419338342
 31
0.0
 11
4.951651707
 21
4.7419190402
 31
0.0
  0
SPLINE
  5
4F4
100
AcDbEntity
  8
0
100
AcDbSpline
 62
9
  6
CONTINUOUS
 70
0
 71
3
 72
19
 73
15
 74
13
 42
0.0000001
 43
0.0000001
 44
0.0000000001
 12
-0.1819183606
 22
0.0035483898
 32
0.0
 13
-0.1819525533
 23
0.0003864314
 33
0.0
 40
0.0
 40
0.0
 40
0.0
 40
0.0
 40
0.0480604317
 40
0.101812695
 40
0.2244976039
 40
0.3623893506
 40
0.5077943829
 40
0.652069619
 40
0.7210645819
 40
0.7867315467
 40
0.8481908041
 40
0.9046379656
 40
0.955442895
 40
1.0
 40
1.0
 40
1.0
 40
1.0
 10
5.2198185537
 20
4.7363935795
 30
0.0
 10
5.2169041954
 20
4.7364504252
 30
0.0
 10
5.2107304285
 20
4.7365759267
 30
0.0
 10
5.1971174726
 20
4.7368639116
 30
0.0
 10
5.1780575768
 20
4.7372764049
 30
0.0
 10
5.1534397058
 20
4.7377887108
 30
0.0
 10
5.1275114773
 20
4.7382698479
 30
0.0
 10
5.1057601318
 20
4.738612759
 30
0.0
 10
5.0888437616
 20
4.7388344376
 30
0.0
 10
5.0769495831
 20
4.7389698839
 30
0.0
 10
5.0658161807
 20
4.7390765815
 30
0.0
 10
5.0555839621
 20
4.7391546955
 30
0.0
 10
5.0463767246
 20
4.7392065726
 30
0.0
 10
5.0405929516
 20
4.7392266854
 30
0.0
 10
5.0378905253
 20
4.7392324248
 30
0.0
 11
5.2198185537
 21
4.7363935795
 31
0.0
 11
5.2110755965
 21
4.7365700478
 31
0.0
 11
5.2012973809
 21
4.7367759681
 31
0.0
 11
5.1789796072
 21
4.7372535375
 31
0.0
 11
5.1538951126
 21
4.7377700605
 31
0.0
 11
5.1274427501
 21
4.738258768
 31
0.0
 11
5.1011946486
 21
4.7386689854
 31
0.0
 11
5.0886418874
 21
4.7388334025
 31
0.0
 11
5.0766943588
 21
4.7389690789
 31
0.0
 11
5.0655121732
 21
4.7390757073
 31
0.0
 11
5.055241741
 21
4.7391537049
 31
0.0
 11
5.0459977768
 21
4.7392051669
 31
0.0
 11
5.0378905253
 21
4.7392324248
 31
0.0
  0
LINE
  5
4F5
100
AcDbEntity
  8
0
100
AcDbLine
 62
9
  6
CONTINUOUS
 10
5.0378905253
 20
4.7392324248
 11
4.9904939994
 21
4.7392056556
  0
LINE
  5
4F6
100
AcDbEntity
  8
0
100
AcDbLine
 62
9
  6
CONTINUOUS
 10
4.9904939994
 20
4.7392056556
 11
4.9620303484
 21
4.7392324248
  0
SPLINE
  5
4F7
100
AcDbEntity
  8
0
100
AcDbSpline
 62
9
  6
CONTINUOUS
 70
0
 71
3
 72
29
 73
25
 74
23
 42
0.0000001
 43
0.0000001
 44
0.0000000001
 12
-0.0081192003
 22
-0.0000567741
 32
0.0
 13
0.0049006134
 23
-0.0064736871
 33
0.0
 40
0.0
 40
0.0
 40
0.0
 40
0.0
 40
0.1891405985
 40
0.3729760877
 40
0.4607871136
 40
0.5447318862
 40
0.6239652516
 40
0.6976434516
 40
0.76492494
 40
0.8249758767
 40
0.8520495195
 40
0.8770394541
 40
0.8998605792
 40
0.9204293187
 40
0.9386645174
 40
0.9544891
 40
0.9678334197
 40
0.9786428342
 40
0.9868977328
 40
0.9900893029
 40
0.9926936458
 40
0.9964614231
 40
0.9981096325
 40
1.0
 40
1.0
 40
1.0
 40
1.0
 10
4.9620303484
 20
4.7392324248
 30
0.0
 10
4.9615184582
 20
4.7392288454
 30
0.0
 10
4.9605090551
 20
4.7392185819
 30
0.0
 10
4.9592621238
 20
4.7391968725
 30
0.0
 10
4.9583000109
 20
4.739173388
 30
0.0
 10
4.9576210149
 20
4.7391531458
 30
0.0
 10
4.9569803863
 20
4.7391299391
 30
0.0
 10
4.9563850111
 20
4.739103702
 30
0.0
 10
4.9558417636
 20
4.7390743792
 30
0.0
 10
4.9554247828
 20
4.7390464662
 30
0.0
 10
4.9551223313
 20
4.7390220081
 30
0.0
 10
4.9549205011
 20
4.739003494
 30
0.0
 10
4.9547364372
 20
4.7389841828
 30
0.0
 10
4.9545708574
 20
4.7389640846
 30
0.0
 10
4.9544244715
 20
4.7389432254
 30
0.0
 10
4.9542979862
 20
4.7389216189
 30
0.0
 10
4.9541920574
 20
4.7388993685
 30
0.0
 10
4.954107337
 20
4.7388764138
 30
0.0
 10
4.9540506539
 20
4.7388556649
 30
0.0
 10
4.9540169896
 20
4.73883751
 30
0.0
 10
4.9539961829
 20
4.7388225893
 30
0.0
 10
4.953981515
 20
4.738803661
 30
0.0
 10
4.9539833008
 20
4.7387831455
 30
0.0
 10
4.9539882617
 20
4.7387746786
 30
0.0
 10
4.9539913497
 20
4.7387705994
 30
0.0
 11
4.9620303484
 21
4.7392324248
 31
0.0
 11
4.9604947224
 21
4.7392165564
 31
0.0
 11
4.9590023252
 21
4.7391899934
 31
0.0
 11
4.9582895676
 21
4.7391724769
 31
0.0
 11
4.9576082937
 21
4.7391520175
 31
0.0
 11
4.9569653955
 21
4.7391285254
 31
0.0
 11
4.9563677651
 21
4.7391019107
 31
0.0
 11
4.9558222948
 21
4.7390720837
 31
0.0
 11
4.9553358439
 21
4.7390389577
 31
0.0
 11
4.9551167451
 21
4.7390211441
 31
0.0
 11
4.9549147004
 21
4.7390024983
 31
0.0
 11
4.954730433
 21
4.7389830219
 31
0.0
 11
4.9545646663
 21
4.7389627162
 31
0.0
 11
4.9544181234
 21
4.7389415829
 31
0.0
 11
4.9542915278
 21
4.7389196233
 31
0.0
 11
4.9541856027
 21
4.7388968391
 31
0.0
 11
4.9541010713
 21
4.7388732316
 31
0.0
 11
4.9540386571
 21
4.7388488024
 31
0.0
 11
4.9540159699
 21
4.7388362801
 31
0.0
 11
4.9539990832
 21
4.738823553
 31
0.0
 11
4.953983073
 21
4.7387974848
 31
0.0
 11
4.9539841303
 21
4.7387841442
 31
0.0
 11
4.9539913497
 21
4.7387705994
 31
0.0
  0
SPLINE
  5
4F8
100
AcDbEntity
  8
0
100
AcDbSpline
 62
9
  6
CONTINUOUS
 70
0
 71
3
 72
17
 73
13
 74
11
 42
0.0000001
 43
0.0000001
 44
0.0000000001
 12
-0.1332312361
 22
0.0025512895
 32
0.0
 13
-0.1332483214
 23
-0.0013986369
 33
0.0
 40
0.0
 40
0.0
 40
0.0
 40
0.0
 40
0.1025512715
 40
0.2252163536
 40
0.3624420844
 40
0.50688478
 40
0.6503091338
 40
0.7190486957
 40
0.7846307737
 40
0.9030371937
 40
0.954491531
 40
1.0
 40
1.0
 40
1.0
 40
1.0
 10
5.1874401085
 20
4.7017792538
 30
0.0
 10
5.1828857643
 20
4.7018664665
 30
0.0
 10
5.1728838455
 20
4.7020597212
 30
0.0
 10
5.1567872115
 20
4.7023451616
 30
0.0
 10
5.1388293425
 20
4.7026177775
 30
0.0
 10
5.1199486022
 20
4.7028398682
 30
0.0
 10
5.1041090997
 20
4.7029656489
 30
0.0
 10
5.0917721369
 20
4.7030209093
 30
0.0
 10
5.0805463441
 20
4.7030456806
 30
0.0
 10
5.0700882645
 20
4.7030324969
 30
0.0
 10
5.0605220121
 20
4.702979371
 30
0.0
 10
5.0562152132
 20
4.7029424356
 30
0.0
 10
5.0541939041
 20
4.702921219
 30
0.0
 11
5.1874401085
 21
4.7017792538
 31
0.0
 11
5.173777043
 21
4.702039168
 31
0.0
 11
5.157433763
 21
4.702327134
 31
0.0
 11
5.1391497349
 21
4.7026027641
 31
0.0
 11
5.119903247
 21
4.7028280983
 31
0.0
 11
5.1007917206
 21
4.7029770839
 31
0.0
 11
5.0916318761
 21
4.7030179865
 31
0.0
 11
5.0828927134
 21
4.7030369028
 31
0.0
 11
5.0671144056
 21
4.7030130096
 31
0.0
 11
5.0602579335
 21
4.7029742387
 31
0.0
 11
5.0541939041
 21
4.702921219
 31
0.0
  0
SPLINE
  5
4F9
100
AcDbEntity
  8
0
100
AcDbSpline
 62
9
  6
CONTINUOUS
 70
0
 71
3
 72
11
 73
7
 74
5
 42
0.0000001
 43
0.0000001
 44
0.0000000001
 12
0.0135248332
 22
-0.0374815504
 32
0.0
 13
0.0196523788
 23
-0.0346636948
 33
0.0
 40
0.0
 40
0.0
 40
0.0
 40
0.0
 40
0.2682182049
 40
0.5246533819
 40
0.7687418299
 40
1.0
 40
1.0
 40
1.0
 40
1.0
 10
5.0378905253
 20
4.7392324248
 30
0.0
 10
5.0390997275
 20
4.7358813468
 30
0.0
 10
5.0415748733
 20
4.72936526
 30
0.0
 10
5.0455562335
 20
4.7199599306
 30
0.0
 10
5.0497144513
 20
4.7111713162
 30
0.0
 10
5.0526789797
 20
4.7055933066
 30
0.0
 10
5.0541939041
 20
4.702921219
 30
0.0
 11
5.0378905253
 21
4.7392324248
 31
0.0
 11
5.041693727
 21
4.7292442968
 31
0.0
 11
5.0456862963
 21
4.7198384091
 31
0.0
 11
5.0498568248
 21
4.7110517278
 31
0.0
 11
5.0541939041
 21
4.702921219
 31
0.0
  0
LINE
  5
4FA
100
AcDbEntity
  8
0
100
AcDbLine
 62
9
  6
CONTINUOUS
 10
5.0541939041
 20
4.702921219
 11
5.0178607548
 21
4.702556528
  0
SPLINE
  5
4FB
100
AcDbEntity
  8
0
100
AcDbSpline
 62
9
  6
CONTINUOUS
 70
0
 71
3
 72
11
 73
7
 74
5
 42
0.0000001
 43
0.0000001
 44
0.0000000001
 12
0.0226337334
 22
-0.0398879717
 32
0.0
 13
0.0322131842
 23
-0.0326442481
 33
0.0
 40
0.0
 40
0.0
 40
0.0
 40
0.0
 40
0.2585595146
 40
0.511485138
 40
0.7586496696
 40
1.0
 40
1.0
 40
1.0
 40
1.0
 10
4.9904939994
 20
4.7392056556
 30
0.0
 10
4.9924447218
 20
4.7357678507
 30
0.0
 10
4.9965076574
 20
4.7290802993
 30
0.0
 10
5.003141049
 20
4.7195574932
 30
0.0
 10
5.0102168465
 20
4.7106923958
 30
0.0
 10
5.0152692006
 20
4.7051827613
 30
0.0
 10
5.0178607548
 20
4.702556528
 30
0.0
 11
4.9904939994
 21
4.7392056556
 31
0.0
 11
4.9966570084
 21
4.7290749251
 31
0.0
 11
5.0032937105
 21
4.719561383
 31
0.0
 11
5.0103722459
 21
4.7107076952
 31
0.0
 11
5.0178607548
 21
4.702556528
 31
0.0
  0
SPLINE
  5
4FC
100
AcDbEntity
  8
0
100
AcDbSpline
 62
9
  6
CONTINUOUS
 70
0
 71
3
 72
11
 73
7
 74
5
 42
0.0000001
 43
0.0000001
 44
0.0000000001
 12
-0.0223860211
 22
0.0
 32
0.0
 13
-0.02237378
 23
0.00074021
 33
0.0
 40
0.0
 40
0.0
 40
0.0
 40
0.0
 40
0.3145930361
 40
0.580691758
 40
0.8107187382
 40
1.0
 40
1.0
 40
1.0
 40
1.0
 10
5.0178607548
 20
4.702556528
 30
0.0
 10
5.0155132594
 20
4.702556528
 30
0.0
 10
5.0111800955
 20
4.7025719755
 30
0.0
 10
5.005130938
 20
4.7026531212
 30
0.0
 10
5.0000178306
 20
4.7027762253
 30
0.0
 10
4.9968904812
 20
4.7028745164
 30
0.0
 10
4.9954788354
 20
4.702921219
 30
0.0
 11
5.0178607548
 21
4.702556528
 31
0.0
 11
5.0108183293
 21
4.7025857905
 31
0.0
 11
5.0048620061
 21
4.7026680804
 31
0.0
 11
4.9997140717
 21
4.7027904594
 31
0.0
 11
4.9954788354
 21
4.702921219
 31
0.0
  0
LINE
  5
4FD
100
AcDbEntity
  8
0
100
AcDbLine
 62
9
  6
CONTINUOUS
 10
4.9954788354
 20
4.702921219
 11
4.9893605969
 21
4.7030080255
  0
SPLINE
  5
4FE
100
AcDbEntity
  8
0
100
AcDbSpline
 62
9
  6
CONTINUOUS
 70
0
 71
3
 72
16
 73
12
 74
10
 42
0.0000001
 43
0.0000001
 44
0.0000000001
 12
0.0256625591
 22
-0.0452647043
 32
0.0
 13
0.0498405177
 23
-0.0149460091
 33
0.0
 40
0.0
 40
0.0
 40
0.0
 40
0.0
 40
0.1568397551
 40
0.3036083196
 40
0.4405574798
 40
0.5680857897
 40
0.6867846736
 40
0.7974951203
 40
0.9013705847
 40
0.951237563
 40
1.0
 40
1.0
 40
1.0
 40
1.0
 10
5.0541939041
 20
4.702921219
 30
0.0
 10
5.0555355406
 20
4.700554784
 30
0.0
 10
5.0582457762
 20
4.6960363798
 30
0.0
 10
5.0625515724
 20
4.6897181221
 30
0.0
 10
5.0669560627
 20
4.6840998201
 30
0.0
 10
5.0714535173
 20
4.6791964303
 30
0.0
 10
5.0760395555
 20
4.6750229412
 30
0.0
 10
5.0807094113
 20
4.6715958938
 30
0.0
 10
5.084723823
 20
4.6693466745
 30
0.0
 10
5.087955106
 20
4.6679634729
 30
0.0
 10
5.0895750776
 20
4.6674076652
 30
0.0
 10
5.0903851927
 20
4.6671647306
 30
0.0
 11
5.0541939041
 21
4.702921219
 31
0.0
 11
5.0584042853
 21
4.6959303164
 31
0.0
 11
5.0627186525
 21
4.6896289141
 31
0.0
 11
5.0671298026
 21
4.6840324535
 31
0.0
 11
5.0716305327
 21
4.6791563763
 31
0.0
 11
5.0762136397
 21
4.6750161239
 31
0.0
 11
5.0808719207
 21
4.6716271378
 31
0.0
 11
5.0855981727
 21
4.6690048595
 31
0.0
 11
5.0879845369
 21
4.6679860613
 31
0.0
 11
5.0903851927
 21
4.6671647306
 31
0.0
  0
SPLINE
  5
4FF
100
AcDbEntity
  8
0
100
AcDbSpline
 62
9
  6
CONTINUOUS
 70
0
 71
3
 72
9
 73
5
 74
3
 42
0.0000001
 43
0.0000001
 44
0.0000000001
 12
0.0076477879
 22
-0.0022933933
 32
0.0
 13
0.0079813504
 23
-0.0002153064
 33
0.0
 40
0.0
 40
0.0
 40
0.0
 40
0.0
 40
0.5034087717
 40
1.0
 40
1.0
 40
1.0
 40
1.0
 10
5.0903851927
 20
4.6671647306
 30
0.0
 10
5.0916685138
 20
4.6667798925
 30
0.0
 10
5.0942684332
 20
4.6661732699
 30
0.0
 10
5.0969269791
 20
4.6659188497
 30
0.0
 10
5.0982481353
 20
4.66588321
 30
0.0
 11
5.0903851927
 21
4.6671647306
 31
0.0
 11
5.0943010154
 21
4.6662583895
 31
0.0
 11
5.0982481353
 21
4.66588321
 31
0.0
  0
SPLINE
  5
500
100
AcDbEntity
  8
0
100
AcDbSpline
 62
9
  6
CONTINUOUS
 70
0
 71
3
 72
15
 73
11
 74
9
 42
0.0000001
 43
0.0000001
 44
0.0000000001
 12
0.0797480484
 22
-0.0654148452
 32
0.0
 13
0.1029690152
 23
-0.0060195605
 33
0.0
 40
0.0
 40
0.0
 40
0.0
 40
0.0
 40
0.1251988566
 40
0.2501213867
 40
0.3749053686
 40
0.4996576075
 40
0.6244645575
 40
0.7494031248
 40
0.8745515125
 40
1.0
 40
1.0
 40
1.0
 40
1.0
 10
4.9954788354
 20
4.702921219
 30
0.0
 10
4.9988069569
 20
4.7001912644
 30
0.0
 10
5.0056809126
 20
4.6950054736
 30
0.0
 10
5.0165706999
 20
4.6880849239
 30
0.0
 10
5.0279600476
 20
4.682053191
 30
0.0
 10
5.0397820586
 20
4.6769321437
 30
0.0
 10
5.0519709577
 20
4.6727428855
 30
0.0
 10
5.0644611147
 20
4.6695068952
 30
0.0
 10
5.0771856894
 20
4.667245827
 30
0.0
 10
5.0857709093
 20
4.6664040336
 30
0.0
 10
5.0900766784
 20
4.6661523187
 30
0.0
 11
4.9954788354
 21
4.702921219
 31
0.0
 11
5.0057865382
 21
4.6951422302
 31
0.0
 11
5.0166602644
 21
4.688229331
 31
0.0
 11
5.0280337205
 21
4.6822041732
 31
0.0
 11
5.0398406131
 21
4.6770884085
 31
0.0
 11
5.0520146487
 21
4.672903689
 31
0.0
 11
5.0644895338
 21
4.6696716663
 31
0.0
 11
5.0771989748
 21
4.6674139922
 31
0.0
 11
5.0900766784
 21
4.6661523187
 31
0.0
  0
SPLINE
  5
501
100
AcDbEntity
  8
0
100
AcDbSpline
 62
9
  6
CONTINUOUS
 70
0
 71
3
 72
26
 73
22
 74
20
 42
0.0000001
 43
0.0000001
 44
0.0000000001
 12
0.0
 22
0.1755330844
 32
0.0
 13
-0.1549203886
 23
0.0825320357
 33
0.0
 40
0.0
 40
0.0
 40
0.0
 40
0.0
 40
0.0636153922
 40
0.1287238985
 40
0.1950376375
 40
0.2622239683
 40
0.3299182828
 40
0.3977343613
 40
0.4652731542
 40
0.532130739
 40
0.5979061502
 40
0.6622098069
 40
0.7246733842
 40
0.7849622069
 40
0.8142046538
 40
0.8428022574
 40
0.8707310172
 40
0.8979733133
 40
0.9245191187
 40
0.9503674097
 40
1.0
 40
1.0
 40
1.0
 40
1.0
 10
5.5529770322
 20
5.3078760521
 30
0.0
 10
5.5529770322
 20
5.3115982541
 30
0.0
 10
5.552698012
 20
5.3191321306
 30
0.0
 10
5.5515234831
 20
5.3304904612
 30
0.0
 10
5.5496302082
 20
5.3419627944
 30
0.0
 10
5.5470605603
 20
5.3534569968
 30
0.0
 10
5.5438568019
 20
5.3648817254
 30
0.0
 10
5.5400611604
 20
5.3761451646
 30
0.0
 10
5.5357158569
 20
5.3871554854
 30
0.0
 10
5.5308630959
 20
5.3978208392
 30
0.0
 10
5.5255450668
 20
5.4080494107
 30
0.0
 10
5.5198037751
 20
5.4177496763
 30
0.0
 10
5.5136813221
 20
5.4268298062
 30
0.0
 10
5.5082414627
 20
5.4338750817
 30
0.0
 10
5.5037251786
 20
5.4391092078
 30
0.0
 10
5.5003027732
 20
5.4427814156
 30
0.0
 10
5.4968162219
 20
5.4462284536
 30
0.0
 10
5.4932707642
 20
5.4494387301
 30
0.0
 10
5.4896711417
 20
5.4524009925
 30
0.0
 10
5.484873101
 20
5.4559550961
 30
0.0
 10
5.4811098838
 20
5.4582931027
 30
0.0
 10
5.4785468504
 20
5.459658529
 30
0.0
 11
5.5529770322
 21
5.3078760521
 31
0.0
 11
5.5525800686
 21
5.3190356
 31
0.0
 11
5.5514175032
 21
5.3304050132
 31
0.0
 11
5.5495318243
 21
5.3418915163
 31
0.0
 11
5.5469655202
 21
5.3534023343
 31
0.0
 11
5.5437610793
 21
5.3648446919
 31
0.0
 11
5.5399609899
 21
5.3761258139
 31
0.0
 11
5.5356077402
 21
5.387152925
 31
0.0
 11
5.5307438185
 21
5.3978332501
 31
0.0
 11
5.5254117131
 21
5.408074014
 31
0.0
 11
5.5196539124
 21
5.4177824415
 31
0.0
 11
5.5135129046
 21
5.4268657572
 31
0.0
 11
5.5070311781
 21
5.4352311862
 31
0.0
 11
5.5036758229
 21
5.4391157008
 31
0.0
 11
5.5002512211
 21
5.442785953
 31
0.0
 11
5.4967626838
 21
5.4462303459
 31
0.0
 11
5.493215522
 21
5.4494372826
 31
0.0
 11
5.4896150467
 21
5.4523951661
 31
0.0
 11
5.485966569
 21
5.4550923996
 31
0.0
 11
5.4785468504
 21
5.459658529
 31
0.0
  0
SPLINE
  5
502
100
AcDbEntity
  8
0
100
AcDbSpline
 62
6
  6
CONTINUOUS
 70
0
 71
3
 72
21
 73
17
 74
15
 42
0.0000001
 43
0.0000001
 44
0.0000000001
 12
-0.1782105913
 22
-0.0007349579
 32
0.0
 13
-0.1118138845
 23
-0.1387703508
 33
0.0
 40
0.0
 40
0.0
 40
0.0
 40
0.0
 40
0.0627605279
 40
0.1247405964
 40
0.1554939253
 40
0.1861131676
 40
0.247047888
 40
0.3077664726
 40
0.3684511015
 40
0.4292698352
 40
0.4903725411
 40
0.551874373
 40
0.6138727664
 40
0.7396688163
 40
0.8682947034
 40
1.0
 40
1.0
 40
1.0
 40
1.0
 10
5.5529770322
 20
5.3078760521
 30
0.0
 10
5.5492488353
 20
5.3078606767
 30
0.0
 10
5.5418372374
 20
5.3075672412
 30
0.0
 10
5.5326493072
 20
5.3065396542
 30
0.0
 10
5.5254202977
 20
5.3053327649
 30
0.0
 10
5.5183002549
 20
5.3038792299
 30
0.0
 10
5.5095385777
 20
5.301598387
 30
0.0
 10
5.4992613528
 20
5.2981521647
 30
0.0
 10
5.4892414562
 20
5.2940362121
 30
0.0
 10
5.4794812971
 20
5.2892868899
 30
0.0
 10
5.4699796721
 20
5.2839413524
 30
0.0
 10
5.4607329331
 20
5.2780358264
 30
0.0
 10
5.4486831299
 20
5.269417134
 30
0.0
 10
5.4342318375
 20
5.2573492708
 30
0.0
 10
5.4179655607
 20
5.2411435561
 30
0.0
 10
5.4078649586
 20
5.2294128341
 30
0.0
 10
5.4029561316
 20
5.2233205707
 30
0.0
 11
5.5529770322
 21
5.3078760521
 31
0.0
 11
5.541801204
 21
5.3074310099
 31
0.0
 11
5.5308242212
 21
5.3062017436
 31
0.0
 11
5.5254184502
 21
5.3052990879
 31
0.0
 11
5.5200719631
 21
5.3042078203
 31
0.0
 11
5.5095620294
 21
5.3014754593
 31
0.0
 11
5.499301234
 21
5.2980395452
 31
0.0
 11
5.4892954471
 21
5.2939355551
 31
0.0
 11
5.4795464618
 21
5.289199176
 31
0.0
 11
5.4700524735
 21
5.2838662803
 31
0.0
 11
5.4608115447
 21
5.2779726423
 31
0.0
 11
5.4518213358
 21
5.27154975
 31
0.0
 11
5.4345815394
 21
5.2572189042
 31
0.0
 11
5.4183067675
 21
5.2410763662
 31
0.0
 11
5.4029561316
 21
5.2233205707
 31
0.0
  0
SPLINE
  5
503
100
AcDbEntity
  8
0
100
AcDbSpline
 62
9
  6
CONTINUOUS
 70
0
 71
3
 72
29
 73
25
 74
23
 42
0.0000001
 43
0.0000001
 44
0.0000000001
 12
-0.133841144
 22
0.2324282996
 32
0.0
 13
-0.2439105969
 23
0.1115526199
 33
0.0
 40
0.0
 40
0.0
 40
0.0
 40
0.0
 40
0.0749666224
 40
0.1494228045
 40
0.2230945835
 40
0.2957121368
 40
0.3670107096
 40
0.4367318064
 40
0.5046247387
 40
0.5704486599
 40
0.633974761
 40
0.6949881934
 40
0.7244923214
 40
0.7532974126
 40
0.7813834836
 40
0.8087328234
 40
0.8353303656
 40
0.8611641306
 40
0.8862257504
 40
0.9105110909
 40
0.9340209865
 40
0.9567621035
 40
0.9787479444
 40
1.0
 40
1.0
 40
1.0
 40
1.0
 10
5.4029561316
 20
5.2233205707
 30
0.0
 10
5.3996115921
 20
5.2291286922
 30
0.0
 10
5.3928708462
 20
5.2406627441
 30
0.0
 10
5.3825673798
 20
5.2577414796
 30
0.0
 10
5.3721163404
 20
5.274483435
 30
0.0
 10
5.3615405738
 20
5.2908117241
 30
0.0
 10
5.3508628964
 20
5.3066495631
 30
0.0
 10
5.3401061175
 20
5.321920234
 30
0.0
 10
5.329293028
 20
5.3365470917
 30
0.0
 10
5.3184463713
 20
5.3504536584
 30
0.0
 10
5.3075890745
 20
5.3635631304
 30
0.0
 10
5.2984529254
 20
5.3738728504
 30
0.0
 10
5.2911469163
 20
5.3816470609
 30
0.0
 10
5.2857408599
 20
5.3871647104
 30
0.0
 10
5.2803500753
 20
5.3924250534
 30
0.0
 10
5.2749775199
 20
5.3974185282
 30
0.0
 10
5.2696261839
 20
5.4021355816
 30
0.0
 10
5.2642990289
 20
5.4065666625
 30
0.0
 10
5.2589990002
 20
5.4107022208
 30
0.0
 10
5.2537290102
 20
5.4145327068
 30
0.0
 10
5.2484919622
 20
5.4180485529
 30
0.0
 10
5.2432906444
 20
5.4212402096
 30
0.0
 10
5.2381280798
 20
5.4240979729
 30
0.0
 10
5.2346562663
 20
5.425802464
 30
0.0
 10
5.2329283992
 20
5.4265927048
 30
0.0
 11
5.4029561316
 21
5.2233205707
 31
0.0
 11
5.3928074848
 21
5.24067819
 31
0.0
 11
5.3824877397
 21
5.2577749193
 31
0.0
 11
5.3720196707
 21
5.2745336899
 31
0.0
 11
5.3614260522
 21
5.290877433
 31
0.0
 11
5.3507296586
 21
5.3067290798
 31
0.0
 11
5.3399532641
 21
5.3220115617
 31
0.0
 11
5.3291196432
 21
5.3366478099
 31
0.0
 11
5.3182515704
 21
5.3505607556
 31
0.0
 11
5.3073720706
 21
5.3636733604
 31
0.0
 11
5.2965051754
 21
5.3759087071
 31
0.0
 11
5.2910840433
 21
5.3816733814
 31
0.0
 11
5.2856751687
 21
5.3871899087
 31
0.0
 11
5.2802815873
 21
5.3924486781
 31
0.0
 11
5.2749063344
 21
5.3974400786
 31
0.0
 11
5.2695524457
 21
5.4021544995
 31
0.0
 11
5.2642229564
 21
5.40658233
 31
0.0
 11
5.2589209023
 21
5.4107139591
 31
0.0
 11
5.2536493186
 21
5.414539776
 31
0.0
 11
5.248411241
 21
5.4180501699
 31
0.0
 11
5.2432097049
 21
5.4212355299
 31
0.0
 11
5.2380477458
 21
5.4240862451
 31
0.0
 11
5.2329283992
 21
5.4265927048
 31
0.0
  0
SPLINE
  5
504
100
AcDbEntity
  8
0
100
AcDbSpline
 62
9
  6
CONTINUOUS
 70
0
 71
3
 72
16
 73
12
 74
10
 42
0.0000001
 43
0.0000001
 44
0.0000000001
 12
-0.2480118762
 22
-0.0094947714
 32
0.0
 13
-0.2417978714
 23
-0.0559806289
 33
0.0
 40
0.0
 40
0.0
 40
0.0
 40
0.0
 40
0.106438163
 40
0.2210566262
 40
0.3424108072
 40
0.4690739774
 40
0.5339563882
 40
0.5996308762
 40
0.7326173137
 40
0.8665631821
 40
1.0
 40
1.0
 40
1.0
 40
1.0
 10
5.4785468504
 20
5.459658529
 30
0.0
 10
5.4697475409
 20
5.4593216603
 30
0.0
 10
5.4514800094
 20
5.4584169891
 30
0.0
 10
5.4232208231
 20
5.4564129312
 30
0.0
 10
5.3933461635
 20
5.4536322143
 30
0.0
 10
5.3676312187
 20
5.4506320141
 30
0.0
 10
5.3465441235
 20
5.4477685968
 30
0.0
 10
5.3249765937
 20
5.4445680031
 30
0.0
 10
5.2978330948
 20
5.4400319565
 30
0.0
 10
5.2653008925
 20
5.4337880359
 30
0.0
 10
5.243683312
 20
5.4290826638
 30
0.0
 10
5.2329283992
 20
5.4265927048
 30
0.0
 11
5.4785468504
 21
5.459658529
 31
0.0
 11
5.4521615054
 21
5.458360252
 31
0.0
 11
5.4237849663
 21
5.4563512911
 31
0.0
 11
5.3937953625
 21
5.4535588997
 31
0.0
 11
5.3625708236
 21
5.4499103313
 31
0.0
 11
5.346613702
 21
5.4477447734
 31
0.0
 11
5.3304901431
 21
5.4453530477
 31
0.0
 11
5.2979347701
 21
5.4399153455
 31
0.0
 11
5.2652868178
 21
5.4336457295
 31
0.0
 11
5.2329283992
 21
5.4265927048
 31
0.0
  0
SPLINE
  5
505
100
AcDbEntity
  8
0
100
AcDbSpline
 62
6
  6
CONTINUOUS
 70
0
 71
3
 72
11
 73
7
 74
5
 42
0.0000001
 43
0.0000001
 44
0.0000000001
 12
-0.0326451801
 22
-0.0404158437
 32
0.0
 13
-0.0272901662
 23
-0.0442085403
 33
0.0
 40
0.0
 40
0.0
 40
0.0
 40
0.0
 40
0.2438839488
 40
0.4919658878
 40
0.7440717045
 40
1.0
 40
1.0
 40
1.0
 40
1.0
 10
5.4029450593
 20
5.2233367099
 30
0.0
 10
5.4002911808
 20
5.220051118
 30
0.0
 10
5.3950548671
 20
5.2133279608
 30
0.0
 10
5.3874775972
 20
5.2029029769
 30
0.0
 10
5.3801146395
 20
5.1920725335
 30
0.0
 10
5.3753870182
 20
5.1846509153
 30
0.0
 10
5.3730589096
 20
5.1808795099
 30
0.0
 11
5.4029450593
 21
5.2233367099
 31
0.0
 11
5.3951551795
 21
5.2133436405
 31
0.0
 11
5.3875734091
 21
5.2029208345
 31
0.0
 11
5.3802059263
 21
5.1920916662
 31
0.0
 11
5.3730589096
 21
5.1808795099
 31
0.0
  0
SPLINE
  5
506
100
AcDbEntity
  8
0
100
AcDbSpline
 62
6
  6
CONTINUOUS
 70
0
 71
3
 72
13
 73
9
 74
7
 42
0.0000001
 43
0.0000001
 44
0.0000000001
 12
-0.0501899713
 22
-0.0813663502
 32
0.0
 13
-0.0363608944
 23
-0.0884160705
 33
0.0
 40
0.0
 40
0.0
 40
0.0
 40
0.0
 40
0.1205244169
 40
0.2421113315
 40
0.3648483989
 40
0.4888578211
 40
0.7411691867
 40
1.0
 40
1.0
 40
1.0
 40
1.0
 10
5.3730547748
 20
5.1808850128
 30
0.0
 10
5.3710384025
 20
5.1776161355
 30
0.0
 10
5.3670674684
 20
5.1710001498
 30
0.0
 10
5.3613110743
 20
5.1608975748
 30
0.0
 10
5.3557197637
 20
5.1505761731
 30
0.0
 10
5.3484382837
 20
5.1364364742
 30
0.0
 10
5.3397230283
 20
5.1181624888
 30
0.0
 10
5.3332689621
 20
5.103202796
 30
0.0
 10
5.3301318554
 20
5.0955745282
 30
0.0
 11
5.3730547748
 21
5.1808850128
 31
0.0
 11
5.3671223199
 21
5.1710073701
 31
0.0
 11
5.3613653721
 21
5.1609093272
 31
0.0
 11
5.3557750728
 21
5.1505928467
 31
0.0
 11
5.3503457754
 21
5.1400537155
 31
0.0
 11
5.3399488366
 21
5.1182882696
 31
0.0
 11
5.3301318554
 21
5.0955745282
 31
0.0
  0
SPLINE
  5
507
100
AcDbEntity
  8
0
100
AcDbSpline
 62
9
  6
CONTINUOUS
 70
0
 71
3
 72
23
 73
19
 74
17
 42
0.0000001
 43
0.0000001
 44
0.0000000001
 12
-0.2362599891
 22
0.2108720312
 32
0.0
 13
-0.3050583578
 23
0.085001143
 33
0.0
 40
0.0
 40
0.0
 40
0.0
 40
0.0
 40
0.0739524672
 40
0.1471096868
 40
0.2192995814
 40
0.2903530084
 40
0.3601043157
 40
0.4283920287
 40
0.4950597068
 40
0.5599570194
 40
0.6229395349
 40
0.6838654912
 40
0.7426023437
 40
0.7990310871
 40
0.8530499131
 40
0.9045790489
 40
0.9535671837
 40
1.0
 40
1.0
 40
1.0
 40
1.0
 10
5.3301260218
 20
5.095580233
 30
0.0
 10
5.3243020187
 20
5.100778402
 30
0.0
 10
5.3126619466
 20
5.1110577965
 30
0.0
 10
5.2951328256
 20
5.126178694
 30
0.0
 10
5.2776461231
 20
5.1408776092
 30
0.0
 10
5.2602328045
 20
5.1551018188
 30
0.0
 10
5.2429237899
 20
5.1687986571
 30
0.0
 10
5.2257499862
 20
5.1819154843
 30
0.0
 10
5.2087422692
 20
5.1943997015
 30
0.0
 10
5.1919316059
 20
5.2061986667
 30
0.0
 10
5.1753496324
 20
5.2172593137
 30
0.0
 10
5.1590301886
 20
5.2275302271
 30
0.0
 10
5.1430076344
 20
5.2369596149
 30
0.0
 10
5.1273162609
 20
5.2454956765
 30
0.0
 10
5.1119902125
 20
5.2530866493
 30
0.0
 10
5.0970628999
 20
5.2596809074
 30
0.0
 10
5.0825685172
 20
5.2652263886
 30
0.0
 10
5.0729585121
 20
5.2682709826
 30
0.0
 10
5.0682369392
 20
5.2695865967
 30
0.0
 11
5.3301260218
 21
5.095580233
 31
0.0
 11
5.3125690147
 21
5.111078983
 31
0.0
 11
5.295023293
 21
5.1262076016
 31
0.0
 11
5.2775198128
 21
5.1409132352
 31
0.0
 11
5.2600895302
 21
5.1551430302
 31
0.0
 11
5.2427634013
 21
5.1688441327
 31
0.0
 11
5.2255723822
 21
5.1819636893
 31
0.0
 11
5.2085474289
 21
5.1944488461
 31
0.0
 11
5.1917194977
 21
5.2062467496
 31
0.0
 11
5.1751201959
 21
5.2173046245
 31
0.0
 11
5.1587837351
 21
5.2275700096
 31
0.0
 11
5.1427449779
 21
5.2369905221
 31
0.0
 11
5.1270387871
 21
5.2455137791
 31
0.0
 11
5.1117000252
 21
5.2530873979
 31
0.0
 11
5.0967635549
 21
5.2596589957
 31
0.0
 11
5.0822642386
 21
5.2651761895
 31
0.0
 11
5.0682369392
 21
5.2695865967
 31
0.0
  0
SPLINE
  5
508
100
AcDbEntity
  8
0
100
AcDbSpline
 62
9
  6
CONTINUOUS
 70
0
 71
3
 72
22
 73
18
 74
16
 42
0.0000001
 43
0.0000001
 44
0.0000000001
 12
-0.2297891176
 22
-0.0532003828
 32
0.0
 13
-0.0933772778
 23
-0.2165964064
 33
0.0
 40
0.0
 40
0.0
 40
0.0
 40
0.0
 40
0.104632533
 40
0.1592111009
 40
0.2152812537
 40
0.2728496798
 40
0.3319295234
 40
0.3925431784
 40
0.4547247139
 40
0.5184993109
 40
0.583798772
 40
0.6505078446
 40
0.7184905722
 40
0.7875957702
 40
0.8576616972
 40
0.9285201272
 40
1.0
 40
1.0
 40
1.0
 40
1.0
 10
5.2329283992
 20
5.4265927048
 30
0.0
 10
5.2249139267
 20
5.4247372079
 30
0.0
 10
5.2129111013
 20
5.4210000822
 30
0.0
 10
5.1973266866
 20
5.4143773808
 30
0.0
 10
5.185512729
 20
5.4084086058
 30
0.0
 10
5.1738061732
 20
5.4015089283
 30
0.0
 10
5.162267287
 20
5.3936762886
 30
0.0
 10
5.1509586563
 20
5.3849094848
 30
0.0
 10
5.1399437006
 20
5.3752078863
 30
0.0
 10
5.1292930031
 20
5.3645801449
 30
0.0
 10
5.1190401834
 20
5.3530879542
 30
0.0
 10
5.1092240423
 20
5.3407950996
 30
0.0
 10
5.0998847013
 20
5.3277669008
 30
0.0
 10
5.0910624555
 20
5.3140686112
 30
0.0
 10
5.0827976546
 20
5.2997654004
 30
0.0
 10
5.0751309684
 20
5.284923002
 30
0.0
 10
5.0704618045
 20
5.2747473579
 30
0.0
 10
5.0682369392
 20
5.2695865967
 30
0.0
 11
5.2329283992
 21
5.4265927048
 31
0.0
 11
5.2093437473
 21
5.4193238714
 31
0.0
 11
5.1974928289
 21
5.4142962098
 31
0.0
 11
5.1856857926
 21
5.4083382425
 31
0.0
 11
5.1739848461
 21
5.4014488629
 31
0.0
 11
5.1624521971
 21
5.3936269643
 31
0.0
 11
5.1511500533
 21
5.38487144
 31
0.0
 11
5.1401406226
 21
5.3751811833
 31
0.0
 11
5.1294825367
 21
5.3645662411
 31
0.0
 11
5.1192201242
 21
5.3530812746
 31
0.0
 11
5.1093941378
 21
5.3407920986
 31
0.0
 11
5.10004533
 21
5.3277645281
 31
0.0
 11
5.0912144537
 21
5.3140643778
 31
0.0
 11
5.0829422613
 21
5.2997574626
 31
0.0
 11
5.0752695056
 21
5.2849095973
 31
0.0
 11
5.0682369392
 21
5.2695865967
 31
0.0
  0
SPLINE
  5
509
100
AcDbEntity
  8
0
100
AcDbSpline
 62
6
  6
CONTINUOUS
 70
0
 71
3
 72
16
 73
12
 74
10
 42
0.0000001
 43
0.0000001
 44
0.0000000001
 12
-0.2752923614
 22
0.0177133465
 32
0.0
 13
-0.2757905273
 23
0.0062635413
 33
0.0
 40
0.0
 40
0.0
 40
0.0
 40
0.0
 40
0.0509540332
 40
0.1046834608
 40
0.2194290071
 40
0.3421572521
 40
0.4707878525
 40
0.6031976911
 40
0.7370935668
 40
0.8701396086
 40
1.0
 40
1.0
 40
1.0
 40
1.0
 10
5.2743542708
 20
4.8837907391
 30
0.0
 10
5.2696785188
 20
4.8840915946
 30
0.0
 10
5.2600710135
 20
4.8846893071
 30
0.0
 10
5.2399281507
 20
4.885869062
 30
0.0
 10
5.2131890971
 20
4.8873024555
 30
0.0
 10
5.1795631907
 20
4.8889214328
 30
0.0
 10
5.1443069187
 20
4.8904446022
 30
0.0
 10
5.1080177569
 20
4.8918418403
 30
0.0
 10
5.0713170282
 20
4.8930933584
 30
0.0
 10
5.0348455465
 20
4.8941785257
 30
0.0
 10
5.0106778682
 20
4.8947885054
 30
0.0
 10
4.9987397796
 20
4.8950596341
 30
0.0
 11
5.2743542708
 21
4.8837907391
 31
0.0
 11
5.2603252343
 21
4.8846651956
 31
0.0
 11
5.2455287857
 21
4.8855332281
 31
0.0
 11
5.2139206922
 21
4.8872354323
 31
0.0
 11
5.1801040699
 21
4.8888681746
 31
0.0
 11
5.1446529987
 21
4.8904022778
 31
0.0
 11
5.1081533388
 21
4.8918099848
 31
0.0
 11
5.0712380732
 21
4.8930692181
 31
0.0
 11
5.0345519656
 21
4.8941593204
 31
0.0
 11
4.9987397796
 21
4.8950596341
 31
0.0
  0
SPLINE
  5
50A
100
AcDbEntity
  8
0
100
AcDbSpline
 62
9
  6
CONTINUOUS
 70
0
 71
3
 72
15
 73
11
 74
9
 42
0.0000001
 43
0.0000001
 44
0.0000000001
 12
-0.1519083821
 22
-0.3523641985
 32
0.0
 13
0.0079543772
 23
-0.3836318715
 33
0.0
 40
0.0
 40
0.0
 40
0.0
 40
0.0
 40
0.1193059327
 40
0.2407591601
 40
0.364128099
 40
0.4891510449
 40
0.6155456757
 40
0.7430175072
 40
0.8712676262
 40
1.0
 40
1.0
 40
1.0
 40
1.0
 10
5.0682369392
 20
5.2695865967
 30
0.0
 10
5.0621957488
 20
5.2555735503
 30
0.0
 10
5.0508786983
 20
5.2269107924
 30
0.0
 10
5.0363103853
 20
5.1826495105
 30
0.0
 10
5.0240259888
 20
5.1369429351
 30
0.0
 10
5.0140673671
 20
5.0900292821
 30
0.0
 10
5.0064755416
 20
5.0421442918
 30
0.0
 10
5.0012921469
 20
4.9935240148
 30
0.0
 10
4.9985589024
 20
4.9444065319
 30
0.0
 10
4.9983984349
 20
4.9115207709
 30
0.0
 10
4.9987397636
 20
4.8950588237
 30
0.0
 11
5.0682369392
 21
5.2695865967
 31
0.0
 11
5.0513932985
 21
5.2270184768
 31
0.0
 11
5.0367963656
 21
5.182760131
 31
0.0
 11
5.0244880001
 21
5.1370498363
 31
0.0
 11
5.0145100613
 21
5.0901258698
 31
0.0
 11
5.0069044088
 21
5.0422265083
 31
0.0
 11
5.0017129021
 21
4.9935900288
 31
0.0
 11
4.9989774005
 21
4.9444547083
 31
0.0
 11
4.9987397636
 21
4.8950588237
 31
0.0
  0
SPLINE
  5
50B
100
AcDbEntity
  8
0
100
AcDbSpline
 62
6
  6
CONTINUOUS
 70
0
 71
3
 72
14
 73
10
 74
8
 42
0.0000001
 43
0.0000001
 44
0.0000000001
 12
-0.0493140861
 22
-0.1524129644
 32
0.0
 13
-0.021998063
 23
-0.1586747492
 33
0.0
 40
0.0
 40
0.0
 40
0.0
 40
0.0
 40
0.2404440336
 40
0.3632479889
 40
0.4876766561
 40
0.6136706644
 40
0.7411715528
 40
0.8700344754
 40
1.0
 40
1.0
 40
1.0
 40
1.0
 10
5.3097403182
 20
5.0398248742
 30
0.0
 10
5.3057878923
 20
5.0276092783
 30
0.0
 10
5.300251683
 20
5.0090104666
 30
0.0
 10
5.2936482101
 20
4.9838196515
 30
0.0
 10
5.2890134265
 20
4.9644349603
 30
0.0
 10
5.2847441016
 20
4.9447100513
 30
0.0
 10
5.2808528265
 20
4.9246657512
 30
0.0
 10
5.2773552933
 20
4.9043338803
 30
0.0
 10
5.2753072543
 20
4.8906643721
 30
0.0
 10
5.2743542577
 20
4.8837902897
 30
0.0
 11
5.3097403182
 21
5.0398248742
 31
0.0
 11
5.2987293419
 21
5.0029149771
 31
0.0
 11
5.2937386825
 21
4.9838862901
 31
0.0
 11
5.2891021934
 21
4.9645005125
 31
0.0
 11
5.2848312457
 21
4.9447742945
 31
0.0
 11
5.2809379507
 21
4.9247241248
 31
0.0
 11
5.2774384474
 21
4.9043800607
 31
0.0
 11
5.2743542577
 21
4.8837902897
 31
0.0
  0
SPLINE
  5
50C
100
AcDbEntity
  8
0
100
AcDbSpline
 62
9
  6
CONTINUOUS
 70
0
 71
3
 72
10
 73
6
 74
4
 42
0.0000001
 43
0.0000001
 44
0.0000000001
 12
-0.0129335173
 22
0.006890181
 32
0.0
 13
-0.0143015908
 23
0.0031960857
 33
0.0
 40
0.0
 40
0.0
 40
0.0
 40
0.0
 40
0.5099167038
 40
0.7571077966
 40
1.0
 40
1.0
 40
1.0
 40
1.0
 10
5.4785468504
 20
5.459658529
 30
0.0
 10
5.4763485116
 20
5.4608296684
 30
0.0
 10
5.4729785736
 20
5.4623848662
 30
0.0
 10
5.4683550699
 20
5.4639698846
 30
0.0
 10
5.4660378829
 20
5.4645821376
 30
0.0
 10
5.464879968
 20
5.4648409057
 30
0.0
 11
5.4785468504
 21
5.459658529
 31
0.0
 11
5.4717499441
 21
5.4627634308
 31
0.0
 11
5.4683221468
 21
5.4639348391
 31
0.0
 11
5.464879968
 21
5.4648409057
 31
0.0
  0
SPLINE
  5
50D
100
AcDbEntity
  8
0
100
AcDbSpline
 62
9
  6
CONTINUOUS
 70
0
 71
3
 72
9
 73
5
 74
3
 42
0.0000001
 43
0.0000001
 44
0.0000000001
 12
-0.009185949
 22
0.0020528542
 32
0.0
 13
-0.0094125379
 23
0.0
 33
0.0
 40
0.0
 40
0.0
 40
0.0
 40
0.0
 40
0.5025924168
 40
1.0
 40
1.0
 40
1.0
 40
1.0
 10
5.464879968
 20
5.4648409057
 30
0.0
 10
5.4633410385
 20
5.465184822
 30
0.0
 10
5.4602415888
 20
5.4657129008
 30
0.0
 10
5.457101681
 20
5.4658955058
 30
0.0
 10
5.4555410584
 20
5.4658955058
 30
0.0
 11
5.464879968
 21
5.4648409057
 31
0.0
 11
5.460215299
 21
5.4656283724
 31
0.0
 11
5.4555410584
 21
5.4658955058
 31
0.0
  0
LINE
  5
50E
100
AcDbEntity
  8
0
100
AcDbLine
 62
9
  6
CONTINUOUS
 10
5.4666348667
 20
5.4663048059
 11
5.4652825348
 21
5.4662586658
  0
SPLINE
  5
50F
100
AcDbEntity
  8
0
100
AcDbSpline
 62
9
  6
CONTINUOUS
 70
0
 71
3
 72
11
 73
7
 74
5
 42
0.0000001
 43
0.0000001
 44
0.0000000001
 12
-0.0275266978
 22
0.0125893475
 32
0.0
 13
-0.0302689736
 23
0.0
 33
0.0
 40
0.0
 40
0.0
 40
0.0
 40
0.0
 40
0.2715449169
 40
0.527832589
 40
0.7700206389
 40
1.0
 40
1.0
 40
1.0
 40
1.0
 10
5.2329283992
 20
5.4265927048
 30
0.0
 10
5.2304368209
 20
5.4277322293
 30
0.0
 10
5.2255050658
 20
5.4297618261
 30
0.0
 10
5.2180685196
 20
5.4320534419
 30
0.0
 10
5.2108409917
 20
5.4334675921
 30
0.0
 10
5.2060727829
 20
5.4338069068
 30
0.0
 10
5.2037523698
 20
5.4338069068
 30
0.0
 11
5.2329283992
 21
5.4265927048
 31
0.0
 11
5.2253186203
 21
5.4296990807
 31
0.0
 11
5.2178975475
 21
5.4319590564
 31
0.0
 11
5.2106978932
 21
5.4333394067
 31
0.0
 11
5.2037523698
 21
5.4338069068
 31
0.0
  0
LINE
  5
510
100
AcDbEntity
  8
0
100
AcDbLine
 62
9
  6
CONTINUOUS
 10
5.4555410584
 20
5.4658955058
 11
5.4539246409
 21
5.4658300882
  0
SPLINE
  5
511
100
AcDbEntity
  8
0
100
AcDbSpline
 62
9
  6
CONTINUOUS
 70
0
 71
3
 72
16
 73
12
 74
10
 42
0.0000001
 43
0.0000001
 44
0.0000000001
 12
-0.2523052753
 22
-0.0103599432
 32
0.0
 13
-0.2468262724
 23
-0.0533110837
 33
0.0
 40
0.0
 40
0.0
 40
0.0
 40
0.0
 40
0.1049087104
 40
0.2185184019
 40
0.3393381361
 40
0.465894848
 40
0.5308700715
 40
0.596729609
 40
0.7303527478
 40
0.8652728597
 40
1.0
 40
1.0
 40
1.0
 40
1.0
 10
5.4539246409
 20
5.4658300882
 30
0.0
 10
5.4451016339
 20
5.4654678055
 30
0.0
 10
5.4267306921
 20
5.4645372771
 30
0.0
 10
5.3982345759
 20
5.4625595396
 30
0.0
 10
5.3679677481
 20
5.4598571621
 30
0.0
 10
5.3418339291
 20
5.4569603059
 30
0.0
 10
5.3203448652
 20
5.4541989978
 30
0.0
 10
5.2982995729
 20
5.4511109886
 30
0.0
 10
5.2704912096
 20
5.4467379146
 30
0.0
 10
5.2370809654
 20
5.4407256955
 30
0.0
 10
5.2148371024
 20
5.4362010568
 30
0.0
 10
5.2037523698
 20
5.4338069068
 30
0.0
 11
5.4539246409
 21
5.4658300882
 31
0.0
 11
5.4274669662
 21
5.4644952614
 31
0.0
 11
5.3988472411
 21
5.4625102823
 31
0.0
 11
5.3684592036
 21
5.4597945874
 31
0.0
 11
5.3366965914
 21
5.4562676139
 31
0.0
 11
5.3204228106
 21
5.454177872
 31
0.0
 11
5.3039527603
 21
5.4518717951
 31
0.0
 11
5.270619678
 21
5.4466331084
 31
0.0
 11
5.237088997
 21
5.4405964977
 31
0.0
 11
5.2037523698
 21
5.4338069068
 31
0.0
  0
SPLINE
  5
512
100
AcDbEntity
  8
0
100
AcDbSpline
 62
9
  6
CONTINUOUS
 70
0
 71
3
 72
14
 73
10
 74
8
 42
0.0000001
 43
0.0000001
 44
0.0000000001
 12
-0.0366200691
 22
0.0102037779
 32
0.0
 13
-0.0380150832
 23
0.0
 33
0.0
 40
0.0
 40
0.0
 40
0.0
 40
0.0
 40
0.276015026
 40
0.4078317234
 40
0.5353284383
 40
0.6583844464
 40
0.7768971905
 40
0.8907865207
 40
1.0
 40
1.0
 40
1.0
 40
1.0
 10
5.0682369392
 20
5.2695865967
 30
0.0
 10
5.0648677094
 20
5.2705253954
 30
0.0
 10
5.0598542491
 20
5.2717928303
 30
0.0
 10
5.0532115599
 20
5.2731715888
 30
0.0
 10
5.0484388442
 20
5.2740118303
 30
0.0
 10
5.0438080015
 20
5.2746713801
 30
0.0
 10
5.0393278977
 20
5.275147378
 30
0.0
 10
5.0350076308
 20
5.2754369694
 30
0.0
 10
5.03218022
 20
5.2755052816
 30
0.0
 10
5.0307963001
 20
5.2755052816
 30
0.0
 11
5.0682369392
 21
5.2695865967
 31
0.0
 11
5.0580600185
 21
5.272141544
 31
0.0
 11
5.0531530416
 21
5.2731573815
 31
0.0
 11
5.0483791638
 21
5.2739949639
 31
0.0
 11
5.0437474681
 21
5.2746514182
 31
0.0
 11
5.039267037
 21
5.2751238714
 31
0.0
 11
5.0349469535
 21
5.2754094502
 31
0.0
 11
5.0307963001
 21
5.2755052816
 31
0.0
  0
SPLINE
  5
513
100
AcDbEntity
  8
0
100
AcDbSpline
 62
9
  6
CONTINUOUS
 70
0
 71
3
 72
25
 73
21
 74
19
 42
0.0000001
 43
0.0000001
 44
0.0000000001
 12
-0.2253321176
 22
-0.061322908
 32
0.0
 13
-0.097028083
 23
-0.2124161326
 33
0.0
 40
0.0
 40
0.0
 40
0.0
 40
0.0
 40
0.1064287741
 40
0.1617438332
 40
0.218439295
 40
0.2765187649
 40
0.3359926967
 40
0.3662616005
 40
0.3968872517
 40
0.4278738058
 40
0.4592250728
 40
0.490936179
 40
0.5229967338
 40
0.5881115195
 40
0.6544649181
 40
0.7219296708
 40
0.7903661981
 40
0.8596262697
 40
0.9295562432
 40
1.0
 40
1.0
 40
1.0
 40
1.0
 10
5.1946027356
 20
5.4315733277
 30
0.0
 10
5.1866087953
 20
5.4293978204
 30
0.0
 10
5.1746694411
 20
5.4252589253
 30
0.0
 10
5.1591833603
 20
5.4182209709
 30
0.0
 10
5.1474810258
 20
5.4120078602
 30
0.0
 10
5.1359016199
 20
5.4049290876
 30
0.0
 10
5.1264549558
 20
5.398345711
 30
0.0
 10
5.119011939
 20
5.3926523006
 30
0.0
 10
5.1134616419
 20
5.3881395779
 30
0.0
 10
5.1079834955
 20
5.3834096603
 30
0.0
 10
5.1025854833
 20
5.3784625609
 30
0.0
 10
5.0972720868
 20
5.3733039639
 30
0.0
 10
5.0902701927
 20
5.3661169736
 30
0.0
 10
5.0817610688
 20
5.3566407536
 30
0.0
 10
5.0720124102
 20
5.3446010599
 30
0.0
 10
5.0627091504
 20
5.3318922643
 30
0.0
 10
5.0538875796
 20
5.3185727385
 30
0.0
 10
5.0455837453
 20
5.3047004143
 30
0.0
 10
5.0378340485
 20
5.2903338092
 30
0.0
 10
5.033074641
 20
5.2804930784
 30
0.0
 10
5.0307963001
 20
5.2755052816
 30
0.0
 11
5.1946027356
 21
5.4315733277
 31
0.0
 11
5.1711010555
 21
5.4234866558
 31
0.0
 11
5.1593384067
 21
5.4181477361
 31
0.0
 11
5.1476419927
 21
5.4119437001
 31
0.0
 11
5.1360673941
 21
5.4048735027
 31
0.0
 11
5.1246701913
 21
5.3969360985
 31
0.0
 11
5.1190554822
 21
5.3926418672
 31
0.0
 11
5.1135059648
 21
5.3881304422
 31
0.0
 11
5.1080285865
 21
5.3834016929
 31
0.0
 11
5.1026301015
 21
5.3784560911
 31
0.0
 11
5.0973157662
 21
5.3732987676
 31
0.0
 11
5.0920901392
 21
5.3679370256
 31
0.0
 11
5.0819232283
 21
5.3566295475
 31
0.0
 11
5.0721658057
 21
5.3445921794
 31
0.0
 11
5.0628543079
 21
5.331883444
 31
0.0
 11
5.0540251717
 21
5.3185618639
 31
0.0
 11
5.0457148339
 21
5.3046859617
 31
0.0
 11
5.0379597311
 21
5.2903142601
 31
0.0
 11
5.0307963001
 21
5.2755052816
 31
0.0
  0
SPLINE
  5
514
100
AcDbEntity
  8
0
100
AcDbSpline
 62
9
  6
CONTINUOUS
 70
0
 71
3
 72
13
 73
9
 74
7
 42
0.0000001
 43
0.0000001
 44
0.0000000001
 12
-0.0471421778
 22
0.0010706373
 32
0.0
 13
-0.0471543338
 23
0.0
 33
0.0
 40
0.0
 40
0.0
 40
0.0
 40
0.0
 40
0.1767626777
 40
0.328995834
 40
0.4619486774
 40
0.5808698962
 40
0.7949593578
 40
1.0
 40
1.0
 40
1.0
 40
1.0
 10
4.9987397733
 20
4.8950591902
 30
0.0
 10
4.9959621141
 20
4.8951222731
 30
0.0
 10
4.9907921144
 20
4.8952337045
 30
0.0
 10
4.983532419
 20
4.8953697637
 30
0.0
 10
4.9771813987
 20
4.8954700728
 30
0.0
 10
4.9698579501
 20
4.8955654521
 30
0.0
 10
4.9614011905
 20
4.8956507247
 30
0.0
 10
4.9548132328
 20
4.8956733659
 30
0.0
 10
4.9515903811
 20
4.8956733659
 30
0.0
 11
4.9987397733
 21
4.8950591902
 31
0.0
 11
4.9904065612
 21
4.895237818
 31
0.0
 11
4.9832293564
 21
4.8953716792
 31
0.0
 11
4.9769608325
 21
4.8954705008
 31
0.0
 11
4.9713536635
 21
4.8955440095
 31
0.0
 11
4.961258881
 21
4.895640735
 31
0.0
 11
4.9515903811
 21
4.8956733659
 31
0.0
  0
SPLINE
  5
515
100
AcDbEntity
  8
0
100
AcDbSpline
 62
9
  6
CONTINUOUS
 70
0
 71
3
 72
15
 73
11
 74
9
 42
0.0000001
 43
0.0000001
 44
0.0000000001
 12
-0.162397684
 22
-0.3555247811
 32
0.0
 13
0.0
 23
-0.3908591533
 33
0.0
 40
0.0
 40
0.0
 40
0.0
 40
0.0
 40
0.1197519177
 40
0.2415251265
 40
0.3650850999
 40
0.4901691267
 40
0.6164955804
 40
0.7437722371
 40
0.8717039542
 40
1.0
 40
1.0
 40
1.0
 40
1.0
 10
5.0307963001
 20
5.2755052816
 30
0.0
 10
5.0243138221
 20
5.2613136902
 30
0.0
 10
5.0121160392
 20
5.2322827374
 30
0.0
 10
4.99624412
 20
5.1874181572
 30
0.0
 10
4.9826782537
 20
5.1410786839
 30
0.0
 10
4.9714678093
 20
5.0935056794
 30
0.0
 10
4.9626612537
 20
5.0449380322
 30
0.0
 10
4.9563076713
 20
4.9956148879
 30
0.0
 10
4.9524562769
 20
4.945777494
 30
0.0
 10
4.9515903811
 20
4.9123882261
 30
0.0
 10
4.9515903811
 20
4.8956729981
 30
0.0
 11
5.0307963001
 21
5.2755052816
 31
0.0
 11
5.0126354423
 21
5.2323660032
 31
0.0
 11
4.9967359171
 21
5.1875039835
 31
0.0
 11
4.9831470751
 21
5.1411606279
 31
0.0
 11
4.9719182667
 21
5.0935773418
 31
0.0
 11
4.9630988426
 21
5.0449955305
 31
0.0
 11
4.9567381533
 21
4.9956565992
 31
0.0
 11
4.9528855493
 21
4.9458019533
 31
0.0
 11
4.9515903811
 21
4.8956729981
 31
0.0
  0
SPLINE
  5
516
100
AcDbEntity
  8
0
100
AcDbSpline
 62
9
  6
CONTINUOUS
 70
0
 71
3
 72
9
 73
5
 74
3
 42
0.0000001
 43
0.0000001
 44
0.0000000001
 12
-0.0084361396
 22
0.0
 32
0.0
 13
-0.0082979655
 23
-0.0015205988
 33
0.0
 40
0.0
 40
0.0
 40
0.0
 40
0.0
 40
0.5055298959
 40
1.0
 40
1.0
 40
1.0
 40
1.0
 10
5.2037523698
 20
5.4338069068
 30
0.0
 10
5.2023307962
 20
5.4338069068
 30
0.0
 10
5.1995172194
 20
5.433684308
 30
0.0
 10
5.1967261119
 20
5.4333067426
 30
0.0
 10
5.1953584133
 20
5.4330561123
 30
0.0
 11
5.2037523698
 21
5.4338069068
 31
0.0
 11
5.1994918441
 21
5.4336177927
 31
0.0
 11
5.1953584133
 21
5.4330561123
 31
0.0
  0
SPLINE
  5
517
100
AcDbEntity
  8
0
100
AcDbSpline
 62
9
  6
CONTINUOUS
 70
0
 71
3
 72
14
 73
10
 74
8
 42
0.0000001
 43
0.0000001
 44
0.0000000001
 12
-0.0270417186
 22
0.0
 32
0.0
 13
-0.0230606041
 23
-0.01412314
 33
0.0
 40
0.0
 40
0.0
 40
0.0
 40
0.0
 40
0.1469211095
 40
0.2872605023
 40
0.4211079167
 40
0.5486010355
 40
0.6699376899
 40
0.7853905164
 40
1.0
 40
1.0
 40
1.0
 40
1.0
 10
5.0307963001
 20
5.2755052816
 30
0.0
 10
5.029471967
 20
5.2755052816
 30
0.0
 10
5.0268820973
 20
5.2754453738
 30
0.0
 10
5.0230950114
 20
5.2751639272
 30
0.0
 10
5.0195026112
 20
5.2746957361
 30
0.0
 10
5.016113209
 20
5.2740436407
 30
0.0
 10
5.0129339185
 20
5.2732099434
 30
0.0
 10
5.00908238
 20
5.2718930313
 30
0.0
 10
5.0063814764
 20
5.2705969167
 30
0.0
 10
5.0047318017
 20
5.2695865967
 30
0.0
 11
5.0307963001
 21
5.2755052816
 31
0.0
 11
5.0268244568
 21
5.2754094502
 31
0.0
 11
5.0230401987
 21
5.2751238714
 31
0.0
 11
5.019451702
 21
5.2746514182
 31
0.0
 11
5.0160671428
 21
5.2739949639
 31
0.0
 11
5.012894697
 21
5.2731573815
 31
0.0
 11
5.0099425409
 21
5.272141544
 31
0.0
 11
5.0047318017
 21
5.2695865967
 31
0.0
  0
SPLINE
  5
518
100
AcDbEntity
  8
0
100
AcDbSpline
 62
9
  6
CONTINUOUS
 70
0
 71
3
 72
17
 73
13
 74
11
 42
0.0000001
 43
0.0000001
 44
0.0000000001
 12
-0.120975785
 22
-0.0909951245
 32
0.0
 13
-0.0647120175
 23
-0.1368488511
 33
0.0
 40
0.0
 40
0.0
 40
0.0
 40
0.0
 40
0.1157938444
 40
0.17489213
 40
0.2347749566
 40
0.2954124476
 40
0.3567698628
 40
0.481471534
 40
0.6085458472
 40
0.7376036904
 40
0.8682307721
 40
1.0
 40
1.0
 40
1.0
 40
1.0
 10
5.0970941433
 20
5.3877319248
 30
0.0
 10
5.0924247262
 20
5.3842196997
 30
0.0
 10
5.0855600388
 20
5.3786583519
 30
0.0
 10
5.0767612557
 20
5.3707235975
 30
0.0
 10
5.0702421498
 20
5.3644243083
 30
0.0
 10
5.0638558708
 20
5.3578311038
 30
0.0
 10
5.0554842211
 20
5.348616147
 30
0.0
 10
5.0454095403
 20
5.3364305698
 30
0.0
 10
5.0340454563
 20
5.3209217491
 30
0.0
 10
5.0234052708
 20
5.3045498419
 30
0.0
 10
5.0135540135
 20
5.2874188022
 30
0.0
 10
5.0075741525
 20
5.2755974192
 30
0.0
 10
5.0047318017
 20
5.2695865967
 30
0.0
 11
5.0970941433
 21
5.3877319248
 31
0.0
 11
5.083470646
 21
5.3767022852
 31
0.0
 11
5.0768253951
 21
5.3707127424
 31
0.0
 11
5.0703046828
 21
5.3644156534
 31
0.0
 11
5.0639166551
 21
5.3578239678
 31
0.0
 11
5.0576694458
 21
5.3509506736
 31
0.0
 11
5.0456300177
 21
5.3364112111
 31
0.0
 11
5.0342514689
 21
5.3209011688
 31
0.0
 11
5.0235988697
 21
5.3045244502
 31
0.0
 11
5.0137372905
 21
5.2873849584
 31
0.0
 11
5.0047318017
 21
5.2695865967
 31
0.0
  0
SPLINE
  5
519
100
AcDbEntity
  8
0
100
AcDbSpline
 62
9
  6
CONTINUOUS
 70
0
 71
3
 72
62
 73
58
 74
56
 42
0.0000001
 43
0.0000001
 44
0.0000000001
 12
0.1796999778
 22
-0.1687552331
 32
0.0
 13
0.0014744898
 23
0.2465121429
 33
0.0
 40
0.0
 40
0.0
 40
0.0
 40
0.0
 40
0.0328261727
 40
0.0652642888
 40
0.0813268447
 40
0.0972719659
 40
0.1130873594
 40
0.1287634309
 40
0.1442936584
 40
0.1596690125
 40
0.1748499789
 40
0.1897938623
 40
0.2044713871
 40
0.2188698901
 40
0.2329923782
 40
0.2468393147
 40
0.2604161952
 40
0.2737403508
 40
0.2803187841
 40
0.2868474868
 40
0.2998001336
 40
0.3127066793
 40
0.325645389
 40
0.3386641774
 40
0.3452117781
 40
0.3517857096
 40
0.3650194863
 40
0.3783829903
 40
0.405535681
 40
0.4193384085
 40
0.4332933427
 40
0.4616758556
 40
0.476109754
 40
0.4907032857
 40
0.505455221
 40
0.5203661164
 40
0.5506659716
 40
0.5816096776
 40
0.6132014858
 40
0.6292426855
 40
0.6454438868
 40
0.6618036787
 40
0.6783213457
 40
0.7117938072
 40
0.7458269608
 40
0.7804153516
 40
0.7979238962
 40
0.8155776567
 40
0.8333792535
 40
0.8513318639
 40
0.8694390337
 40
0.8877020406
 40
0.9061188721
 40
0.9246816721
 40
0.9621815039
 40
0.9810685122
 40
1.0
 40
1.0
 40
1.0
 40
1.0
 10
5.4563694317
 20
5.1901341951
 30
0.0
 10
5.4583357193
 20
5.1882876657
 30
0.0
 10
5.4623282818
 20
5.1847038049
 30
0.0
 10
5.4675147354
 20
5.180484702
 30
0.0
 10
5.4717513864
 20
5.1773065502
 30
0.0
 10
5.4749598071
 20
5.1750364844
 30
0.0
 10
5.4782084319
 20
5.1728811578
 30
0.0
 10
5.4814958131
 20
5.1708493503
 30
0.0
 10
5.4848202279
 20
5.1689504514
 30
0.0
 10
5.4881765348
 20
5.1671942805
 30
0.0
 10
5.4915607223
 20
5.1656018414
 30
0.0
 10
5.4949658663
 20
5.1641979765
 30
0.0
 10
5.4983839358
 20
5.1630078052
 30
0.0
 10
5.5018067749
 20
5.1620566802
 30
0.0
 10
5.5052234197
 20
5.1613710218
 30
0.0
 10
5.5086160381
 20
5.1609588837
 30
0.0
 10
5.511965711
 20
5.1608282338
 30
0.0
 10
5.5147176736
 20
5.1609616806
 30
0.0
 10
5.5168750351
 20
5.1612189897
 30
0.0
 10
5.5189873144
 20
5.1615754835
 30
0.0
 10
5.5215766724
 20
5.1622083688
 30
0.0
 10
5.5245984817
 20
5.1632356407
 30
0.0
 10
5.5275354124
 20
5.1644970166
 30
0.0
 10
5.5299147788
 20
5.165714612
 30
0.0
 10
5.5317838267
 20
5.1667735837
 30
0.0
 10
5.5336402388
 20
5.1678892736
 30
0.0
 10
5.5359241987
 20
5.169379075
 30
0.0
 10
5.5395108406
 20
5.1719586174
 30
0.0
 10
5.5429667612
 20
5.1747918211
 30
0.0
 10
5.5463018405
 20
5.1778316992
 30
0.0
 10
5.5496098334
 20
5.1810480838
 30
0.0
 10
5.552807059
 20
5.1844489871
 30
0.0
 10
5.5559077177
 20
5.1880047108
 30
0.0
 10
5.5582100166
 20
5.1907693714
 30
0.0
 10
5.5604769411
 20
5.1936133546
 30
0.0
 10
5.563465065
 20
5.197531539
 30
0.0
 10
5.5671001485
 20
5.2026277332
 30
0.0
 10
5.5712684272
 20
5.2090192628
 30
0.0
 10
5.5745631044
 20
5.214574808
 30
0.0
 10
5.577090028
 20
5.2191718459
 30
0.0
 10
5.5789305083
 20
5.2227166884
 30
0.0
 10
5.5806977891
 20
5.2263422945
 30
0.0
 10
5.5829546575
 20
5.2313058791
 30
0.0
 10
5.5855296606
 20
5.2377181352
 30
0.0
 10
5.5880879312
 20
5.245715318
 30
0.0
 10
5.5897740185
 20
5.2525949175
 30
0.0
 10
5.5908664189
 20
5.2582221896
 30
0.0
 10
5.591562933
 20
5.2625189631
 30
0.0
 10
5.5921391497
 20
5.2668701828
 30
0.0
 10
5.5926039278
 20
5.271272072
 30
0.0
 10
5.5929715326
 20
5.2757210594
 30
0.0
 10
5.5932548893
 20
5.2802143401
 30
0.0
 10
5.5934668651
 20
5.2847489599
 30
0.0
 10
5.5936711816
 20
5.2908658324
 30
0.0
 10
5.5937771491
 20
5.297024044
 30
0.0
 10
5.5938302313
 20
5.303212872
 30
0.0
 10
5.5938476788
 20
5.3063204576
 30
0.0
 10
5.5938569836
 20
5.3078760715
 30
0.0
 11
5.4563694317
 21
5.1901341951
 31
0.0
 11
5.4623949104
 21
5.1847326003
 31
0.0
 11
5.4686017234
 21
5.1796907748
 31
0.0
 11
5.4717699856
 21
5.177315648
 31
0.0
 11
5.4749796707
 21
5.1750465933
 31
0.0
 11
5.4782293192
 21
5.1728925076
 31
0.0
 11
5.4815174706
 21
5.1708623023
 31
0.0
 11
5.4848426646
 21
5.1689648891
 31
0.0
 11
5.4882026926
 21
5.1672109141
 31
0.0
 11
5.491590797
 21
5.1656215735
 31
0.0
 11
5.4949985094
 21
5.1642220297
 31
0.0
 11
5.4984173586
 21
5.1630374522
 31
0.0
 11
5.5018388733
 21
5.1620930107
 31
0.0
 11
5.5052528891
 21
5.161411226
 31
0.0
 11
5.5086419075
 21
5.1610031444
 31
0.0
 11
5.5119864441
 21
5.1608767061
 31
0.0
 11
5.5152670149
 21
5.161039851
 31
0.0
 11
5.5168772242
 21
5.1612324985
 31
0.0
 11
5.5184641991
 21
5.1615004283
 31
0.0
 11
5.5215669773
 21
5.1622542741
 31
0.0
 11
5.5245810459
 21
5.1632733226
 31
0.0
 11
5.5275140787
 21
5.1645266806
 31
0.0
 11
5.5303737493
 21
5.1659834547
 31
0.0
 11
5.531778472
 21
5.1667784686
 31
0.0
 11
5.533167677
 21
5.1676129734
 31
0.0
 11
5.5359012715
 21
5.1693935229
 31
0.0
 11
5.5385770242
 21
5.1713152211
 31
0.0
 11
5.5437641704
 21
5.1755457802
 31
0.0
 11
5.5462801524
 21
5.1778365283
 31
0.0
 11
5.5487477177
 21
5.1802335187
 31
0.0
 11
5.5535491781
 21
5.1853227836
 31
0.0
 11
5.5558889014
 21
5.1880035383
 31
0.0
 11
5.558191772
 21
5.1907674363
 31
0.0
 11
5.5604586047
 21
5.1936110787
 31
0.0
 11
5.5626878588
 21
5.1965337151
 31
0.0
 11
5.5670269417
 21
5.2026135615
 31
0.0
 11
5.5711938487
 21
5.2090030326
 31
0.0
 11
5.5751660255
 21
5.2157017828
 31
0.0
 11
5.5770699874
 21
5.2191676704
 31
0.0
 11
5.5789095162
 21
5.2227126789
 31
0.0
 11
5.5806758676
 21
5.2263382499
 31
0.0
 11
5.5823595628
 21
5.2300457239
 31
0.0
 11
5.5854197269
 21
5.2377088114
 31
0.0
 11
5.5879814891
 21
5.2456978689
 31
0.0
 11
5.5900184804
 21
5.2539775886
 31
0.0
 11
5.5908422555
 21
5.258214393
 31
0.0
 11
5.5915402288
 21
5.2625100014
 31
0.0
 11
5.5921183775
 21
5.2668601388
 31
0.0
 11
5.5925859509
 21
5.2712609852
 31
0.0
 11
5.5929560988
 21
5.2757093288
 31
0.0
 11
5.5932419562
 21
5.280202378
 31
0.0
 11
5.5934562715
 21
5.2847373706
 31
0.0
 11
5.5936110615
 21
5.2893107893
 31
0.0
 11
5.5937857811
 21
5.2985534673
 31
0.0
 11
5.5938279039
 21
5.303209237
 31
0.0
 11
5.5938569836
 21
5.3078760715
 31
0.0
  0
SPLINE
  5
51A
100
AcDbEntity
  8
0
100
AcDbSpline
 62
9
  6
CONTINUOUS
 70
0
 71
3
 72
15
 73
11
 74
9
 42
0.0000001
 43
0.0000001
 44
0.0000000001
 12
0.1651600325
 22
-0.3492699123
 32
0.0
 13
0.0015378353
 23
-0.3863482148
 33
0.0
 40
0.0
 40
0.0
 40
0.0
 40
0.0
 40
0.1202169548
 40
0.2423069719
 40
0.3660392554
 40
0.4911579846
 40
0.6173915223
 40
0.7444607966
 40
0.87208716
 40
1.0
 40
1.0
 40
1.0
 40
1.0
 10
6.8550134242
 20
5.2695865967
 30
0.0
 10
6.8616317695
 20
5.2555905417
 30
0.0
 10
6.8741048401
 20
5.2269625271
 30
0.0
 10
6.8903949079
 20
5.1827010695
 30
0.0
 10
6.9043676891
 20
5.136993384
 30
0.0
 10
6.9159655813
 20
5.0900777361
 30
0.0
 10
6.9251319231
 20
5.0421899216
 30
0.0
 10
6.9318094235
 20
4.9935659155
 30
0.0
 10
6.9359406367
 20
4.9444439164
 30
0.0
 10
6.936958333
 20
4.9115317895
 30
0.0
 10
6.9370239026
 20
4.8950588237
 30
0.0
 11
6.8550134242
 21
5.2695865967
 31
0.0
 11
6.8735925427
 21
5.2270184768
 31
0.0
 11
6.8899073576
 21
5.182760131
 31
0.0
 11
6.9039003336
 21
5.1370498363
 31
0.0
 11
6.9155139357
 21
5.0901258698
 31
0.0
 11
6.9246906288
 21
5.0422265083
 31
0.0
 11
6.9313728777
 21
4.9935900288
 31
0.0
 11
6.9355031473
 21
4.9444547083
 31
0.0
 11
6.9370239026
 21
4.8950588237
 31
0.0
  0
SPLINE
  5
51B
100
AcDbEntity
  8
0
100
AcDbSpline
 62
6
  6
CONTINUOUS
 70
0
 71
3
 72
30
 73
26
 74
24
 42
0.0000001
 43
0.0000001
 44
0.0000000001
 12
0.0022568564
 22
0.0353255456
 32
0.0
 13
-0.035324522
 23
0.002272822
 33
0.0
 40
0.0
 40
0.0
 40
0.0
 40
0.0
 40
0.001527761
 40
0.003161541
 40
0.005004485
 40
0.0071307495
 40
0.0095900719
 40
0.0124156019
 40
0.0192464541
 40
0.027743801
 40
0.03797468
 40
0.049984479
 40
0.0638075182
 40
0.0794719429
 40
0.0970022049
 40
0.1164204199
 40
0.1377480611
 40
0.1862255754
 40
0.2426222647
 40
0.3071186823
 40
0.3798914893
 40
0.4611149154
 40
0.5509615941
 40
0.7572093129
 40
1.0
 40
1.0
 40
1.0
 40
1.0
 10
5.3092948483
 20
4.8796475774
 30
0.0
 10
5.3092959976
 20
4.8796655671
 30
0.0
 10
5.309292795
 20
4.8797033519
 30
0.0
 10
5.3092715002
 20
4.8797590764
 30
0.0
 10
5.3092344469
 20
4.879814344
 30
0.0
 10
5.3091819416
 20
4.8798694522
 30
0.0
 10
5.3091139502
 20
4.8799247201
 30
0.0
 10
5.3089947046
 20
4.8800038645
 30
0.0
 10
5.3088033306
 20
4.8801013723
 30
0.0
 10
5.3085233681
 20
4.8802139868
 30
0.0
 10
5.3081790031
 20
4.8803283872
 30
0.0
 10
5.3077695414
 20
4.8804445305
 30
0.0
 10
5.3072942098
 20
4.8805623131
 30
0.0
 10
5.3067523816
 20
4.8806816724
 30
0.0
 10
5.3061434371
 20
4.880802551
 30
0.0
 10
5.305466774
 20
4.880924918
 30
0.0
 10
5.3044282196
 20
4.881097475
 30
0.0
 10
5.3029548677
 20
4.8813141767
 30
0.0
 10
5.300972825
 20
4.8815701624
 30
0.0
 10
5.2987026723
 20
4.8818316302
 30
0.0
 10
5.2961384338
 20
4.8820983901
 30
0.0
 10
5.2932741243
 20
4.8823702414
 30
0.0
 10
5.2888389026
 20
4.8827572971
 30
0.0
 10
5.2824992447
 20
4.8832471459
 30
0.0
 10
5.2772130313
 20
4.8836055586
 30
0.0
 10
5.2743542096
 20
4.8837894986
 30
0.0
 11
5.3092948483
 21
4.8796475774
 31
0.0
 11
5.3092905088
 21
4.879701482
 31
0.0
 11
5.3092705799
 21
4.8797557716
 31
0.0
 11
5.3092349904
 21
4.8798104442
 31
0.0
 11
5.3091836693
 21
4.8798654978
 31
0.0
 11
5.3091165454
 21
4.8799209304
 31
0.0
 11
5.3090335475
 21
4.8799767402
 31
0.0
 11
5.3088196453
 21
4.880089483
 31
0.0
 11
5.3085413938
 21
4.8802037106
 31
0.0
 11
5.3081982239
 21
4.8803194072
 31
0.0
 11
5.3077895664
 21
4.8804365571
 31
0.0
 11
5.3073148524
 21
4.8805551445
 31
0.0
 11
5.3067735127
 21
4.8806751536
 31
0.0
 11
5.3061649784
 21
4.8807965688
 31
0.0
 11
5.3054886802
 21
4.8809193743
 31
0.0
 11
5.3047440168
 21
4.8810435542
 31
0.0
 11
5.303046697
 21
4.881295969
 31
0.0
 11
5.3010670955
 21
4.8815536769
 31
0.0
 11
5.2987992629
 21
4.8818165414
 31
0.0
 11
5.2962372497
 21
4.8820844257
 31
0.0
 11
5.2933751065
 21
4.8823571933
 31
0.0
 11
5.2902068838
 21
4.8826347076
 31
0.0
 11
5.2829284023
 21
4.8832034295
 31
0.0
 11
5.2743542096
 21
4.8837894986
 31
0.0
  0
LINE
  5
51C
100
AcDbEntity
  8
0
100
AcDbLine
 62
9
  6
CONTINUOUS
 10
6.3931103591
 20
5.4663048059
 11
6.3944626479
 21
5.4662586673
  0
LINE
  5
51D
100
AcDbEntity
  8
0
100
AcDbLine
 62
9
  6
CONTINUOUS
 10
6.4042041674
 20
5.4658955058
 11
6.4058205901
 21
5.465830088
  0
SPLINE
  5
51E
100
AcDbEntity
  8
0
100
AcDbSpline
 62
9
  6
CONTINUOUS
 70
0
 71
3
 72
16
 73
12
 74
10
 42
0.0000001
 43
0.0000001
 44
0.0000000001
 12
0.2523052701
 22
-0.0103599439
 32
0.0
 13
0.2468262673
 23
-0.0533110826
 33
0.0
 40
0.0
 40
0.0
 40
0.0
 40
0.0
 40
0.1049087117
 40
0.218518404
 40
0.3393381384
 40
0.4658948502
 40
0.5308700736
 40
0.5967296109
 40
0.7303527491
 40
0.8652728604
 40
1.0
 40
1.0
 40
1.0
 40
1.0
 10
6.4058205901
 20
5.465830088
 30
0.0
 10
6.414643597
 20
5.4654678052
 30
0.0
 10
6.4330145386
 20
5.4645372768
 30
0.0
 10
6.4615106544
 20
5.4625595392
 30
0.0
 10
6.4917774817
 20
5.4598571617
 30
0.0
 10
6.5179113002
 20
5.4569603055
 30
0.0
 10
6.5394003636
 20
5.4541989974
 30
0.0
 10
6.5614456553
 20
5.4511109883
 30
0.0
 10
6.5892540179
 20
5.4467379144
 30
0.0
 10
6.6226642613
 20
5.4407256954
 30
0.0
 10
6.6449081237
 20
5.4362010567
 30
0.0
 10
6.655992856
 20
5.4338069068
 30
0.0
 11
6.4058205901
 21
5.465830088
 31
0.0
 11
6.4322782646
 21
5.4644952611
 31
0.0
 11
6.4608979892
 21
5.462510282
 31
0.0
 11
6.4912860262
 21
5.459794587
 31
0.0
 11
6.5230486377
 21
5.4562676135
 31
0.0
 11
6.5393224182
 21
5.4541778716
 31
0.0
 11
6.555792468
 21
5.4518717947
 31
0.0
 11
6.5891255495
 21
5.4466331081
 31
0.0
 11
6.6226562296
 21
5.4405964976
 31
0.0
 11
6.655992856
 21
5.4338069068
 31
0.0
  0
SPLINE
  5
51F
100
AcDbEntity
  8
0
100
AcDbSpline
 62
9
  6
CONTINUOUS
 70
0
 71
3
 72
34
 73
30
 74
28
 42
0.0000001
 43
0.0000001
 44
0.0000000001
 12
0.0109191683
 22
0.0268343497
 32
0.0
 13
-0.0289528464
 23
0.0010213952
 33
0.0
 40
0.0
 40
0.0
 40
0.0
 40
0.0
 40
0.0003057792
 40
0.0006104006
 40
0.0013589179
 40
0.0024435573
 40
0.0039312394
 40
0.005848402
 40
0.0082081423
 40
0.0110182652
 40
0.0142841172
 40
0.0180097605
 40
0.0221985241
 40
0.031976481
 40
0.0436383572
 40
0.0572019182
 40
0.0726837406
 40
0.0900997228
 40
0.1094653895
 40
0.1307977927
 40
0.1794400291
 40
0.2361810467
 40
0.3011743757
 40
0.3745729147
 40
0.4565291719
 40
0.547195402
 40
0.646723687
 40
0.7552659879
 40
1.0
 40
1.0
 40
1.0
 40
1.0
 10
5.2885255241
 20
4.8112804333
 30
0.0
 10
5.2885266371
 20
4.8112831684
 30
0.0
 10
5.2885280037
 20
4.8112890684
 30
0.0
 10
5.2885256467
 20
4.8113023096
 30
0.0
 10
5.2885115769
 20
4.8113187572
 30
0.0
 10
5.2884844288
 20
4.8113358183
 30
0.0
 10
5.2884446395
 20
4.8113534414
 30
0.0
 10
5.2883918877
 20
4.8113712774
 30
0.0
 10
5.2883258794
 20
4.8113894846
 30
0.0
 10
5.288246527
 20
4.8114079637
 30
0.0
 10
5.2881537387
 20
4.8114267194
 30
0.0
 10
5.2880474521
 20
4.8114457329
 30
0.0
 10
5.2878787542
 20
4.8114728371
 30
0.0
 10
5.2876335632
 20
4.8115067178
 30
0.0
 10
5.2872978915
 20
4.8115466447
 30
0.0
 10
5.2869069114
 20
4.8115875929
 30
0.0
 10
5.2864601969
 20
4.8116295592
 30
0.0
 10
5.2859573185
 20
4.8116725269
 30
0.0
 10
5.2853978358
 20
4.8117165013
 30
0.0
 10
5.2845373626
 20
4.8117792584
 30
0.0
 10
5.283316286
 20
4.8118593799
 30
0.0
 10
5.2816737992
 20
4.8119560086
 30
0.0
 10
5.2797921036
 20
4.8120568549
 30
0.0
 10
5.2776668058
 20
4.8121619786
 30
0.0
 10
5.2752935112
 20
4.812271427
 30
0.0
 10
5.2726678279
 20
4.8123852627
 30
0.0
 10
5.2697853648
 20
4.8125035559
 30
0.0
 10
5.2654159829
 20
4.8126742424
 30
0.0
 10
5.2620066669
 20
4.8127984953
 30
0.0
 10
5.2596447515
 20
4.8128818187
 30
0.0
 11
5.2885255241
 21
4.8112804333
 31
0.0
 11
5.2885273977
 21
4.8112890916
 31
0.0
 11
5.2885259895
 21
4.8112978037
 31
0.0
 11
5.288513302
 21
4.8113153899
 31
0.0
 11
5.2884874092
 21
4.8113331932
 31
0.0
 11
5.2884482585
 21
4.8113512151
 31
0.0
 11
5.2883957977
 21
4.8113694569
 31
0.0
 11
5.2883299744
 21
4.8113879198
 31
0.0
 11
5.288250736
 21
4.8114066053
 31
0.0
 11
5.2881580304
 21
4.8114255148
 31
0.0
 11
5.2880518049
 21
4.8114446495
 31
0.0
 11
5.2879320073
 21
4.8114640108
 31
0.0
 11
5.287651486
 21
4.8115034186
 31
0.0
 11
5.2873160473
 21
4.8115437491
 31
0.0
 11
5.2869252719
 21
4.811585013
 31
0.0
 11
5.2864787406
 21
4.8116272212
 31
0.0
 11
5.2859760343
 21
4.8116703843
 31
0.0
 11
5.2854167326
 21
4.8117145132
 31
0.0
 11
5.2848003627
 21
4.8117596183
 31
0.0
 11
5.2833942393
 21
4.8118527964
 31
0.0
 11
5.2817532797
 21
4.811949997
 31
0.0
 11
5.2798730942
 21
4.8120512984
 31
0.0
 11
5.2777492934
 21
4.8121567791
 31
0.0
 11
5.2753774877
 21
4.8122665174
 31
0.0
 11
5.2727532876
 21
4.8123805919
 31
0.0
 11
5.2698723034
 21
4.8124990809
 31
0.0
 11
5.2667301457
 21
4.8126220627
 31
0.0
 11
5.2596447515
 21
4.8128818187
 31
0.0
  0
SPLINE
  5
520
100
AcDbEntity
  8
0
100
AcDbSpline
 62
9
  6
CONTINUOUS
 70
0
 71
3
 72
14
 73
10
 74
8
 42
0.0000001
 43
0.0000001
 44
0.0000000001
 12
-0.0230606041
 22
0.01412314
 32
0.0
 13
-0.0270417186
 23
0.0
 33
0.0
 40
0.0
 40
0.0
 40
0.0
 40
0.0
 40
0.2146094836
 40
0.3300623101
 40
0.4513989645
 40
0.5788920833
 40
0.7127394977
 40
0.8530788905
 40
1.0
 40
1.0
 40
1.0
 40
1.0
 10
6.8550134242
 20
5.2695865967
 30
0.0
 10
6.8533637494
 20
5.2705969167
 30
0.0
 10
6.8506628458
 20
5.2718930313
 30
0.0
 10
6.8468113073
 20
5.2732099434
 30
0.0
 10
6.8436320168
 20
5.2740436407
 30
0.0
 10
6.8402426146
 20
5.2746957361
 30
0.0
 10
6.8366502144
 20
5.2751639272
 30
0.0
 10
6.8328631285
 20
5.2754453738
 30
0.0
 10
6.8302732588
 20
5.2755052816
 30
0.0
 10
6.8289489257
 20
5.2755052816
 30
0.0
 11
6.8550134242
 21
5.2695865967
 31
0.0
 11
6.8498026849
 21
5.272141544
 31
0.0
 11
6.8468505288
 21
5.2731573815
 31
0.0
 11
6.8436780831
 21
5.2739949639
 31
0.0
 11
6.8402935238
 21
5.2746514182
 31
0.0
 11
6.8367050271
 21
5.2751238714
 31
0.0
 11
6.8329207691
 21
5.2754094502
 31
0.0
 11
6.8289489257
 21
5.2755052816
 31
0.0
  0
LINE
  5
521
100
AcDbEntity
  8
0
100
AcDbLine
 62
9
  6
CONTINUOUS
 10
5.2424578966
 20
4.7357707296
 11
5.2198185537
 21
4.7363935795
  0
LINE
  5
522
100
AcDbEntity
  8
0
100
AcDbLine
 62
9
  6
CONTINUOUS
 10
5.2450316639
 20
4.7388237963
 11
5.2220700756
 21
4.7394351416
  0
SPLINE
  5
523
100
AcDbEntity
  8
0
100
AcDbSpline
 62
9
  6
CONTINUOUS
 70
0
 71
3
 72
25
 73
21
 74
19
 42
0.0000001
 43
0.0000001
 44
0.0000000001
 12
0.2253321615
 22
-0.0613228751
 32
0.0
 13
0.097028097
 23
-0.2124161632
 33
0.0
 40
0.0
 40
0.0
 40
0.0
 40
0.0
 40
0.10642877
 40
0.1617438275
 40
0.2184392879
 40
0.2765187568
 40
0.3359926879
 40
0.3662615913
 40
0.3968872422
 40
0.4278737962
 40
0.4592250631
 40
0.4909361692
 40
0.5229967241
 40
0.5881115103
 40
0.6544649097
 40
0.7219296636
 40
0.7903661924
 40
0.8596262657
 40
0.9295562412
 40
1.0
 40
1.0
 40
1.0
 40
1.0
 10
6.6651424577
 20
5.4315733366
 30
0.0
 10
6.6731363993
 20
5.4293978305
 30
0.0
 10
6.6850757554
 20
5.425258937
 30
0.0
 10
6.700561839
 20
5.418220984
 30
0.0
 10
6.7122641757
 20
5.4120078741
 30
0.0
 10
6.723843584
 20
5.404929102
 30
0.0
 10
6.73329025
 20
5.3983457256
 30
0.0
 10
6.7407332683
 20
5.3926523152
 30
0.0
 10
6.7462835666
 20
5.3881395923
 30
0.0
 10
6.7517617142
 20
5.3834096747
 30
0.0
 10
6.7571597277
 20
5.378462575
 30
0.0
 10
6.7624731252
 20
5.3733039776
 30
0.0
 10
6.7694750209
 20
5.3661169867
 30
0.0
 10
6.7779841467
 20
5.3566407658
 30
0.0
 10
6.7877328073
 20
5.3446010707
 30
0.0
 10
6.7970360692
 20
5.3318922734
 30
0.0
 10
6.8058576418
 20
5.3185727456
 30
0.0
 10
6.8141614778
 20
5.3047004192
 30
0.0
 10
6.8219111761
 20
5.2903338117
 30
0.0
 10
6.8266705844
 20
5.2804930793
 30
0.0
 10
6.8289489257
 20
5.2755052816
 30
0.0
 11
6.6651424577
 21
5.4315733366
 31
0.0
 11
6.6886441416
 21
5.4234866678
 31
0.0
 11
6.7004067925
 21
5.4181477491
 31
0.0
 11
6.7121032088
 21
5.411943714
 31
0.0
 11
6.7236778097
 21
5.404873517
 31
0.0
 11
6.7350750149
 21
5.396936113
 31
0.0
 11
6.7406897252
 21
5.3926418817
 31
0.0
 11
6.7462392438
 21
5.3881304567
 31
0.0
 11
6.7517166232
 21
5.3834017073
 31
0.0
 11
6.7571151094
 21
5.3784561051
 31
0.0
 11
6.7624294458
 21
5.3732987813
 31
0.0
 11
6.767655074
 21
5.3679370389
 31
0.0
 11
6.7778219871
 21
5.3566295597
 31
0.0
 11
6.7875794118
 21
5.3445921902
 31
0.0
 11
6.7968909116
 21
5.3318834531
 31
0.0
 11
6.8057200496
 21
5.318561871
 31
0.0
 11
6.8140303891
 21
5.3046859666
 31
0.0
 11
6.8217854934
 21
5.2903142626
 31
0.0
 11
6.8289489257
 21
5.2755052816
 31
0.0
  0
SPLINE
  5
524
100
AcDbEntity
  8
0
100
AcDbSpline
 62
9
  6
CONTINUOUS
 70
0
 71
3
 72
34
 73
30
 74
28
 42
0.0000001
 43
0.0000001
 44
0.0000000001
 12
0.0141670454
 22
0.010262229
 32
0.0
 13
-0.0174901786
 23
0.0003349253
 33
0.0
 40
0.0
 40
0.0
 40
0.0
 40
0.0
 40
0.0005001577
 40
0.000700861
 40
0.0009473902
 40
0.0012785638
 40
0.0017111092
 40
0.0029060587
 40
0.0045605861
 40
0.0066846615
 40
0.0092835726
 40
0.0123607677
 40
0.0159188315
 40
0.0199598912
 40
0.029498198
 40
0.0409890715
 40
0.0544444908
 40
0.0698758206
 40
0.0872940855
 40
0.1067101067
 40
0.1281345759
 40
0.1515781747
 40
0.1770535665
 40
0.2341591644
 40
0.2995706417
 40
0.373407052
 40
0.5468299978
 40
0.7553779954
 40
1.0
 40
1.0
 40
1.0
 40
1.0
 10
5.2048989327
 20
4.7012058873
 30
0.0
 10
5.2049012946
 20
4.7012075982
 30
0.0
 10
5.2049048892
 20
4.7012108771
 30
0.0
 10
5.2049040782
 20
4.7012167096
 30
0.0
 10
5.2049011035
 20
4.7012203059
 30
0.0
 10
5.2048963133
 20
4.7012237631
 30
0.0
 10
5.2048860943
 20
4.7012289447
 30
0.0
 10
5.2048678841
 20
4.7012350283
 30
0.0
 10
5.2048397279
 20
4.7012419957
 30
0.0
 10
5.2048032041
 20
4.7012490751
 30
0.0
 10
5.2047582909
 20
4.7012562779
 30
0.0
 10
5.204704937
 20
4.7012635698
 30
0.0
 10
5.2046431188
 20
4.7012709478
 30
0.0
 10
5.2045437424
 20
4.7012814792
 30
0.0
 10
5.2043981312
 20
4.701294543
 30
0.0
 10
5.2041976248
 20
4.7013098197
 30
0.0
 10
5.2039626906
 20
4.7013253977
 30
0.0
 10
5.2036931453
 20
4.7013412703
 30
0.0
 10
5.2033888048
 20
4.7013574247
 30
0.0
 10
5.2030494871
 20
4.7013738558
 30
0.0
 10
5.20267501
 20
4.7013905591
 30
0.0
 10
5.202265179
 20
4.7014075338
 30
0.0
 10
5.201647398
 20
4.7014314459
 30
0.0
 10
5.2007849639
 20
4.7014617326
 30
0.0
 10
5.199640572
 20
4.7014979247
 30
0.0
 10
5.1978181037
 20
4.7015504707
 30
0.0
 10
5.1951610778
 20
4.7016177855
 30
0.0
 10
5.1915082371
 20
4.7016991707
 30
0.0
 10
5.1888662694
 20
4.7017519438
 30
0.0
 10
5.1874401085
 20
4.7017792538
 30
0.0
 11
5.2048989327
 21
4.7012058873
 31
0.0
 11
5.2049042889
 21
4.7012128056
 31
0.0
 11
5.2049038503
 21
4.7012162891
 31
0.0
 11
5.2049013302
 21
4.7012197888
 31
0.0
 11
5.2048967257
 21
4.7012233047
 31
0.0
 11
5.204890034
 21
4.7012268368
 31
0.0
 11
5.2048703776
 21
4.7012339496
 31
0.0
 11
5.2048423384
 21
4.7012411272
 31
0.0
 11
5.2048058938
 21
4.7012483697
 31
0.0
 11
5.2047610212
 21
4.7012556771
 31
0.0
 11
5.2047076978
 21
4.7012630493
 31
0.0
 11
5.2046459012
 21
4.7012704865
 31
0.0
 11
5.2045756085
 21
4.7012779886
 31
0.0
 11
5.204409445
 21
4.7012931877
 31
0.0
 11
5.204209026
 21
4.7013086467
 31
0.0
 11
5.2039741706
 21
4.7013243657
 31
0.0
 11
5.2037046978
 21
4.7013403449
 31
0.0
 11
5.2034004264
 21
4.7013565844
 31
0.0
 11
5.2030611755
 21
4.7013730844
 31
0.0
 11
5.202686764
 21
4.701389845
 31
0.0
 11
5.2022770095
 21
4.7014068663
 31
0.0
 11
5.2018316938
 21
4.7014241481
 31
0.0
 11
5.200833349
 21
4.7014594917
 31
0.0
 11
5.1996896594
 21
4.701495872
 31
0.0
 11
5.1983985526
 21
4.7015332855
 31
0.0
 11
5.1953657988
 21
4.7016111968
 31
0.0
 11
5.19171851
 21
4.7016931961
 31
0.0
 11
5.1874401085
 21
4.7017792538
 31
0.0
  0
SPLINE
  5
525
100
AcDbEntity
  8
0
100
AcDbSpline
 62
9
  6
CONTINUOUS
 70
0
 71
3
 72
15
 73
11
 74
9
 42
0.0000001
 43
0.0000001
 44
0.0000000001
 12
-0.0288094795
 22
0.0020191858
 32
0.0
 13
-0.0288801527
 23
0.0
 33
0.0
 40
0.0
 40
0.0
 40
0.0
 40
0.0
 40
0.1046329918
 40
0.2152889767
 40
0.3305468364
 40
0.4489687784
 40
0.5702740673
 40
0.6988467382
 40
0.8402382572
 40
1.0
 40
1.0
 40
1.0
 40
1.0
 10
6.9370238984
 20
4.8950591799
 30
0.0
 10
6.9360190911
 20
4.8951296044
 30
0.0
 10
6.9339498566
 20
4.8952494071
 30
0.0
 10
6.9307703573
 20
4.8953797367
 30
0.0
 10
6.9274568673
 20
4.8954757758
 30
0.0
 10
6.9240402559
 20
4.8955472919
 30
0.0
 10
6.9204951834
 20
4.8956044171
 30
0.0
 10
6.9167287432
 20
4.8956450026
 30
0.0
 10
6.9125919478
 20
4.8956688871
 30
0.0
 10
6.9096928259
 20
4.8956733556
 30
0.0
 10
6.9081548447
 20
4.8956733556
 30
0.0
 11
6.9370238984
 21
4.8950591799
 31
0.0
 11
6.9340073658
 21
4.8952378077
 31
0.0
 11
6.9308144089
 21
4.8953716689
 31
0.0
 11
6.9274872115
 21
4.8954704904
 31
0.0
 11
6.9240679578
 21
4.8955439992
 31
0.0
 11
6.9205650944
 21
4.8956002643
 31
0.0
 11
6.9168521165
 21
4.8956407247
 31
0.0
 11
6.9127687809
 21
4.8956651614
 31
0.0
 11
6.9081548447
 21
4.8956733556
 31
0.0
  0
SPLINE
  5
526
100
AcDbEntity
  8
0
100
AcDbSpline
 62
9
  6
CONTINUOUS
 70
0
 71
3
 72
15
 73
11
 74
9
 42
0.0000001
 43
0.0000001
 44
0.0000000001
 12
0.162397684
 22
-0.3555247811
 32
0.0
 13
0.0
 23
-0.3908591533
 33
0.0
 40
0.0
 40
0.0
 40
0.0
 40
0.0
 40
0.1197519177
 40
0.2415251265
 40
0.3650850999
 40
0.4901691267
 40
0.6164955804
 40
0.7437722371
 40
0.8717039542
 40
1.0
 40
1.0
 40
1.0
 40
1.0
 10
6.8289489257
 20
5.2755052816
 30
0.0
 10
6.8354314037
 20
5.2613136902
 30
0.0
 10
6.8476291866
 20
5.2322827374
 30
0.0
 10
6.8635011058
 20
5.1874181572
 30
0.0
 10
6.8770669722
 20
5.1410786839
 30
0.0
 10
6.8882774165
 20
5.0935056794
 30
0.0
 10
6.8970839721
 20
5.0449380322
 30
0.0
 10
6.9034375545
 20
4.9956148879
 30
0.0
 10
6.9072889489
 20
4.945777494
 30
0.0
 10
6.9081548447
 20
4.9123882261
 30
0.0
 10
6.9081548447
 20
4.8956729981
 30
0.0
 11
6.8289489257
 21
5.2755052816
 31
0.0
 11
6.8471097835
 21
5.2323660032
 31
0.0
 11
6.8630093087
 21
5.1875039835
 31
0.0
 11
6.8765981507
 21
5.1411606279
 31
0.0
 11
6.8878269591
 21
5.0935773418
 31
0.0
 11
6.8966463832
 21
5.0449955305
 31
0.0
 11
6.9030070726
 21
4.9956565992
 31
0.0
 11
6.9068596766
 21
4.9458019533
 31
0.0
 11
6.9081548447
 21
4.8956729981
 31
0.0
  0
SPLINE
  5
527
100
AcDbEntity
  8
0
100
AcDbSpline
 62
9
  6
CONTINUOUS
 70
0
 71
3
 72
9
 73
5
 74
3
 42
0.0000001
 43
0.0000001
 44
0.0000000001
 12
-0.009411784
 22
0.0
 32
0.0
 13
-0.0091852468
 23
-0.00205254
 33
0.0
 40
0.0
 40
0.0
 40
0.0
 40
0.0
 40
0.4974079721
 40
1.0
 40
1.0
 40
1.0
 40
1.0
 10
6.4042041674
 20
5.4658955058
 30
0.0
 10
6.4026436686
 20
5.4658955058
 30
0.0
 10
6.3995040126
 20
5.46571293
 30
0.0
 10
6.3964048052
 20
5.4651849338
 30
0.0
 10
6.3948659946
 20
5.4648410703
 30
0.0
 11
6.4042041674
 21
5.4658955058
 31
0.0
 11
6.3995302963
 21
5.4656284144
 31
0.0
 11
6.3948659946
 21
5.4648410703
 31
0.0
  0
SPLINE
  5
528
100
AcDbEntity
  8
0
100
AcDbSpline
 62
9
  6
CONTINUOUS
 70
0
 71
3
 72
10
 73
6
 74
4
 42
0.0000001
 43
0.0000001
 44
0.0000000001
 12
-0.0143023786
 22
-0.003196017
 32
0.0
 13
-0.0129341826
 23
-0.0068905354
 33
0.0
 40
0.0
 40
0.0
 40
0.0
 40
0.0
 40
0.2428919598
 40
0.4900829107
 40
1.0
 40
1.0
 40
1.0
 40
1.0
 10
6.3948659946
 20
5.4648410703
 30
0.0
 10
6.393708017
 20
5.4645823081
 30
0.0
 10
6.3913907039
 20
5.4639700559
 30
0.0
 10
6.3867669475
 20
5.4623849984
 30
0.0
 10
6.383396829
 20
5.4608297295
 30
0.0
 10
6.3811983754
 20
5.459658529
 30
0.0
 11
6.3948659946
 21
5.4648410703
 31
0.0
 11
6.3914236296
 21
5.4639350058
 31
0.0
 11
6.3879956471
 21
5.4627635698
 31
0.0
 11
6.3811983754
 21
5.459658529
 31
0.0
  0
SPLINE
  5
529
100
AcDbEntity
  8
0
100
AcDbSpline
 62
9
  6
CONTINUOUS
 70
0
 71
3
 72
11
 73
7
 74
5
 42
0.0000001
 43
0.0000001
 44
0.0000000001
 12
-0.0302689736
 22
0.0
 32
0.0
 13
-0.0275266978
 23
-0.0125893475
 33
0.0
 40
0.0
 40
0.0
 40
0.0
 40
0.0
 40
0.2299793611
 40
0.472167411
 40
0.7284550831
 40
1.0
 40
1.0
 40
1.0
 40
1.0
 10
6.655992856
 20
5.4338069068
 30
0.0
 10
6.6536724429
 20
5.4338069068
 30
0.0
 10
6.6489042341
 20
5.4334675921
 30
0.0
 10
6.6416767062
 20
5.4320534419
 30
0.0
 10
6.63424016
 20
5.4297618261
 30
0.0
 10
6.629308405
 20
5.4277322293
 30
0.0
 10
6.6268168267
 20
5.4265927048
 30
0.0
 11
6.655992856
 21
5.4338069068
 31
0.0
 11
6.6490473326
 21
5.4333394067
 31
0.0
 11
6.6418476783
 21
5.4319590564
 31
0.0
 11
6.6344266055
 21
5.4296990807
 31
0.0
 11
6.6268168267
 21
5.4265927048
 31
0.0
  0
SPLINE
  5
52A
100
AcDbEntity
  8
0
100
AcDbSpline
 62
9
  6
CONTINUOUS
 70
0
 71
3
 72
16
 73
12
 74
10
 42
0.0000001
 43
0.0000001
 44
0.0000000001
 12
0.2480118762
 22
-0.0094947714
 32
0.0
 13
0.2417978714
 23
-0.0559806289
 33
0.0
 40
0.0
 40
0.0
 40
0.0
 40
0.0
 40
0.106438163
 40
0.2210566262
 40
0.3424108072
 40
0.4690739774
 40
0.5339563882
 40
0.5996308762
 40
0.7326173137
 40
0.8665631821
 40
1.0
 40
1.0
 40
1.0
 40
1.0
 10
6.3811983754
 20
5.459658529
 30
0.0
 10
6.3899976849
 20
5.4593216603
 30
0.0
 10
6.4082652164
 20
5.4584169891
 30
0.0
 10
6.4365244027
 20
5.4564129312
 30
0.0
 10
6.4663990623
 20
5.4536322143
 30
0.0
 10
6.4921140071
 20
5.4506320141
 30
0.0
 10
6.5132011023
 20
5.4477685968
 30
0.0
 10
6.5347686322
 20
5.4445680031
 30
0.0
 10
6.5619121311
 20
5.4400319565
 30
0.0
 10
6.5944443333
 20
5.4337880359
 30
0.0
 10
6.6160619138
 20
5.4290826638
 30
0.0
 10
6.6268168267
 20
5.4265927048
 30
0.0
 11
6.3811983754
 21
5.459658529
 31
0.0
 11
6.4075837204
 21
5.458360252
 31
0.0
 11
6.4359602596
 21
5.4563512911
 31
0.0
 11
6.4659498633
 21
5.4535588997
 31
0.0
 11
6.4971744022
 21
5.4499103313
 31
0.0
 11
6.5131315238
 21
5.4477447734
 31
0.0
 11
6.5292550827
 21
5.4453530477
 31
0.0
 11
6.5618104557
 21
5.4399153455
 31
0.0
 11
6.594458408
 21
5.4336457295
 31
0.0
 11
6.6268168267
 21
5.4265927048
 31
0.0
  0
SPLINE
  5
52B
100
AcDbEntity
  8
0
100
AcDbSpline
 62
9
  6
CONTINUOUS
 70
0
 71
3
 72
14
 73
10
 74
8
 42
0.0000001
 43
0.0000001
 44
0.0000000001
 12
-0.0380150832
 22
0.0
 32
0.0
 13
-0.0366200691
 23
-0.0102037779
 33
0.0
 40
0.0
 40
0.0
 40
0.0
 40
0.0
 40
0.1092134793
 40
0.2231028095
 40
0.3416155536
 40
0.4646715617
 40
0.5921682766
 40
0.723984974
 40
1.0
 40
1.0
 40
1.0
 40
1.0
 10
6.8289489257
 20
5.2755052816
 30
0.0
 10
6.8275650059
 20
5.2755052816
 30
0.0
 10
6.824737595
 20
5.2754369694
 30
0.0
 10
6.8204173281
 20
5.275147378
 30
0.0
 10
6.8159372243
 20
5.2746713801
 30
0.0
 10
6.8113063816
 20
5.2740118303
 30
0.0
 10
6.806533666
 20
5.2731715888
 30
0.0
 10
6.7998909768
 20
5.2717928303
 30
0.0
 10
6.7948775164
 20
5.2705253954
 30
0.0
 10
6.7915082866
 20
5.2695865967
 30
0.0
 11
6.8289489257
 21
5.2755052816
 31
0.0
 11
6.8247982723
 21
5.2754094502
 31
0.0
 11
6.8204781888
 21
5.2751238714
 31
0.0
 11
6.8159977577
 21
5.2746514182
 31
0.0
 11
6.811366062
 21
5.2739949639
 31
0.0
 11
6.8065921842
 21
5.2731573815
 31
0.0
 11
6.8016852073
 21
5.272141544
 31
0.0
 11
6.7915082866
 21
5.2695865967
 31
0.0
  0
SPLINE
  5
52C
100
AcDbEntity
  8
0
100
AcDbSpline
 62
9
  6
CONTINUOUS
 70
0
 71
3
 72
22
 73
18
 74
16
 42
0.0000001
 43
0.0000001
 44
0.0000000001
 12
0.2297891176
 22
-0.0532003828
 32
0.0
 13
0.0933772778
 23
-0.2165964064
 33
0.0
 40
0.0
 40
0.0
 40
0.0
 40
0.0
 40
0.104632533
 40
0.1592111009
 40
0.2152812537
 40
0.2728496798
 40
0.3319295234
 40
0.3925431784
 40
0.4547247139
 40
0.5184993109
 40
0.583798772
 40
0.6505078446
 40
0.7184905722
 40
0.7875957702
 40
0.8576616972
 40
0.9285201272
 40
1.0
 40
1.0
 40
1.0
 40
1.0
 10
6.6268168267
 20
5.4265927048
 30
0.0
 10
6.6348312991
 20
5.4247372079
 30
0.0
 10
6.6468341245
 20
5.4210000822
 30
0.0
 10
6.6624185392
 20
5.4143773808
 30
0.0
 10
6.6742324968
 20
5.4084086058
 30
0.0
 10
6.6859390526
 20
5.4015089283
 30
0.0
 10
6.6974779389
 20
5.3936762886
 30
0.0
 10
6.7087865695
 20
5.3849094848
 30
0.0
 10
6.7198015252
 20
5.3752078863
 30
0.0
 10
6.7304522227
 20
5.3645801449
 30
0.0
 10
6.7407050425
 20
5.3530879542
 30
0.0
 10
6.7505211835
 20
5.3407950996
 30
0.0
 10
6.7598605245
 20
5.3277669008
 30
0.0
 10
6.7686827703
 20
5.3140686112
 30
0.0
 10
6.7769475712
 20
5.2997654004
 30
0.0
 10
6.7846142574
 20
5.284923002
 30
0.0
 10
6.7892834213
 20
5.2747473579
 30
0.0
 10
6.7915082866
 20
5.2695865967
 30
0.0
 11
6.6268168267
 21
5.4265927048
 31
0.0
 11
6.6504014785
 21
5.4193238714
 31
0.0
 11
6.6622523969
 21
5.4142962098
 31
0.0
 11
6.6740594332
 21
5.4083382425
 31
0.0
 11
6.6857603797
 21
5.4014488629
 31
0.0
 11
6.6972930287
 21
5.3936269643
 31
0.0
 11
6.7085951725
 21
5.38487144
 31
0.0
 11
6.7196046033
 21
5.3751811833
 31
0.0
 11
6.7302626891
 21
5.3645662411
 31
0.0
 11
6.7405251016
 21
5.3530812746
 31
0.0
 11
6.750351088
 21
5.3407920986
 31
0.0
 11
6.7596998958
 21
5.3277645281
 31
0.0
 11
6.7685307721
 21
5.3140643778
 31
0.0
 11
6.7768029645
 21
5.2997574626
 31
0.0
 11
6.7844757202
 21
5.2849095973
 31
0.0
 11
6.7915082866
 21
5.2695865967
 31
0.0
  0
SPLINE
  5
52D
100
AcDbEntity
  8
0
100
AcDbSpline
 62
9
  6
CONTINUOUS
 70
0
 71
3
 72
13
 73
9
 74
7
 42
0.0000001
 43
0.0000001
 44
0.0000000001
 12
-0.047154332
 22
0.0
 32
0.0
 13
-0.0471421761
 23
-0.0010706368
 33
0.0
 40
0.0
 40
0.0
 40
0.0
 40
0.0
 40
0.2050406698
 40
0.4191301617
 40
0.538051388
 40
0.6710042274
 40
0.8232373634
 40
1.0
 40
1.0
 40
1.0
 40
1.0
 10
6.9081548447
 20
4.8956732988
 30
0.0
 10
6.9049319927
 20
4.8956732988
 30
0.0
 10
6.8983440344
 20
4.8956506576
 30
0.0
 10
6.889887274
 20
4.8955653849
 30
0.0
 10
6.8825638251
 20
4.8954700056
 30
0.0
 10
6.8762128054
 20
4.8953696966
 30
0.0
 10
6.8689531113
 20
4.8952336374
 30
0.0
 10
6.8637831128
 20
4.8951222061
 30
0.0
 10
6.8610054543
 20
4.8950591233
 30
0.0
 11
6.9081548447
 21
4.8956732988
 31
0.0
 11
6.8984863439
 21
4.8956406678
 31
0.0
 11
6.8883915603
 21
4.8955439423
 31
0.0
 11
6.8827843912
 21
4.8954704336
 31
0.0
 11
6.8765158677
 21
4.8953716121
 31
0.0
 11
6.8693386641
 21
4.8952377509
 31
0.0
 11
6.8610054543
 21
4.8950591233
 31
0.0
  0
SPLINE
  5
52E
100
AcDbEntity
  8
0
100
AcDbSpline
 62
9
  6
CONTINUOUS
 70
0
 71
3
 72
15
 73
11
 74
9
 42
0.0000001
 43
0.0000001
 44
0.0000000001
 12
0.1519083821
 22
-0.3523641985
 32
0.0
 13
-0.0079543772
 23
-0.3836318715
 33
0.0
 40
0.0
 40
0.0
 40
0.0
 40
0.0
 40
0.1193059327
 40
0.2407591601
 40
0.364128099
 40
0.4891510449
 40
0.6155456757
 40
0.7430175072
 40
0.8712676262
 40
1.0
 40
1.0
 40
1.0
 40
1.0
 10
6.7915082866
 20
5.2695865967
 30
0.0
 10
6.797549477
 20
5.2555735503
 30
0.0
 10
6.8088665275
 20
5.2269107924
 30
0.0
 10
6.8234348405
 20
5.1826495105
 30
0.0
 10
6.835719237
 20
5.1369429351
 30
0.0
 10
6.8456778587
 20
5.0900292821
 30
0.0
 10
6.8532696842
 20
5.0421442918
 30
0.0
 10
6.8584530789
 20
4.9935240148
 30
0.0
 10
6.8611863235
 20
4.9444065319
 30
0.0
 10
6.8613467909
 20
4.9115207709
 30
0.0
 10
6.8610054623
 20
4.8950588237
 30
0.0
 11
6.7915082866
 21
5.2695865967
 31
0.0
 11
6.8083519273
 21
5.2270184768
 31
0.0
 11
6.8229488602
 21
5.182760131
 31
0.0
 11
6.8352572257
 21
5.1370498363
 31
0.0
 11
6.8452351645
 21
5.0901258698
 31
0.0
 11
6.852840817
 21
5.0422265083
 31
0.0
 11
6.8580323238
 21
4.9935900288
 31
0.0
 11
6.8607678253
 21
4.9444547083
 31
0.0
 11
6.8610054623
 21
4.8950588237
 31
0.0
  0
SPLINE
  5
52F
100
AcDbEntity
  8
0
100
AcDbSpline
 62
9
  6
CONTINUOUS
 70
0
 71
3
 72
26
 73
22
 74
20
 42
0.0000001
 43
0.0000001
 44
0.0000000001
 12
-0.1549203886
 22
-0.0825320357
 32
0.0
 13
0.0
 23
-0.1755330844
 33
0.0
 40
0.0
 40
0.0
 40
0.0
 40
0.0
 40
0.0496325903
 40
0.0754808813
 40
0.1020266867
 40
0.1292689828
 40
0.1571977426
 40
0.1857953462
 40
0.2150377931
 40
0.2753266158
 40
0.3377901931
 40
0.4020938498
 40
0.467869261
 40
0.5347268458
 40
0.6022656387
 40
0.6700817172
 40
0.7377760317
 40
0.8049623625
 40
0.8712761015
 40
0.9363846078
 40
1.0
 40
1.0
 40
1.0
 40
1.0
 10
6.3811983754
 20
5.459658529
 30
0.0
 10
6.378635342
 20
5.4582931027
 30
0.0
 10
6.3748721248
 20
5.4559550961
 30
0.0
 10
6.3700740841
 20
5.4524009925
 30
0.0
 10
6.3664744616
 20
5.4494387301
 30
0.0
 10
6.3629290039
 20
5.4462284536
 30
0.0
 10
6.3594424526
 20
5.4427814156
 30
0.0
 10
6.3560200473
 20
5.4391092078
 30
0.0
 10
6.3515037632
 20
5.4338750817
 30
0.0
 10
6.3460639037
 20
5.4268298062
 30
0.0
 10
6.3399414507
 20
5.4177496763
 30
0.0
 10
6.334200159
 20
5.4080494107
 30
0.0
 10
6.3288821299
 20
5.3978208392
 30
0.0
 10
6.3240293689
 20
5.3871554854
 30
0.0
 10
6.3196840654
 20
5.3761451646
 30
0.0
 10
6.3158884239
 20
5.3648817254
 30
0.0
 10
6.3126846655
 20
5.3534569968
 30
0.0
 10
6.3101150176
 20
5.3419627944
 30
0.0
 10
6.3082217428
 20
5.3304904612
 30
0.0
 10
6.3070472138
 20
5.3191321306
 30
0.0
 10
6.3067681936
 20
5.3115982541
 30
0.0
 10
6.3067681936
 20
5.3078760521
 30
0.0
 11
6.3811983754
 21
5.459658529
 31
0.0
 11
6.3737786568
 21
5.4550923996
 31
0.0
 11
6.3701301791
 21
5.4523951661
 31
0.0
 11
6.3665297038
 21
5.4494372826
 31
0.0
 11
6.362982542
 21
5.4462303459
 31
0.0
 11
6.3594940047
 21
5.442785953
 31
0.0
 11
6.3560694029
 21
5.4391157008
 31
0.0
 11
6.3527140477
 21
5.4352311862
 31
0.0
 11
6.3462323212
 21
5.4268657572
 31
0.0
 11
6.3400913134
 21
5.4177824415
 31
0.0
 11
6.3343335127
 21
5.408074014
 31
0.0
 11
6.3290014073
 21
5.3978332501
 31
0.0
 11
6.3241374857
 21
5.387152925
 31
0.0
 11
6.3197842359
 21
5.3761258139
 31
0.0
 11
6.3159841465
 21
5.3648446919
 31
0.0
 11
6.3127797056
 21
5.3534023343
 31
0.0
 11
6.3102134015
 21
5.3418915163
 31
0.0
 11
6.3083277227
 21
5.3304050132
 31
0.0
 11
6.3071651572
 21
5.3190356
 31
0.0
 11
6.3067681936
 21
5.3078760521
 31
0.0
  0
SPLINE
  5
530
100
AcDbEntity
  8
0
100
AcDbSpline
 62
9
  6
CONTINUOUS
 70
0
 71
3
 72
29
 73
25
 74
23
 42
0.0000001
 43
0.0000001
 44
0.0000000001
 12
-0.2438966583
 22
-0.1115462451
 32
0.0
 13
-0.1338357743
 23
-0.2324137049
 33
0.0
 40
0.0
 40
0.0
 40
0.0
 40
0.0
 40
0.0212522427
 40
0.0432382417
 40
0.0659794866
 40
0.0894894794
 40
0.1137748871
 40
0.1388365452
 40
0.1646703209
 40
0.1912678483
 40
0.21861715
 40
0.246703162
 40
0.2755081758
 40
0.3050122111
 40
0.3660254228
 40
0.4295512766
 40
0.495374948
 40
0.5632676526
 40
0.6329885694
 40
0.7042870357
 40
0.7769045819
 40
0.8505764791
 40
0.9250329308
 40
1.0
 40
1.0
 40
1.0
 40
1.0
 10
6.6268168267
 20
5.4265927048
 30
0.0
 10
6.625089043
 20
5.4258025022
 30
0.0
 10
6.6216173981
 20
5.4240980996
 30
0.0
 10
6.6164550819
 20
5.4212404969
 30
0.0
 10
6.6112540158
 20
5.4180490316
 30
0.0
 10
6.6060172223
 20
5.4145334063
 30
0.0
 10
6.6007474895
 20
5.4107031691
 30
0.0
 10
6.59544772
 20
5.4065678862
 30
0.0
 10
6.5901208259
 20
5.4021371061
 30
0.0
 10
6.5847697522
 20
5.3974203775
 30
0.0
 10
6.5793974599
 20
5.3924272499
 30
0.0
 10
6.5740069388
 20
5.3871672756
 30
0.0
 10
6.568601146
 20
5.3816500144
 30
0.0
 10
6.561295493
 20
5.373876354
 30
0.0
 10
6.5521597842
 20
5.3635673626
 30
0.0
 10
6.5413030018
 20
5.350458811
 30
0.0
 10
6.5304568497
 20
5.336553211
 30
0.0
 10
6.519644252
 20
5.3219273556
 30
0.0
 10
6.5088879487
 20
5.3066577115
 30
0.0
 10
6.4982107275
 20
5.2908209129
 30
0.0
 10
6.4876353946
 20
5.274493667
 30
0.0
 10
6.477184763
 20
5.2577527464
 30
0.0
 10
6.4668816752
 20
5.2406750266
 30
0.0
 10
6.4601411683
 20
5.229141645
 30
0.0
 10
6.4567967431
 20
5.2233338536
 30
0.0
 11
6.6268168267
 21
5.4265927048
 31
0.0
 11
6.6216977244
 21
5.4240863725
 31
0.0
 11
6.6165360136
 21
5.421235817
 31
0.0
 11
6.6113347293
 21
5.4180506476
 31
0.0
 11
6.6060969066
 21
5.4145404738
 31
0.0
 11
6.6008255804
 21
5.4107149052
 31
0.0
 11
6.5955237858
 21
5.4065835512
 31
0.0
 11
6.590194558
 21
5.4021560213
 31
0.0
 11
6.5848409319
 21
5.3974419249
 31
0.0
 11
6.5794659426
 21
5.3924508716
 31
0.0
 11
6.5740726251
 21
5.3871924708
 31
0.0
 11
6.5686640146
 21
5.381676332
 31
0.0
 11
6.5632431461
 21
5.3759120647
 31
0.0
 11
6.5523767751
 21
5.3636775824
 31
0.0
 11
6.5414977926
 21
5.3505658998
 31
0.0
 11
6.530630227
 21
5.336653923
 31
0.0
 11
6.5197971004
 21
5.3220186796
 31
0.0
 11
6.5090211839
 21
5.3067372273
 31
0.0
 11
6.4983252487
 21
5.2908866239
 31
0.0
 11
6.4877320659
 21
5.2745439271
 31
0.0
 11
6.4772644066
 21
5.2577861946
 31
0.0
 11
6.466945042
 21
5.2406904842
 31
0.0
 11
6.4567967431
 21
5.2233338536
 31
0.0
  0
SPLINE
  5
531
100
AcDbEntity
  8
0
100
AcDbSpline
 62
9
  6
CONTINUOUS
 70
0
 71
3
 72
23
 73
19
 74
17
 42
0.0000001
 43
0.0000001
 44
0.0000000001
 12
-0.3050583578
 22
-0.085001143
 32
0.0
 13
-0.2362599891
 23
-0.2108720312
 33
0.0
 40
0.0
 40
0.0
 40
0.0
 40
0.0
 40
0.0464328163
 40
0.0954209511
 40
0.1469500869
 40
0.2009689129
 40
0.2573976563
 40
0.3161345088
 40
0.3770604651
 40
0.4400429806
 40
0.5049402932
 40
0.5716079713
 40
0.6398956843
 40
0.7096469916
 40
0.7807004186
 40
0.8528903132
 40
0.9260475328
 40
1.0
 40
1.0
 40
1.0
 40
1.0
 10
6.7915082866
 20
5.2695865967
 30
0.0
 10
6.7867867137
 20
5.2682709826
 30
0.0
 10
6.7771767086
 20
5.2652263886
 30
0.0
 10
6.7626823259
 20
5.2596809074
 30
0.0
 10
6.7477550133
 20
5.2530866493
 30
0.0
 10
6.7324289649
 20
5.2454956765
 30
0.0
 10
6.7167375914
 20
5.2369596149
 30
0.0
 10
6.7007150372
 20
5.2275302271
 30
0.0
 10
6.6843955934
 20
5.2172593137
 30
0.0
 10
6.6678136199
 20
5.2061986667
 30
0.0
 10
6.6510029566
 20
5.1943997015
 30
0.0
 10
6.6339952396
 20
5.1819154843
 30
0.0
 10
6.616821436
 20
5.1687986571
 30
0.0
 10
6.5995124213
 20
5.1551018188
 30
0.0
 10
6.5820991027
 20
5.1408776092
 30
0.0
 10
6.5646124002
 20
5.126178694
 30
0.0
 10
6.5470832792
 20
5.1110577965
 30
0.0
 10
6.5354432071
 20
5.100778402
 30
0.0
 10
6.529619204
 20
5.095580233
 30
0.0
 11
6.7915082866
 21
5.2695865967
 31
0.0
 11
6.7774809872
 21
5.2651761895
 31
0.0
 11
6.762981671
 21
5.2596589957
 31
0.0
 11
6.7480452006
 21
5.2530873979
 31
0.0
 11
6.7327064387
 21
5.2455137791
 31
0.0
 11
6.7170002479
 21
5.2369905221
 31
0.0
 11
6.7009614907
 21
5.2275700096
 31
0.0
 11
6.6846250299
 21
5.2173046245
 31
0.0
 11
6.6680257281
 21
5.2062467496
 31
0.0
 11
6.6511977969
 21
5.1944488461
 31
0.0
 11
6.6341728437
 21
5.1819636893
 31
0.0
 11
6.6169818246
 21
5.1688441327
 31
0.0
 11
6.5996556957
 21
5.1551430302
 31
0.0
 11
6.5822254131
 21
5.1409132352
 31
0.0
 11
6.5647219329
 21
5.1262076016
 31
0.0
 11
6.5471762112
 21
5.111078983
 31
0.0
 11
6.529619204
 21
5.095580233
 31
0.0
  0
SPLINE
  5
532
100
AcDbEntity
  8
0
100
AcDbSpline
 62
6
  6
CONTINUOUS
 70
0
 71
3
 72
16
 73
12
 74
10
 42
0.0000001
 43
0.0000001
 44
0.0000000001
 12
-0.2757905273
 22
-0.0062635407
 32
0.0
 13
-0.2752923616
 23
-0.0177133437
 33
0.0
 40
0.0
 40
0.0
 40
0.0
 40
0.0
 40
0.1298603918
 40
0.2629064339
 40
0.3968023099
 40
0.5292121486
 40
0.657842749
 40
0.7805709938
 40
0.8953165398
 40
0.9490459671
 40
1.0
 40
1.0
 40
1.0
 40
1.0
 10
6.8610054463
 20
4.8950596304
 30
0.0
 10
6.8490673577
 20
4.8947885018
 30
0.0
 10
6.8248996793
 20
4.8941785221
 30
0.0
 10
6.7884281975
 20
4.8930933549
 30
0.0
 10
6.7517274688
 20
4.891841837
 30
0.0
 10
6.7154383069
 20
4.8904445991
 30
0.0
 10
6.6801820349
 20
4.88892143
 30
0.0
 10
6.6465561286
 20
4.8873024528
 30
0.0
 10
6.6198170751
 20
4.8858690596
 30
0.0
 10
6.5996742123
 20
4.8846893049
 30
0.0
 10
6.5900667071
 20
4.8840915925
 30
0.0
 10
6.585390955
 20
4.8837907371
 30
0.0
 11
6.8610054463
 21
4.8950596304
 31
0.0
 11
6.8251932602
 21
4.8941593168
 31
0.0
 11
6.7885071525
 21
4.8930692147
 31
0.0
 11
6.7515918868
 21
4.8918099815
 31
0.0
 11
6.7150922269
 21
4.8904022748
 31
0.0
 11
6.6796411556
 21
4.8888681718
 31
0.0
 11
6.6458245335
 21
4.8872354297
 31
0.0
 11
6.61421644
 21
4.8855332258
 31
0.0
 11
6.5994199915
 21
4.8846651934
 31
0.0
 11
6.585390955
 21
4.8837907371
 31
0.0
  0
SPLINE
  5
533
100
AcDbEntity
  8
0
100
AcDbSpline
 62
6
  6
CONTINUOUS
 70
0
 71
3
 72
21
 73
17
 74
15
 42
0.0000001
 43
0.0000001
 44
0.0000000001
 12
0.1782074375
 22
-0.0000927831
 32
0.0
 13
0.1119949311
 23
-0.1386183062
 33
0.0
 40
0.0
 40
0.0
 40
0.0
 40
0.0
 40
0.0627355544
 40
0.1246727482
 40
0.1860033446
 40
0.2469236024
 40
0.3076457746
 40
0.3683504792
 40
0.4291969116
 40
0.4903259024
 40
0.5518507707
 40
0.6138719661
 40
0.73970833
 40
0.8036643872
 40
0.8683530329
 40
1.0
 40
1.0
 40
1.0
 40
1.0
 10
6.3067681936
 20
5.3078760521
 30
0.0
 10
6.3104948411
 20
5.3078741119
 30
0.0
 10
6.3179035864
 20
5.3075922095
 30
0.0
 10
6.3288923412
 20
5.3063520955
 30
0.0
 10
6.3396562055
 20
5.3043377197
 30
0.0
 10
6.3501804337
 20
5.3015870203
 30
0.0
 10
6.3604569457
 20
5.2981377886
 30
0.0
 10
6.3704819259
 20
5.2940276482
 30
0.0
 10
6.3802521479
 20
5.2892897448
 30
0.0
 10
6.3897644725
 20
5.2839543048
 30
0.0
 10
6.3990174418
 20
5.2780506148
 30
0.0
 10
6.4110658353
 20
5.2694218418
 30
0.0
 10
6.4225563946
 20
5.2598043926
 30
0.0
 10
6.4335022636
 20
5.2493740417
 30
0.0
 10
6.4442582886
 20
5.2382615069
 30
0.0
 10
6.4518871845
 20
5.2294229158
 30
0.0
 10
6.4568017822
 20
5.2233400226
 30
0.0
 11
6.3067681936
 21
5.3078760521
 31
0.0
 11
6.3179400664
 21
5.3074513122
 31
0.0
 11
6.3289083001
 21
5.3062151846
 31
0.0
 11
6.339651829
 21
5.3042071794
 31
0.0
 11
6.3501564035
 21
5.3014655919
 31
0.0
 11
6.3604167198
 21
5.2980271228
 31
0.0
 11
6.3704281389
 21
5.2939281851
 31
0.0
 11
6.3801871215
 21
5.2892017532
 31
0.0
 11
6.3896911188
 21
5.2838777061
 31
0.0
 11
6.3989376955
 21
5.2779858223
 31
0.0
 11
6.4079278266
 21
5.2715563285
 31
0.0
 11
6.425161584
 21
5.2572079039
 31
0.0
 11
6.4334170327
 21
5.2493498281
 31
0.0
 11
6.4414388005
 21
5.2410705763
 31
0.0
 11
6.4568017822
 21
5.2233400226
 31
0.0
  0
SPLINE
  5
534
100
AcDbEntity
  8
0
100
AcDbSpline
 62
6
  6
CONTINUOUS
 70
0
 71
3
 72
11
 73
7
 74
5
 42
0.0000001
 43
0.0000001
 44
0.0000000001
 12
0.0326449604
 22
-0.0404156406
 32
0.0
 13
0.02729001
 23
-0.0442082888
 33
0.0
 40
0.0
 40
0.0
 40
0.0
 40
0.0
 40
0.2438839898
 40
0.4919659413
 40
0.7440717436
 40
1.0
 40
1.0
 40
1.0
 40
1.0
 10
6.4568003481
 20
5.2233364706
 30
0.0
 10
6.4594542092
 20
5.2200508947
 30
0.0
 10
6.4646904889
 20
5.2133277714
 30
0.0
 10
6.472267711
 20
5.2029028427
 30
0.0
 10
6.4796306234
 20
5.1920724597
 30
0.0
 10
6.4843582165
 20
5.1846508841
 30
0.0
 10
6.4866863114
 20
5.1808795007
 30
0.0
 11
6.4568003481
 21
5.2233364706
 31
0.0
 11
6.4645901777
 21
5.2133434509
 31
0.0
 11
6.4721719003
 21
5.2029207002
 31
0.0
 11
6.4795393377
 21
5.1920915922
 31
0.0
 11
6.4866863114
 21
5.1808795007
 31
0.0
  0
LINE
  5
535
100
AcDbEntity
  8
0
100
AcDbLine
 62
9
  6
CONTINUOUS
 10
5.098234104
 20
4.6658787105
 11
5.0985864918
 21
4.6658760521
  0
SPLINE
  5
536
100
AcDbEntity
  8
0
100
AcDbSpline
 62
6
  6
CONTINUOUS
 70
0
 71
3
 72
13
 73
9
 74
7
 42
0.0000001
 43
0.0000001
 44
0.0000000001
 12
0.0501898635
 22
-0.0813661757
 32
0.0
 13
0.0363608415
 23
-0.0884158705
 33
0.0
 40
0.0
 40
0.0
 40
0.0
 40
0.0
 40
0.1205244281
 40
0.2421113516
 40
0.3648484252
 40
0.4888578504
 40
0.7411692105
 40
1.0
 40
1.0
 40
1.0
 40
1.0
 10
6.4866904508
 20
5.1808850126
 30
0.0
 10
6.488706819
 20
5.177616142
 30
0.0
 10
6.4926777451
 20
5.17100017
 30
0.0
 10
6.4984341279
 20
5.1608976163
 30
0.0
 10
6.5040254278
 20
5.1505762369
 30
0.0
 10
6.5113068944
 20
5.1364365693
 30
0.0
 10
6.5200221344
 20
5.1181626256
 30
0.0
 10
6.5264761904
 20
5.1032029674
 30
0.0
 10
6.5296132921
 20
5.0955747176
 30
0.0
 11
6.4866904508
 21
5.1808850126
 31
0.0
 11
6.4926228937
 21
5.1710073903
 31
0.0
 11
6.4983798303
 21
5.1609093686
 31
0.0
 11
6.503970119
 21
5.1505929104
 31
0.0
 11
6.5093994064
 21
5.1400538023
 31
0.0
 11
6.5197963271
 21
5.1182884057
 31
0.0
 11
6.5296132921
 21
5.0955747176
 31
0.0
  0
SPLINE
  5
537
100
AcDbEntity
  8
0
100
AcDbSpline
 62
6
  6
CONTINUOUS
 70
0
 71
3
 72
14
 73
10
 74
8
 42
0.0000001
 43
0.0000001
 44
0.0000000001
 12
0.0493141438
 22
-0.1524131429
 32
0.0
 13
0.0219980887
 23
-0.1586749351
 33
0.0
 40
0.0
 40
0.0
 40
0.0
 40
0.0
 40
0.2404439371
 40
0.3632476138
 40
0.4876758102
 40
0.6136696689
 40
0.7411711326
 40
0.8700344552
 40
1.0
 40
1.0
 40
1.0
 40
1.0
 10
6.5500044913
 20
5.0398249497
 30
0.0
 10
6.5539569203
 20
5.0276093444
 30
0.0
 10
6.5594933042
 20
5.0090105854
 30
0.0
 10
6.5660969904
 20
4.98381984
 30
0.0
 10
6.570731808
 20
4.9644351814
 30
0.0
 10
6.5750011
 20
4.9447102434
 30
0.0
 10
6.5788923671
 20
4.9246658727
 30
0.0
 10
6.5823899208
 20
4.904333927
 30
0.0
 10
6.5844379703
 20
4.8906643812
 30
0.0
 10
6.5853909681
 20
4.8837902897
 30
0.0
 11
6.5500044913
 21
5.0398249497
 31
0.0
 11
6.5610157007
 21
5.0029150912
 31
0.0
 11
6.5660064993
 21
4.983886463
 31
0.0
 11
6.5706430246
 21
4.9645007476
 31
0.0
 11
6.5749139508
 21
4.9447745253
 31
0.0
 11
6.578807249
 21
4.924724238
 31
0.0
 11
6.5823067696
 21
4.9043800873
 31
0.0
 11
6.5853909681
 21
4.8837902897
 31
0.0
  0
SPLINE
  5
538
100
AcDbEntity
  8
0
100
AcDbSpline
 62
6
  6
CONTINUOUS
 70
0
 71
3
 72
30
 73
26
 74
24
 42
0.0000001
 43
0.0000001
 44
0.0000000001
 12
-0.0353245174
 22
-0.0022728217
 32
0.0
 13
0.0022560206
 23
-0.0353255944
 33
0.0
 40
0.0
 40
0.0
 40
0.0
 40
0.0
 40
0.2427904297
 40
0.4490379784
 40
0.5388846033
 40
0.6201079955
 40
0.692880788
 40
0.7573772095
 40
0.8137739208
 40
0.8622514743
 40
0.8835791414
 40
0.9029973862
 40
0.9205276821
 40
0.9361921445
 40
0.9500152251
 40
0.962025069
 40
0.9722559958
 40
0.980753393
 40
0.9875842966
 40
0.9904098517
 40
0.9928691981
 40
0.9949954843
 40
0.9968384459
 40
0.998472237
 40
1.0
 40
1.0
 40
1.0
 40
1.0
 10
6.5853910162
 20
4.8837894974
 30
0.0
 10
6.582532198
 20
4.8836055576
 30
0.0
 10
6.5772459903
 20
4.8832471453
 30
0.0
 10
6.5709063388
 20
4.8827572972
 30
0.0
 10
6.5664711208
 20
4.8823702419
 30
0.0
 10
6.5636068128
 20
4.882098391
 30
0.0
 10
6.5610425751
 20
4.8818316313
 30
0.0
 10
6.5587724226
 20
4.8815701638
 30
0.0
 10
6.5567903793
 20
4.8813141784
 30
0.0
 10
6.5553170265
 20
4.8810974769
 30
0.0
 10
6.5542784711
 20
4.88092492
 30
0.0
 10
6.553601807
 20
4.8808025532
 30
0.0
 10
6.5529928613
 20
4.8806816748
 30
0.0
 10
6.5524510318
 20
4.8805623155
 30
0.0
 10
6.5519756988
 20
4.8804445331
 30
0.0
 10
6.5515662355
 20
4.8803283898
 30
0.0
 10
6.5512218687
 20
4.8802139895
 30
0.0
 10
6.5509419043
 20
4.880101375
 30
0.0
 10
6.5507505286
 20
4.8800038674
 30
0.0
 10
6.5506312816
 20
4.8799247231
 30
0.0
 10
6.5505632891
 20
4.8798694553
 30
0.0
 10
6.5505107826
 20
4.8798143471
 30
0.0
 10
6.5504737282
 20
4.8797590796
 30
0.0
 10
6.5504524322
 20
4.8797033552
 30
0.0
 10
6.5504492286
 20
4.8796655703
 30
0.0
 10
6.5504503774
 20
4.8796475806
 30
0.0
 11
6.5853910162
 21
4.8837894974
 31
0.0
 11
6.5768168338
 21
4.883203429
 31
0.0
 11
6.5695383592
 21
4.8826347078
 31
0.0
 11
6.5663701388
 21
4.8823571939
 31
0.0
 11
6.5635079972
 21
4.8820844266
 31
0.0
 11
6.5609459848
 21
4.8818165426
 31
0.0
 11
6.5586781523
 21
4.8815536784
 31
0.0
 11
6.5566985502
 21
4.8812959707
 31
0.0
 11
6.5550012292
 21
4.8810435562
 31
0.0
 11
6.5542565649
 21
4.8809193765
 31
0.0
 11
6.5535802658
 21
4.8807965711
 31
0.0
 11
6.5529717303
 21
4.880675156
 31
0.0
 11
6.5524303893
 21
4.880555147
 31
0.0
 11
6.5519556738
 21
4.8804365597
 31
0.0
 11
6.5515470147
 21
4.8803194099
 31
0.0
 11
6.551203843
 21
4.8802037134
 31
0.0
 11
6.5509255895
 21
4.8800894859
 31
0.0
 11
6.5507116853
 21
4.8799767431
 31
0.0
 11
6.5506286864
 21
4.8799209334
 31
0.0
 11
6.5505615613
 21
4.8798655008
 31
0.0
 11
6.550510239
 21
4.8798104473
 31
0.0
 11
6.5504746484
 21
4.8797557748
 31
0.0
 11
6.5504547182
 21
4.8797014852
 31
0.0
 11
6.5504503774
 21
4.8796475806
 31
0.0
  0
SPLINE
  5
539
100
AcDbEntity
  8
0
100
AcDbSpline
 62
9
  6
CONTINUOUS
 70
0
 71
3
 72
12
 73
8
 74
6
 42
0.0000001
 43
0.0000001
 44
0.0000000001
 12
0.0062644182
 22
-0.0752033415
 32
0.0
 13
-0.0158178123
 23
-0.073787413
 33
0.0
 40
0.0
 40
0.0
 40
0.0
 40
0.0
 40
0.2529344546
 40
0.3787748564
 40
0.5041351959
 40
0.7532312562
 40
1.0
 40
1.0
 40
1.0
 40
1.0
 10
6.9370239026
 20
4.8950588237
 30
0.0
 10
6.937552065
 20
4.8887183183
 30
0.0
 10
6.9380009407
 20
4.8791899976
 30
0.0
 10
6.9379083184
 20
4.8665070384
 30
0.0
 10
6.9373592354
 20
4.853931684
 30
0.0
 10
6.9358239252
 20
4.838366074
 30
0.0
 10
6.9336774847
 20
4.826064906
 30
0.0
 10
6.9323763708
 20
4.8199954303
 30
0.0
 11
6.9370239026
 21
4.8950588237
 31
0.0
 11
6.9379203637
 21
4.8759924912
 31
0.0
 11
6.9378506245
 21
4.8664963521
 31
0.0
 11
6.9374373768
 21
4.8570452144
 31
0.0
 11
6.9355857699
 21
4.8383388939
 31
0.0
 11
6.9323763708
 21
4.8199954303
 31
0.0
  0
SPLINE
  5
53A
100
AcDbEntity
  8
0
100
AcDbSpline
 62
9
  6
CONTINUOUS
 70
0
 71
3
 72
14
 73
10
 74
8
 42
0.0000001
 43
0.0000001
 44
0.0000000001
 12
-0.0323244998
 22
0.001984635
 32
0.0
 13
-0.0323853681
 23
0.0
 33
0.0
 40
0.0
 40
0.0
 40
0.0
 40
0.0
 40
0.0930594899
 40
0.1956015257
 40
0.3065293457
 40
0.4247372121
 40
0.5499244976
 40
0.6850304738
 40
1.0
 40
1.0
 40
1.0
 40
1.0
 10
6.9323763708
 20
4.8199954303
 30
0.0
 10
6.9313736703
 20
4.8200569934
 30
0.0
 10
6.9292647421
 20
4.820164452
 30
0.0
 10
6.9259579589
 20
4.8202876907
 30
0.0
 10
6.9223787771
 20
4.8203864522
 30
0.0
 10
6.9185546356
 20
4.8204663448
 30
0.0
 10
6.914469201
 20
4.8205331767
 30
0.0
 10
6.9082595438
 20
4.8206035217
 30
0.0
 10
6.9034008631
 20
4.8206206717
 30
0.0
 10
6.9000007284
 20
4.8206206717
 30
0.0
 11
6.9323763708
 21
4.8199954303
 31
0.0
 11
6.9293667122
 21
4.8201527196
 31
0.0
 11
6.9260482595
 21
4.8202791826
 31
0.0
 11
6.9224572475
 21
4.8203804027
 31
0.0
 11
6.9186299111
 21
4.8204619632
 31
0.0
 11
6.9145762152
 21
4.8205281568
 31
0.0
 11
6.9102010437
 21
4.8205781134
 31
0.0
 11
6.9000007284
 21
4.8206206717
 31
0.0
  0
SPLINE
  5
53B
100
AcDbEntity
  8
0
100
AcDbSpline
 62
9
  6
CONTINUOUS
 70
0
 71
3
 72
11
 73
7
 74
5
 42
0.0000001
 43
0.0000001
 44
0.0000000001
 12
0.0
 22
-0.0756344071
 32
0.0
 13
-0.0164301359
 23
-0.0738282749
 33
0.0
 40
0.0
 40
0.0
 40
0.0
 40
0.0
 40
0.2518047309
 40
0.5028810236
 40
0.7525135779
 40
1.0
 40
1.0
 40
1.0
 40
1.0
 10
6.9081548447
 20
4.8956729981
 30
0.0
 10
6.9081548447
 20
4.8893246309
 30
0.0
 10
6.9078109888
 20
4.8766436437
 30
0.0
 10
6.906274605
 20
4.857725057
 30
0.0
 10
6.9037298735
 20
4.8390253114
 30
0.0
 10
6.9013561402
 20
4.8267111703
 30
0.0
 10
6.9000007284
 20
4.8206206717
 30
0.0
 11
6.9081548447
 21
4.8956729981
 31
0.0
 11
6.9076392806
 21
4.8766348762
 31
0.0
 11
6.9061004973
 21
4.8577073171
 31
0.0
 11
6.9035503587
 21
4.8389995169
 31
0.0
 11
6.9000007284
 21
4.8206206717
 31
0.0
  0
SPLINE
  5
53C
100
AcDbEntity
  8
0
100
AcDbSpline
 62
9
  6
CONTINUOUS
 70
0
 71
3
 72
12
 73
8
 74
6
 42
0.0000001
 43
0.0000001
 44
0.0000000001
 12
-0.054934146
 22
0.0
 32
0.0
 13
-0.0549249042
 23
-0.0010076186
 33
0.0
 40
0.0
 40
0.0
 40
0.0
 40
0.0
 40
0.2098833497
 40
0.4341458007
 40
0.5565803006
 40
0.6895649042
 40
1.0
 40
1.0
 40
1.0
 40
1.0
 10
6.9000007284
 20
4.8206206717
 30
0.0
 10
6.8961574742
 20
4.8206206717
 30
0.0
 10
6.8882076517
 20
4.8205879247
 30
0.0
 10
6.8780163801
 20
4.8204861745
 30
0.0
 10
6.8692333882
 20
4.820379979
 30
0.0
 10
6.8588728069
 20
4.8202362714
 30
0.0
 10
6.8507543044
 20
4.820099697
 30
0.0
 10
6.8450707651
 20
4.8199954303
 30
0.0
 11
6.9000007284
 21
4.8206206717
 31
0.0
 11
6.8884710444
 21
4.8205781134
 31
0.0
 11
6.8761519257
 21
4.8204619632
 31
0.0
 11
6.8694265855
 21
4.8203804027
 31
0.0
 11
6.8621218912
 21
4.8202791826
 31
0.0
 11
6.8450707651
 21
4.8199954303
 31
0.0
  0
SPLINE
  5
53D
100
AcDbEntity
  8
0
100
AcDbSpline
 62
9
  6
CONTINUOUS
 70
0
 71
3
 72
11
 73
7
 74
5
 42
0.0000001
 43
0.0000001
 44
0.0000000001
 12
-0.0146699076
 22
-0.0753253328
 32
0.0
 13
-0.0175813934
 23
-0.0746994415
 33
0.0
 40
0.0
 40
0.0
 40
0.0
 40
0.0
 40
0.2532897066
 40
0.5053988597
 40
0.7548055163
 40
1.0
 40
1.0
 40
1.0
 40
1.0
 10
6.8610054623
 20
4.8950588237
 30
0.0
 10
6.8597668834
 20
4.8886991132
 30
0.0
 10
6.8572553902
 20
4.876017088
 30
0.0
 10
6.8533563127
 20
4.857106567
 30
0.0
 10
6.8493213629
 20
4.8384362996
 30
0.0
 10
6.8465077187
 20
4.8261007273
 30
0.0
 10
6.8450707651
 20
4.8199954303
 30
0.0
 11
6.8610054623
 21
4.8950588237
 31
0.0
 11
6.8572245998
 21
4.8759924912
 31
0.0
 11
6.8533121945
 21
4.8570452144
 31
0.0
 11
6.8492627488
 21
4.8383388939
 31
0.0
 11
6.8450707651
 21
4.8199954303
 31
0.0
  0
SPLINE
  5
53E
100
AcDbEntity
  8
0
100
AcDbSpline
 62
9
  6
CONTINUOUS
 70
0
 71
3
 72
19
 73
15
 74
13
 42
0.0000001
 43
0.0000001
 44
0.0000000001
 12
-0.2450357443
 22
-0.0044952756
 32
0.0
 13
-0.2449246141
 23
-0.0086404227
 33
0.0
 40
0.0
 40
0.0
 40
0.0
 40
0.0
 40
0.0894397729
 40
0.1440862796
 40
0.204453212
 40
0.2696626715
 40
0.3387512209
 40
0.4845075423
 40
0.5587984947
 40
0.6323716924
 40
0.7728109968
 40
0.8973757129
 40
0.9516728952
 40
1.0
 40
1.0
 40
1.0
 40
1.0
 10
6.8450707651
 20
4.8199954303
 30
0.0
 10
6.8377654513
 20
4.8198614115
 30
0.0
 10
6.8259969627
 20
4.8196303005
 30
0.0
 10
6.8092985384
 20
4.8192722894
 30
0.0
 10
6.7945795507
 20
4.8189358162
 30
0.0
 10
6.7786815997
 20
4.818549784
 30
0.0
 10
6.7558108765
 20
4.8179611515
 30
0.0
 10
6.7322000171
 20
4.8172961878
 30
0.0
 10
6.7082244461
 20
4.8165707333
 30
0.0
 10
6.6846840742
 20
4.8158247815
 30
0.0
 10
6.657040522
 20
4.8148950346
 30
0.0
 10
6.6309721444
 20
4.8139791981
 30
0.0
 10
6.6124242932
 20
4.8133189841
 30
0.0
 10
6.6040459735
 20
4.8130210076
 30
0.0
 10
6.6001004743
 20
4.8128818187
 30
0.0
 11
6.8450707651
 21
4.8199954303
 31
0.0
 11
6.8231553367
 21
4.8195663267
 31
0.0
 11
6.8097658123
 21
4.8192792966
 31
0.0
 11
6.7949751243
 21
4.8189414887
 31
0.0
 11
6.7789984924
 21
4.8185537152
 31
0.0
 11
6.7620720895
 21
4.8181178972
 31
0.0
 11
6.7263646431
 21
4.8171153306
 31
0.0
 11
6.7081659723
 21
4.8165646054
 31
0.0
 11
6.6901439135
 21
4.8159937769
 31
0.0
 11
6.655744739
 21
4.8148423466
 31
0.0
 11
6.6252354815
 21
4.8137743774
 31
0.0
 11
6.6119368898
 21
4.8133017052
 31
0.0
 11
6.6001004743
 21
4.8128818187
 31
0.0
  0
SPLINE
  5
53F
100
AcDbEntity
  8
0
100
AcDbSpline
 62
9
  6
CONTINUOUS
 70
0
 71
3
 72
34
 73
30
 74
28
 42
0.0000001
 43
0.0000001
 44
0.0000000001
 12
-0.0289528464
 22
-0.0010213952
 32
0.0
 13
0.0109191683
 23
-0.0268343497
 33
0.0
 40
0.0
 40
0.0
 40
0.0
 40
0.0
 40
0.2447340121
 40
0.353276313
 40
0.452804598
 40
0.5434708281
 40
0.6254270853
 40
0.6988256243
 40
0.7638189533
 40
0.8205599709
 40
0.8692022073
 40
0.8905346105
 40
0.9099002772
 40
0.9273162594
 40
0.9427980818
 40
0.9563616428
 40
0.968023519
 40
0.9778014759
 40
0.9819902395
 40
0.9857158828
 40
0.9889817348
 40
0.9917918577
 40
0.994151598
 40
0.9960687606
 40
0.9975564427
 40
0.9986410821
 40
0.9993895994
 40
0.9996942208
 40
1.0
 40
1.0
 40
1.0
 40
1.0
 10
6.6001004743
 20
4.8128818187
 30
0.0
 10
6.5977385589
 20
4.8127984953
 30
0.0
 10
6.5943292429
 20
4.8126742424
 30
0.0
 10
6.589959861
 20
4.8125035559
 30
0.0
 10
6.5870773979
 20
4.8123852627
 30
0.0
 10
6.5844517146
 20
4.812271427
 30
0.0
 10
6.58207842
 20
4.8121619786
 30
0.0
 10
6.5799531223
 20
4.8120568549
 30
0.0
 10
6.5780714266
 20
4.8119560086
 30
0.0
 10
6.5764289398
 20
4.8118593799
 30
0.0
 10
6.5752078632
 20
4.8117792584
 30
0.0
 10
6.57434739
 20
4.8117165013
 30
0.0
 10
6.5737879073
 20
4.8116725269
 30
0.0
 10
6.5732850289
 20
4.8116295592
 30
0.0
 10
6.5728383144
 20
4.8115875929
 30
0.0
 10
6.5724473343
 20
4.8115466447
 30
0.0
 10
6.5721116626
 20
4.8115067178
 30
0.0
 10
6.5718664716
 20
4.8114728371
 30
0.0
 10
6.5716977738
 20
4.8114457329
 30
0.0
 10
6.5715914871
 20
4.8114267194
 30
0.0
 10
6.5714986988
 20
4.8114079637
 30
0.0
 10
6.5714193464
 20
4.8113894846
 30
0.0
 10
6.5713533381
 20
4.8113712774
 30
0.0
 10
6.5713005863
 20
4.8113534414
 30
0.0
 10
6.5712607971
 20
4.8113358183
 30
0.0
 10
6.5712336489
 20
4.8113187572
 30
0.0
 10
6.5712195791
 20
4.8113023096
 30
0.0
 10
6.5712172221
 20
4.8112890684
 30
0.0
 10
6.5712185888
 20
4.8112831684
 30
0.0
 10
6.5712197017
 20
4.8112804333
 30
0.0
 11
6.6001004743
 21
4.8128818187
 31
0.0
 11
6.5930150801
 21
4.8126220627
 31
0.0
 11
6.5898729224
 21
4.8124990809
 31
0.0
 11
6.5869919382
 21
4.8123805919
 31
0.0
 11
6.5843677381
 21
4.8122665174
 31
0.0
 11
6.5819959324
 21
4.8121567791
 31
0.0
 11
6.5798721316
 21
4.8120512984
 31
0.0
 11
6.5779919461
 21
4.811949997
 31
0.0
 11
6.5763509865
 21
4.8118527964
 31
0.0
 11
6.5749448631
 21
4.8117596183
 31
0.0
 11
6.5743284933
 21
4.8117145132
 31
0.0
 11
6.5737691915
 21
4.8116703843
 31
0.0
 11
6.5732664852
 21
4.8116272212
 31
0.0
 11
6.5728199539
 21
4.811585013
 31
0.0
 11
6.5724291785
 21
4.8115437491
 31
0.0
 11
6.5720937398
 21
4.8115034186
 31
0.0
 11
6.5718132185
 21
4.8114640108
 31
0.0
 11
6.5716934209
 21
4.8114446495
 31
0.0
 11
6.5715871954
 21
4.8114255148
 31
0.0
 11
6.5714944898
 21
4.8114066053
 31
0.0
 11
6.5714152514
 21
4.8113879198
 31
0.0
 11
6.5713494281
 21
4.8113694569
 31
0.0
 11
6.5712969673
 21
4.8113512151
 31
0.0
 11
6.5712578167
 21
4.8113331932
 31
0.0
 11
6.5712319238
 21
4.8113153899
 31
0.0
 11
6.5712192363
 21
4.8112978037
 31
0.0
 11
6.5712178281
 21
4.8112890916
 31
0.0
 11
6.5712197017
 21
4.8112804333
 31
0.0
  0
SPLINE
  5
540
100
AcDbEntity
  8
0
100
AcDbSpline
 62
9
  6
CONTINUOUS
 70
0
 71
3
 72
11
 73
7
 74
5
 42
0.0000001
 43
0.0000001
 44
0.0000000001
 12
-0.0177193361
 22
-0.0826576991
 32
0.0
 13
-0.0469235079
 23
-0.0703168152
 33
0.0
 40
0.0
 40
0.0
 40
0.0
 40
0.0
 40
0.253660027
 40
0.5048242029
 40
0.7535652806
 40
1.0
 40
1.0
 40
1.0
 40
1.0
 10
6.9323763708
 20
4.8199954303
 30
0.0
 10
6.9308781417
 20
4.8130064456
 30
0.0
 10
6.9272559021
 20
4.7992255171
 30
0.0
 10
6.919971265
 20
4.7792482227
 30
0.0
 10
6.9109363515
 20
4.7602237507
 30
0.0
 10
6.9037601925
 20
4.7482270401
 30
0.0
 10
6.8999056654
 20
4.7424508719
 30
0.0
 11
6.9323763708
 21
4.8199954303
 31
0.0
 11
6.9269204158
 21
4.7992578331
 31
0.0
 11
6.9196400957
 21
4.7793127018
 31
0.0
 11
6.9106102368
 21
4.7603227951
 31
0.0
 11
6.8999056654
 21
4.7424508719
 31
0.0
  0
LINE
  5
541
100
AcDbEntity
  8
0
100
AcDbLine
 62
9
  6
CONTINUOUS
 10
6.8999056654
 20
4.7424508719
 11
6.871073856
 21
4.7424730663
  0
SPLINE
  5
542
100
AcDbEntity
  8
0
100
AcDbSpline
 62
9
  6
CONTINUOUS
 70
0
 71
3
 72
11
 73
7
 74
5
 42
0.0000001
 43
0.0000001
 44
0.0000000001
 12
-0.0181576822
 22
-0.0815909472
 32
0.0
 13
-0.0401883808
 23
-0.0732917331
 33
0.0
 40
0.0
 40
0.0
 40
0.0
 40
0.0
 40
0.257223579
 40
0.5101306951
 40
0.7579536004
 40
1.0
 40
1.0
 40
1.0
 40
1.0
 10
6.9000007284
 20
4.8206206717
 30
0.0
 10
6.8984438671
 20
4.8136249666
 30
0.0
 10
6.8948988946
 20
4.7998479034
 30
0.0
 10
6.8882646224
 20
4.7797818106
 30
0.0
 10
6.8804089766
 20
4.7606172131
 30
0.0
 10
6.8743163403
 20
4.7483863997
 30
0.0
 10
6.871073856
 20
4.7424730663
 30
0.0
 11
6.9000007284
 21
4.8206206717
 31
0.0
 11
6.8946349553
 21
4.7998004448
 31
0.0
 11
6.8879872321
 21
4.7797331449
 31
0.0
 11
6.8801145389
 21
4.7605727071
 31
0.0
 11
6.871073856
 21
4.7424730663
 31
0.0
  0
LINE
  5
543
100
AcDbEntity
  8
0
100
AcDbLine
 62
9
  6
CONTINUOUS
 10
6.871073856
 20
4.7424730663
 11
6.8230023041
 21
4.7424508719
  0
SPLINE
  5
544
100
AcDbEntity
  8
0
100
AcDbSpline
 62
9
  6
CONTINUOUS
 70
0
 71
3
 72
13
 73
9
 74
7
 42
0.0000001
 43
0.0000001
 44
0.0000000001
 12
-0.0184793925
 22
-0.0785148403
 32
0.0
 13
-0.0268068618
 23
-0.076075359
 33
0.0
 40
0.0
 40
0.0
 40
0.0
 40
0.0
 40
0.2647550334
 40
0.5208518134
 40
0.6450949134
 40
0.7665080308
 40
0.8848785775
 40
1.0
 40
1.0
 40
1.0
 40
1.0
 10
6.8450707651
 20
4.8199954303
 30
0.0
 10
6.8434399277
 20
4.8130663639
 30
0.0
 10
6.8401045942
 20
4.799464262
 30
0.0
 10
6.8356043185
 20
4.7827118846
 30
0.0
 10
6.8318483228
 20
4.7697544043
 30
0.0
 10
6.8289895894
 20
4.7603933152
 30
0.0
 10
6.8260604208
 20
4.7513113657
 30
0.0
 10
6.8240309855
 20
4.7453701731
 30
0.0
 10
6.8230023041
 20
4.7424508719
 30
0.0
 11
6.8450707651
 21
4.8199954303
 31
0.0
 11
6.8399720998
 21
4.7992578331
 31
0.0
 11
6.8345966128
 21
4.7793127018
 31
0.0
 11
6.8318040557
 21
4.769688173
 31
0.0
 11
6.8289410867
 21
4.7603227951
 31
0.0
 11
6.8260073035
 21
4.7512369132
 31
0.0
 11
6.8230023041
 21
4.7424508719
 31
0.0
  0
SPLINE
  5
545
100
AcDbEntity
  8
0
100
AcDbSpline
 62
9
  6
CONTINUOUS
 70
0
 71
3
 72
19
 73
15
 74
13
 42
0.0000001
 43
0.0000001
 44
0.0000000001
 12
-0.1853531171
 22
-0.0006399438
 32
0.0
 13
-0.1853194374
 23
-0.0035907787
 33
0.0
 40
0.0
 40
0.0
 40
0.0
 40
0.0
 40
0.0444609215
 40
0.0951980715
 40
0.1516036009
 40
0.2130449944
 40
0.2787146142
 40
0.3477291263
 40
0.4920787426
 40
0.6375740661
 40
0.7755349141
 40
0.8982360273
 40
0.9519717928
 40
1.0
 40
1.0
 40
1.0
 40
1.0
 10
6.8230023041
 20
4.7424508719
 30
0.0
 10
6.820255314
 20
4.7424413877
 30
0.0
 10
6.814373586
 20
4.7424135398
 30
0.0
 10
6.8050070071
 20
4.7423499673
 30
0.0
 10
6.7945914715
 20
4.7422593616
 30
0.0
 10
6.7832535768
 20
4.7421395108
 30
0.0
 10
6.7711369238
 20
4.7419904032
 30
0.0
 10
6.7538985679
 20
4.7417497691
 30
0.0
 10
6.7317295186
 20
4.7413833538
 30
0.0
 10
6.705302495
 20
4.7408759314
 30
0.0
 10
6.6802138648
 20
4.7403410688
 30
0.0
 10
6.6607935595
 20
4.7399148613
 30
0.0
 10
6.6469281733
 20
4.7396201553
 30
0.0
 10
6.6406420037
 20
4.7394926278
 30
0.0
 10
6.6376751502
 20
4.7394351416
 30
0.0
 11
6.8230023041
 21
4.7424508719
 31
0.0
 11
6.8147613728
 21
4.7424127426
 31
0.0
 11
6.8053572405
 21
4.7423495063
 31
0.0
 11
6.7949026297
 21
4.7422589464
 31
0.0
 11
6.7835148388
 21
4.7421390888
 31
0.0
 11
6.7713436145
 21
4.7419896765
 31
0.0
 11
6.7585527285
 21
4.7418111948
 31
0.0
 11
6.7318005118
 21
4.7413726583
 31
0.0
 11
6.7048372654
 21
4.7408572278
 31
0.0
 11
6.6792713227
 21
4.7403181443
 31
0.0
 11
6.6565335002
 21
4.7398250139
 31
0.0
 11
6.6465755771
 21
4.7396143573
 31
0.0
 11
6.6376751502
 21
4.7394351416
 31
0.0
  0
SPLINE
  5
546
100
AcDbEntity
  8
0
100
AcDbSpline
 62
9
  6
CONTINUOUS
 70
0
 71
3
 72
11
 73
7
 74
5
 42
0.0000001
 43
0.0000001
 44
0.0000000001
 12
0.0261724579
 22
-0.0785506077
 32
0.0
 13
0.0487187543
 23
-0.0669453397
 33
0.0
 40
0.0
 40
0.0
 40
0.0
 40
0.0
 40
0.2536994214
 40
0.4427156241
 40
0.630319687
 40
1.0
 40
1.0
 40
1.0
 40
1.0
 10
6.6001004743
 20
4.8128818187
 30
0.0
 10
6.6023137868
 20
4.8062390708
 30
0.0
 10
6.6066179898
 20
4.794788556
 30
0.0
 10
6.613806275
 20
4.7789373351
 30
0.0
 10
6.6233684932
 20
4.760686325
 30
0.0
 10
6.6316716955
 20
4.7476845996
 30
0.0
 10
6.6376751502
 20
4.7394351416
 30
0.0
 11
6.6001004743
 21
4.8128818187
 31
0.0
 11
6.6074913799
 21
4.7932197186
 31
0.0
 11
6.6139560059
 21
4.7789675244
 31
0.0
 11
6.6211673598
 21
4.7652100926
 31
0.0
 11
6.6376751502
 21
4.7394351416
 31
0.0
  0
LINE
  5
547
100
AcDbEntity
  8
0
100
AcDbLine
 62
9
  6
CONTINUOUS
 10
6.6376751502
 20
4.7394351416
 11
6.6147135619
 21
4.7388237963
  0
LINE
  5
548
100
AcDbEntity
  8
0
100
AcDbLine
 62
9
  6
CONTINUOUS
 10
6.8977148774
 20
4.7392324248
 11
6.8692512264
 21
4.7392056556
  0
LINE
  5
549
100
AcDbEntity
  8
0
100
AcDbLine
 62
9
  6
CONTINUOUS
 10
6.8692512264
 20
4.7392056556
 11
6.8218547005
 21
4.7392324248
  0
SPLINE
  5
54A
100
AcDbEntity
  8
0
100
AcDbSpline
 62
9
  6
CONTINUOUS
 70
0
 71
3
 72
19
 73
15
 74
13
 42
0.0000001
 43
0.0000001
 44
0.0000000001
 12
-0.1819525533
 22
-0.0003864314
 32
0.0
 13
-0.1819183606
 23
-0.0035483898
 33
0.0
 40
0.0
 40
0.0
 40
0.0
 40
0.0
 40
0.044557105
 40
0.0953620344
 40
0.1518091959
 40
0.2132684533
 40
0.2789354181
 40
0.347930381
 40
0.4922056171
 40
0.6376106494
 40
0.7755023961
 40
0.898187305
 40
0.9519395683
 40
1.0
 40
1.0
 40
1.0
 40
1.0
 10
6.8218547005
 20
4.7392324248
 30
0.0
 10
6.8191522742
 20
4.7392266854
 30
0.0
 10
6.8133685012
 20
4.7392065726
 30
0.0
 10
6.8041612637
 20
4.7391546955
 30
0.0
 10
6.7939290451
 20
4.7390765815
 30
0.0
 10
6.7827956427
 20
4.7389698839
 30
0.0
 10
6.7709014642
 20
4.7388344376
 30
0.0
 10
6.753985094
 20
4.738612759
 30
0.0
 10
6.7322337485
 20
4.7382698479
 30
0.0
 10
6.70630552
 20
4.7377887108
 30
0.0
 10
6.681687649
 20
4.7372764049
 30
0.0
 10
6.6626277533
 20
4.7368639116
 30
0.0
 10
6.6490147973
 20
4.7365759267
 30
0.0
 10
6.6428410304
 20
4.7364504252
 30
0.0
 10
6.6399266721
 20
4.7363935795
 30
0.0
 11
6.8218547005
 21
4.7392324248
 31
0.0
 11
6.813747449
 21
4.7392051669
 31
0.0
 11
6.8045034848
 21
4.7391537049
 31
0.0
 11
6.7942330526
 21
4.7390757073
 31
0.0
 11
6.783050867
 21
4.7389690789
 31
0.0
 11
6.7711033385
 21
4.7388334025
 31
0.0
 11
6.7585505772
 21
4.7386689854
 31
0.0
 11
6.7323024757
 21
4.738258768
 31
0.0
 11
6.7058501132
 21
4.7377700605
 31
0.0
 11
6.6807656186
 21
4.7372535375
 31
0.0
 11
6.6584478449
 21
4.7367759681
 31
0.0
 11
6.6486696293
 21
4.7365700478
 31
0.0
 11
6.6399266721
 21
4.7363935795
 31
0.0
  0
LINE
  5
54B
100
AcDbEntity
  8
0
100
AcDbLine
 62
9
  6
CONTINUOUS
 10
6.6399266721
 20
4.7363935795
 11
6.6172873292
 21
4.7357707296
  0
SPLINE
  5
54C
100
AcDbEntity
  8
0
100
AcDbSpline
 62
9
  6
CONTINUOUS
 70
0
 71
3
 72
15
 73
11
 74
9
 42
0.0000001
 43
0.0000001
 44
0.0000000001
 12
-0.0087769668
 22
0.0181990131
 32
0.0
 13
-0.0172303364
 23
0.0105524752
 33
0.0
 40
0.0
 40
0.0
 40
0.0
 40
0.0
 40
0.1285911915
 40
0.2551768283
 40
0.3802297404
 40
0.5042402147
 40
0.6277114066
 40
0.7511540423
 40
0.8750806986
 40
1.0
 40
1.0
 40
1.0
 40
1.0
 10
6.8683140419
 20
5.2547458885
 30
0.0
 10
6.8679378283
 20
5.2555259661
 30
0.0
 10
6.8671396518
 20
5.2570497426
 30
0.0
 10
6.865796767
 20
5.2592325773
 30
0.0
 10
6.8643208727
 20
5.2612901451
 30
0.0
 10
6.8627140993
 20
5.2632200264
 30
0.0
 10
6.8609785418
 20
5.2650199659
 30
0.0
 10
6.8591163017
 20
5.2666877084
 30
0.0
 10
6.8571296786
 20
5.2682209249
 30
0.0
 10
6.8557308913
 20
5.2691471941
 30
0.0
 10
6.8550134242
 20
5.2695865967
 30
0.0
 11
6.8683140419
 21
5.2547458885
 31
0.0
 11
6.8671072095
 21
5.2570467741
 31
0.0
 11
6.8657660642
 21
5.2592245995
 31
0.0
 11
6.8642926559
 21
5.2612772094
 31
0.0
 11
6.8626890348
 21
5.2632024487
 31
0.0
 11
6.860957251
 21
5.2649981622
 31
0.0
 11
6.8590993546
 21
5.2666621948
 31
0.0
 11
6.8571173956
 21
5.2681923914
 31
0.0
 11
6.8550134242
 21
5.2695865967
 31
0.0
  0
SPLINE
  5
54D
100
AcDbEntity
  8
0
100
AcDbSpline
 62
9
  6
CONTINUOUS
 70
0
 71
3
 72
11
 73
7
 74
5
 42
0.0000001
 43
0.0000001
 44
0.0000000001
 12
-0.02237378
 22
-0.00074021
 32
0.0
 13
-0.0223860211
 23
-0.0
 33
0.0
 40
0.0
 40
0.0
 40
0.0
 40
0.0
 40
0.1892812618
 40
0.419308242
 40
0.6854069639
 40
1.0
 40
1.0
 40
1.0
 40
1.0
 10
6.8642663904
 20
4.702921219
 30
0.0
 10
6.8628547446
 20
4.7028745164
 30
0.0
 10
6.8597273952
 20
4.7027762253
 30
0.0
 10
6.8546142878
 20
4.7026531212
 30
0.0
 10
6.8485651303
 20
4.7025719755
 30
0.0
 10
6.8442319665
 20
4.702556528
 30
0.0
 10
6.841884471
 20
4.702556528
 30
0.0
 11
6.8642663904
 21
4.702921219
 31
0.0
 11
6.8600311542
 21
4.7027904594
 31
0.0
 11
6.8548832197
 21
4.7026680804
 31
0.0
 11
6.8489268966
 21
4.7025857905
 31
0.0
 11
6.841884471
 21
4.702556528
 31
0.0
  0
SPLINE
  5
54E
100
AcDbEntity
  8
0
100
AcDbSpline
 62
9
  6
CONTINUOUS
 70
0
 71
3
 72
11
 73
7
 74
5
 42
0.0000001
 43
0.0000001
 44
0.0000000001
 12
-0.0226337334
 22
-0.0398879717
 32
0.0
 13
-0.0322131842
 23
-0.0326442481
 33
0.0
 40
0.0
 40
0.0
 40
0.0
 40
0.0
 40
0.2585595146
 40
0.511485138
 40
0.7586496696
 40
1.0
 40
1.0
 40
1.0
 40
1.0
 10
6.8692512264
 20
4.7392056556
 30
0.0
 10
6.867300504
 20
4.7357678507
 30
0.0
 10
6.8632375684
 20
4.7290802993
 30
0.0
 10
6.8566041768
 20
4.7195574932
 30
0.0
 10
6.8495283793
 20
4.7106923958
 30
0.0
 10
6.8444760252
 20
4.7051827613
 30
0.0
 10
6.841884471
 20
4.702556528
 30
0.0
 11
6.8692512264
 21
4.7392056556
 31
0.0
 11
6.8630882174
 21
4.7290749251
 31
0.0
 11
6.8564515153
 21
4.719561383
 31
0.0
 11
6.84937298
 21
4.7107076952
 31
0.0
 11
6.841884471
 21
4.702556528
 31
0.0
  0
SPLINE
  5
54F
100
AcDbEntity
  8
0
100
AcDbSpline
 62
9
  6
CONTINUOUS
 70
0
 71
3
 72
17
 73
13
 74
11
 42
0.0000001
 43
0.0000001
 44
0.0000000001
 12
0.1209050466
 22
-0.0909888784
 32
0.0
 13
0.0646862479
 23
-0.1367943552
 33
0.0
 40
0.0
 40
0.0
 40
0.0
 40
0.0
 40
0.115799818
 40
0.1749005685
 40
0.2347853412
 40
0.2954242511
 40
0.3567825678
 40
0.4814845837
 40
0.6085574714
 40
0.7376124231
 40
0.8682355025
 40
1.0
 40
1.0
 40
1.0
 40
1.0
 10
6.7626992728
 20
5.3876956678
 30
0.0
 10
6.7673662003
 20
5.3841835026
 30
0.0
 10
6.7742271887
 20
5.378622515
 30
0.0
 10
6.7830212101
 20
5.370688747
 30
0.0
 10
6.7895367766
 20
5.3643905706
 30
0.0
 10
6.7959195876
 20
5.3577987989
 30
0.0
 10
6.8042866691
 20
5.3485862117
 30
0.0
 10
6.8143558994
 20
5.3364043244
 30
0.0
 10
6.8257139899
 20
5.3209008649
 30
0.0
 10
6.836348727
 20
5.3045352021
 30
0.0
 10
6.8461951655
 20
5.2874111551
 30
0.0
 10
6.8521723072
 20
5.2755948099
 30
0.0
 10
6.8550134242
 20
5.2695865967
 30
0.0
 11
6.7626992728
 21
5.3876956678
 31
0.0
 11
6.7763154899
 21
5.3766666934
 31
0.0
 11
6.7829571367
 21
5.3706779162
 31
0.0
 11
6.7894743067
 21
5.3643819319
 31
0.0
 11
6.7958588651
 21
5.3577916756
 31
0.0
 11
6.8021026889
 21
5.3509201184
 31
0.0
 11
6.8141356399
 21
5.3363849847
 31
0.0
 11
6.8255081742
 21
5.3208802982
 31
0.0
 11
6.8361553066
 21
5.3045098265
 31
0.0
 11
6.8460120517
 21
5.2873773368
 31
0.0
 11
6.8550134242
 21
5.2695865967
 31
0.0
  0
SPLINE
  5
550
100
AcDbEntity
  8
0
100
AcDbSpline
 62
9
  6
CONTINUOUS
 70
0
 71
3
 72
9
 73
5
 74
3
 42
0.0000001
 43
0.0000001
 44
0.0000000001
 12
-0.0082645591
 22
0.001507738
 32
0.0
 13
-0.0084009649
 23
0.0
 33
0.0
 40
0.0
 40
0.0
 40
0.0
 40
0.0
 40
0.4944883821
 40
1.0
 40
1.0
 40
1.0
 40
1.0
 10
6.664352175
 20
5.4330624455
 30
0.0
 10
6.6629899322
 20
5.4333109652
 30
0.0
 10
6.6602102829
 20
5.4336853342
 30
0.0
 10
6.6574084511
 20
5.4338069068
 30
0.0
 10
6.655992856
 20
5.4338069068
 30
0.0
 11
6.664352175
 21
5.4330624455
 31
0.0
 11
6.6602354996
 21
5.433619394
 31
0.0
 11
6.655992856
 21
5.4338069068
 31
0.0
  0
SPLINE
  5
551
100
AcDbEntity
  8
0
100
AcDbSpline
 62
9
  6
CONTINUOUS
 70
0
 71
3
 72
66
 73
62
 74
60
 42
0.0000001
 43
0.0000001
 44
0.0000000001
 12
-0.1797150043
 22
-0.1687263835
 32
0.0
 13
-0.0014744057
 23
0.2465033496
 33
0.0
 40
0.0
 40
0.0
 40
0.0
 40
0.0
 40
0.0328441093
 40
0.0491265963
 40
0.0653087945
 40
0.0973291083
 40
0.1288246873
 40
0.1443424472
 40
0.1596849145
 40
0.174827053
 40
0.1897484843
 40
0.2044252699
 40
0.2188368441
 40
0.2329621475
 40
0.2399125013
 40
0.2467867209
 40
0.2535856803
 40
0.2603114226
 40
0.2669675842
 40
0.2735631306
 40
0.2866177014
 40
0.2995644897
 40
0.3124774542
 40
0.3254129442
 40
0.3384155212
 40
0.3515152957
 40
0.3780810411
 40
0.4052219283
 40
0.4190249405
 40
0.4329834434
 40
0.4470998701
 40
0.4613754929
 40
0.4758097865
 40
0.4904032509
 40
0.520070436
 40
0.5503824186
 40
0.5813420304
 40
0.5970668144
 40
0.6129534686
 40
0.6290018409
 40
0.645212605
 40
0.6615822943
 40
0.6781056267
 40
0.6947806889
 40
0.7116033651
 40
0.7285650846
 40
0.7370967234
 40
0.7456621015
 40
0.7628969382
 40
0.7802751196
 40
0.7977973989
 40
0.8154625469
 40
0.833273162
 40
0.8512360766
 40
0.8693545373
 40
0.8876291254
 40
0.9060573321
 40
0.9246321284
 40
0.9621563867
 40
0.9810559831
 40
1.0
 40
1.0
 40
1.0
 40
1.0
 10
6.4033651311
 20
5.1901263705
 30
0.0
 10
6.4013976047
 20
5.1882791479
 30
0.0
 10
6.3983912998
 20
5.1855823307
 30
0.0
 10
6.3942691917
 20
5.1821456755
 30
0.0
 10
6.3901157254
 20
5.1788547674
 30
0.0
 10
6.3848236164
 20
5.1749916229
 30
0.0
 10
6.3793570955
 20
5.1714765711
 30
0.0
 10
6.3749060909
 20
5.1689365358
 30
0.0
 10
6.3715527394
 20
5.1671897564
 30
0.0
 10
6.3681716697
 20
5.1656092275
 30
0.0
 10
6.3647691841
 20
5.1642129341
 30
0.0
 10
6.3613527377
 20
5.1630214531
 30
0.0
 10
6.3579327818
 20
5.1620575658
 30
0.0
 10
6.3550754684
 20
5.1614610613
 30
0.0
 10
6.3528028596
 20
5.1611259373
 30
0.0
 10
6.351116925
 20
5.1609493482
 30
0.0
 10
6.349443272
 20
5.1608479764
 30
0.0
 10
6.3477846002
 20
5.1608235328
 30
0.0
 10
6.3461433055
 20
5.1608784179
 30
0.0
 10
6.3439883314
 20
5.1610559292
 30
0.0
 10
6.34133703
 20
5.1614645502
 30
0.0
 10
6.3382288322
 20
5.1622311596
 30
0.0
 10
6.3352035701
 20
5.1632463149
 30
0.0
 10
6.3322583086
 20
5.164484623
 30
0.0
 10
6.3293893058
 20
5.1659241111
 30
0.0
 10
6.3256416216
 20
5.1680925345
 30
0.0
 10
6.3211179234
 20
5.1712184527
 30
0.0
 10
6.3168311184
 20
5.1747472846
 30
0.0
 10
6.3135000569
 20
5.1777905183
 30
0.0
 10
6.3110327086
 20
5.1801898976
 30
0.0
 10
6.3086089317
 20
5.182687534
 30
0.0
 10
6.3062267198
 20
5.1852781361
 30
0.0
 10
6.3038835608
 20
5.1879563698
 30
0.0
 10
6.3007936864
 20
5.1916599903
 30
0.0
 10
6.297029176
 20
5.1964974876
 30
0.0
 10
6.2926868856
 20
5.2025810992
 30
0.0
 10
6.2892267691
 20
5.2078802148
 30
0.0
 10
6.2865511069
 20
5.2122709105
 30
0.0
 10
6.2845865251
 20
5.2156590496
 30
0.0
 10
6.2826801105
 20
5.2191259004
 30
0.0
 10
6.2808368797
 20
5.2226715953
 30
0.0
 10
6.279066152
 20
5.2262976235
 30
0.0
 10
6.2773807337
 20
5.2300061385
 30
0.0
 10
6.2757932713
 20
5.2337981317
 30
0.0
 10
6.2743165106
 20
5.2376732411
 30
0.0
 10
6.2731904659
 20
5.2409637834
 30
0.0
 10
6.2723572636
 20
5.2436356027
 30
0.0
 10
6.2715672791
 20
5.2463439013
 30
0.0
 10
6.2706647877
 20
5.2497759211
 30
0.0
 10
6.2697120533
 20
5.2539532652
 30
0.0
 10
6.2688830693
 20
5.2581929628
 30
0.0
 10
6.2681824184
 20
5.2624917721
 30
0.0
 10
6.2676087155
 20
5.2668457476
 30
0.0
 10
6.2671441495
 20
5.2712499942
 30
0.0
 10
6.2667749195
 20
5.2757014246
 30
0.0
 10
6.2664910177
 20
5.2801973383
 30
0.0
 10
6.2662793473
 20
5.2847346834
 30
0.0
 10
6.2660740778
 20
5.2908552334
 30
0.0
 10
6.2659682157
 20
5.2970172615
 30
0.0
 10
6.2659150503
 20
5.3032099376
 30
0.0
 10
6.2658974932
 20
5.3063194758
 30
0.0
 10
6.2658881828
 20
5.3078760637
 30
0.0
 11
6.4033651311
 21
5.1901263705
 31
0.0
 11
6.3973356035
 21
5.1847231011
 31
0.0
 11
6.3942523058
 21
5.1821533658
 31
0.0
 11
6.3911250329
 21
5.1796769604
 31
0.0
 11
6.3847441384
 21
5.1750307068
 31
0.0
 11
6.3782052479
 21
5.1708448824
 31
0.0
 11
6.3748817613
 21
5.1689509552
 31
0.0
 11
6.3715260303
 21
5.1672065711
 31
0.0
 11
6.3681431348
 21
5.1656290007
 31
0.0
 11
6.3647386962
 21
5.1642364095
 31
0.0
 11
6.3613209573
 21
5.163049581
 31
0.0
 11
6.3579001112
 21
5.162091182
 31
0.0
 11
6.3544902534
 21
5.1613860776
 31
0.0
 11
6.3527951388
 21
5.1611370018
 31
0.0
 11
6.3511097425
 21
5.1609611214
 31
0.0
 11
6.349436772
 21
5.1608604578
 31
0.0
 11
6.3477789928
 21
5.1608368299
 31
0.0
 11
6.3461391237
 21
5.1608919594
 31
0.0
 11
6.3445187356
 21
5.1610251573
 31
0.0
 11
6.3413378533
 21
5.1615128589
 31
0.0
 11
6.3382383983
 21
5.1622737446
 31
0.0
 11
6.3352193324
 21
5.1632825355
 31
0.0
 11
6.3322783365
 21
5.1645147458
 31
0.0
 11
6.3294115811
 21
5.165948361
 31
0.0
 11
6.3266147105
 21
5.1675624309
 31
0.0
 11
6.321212248
 21
5.1712635629
 31
0.0
 11
6.3160350308
 21
5.1755012981
 31
0.0
 11
6.3135215338
 21
5.1777946967
 31
0.0
 11
6.3110537161
 21
5.1801925136
 31
0.0
 11
6.3086293172
 21
5.1826887825
 31
0.0
 11
6.3062462971
 21
5.1852781725
 31
0.0
 11
6.3039027057
 21
5.187955507
 31
0.0
 11
6.3015976134
 21
5.1907173636
 31
0.0
 11
6.2971018089
 21
5.196485423
 31
0.0
 11
6.2927599614
 21
5.2025666417
 31
0.0
 11
6.2885868268
 21
5.2089564056
 31
0.0
 11
6.2865700831
 21
5.2122667381
 31
0.0
 11
6.2846060277
 21
5.2156548024
 31
0.0
 11
6.2827000542
 21
5.219121441
 31
0.0
 11
6.2808577703
 21
5.2226675146
 31
0.0
 11
6.279088465
 21
5.2262941998
 31
0.0
 11
6.27740453
 21
5.2300029392
 31
0.0
 11
6.2758184555
 21
5.2337951474
 31
0.0
 11
6.2743428279
 21
5.2376706435
 31
0.0
 11
6.2729903643
 21
5.2416270608
 31
0.0
 11
6.2723642769
 21
5.2436348227
 31
0.0
 11
6.2717727621
 21
5.245661706
 31
0.0
 11
6.2706903297
 21
5.2497700233
 31
0.0
 11
6.2697363526
 21
5.2539463081
 31
0.0
 11
6.2689075739
 21
5.2581854295
 31
0.0
 11
6.2682061969
 21
5.2624831704
 31
0.0
 11
6.2676291087
 21
5.2668355333
 31
0.0
 11
6.2671618333
 21
5.2712388069
 31
0.0
 11
6.2667905401
 21
5.2756896882
 31
0.0
 11
6.266504092
 21
5.2801853996
 31
0.0
 11
6.266289774
 21
5.2847230371
 31
0.0
 11
6.2661345284
 21
5.2892992359
 31
0.0
 11
6.2659595477
 21
5.2985476016
 31
0.0
 11
6.2659173609
 21
5.3032063077
 31
0.0
 11
6.2658881828
 21
5.3078760637
 31
0.0
  0
LINE
  5
552
100
AcDbEntity
  8
0
100
AcDbLine
 62
9
  6
CONTINUOUS
 10
6.841884471
 20
4.702556528
 11
6.8055513217
 21
4.702921219
  0
SPLINE
  5
553
100
AcDbEntity
  8
0
100
AcDbSpline
 62
9
  6
CONTINUOUS
 70
0
 71
3
 72
11
 73
7
 74
5
 42
0.0000001
 43
0.0000001
 44
0.0000000001
 12
-0.0135248332
 22
-0.0374815504
 32
0.0
 13
-0.0196523788
 23
-0.0346636948
 33
0.0
 40
0.0
 40
0.0
 40
0.0
 40
0.0
 40
0.2682182049
 40
0.5246533819
 40
0.7687418299
 40
1.0
 40
1.0
 40
1.0
 40
1.0
 10
6.8218547005
 20
4.7392324248
 30
0.0
 10
6.8206454983
 20
4.7358813468
 30
0.0
 10
6.8181703525
 20
4.72936526
 30
0.0
 10
6.8141889923
 20
4.7199599306
 30
0.0
 10
6.8100307745
 20
4.7111713162
 30
0.0
 10
6.8070662461
 20
4.7055933066
 30
0.0
 10
6.8055513217
 20
4.702921219
 30
0.0
 11
6.8218547005
 21
4.7392324248
 31
0.0
 11
6.8180514988
 21
4.7292442968
 31
0.0
 11
6.8140589295
 21
4.7198384091
 31
0.0
 11
6.809888401
 21
4.7110517278
 31
0.0
 11
6.8055513217
 21
4.702921219
 31
0.0
  0
SPLINE
  5
554
100
AcDbEntity
  8
0
100
AcDbSpline
 62
9
  6
CONTINUOUS
 70
0
 71
3
 72
32
 73
28
 74
26
 42
0.0000001
 43
0.0000001
 44
0.0000000001
 12
-0.1751900138
 22
-0.0658743731
 32
0.0
 13
0.0
 23
0.1871656325
 33
0.0
 40
0.0
 40
0.0
 40
0.0
 40
0.0
 40
0.0300136834
 40
0.0598477574
 40
0.0895247234
 40
0.119076387
 40
0.1485450041
 40
0.1632667962
 40
0.1779889395
 40
0.2074601631
 40
0.2370165235
 40
0.2666997945
 40
0.2965413486
 40
0.3567522903
 40
0.4177666812
 40
0.4795810908
 40
0.5421386783
 40
0.6053636381
 40
0.6691934947
 40
0.7336098342
 40
0.7986677767
 40
0.8314959248
 40
0.8645530811
 40
0.8978787099
 40
0.9315213861
 40
0.9655392005
 40
1.0
 40
1.0
 40
1.0
 40
1.0
 10
6.4339625801
 20
5.2099945364
 30
0.0
 10
6.4322098809
 20
5.2093354922
 30
0.0
 10
6.4286743867
 20
5.2081262661
 30
0.0
 10
6.4232841298
 20
5.2066496591
 30
0.0
 10
6.4178381671
 20
5.2055269388
 30
0.0
 10
6.4123524805
 20
5.204769515
 30
0.0
 10
6.4077587549
 20
5.2044520736
 30
0.0
 10
6.4040830965
 20
5.2043923394
 30
0.0
 10
6.4004074817
 20
5.2044635308
 30
0.0
 10
6.3958142699
 20
5.2047949573
 30
0.0
 10
6.3903300348
 20
5.2055686571
 30
0.0
 10
6.3848860872
 20
5.2067072013
 30
0.0
 10
6.3776828201
 20
5.2087018559
 30
0.0
 10
6.3688502469
 20
5.2120618597
 30
0.0
 10
6.3587050647
 20
5.2173569277
 30
0.0
 10
6.3490975664
 20
5.2238392114
 30
0.0
 10
6.3401508641
 20
5.2314204459
 30
0.0
 10
6.3319874604
 20
5.2400136868
 30
0.0
 10
6.3247312447
 20
5.2495329627
 30
0.0
 10
6.3185076008
 20
5.2598914555
 30
0.0
 10
6.3142984194
 20
5.2691279867
 30
0.0
 10
6.3115735008
 20
5.2768336948
 30
0.0
 10
6.3098604147
 20
5.2827855973
 30
0.0
 10
6.3085006335
 20
5.2888800274
 30
0.0
 10
6.3075098619
 20
5.2951061937
 30
0.0
 10
6.3069039805
 20
5.3014525429
 30
0.0
 10
6.3067681936
 20
5.305726093
 30
0.0
 10
6.3067681936
 20
5.3078760521
 30
0.0
 11
6.4339625801
 21
5.2099945364
 31
0.0
 11
6.4286466939
 21
5.2081784975
 31
0.0
 11
6.4232606441
 21
5.2067052167
 31
0.0
 11
6.4178200992
 21
5.2055858279
 31
0.0
 11
6.4123407275
 21
5.2048314648
 31
0.0
 11
6.4068381973
 21
5.2044532608
 31
0.0
 11
6.4040831442
 21
5.2044086979
 31
0.0
 11
6.401328177
 21
5.2044618221
 31
0.0
 11
6.3958263351
 21
5.2048567819
 31
0.0
 11
6.3903483397
 21
5.205627412
 31
0.0
 11
6.3849098594
 21
5.2067625786
 31
0.0
 11
6.3795265625
 21
5.2082511481
 31
0.0
 11
6.3689881922
 21
5.2122439612
 31
0.0
 11
6.3588585758
 21
5.2175167818
 31
0.0
 11
6.3492630602
 21
5.2239805404
 31
0.0
 11
6.3403269923
 21
5.2315461677
 31
0.0
 11
6.332175719
 21
5.2401245943
 31
0.0
 11
6.3249345873
 21
5.2496267508
 31
0.0
 11
6.318728944
 21
5.2599635678
 31
0.0
 11
6.3136841361
 21
5.2710459758
 31
0.0
 11
6.3116362163
 21
5.2768389422
 31
0.0
 11
6.3099255104
 21
5.2827849054
 31
0.0
 11
6.3085676869
 21
5.2888727317
 31
0.0
 11
6.307578414
 21
5.2950912874
 31
0.0
 11
6.3069733601
 21
5.3014294387
 31
0.0
 11
6.3067681936
 21
5.3078760521
 31
0.0
  0
SPLINE
  5
555
100
AcDbEntity
  8
0
100
AcDbSpline
 62
9
  6
CONTINUOUS
 70
0
 71
3
 72
17
 73
13
 74
11
 42
0.0000001
 43
0.0000001
 44
0.0000000001
 12
-0.1332483214
 22
0.0013986369
 32
0.0
 13
-0.1332312361
 23
-0.0025512895
 33
0.0
 40
0.0
 40
0.0
 40
0.0
 40
0.0
 40
0.045508469
 40
0.0969628063
 40
0.2153692263
 40
0.2809513043
 40
0.3496908662
 40
0.49311522
 40
0.6375579156
 40
0.7747836464
 40
0.8974487285
 40
1.0
 40
1.0
 40
1.0
 40
1.0
 10
6.8055513217
 20
4.702921219
 30
0.0
 10
6.8035300127
 20
4.7029424356
 30
0.0
 10
6.7992232137
 20
4.702979371
 30
0.0
 10
6.7896569613
 20
4.7030324969
 30
0.0
 10
6.7791988817
 20
4.7030456806
 30
0.0
 10
6.767973089
 20
4.7030209093
 30
0.0
 10
6.7556361261
 20
4.7029656489
 30
0.0
 10
6.7397966236
 20
4.7028398682
 30
0.0
 10
6.7209158833
 20
4.7026177775
 30
0.0
 10
6.7029580143
 20
4.7023451616
 30
0.0
 10
6.6868613803
 20
4.7020597212
 30
0.0
 10
6.6768594615
 20
4.7018664665
 30
0.0
 10
6.6723051173
 20
4.7017792538
 30
0.0
 11
6.8055513217
 21
4.702921219
 31
0.0
 11
6.7994872923
 21
4.7029742387
 31
0.0
 11
6.7926308202
 21
4.7030130096
 31
0.0
 11
6.7768525124
 21
4.7030369028
 31
0.0
 11
6.7681133497
 21
4.7030179865
 31
0.0
 11
6.7589535053
 21
4.7029770839
 31
0.0
 11
6.7398419788
 21
4.7028280983
 31
0.0
 11
6.7205954909
 21
4.7026027641
 31
0.0
 11
6.7023114628
 21
4.702327134
 31
0.0
 11
6.6859681829
 21
4.702039168
 31
0.0
 11
6.6723051173
 21
4.7017792538
 31
0.0
  0
SPLINE
  5
556
100
AcDbEntity
  8
0
100
AcDbSpline
 62
9
  6
CONTINUOUS
 70
0
 71
3
 72
9
 73
5
 74
3
 42
0.0000001
 43
0.0000001
 44
0.0000000001
 12
0.0285520698
 22
-0.0379200405
 32
0.0
 13
0.0360675833
 23
-0.0308590277
 33
0.0
 40
0.0
 40
0.0
 40
0.0
 40
0.0
 40
0.5057672305
 40
1.0
 40
1.0
 40
1.0
 40
1.0
 10
6.6399266721
 20
4.7363935795
 30
0.0
 10
6.6447402392
 20
4.7300006749
 30
0.0
 10
6.6549241499
 20
4.7178478086
 30
0.0
 10
6.6663631901
 20
4.7068631014
 30
0.0
 10
6.6723051173
 20
4.7017792538
 30
0.0
 11
6.6399266721
 21
4.7363935795
 31
0.0
 11
6.6553626786
 21
4.7180064475
 31
0.0
 11
6.6723051173
 21
4.7017792538
 31
0.0
  0
SPLINE
  5
557
100
AcDbEntity
  8
0
100
AcDbSpline
 62
9
  6
CONTINUOUS
 70
0
 71
3
 72
34
 73
30
 74
28
 42
0.0000001
 43
0.0000001
 44
0.0000000001
 12
-0.0174901786
 22
-0.0003349253
 32
0.0
 13
0.0141670454
 23
-0.010262229
 33
0.0
 40
0.0
 40
0.0
 40
0.0
 40
0.0
 40
0.2446220046
 40
0.4531700022
 40
0.626592948
 40
0.7004293583
 40
0.7658408356
 40
0.8229464335
 40
0.8484218253
 40
0.8718654241
 40
0.8932898933
 40
0.9127059145
 40
0.9301241794
 40
0.9455555092
 40
0.9590109285
 40
0.970501802
 40
0.9800401088
 40
0.9840811685
 40
0.9876392323
 40
0.9907164274
 40
0.9933153385
 40
0.9954394139
 40
0.9970939413
 40
0.9982888908
 40
0.9987214362
 40
0.9990526098
 40
0.999299139
 40
0.9994998423
 40
1.0
 40
1.0
 40
1.0
 40
1.0
 10
6.6723051173
 20
4.7017792538
 30
0.0
 10
6.6708789565
 20
4.7017519438
 30
0.0
 10
6.6682369887
 20
4.7016991707
 30
0.0
 10
6.664584148
 20
4.7016177855
 30
0.0
 10
6.6619271221
 20
4.7015504707
 30
0.0
 10
6.6601046538
 20
4.7014979247
 30
0.0
 10
6.658960262
 20
4.7014617326
 30
0.0
 10
6.6580978278
 20
4.7014314459
 30
0.0
 10
6.6574800468
 20
4.7014075338
 30
0.0
 10
6.6570702159
 20
4.7013905591
 30
0.0
 10
6.6566957387
 20
4.7013738558
 30
0.0
 10
6.656356421
 20
4.7013574247
 30
0.0
 10
6.6560520806
 20
4.7013412703
 30
0.0
 10
6.6557825352
 20
4.7013253977
 30
0.0
 10
6.655547601
 20
4.7013098197
 30
0.0
 10
6.6553470946
 20
4.701294543
 30
0.0
 10
6.6552014834
 20
4.7012814792
 30
0.0
 10
6.655102107
 20
4.7012709478
 30
0.0
 10
6.6550402888
 20
4.7012635698
 30
0.0
 10
6.6549869349
 20
4.7012562779
 30
0.0
 10
6.6549420218
 20
4.7012490751
 30
0.0
 10
6.654905498
 20
4.7012419957
 30
0.0
 10
6.6548773417
 20
4.7012350283
 30
0.0
 10
6.6548591315
 20
4.7012289447
 30
0.0
 10
6.6548489125
 20
4.7012237631
 30
0.0
 10
6.6548441223
 20
4.7012203059
 30
0.0
 10
6.6548411477
 20
4.7012167096
 30
0.0
 10
6.6548403366
 20
4.7012108771
 30
0.0
 10
6.6548439312
 20
4.7012075982
 30
0.0
 10
6.6548462932
 20
4.7012058873
 30
0.0
 11
6.6723051173
 21
4.7017792538
 31
0.0
 11
6.6680267158
 21
4.7016931961
 31
0.0
 11
6.664379427
 21
4.7016111968
 31
0.0
 11
6.6613466733
 21
4.7015332855
 31
0.0
 11
6.6600555665
 21
4.701495872
 31
0.0
 11
6.6589118768
 21
4.7014594917
 31
0.0
 11
6.657913532
 21
4.7014241481
 31
0.0
 11
6.6574682164
 21
4.7014068663
 31
0.0
 11
6.6570584618
 21
4.701389845
 31
0.0
 11
6.6566840503
 21
4.7013730844
 31
0.0
 11
6.6563447994
 21
4.7013565844
 31
0.0
 11
6.656040528
 21
4.7013403449
 31
0.0
 11
6.6557710552
 21
4.7013243657
 31
0.0
 11
6.6555361998
 21
4.7013086467
 31
0.0
 11
6.6553357809
 21
4.7012931877
 31
0.0
 11
6.6551696173
 21
4.7012779886
 31
0.0
 11
6.6550993247
 21
4.7012704865
 31
0.0
 11
6.655037528
 21
4.7012630493
 31
0.0
 11
6.6549842047
 21
4.7012556771
 31
0.0
 11
6.654939332
 21
4.7012483697
 31
0.0
 11
6.6549028874
 21
4.7012411272
 31
0.0
 11
6.6548748482
 21
4.7012339496
 31
0.0
 11
6.6548551918
 21
4.7012268368
 31
0.0
 11
6.6548485001
 21
4.7012233047
 31
0.0
 11
6.6548438956
 21
4.7012197888
 31
0.0
 11
6.6548413755
 21
4.7012162891
 31
0.0
 11
6.6548409369
 21
4.7012128056
 31
0.0
 11
6.6548462932
 21
4.7012058873
 31
0.0
  0
SPLINE
  5
558
100
AcDbEntity
  8
0
100
AcDbSpline
 62
9
  6
CONTINUOUS
 70
0
 71
3
 72
15
 73
11
 74
9
 42
0.0000001
 43
0.0000001
 44
0.0000000001
 12
-0.0155158725
 22
0.0293590258
 32
0.0
 13
0.0071503796
 23
0.0324278702
 33
0.0
 40
0.0
 40
0.0
 40
0.0
 40
0.0
 40
0.1043323467
 40
0.2127522098
 40
0.3259204871
 40
0.4447179659
 40
0.5702313632
 40
0.7037046646
 40
0.8464874419
 40
1.0
 40
1.0
 40
1.0
 40
1.0
 10
6.4901198315
 20
5.148558742
 30
0.0
 10
6.489580229
 20
5.149579774
 30
0.0
 10
6.4885642273
 20
5.1517077736
 30
0.0
 10
6.4872928137
 20
5.1550886908
 30
0.0
 10
6.4862878437
 20
5.1587254438
 30
0.0
 10
6.4855914367
 20
5.1626264496
 30
0.0
 10
6.485243138
 20
5.1667995872
 30
0.0
 10
6.4852793015
 20
5.1712526409
 30
0.0
 10
6.4857363383
 20
5.1759933544
 30
0.0
 10
6.4863226631
 20
5.1792244494
 30
0.0
 10
6.4866885541
 20
5.1808838112
 30
0.0
 11
6.4901198315
 21
5.148558742
 31
0.0
 11
6.4886284913
 21
5.1516858812
 31
0.0
 11
6.487361656
 21
5.1550559194
 31
0.0
 11
6.4863599142
 21
5.1586779063
 31
0.0
 11
6.4856637967
 21
5.1625608917
 31
0.0
 11
6.4853120321
 21
5.1667139251
 31
0.0
 11
6.4853412383
 21
5.1711460564
 31
0.0
 11
6.4857879131
 21
5.1758663352
 31
0.0
 11
6.4866885541
 21
5.1808838112
 31
0.0
  0
SPLINE
  5
559
100
AcDbEntity
  8
0
100
AcDbSpline
 62
9
  6
CONTINUOUS
 70
0
 71
3
 72
22
 73
18
 74
16
 42
0.0000001
 43
0.0000001
 44
0.0000000001
 12
-0.0052267032
 22
0.0302780263
 32
0.0
 13
0.02147873
 23
0.0219713782
 33
0.0
 40
0.0
 40
0.0
 40
0.0
 40
0.0
 40
0.0352569164
 40
0.0724292121
 40
0.1538982732
 40
0.1990080772
 40
0.2475187672
 40
0.2998123774
 40
0.3562674531
 40
0.4172568066
 40
0.4831445322
 40
0.5542772775
 40
0.6309889127
 40
0.7136040757
 40
0.8024392064
 40
0.8978035367
 40
1.0
 40
1.0
 40
1.0
 40
1.0
 10
6.5359917424
 20
5.0135624934
 30
0.0
 10
6.5359303166
 20
5.01391833
 30
0.0
 10
6.535840557
 20
5.014656086
 30
0.0
 10
6.5357965437
 20
5.0162334328
 30
0.0
 10
6.5359773216
 20
5.0179101968
 30
0.0
 10
6.5363718378
 20
5.0196605294
 30
0.0
 10
6.5368068075
 20
5.0210917503
 30
0.0
 10
6.5373791786
 20
5.0225984261
 30
0.0
 10
6.5380972707
 20
5.0241827859
 30
0.0
 10
6.5389693929
 20
5.0258466896
 30
0.0
 10
6.5400038278
 20
5.0275920114
 30
0.0
 10
6.5412081989
 20
5.0294208323
 30
0.0
 10
6.5425901028
 20
5.0313351749
 30
0.0
 10
6.5441571383
 20
5.0333370217
 30
0.0
 10
6.5459169184
 20
5.0354283558
 30
0.0
 10
6.5478770387
 20
5.0376111287
 30
0.0
 10
6.5492728079
 20
5.039076484
 30
0.0
 10
6.5500044913
 20
5.0398249497
 30
0.0
 11
6.5359917424
 21
5.0135624934
 31
0.0
 11
6.5358592912
 21
5.0146376641
 31
0.0
 11
6.5358254006
 21
5.0157793113
 31
0.0
 11
6.5360777226
 21
5.0182697672
 31
0.0
 11
6.5363799934
 21
5.0196224424
 31
0.0
 11
6.5368109072
 21
5.0210493264
 31
0.0
 11
6.5373788919
 21
5.0225523526
 31
0.0
 11
6.5380923753
 21
5.024133454
 31
0.0
 11
6.5389597852
 21
5.0257945637
 31
0.0
 11
6.5399894422
 21
5.027537615
 31
0.0
 11
6.5411891287
 21
5.0293645408
 31
0.0
 11
6.5425664587
 21
5.0312772745
 31
0.0
 11
6.5441290461
 21
5.0332777491
 31
0.0
 11
6.5458845048
 21
5.0353678977
 31
0.0
 11
6.5478404485
 21
5.0375496536
 31
0.0
 11
6.5500044913
 21
5.0398249497
 31
0.0
  0
SPLINE
  5
55A
100
AcDbEntity
  8
0
100
AcDbSpline
 62
9
  6
CONTINUOUS
 70
0
 71
3
 72
15
 73
11
 74
9
 42
0.0000001
 43
0.0000001
 44
0.0000000001
 12
-0.0797468831
 22
-0.0654138894
 32
0.0
 13
-0.1029674553
 23
-0.0060204172
 33
0.0
 40
0.0
 40
0.0
 40
0.0
 40
0.0
 40
0.1251988682
 40
0.2501214118
 40
0.3749054058
 40
0.499657653
 40
0.624464606
 40
0.7494031688
 40
0.8745515417
 40
1.0
 40
1.0
 40
1.0
 40
1.0
 10
6.8642663904
 20
4.702921219
 30
0.0
 10
6.8609383172
 20
4.7001913041
 30
0.0
 10
6.8540644646
 20
4.6950055846
 30
0.0
 10
6.8431748477
 20
4.6880851166
 30
0.0
 10
6.8317856829
 20
4.6820534389
 30
0.0
 10
6.8199638646
 20
4.6769324194
 30
0.0
 10
6.8077751651
 20
4.6727431605
 30
0.0
 10
6.7952852116
 20
4.6695071402
 30
0.0
 10
6.7825608415
 20
4.6672460118
 30
0.0
 10
6.773975756
 20
4.6664041574
 30
0.0
 10
6.7696700532
 20
4.6661524067
 30
0.0
 11
6.8642663904
 21
4.702921219
 31
0.0
 11
6.8539588418
 21
4.6951423371
 31
0.0
 11
6.8430852854
 21
4.6882295193
 31
0.0
 11
6.8317120115
 21
4.6822044164
 31
0.0
 11
6.819905311
 21
4.6770886793
 31
0.0
 11
6.8077314743
 21
4.6729039589
 31
0.0
 11
6.795256792
 21
4.6696719061
 31
0.0
 11
6.7825475548
 21
4.6674141718
 31
0.0
 11
6.7696700532
 21
4.6661524067
 31
0.0
  0
SPLINE
  5
55B
100
AcDbEntity
  8
0
100
AcDbSpline
 62
9
  6
CONTINUOUS
 70
0
 71
3
 72
25
 73
21
 74
19
 42
0.0000001
 43
0.0000001
 44
0.0000000001
 12
0.0027426997
 22
0.011024221
 32
0.0
 13
-0.0113389235
 23
0.0006961786
 33
0.0
 40
0.0
 40
0.0
 40
0.0
 40
0.0
 40
0.0067659317
 40
0.0140199364
 40
0.0227940643
 40
0.033611132
 40
0.046683799
 40
0.0620757354
 40
0.079778724
 40
0.0997474186
 40
0.146200883
 40
0.2007940112
 40
0.2627871614
 40
0.3313664549
 40
0.405587265
 40
0.4844694129
 40
0.5670243684
 40
0.6522582636
 40
0.8267697396
 40
1.0
 40
1.0
 40
1.0
 40
1.0
 10
6.9434233221
 20
4.8182884812
 30
0.0
 10
6.9434295077
 20
4.8183133443
 30
0.0
 10
6.9434306614
 20
4.8183687379
 30
0.0
 10
6.9433921242
 20
4.8184484651
 30
0.0
 10
6.9433211075
 20
4.8185225168
 30
0.0
 10
6.9432196233
 20
4.8185940424
 30
0.0
 10
6.9430880366
 20
4.8186639529
 30
0.0
 10
6.9429270554
 20
4.8187325131
 30
0.0
 10
6.9427375951
 20
4.818799736
 30
0.0
 10
6.9424326707
 20
4.8188922363
 30
0.0
 10
6.9419872079
 20
4.8190010186
 30
0.0
 10
6.9413814243
 20
4.8191207273
 30
0.0
 10
6.9406894741
 20
4.8192347002
 30
0.0
 10
6.9399214772
 20
4.8193426899
 30
0.0
 10
6.9390882109
 20
4.8194447412
 30
0.0
 10
6.9382009997
 20
4.8195408544
 30
0.0
 10
6.9372712664
 20
4.8196310638
 30
0.0
 10
6.935980008
 20
4.8197443999
 30
0.0
 10
6.9343451342
 20
4.8198691379
 30
0.0
 10
6.933031119
 20
4.8199552306
 30
0.0
 10
6.9323763708
 20
4.8199954303
 30
0.0
 11
6.9434233221
 21
4.8182884812
 31
0.0
 11
6.9434248322
 21
4.8183653292
 31
0.0
 11
6.9433915598
 21
4.8184407212
 31
0.0
 11
6.9433246984
 21
4.8185146465
 31
0.0
 11
6.9432254416
 21
4.818587095
 31
0.0
 11
6.9430949828
 21
4.818658056
 31
0.0
 11
6.9429345157
 21
4.8187275192
 31
0.0
 11
6.9427452337
 21
4.8187954741
 31
0.0
 11
6.9425283302
 21
4.8188619103
 31
0.0
 11
6.9420164334
 21
4.8189901848
 31
0.0
 11
6.9414083732
 21
4.8191122592
 31
0.0
 11
6.9407136981
 21
4.81922805
 31
0.0
 11
6.9399423462
 21
4.8193375097
 31
0.0
 11
6.9391055164
 21
4.8194407064
 31
0.0
 11
6.9382146616
 21
4.8195377321
 31
0.0
 11
6.9372812347
 21
4.8196286784
 31
0.0
 11
6.9363166886
 21
4.8197136371
 31
0.0
 11
6.9343400506
 21
4.8198659585
 31
0.0
 11
6.9323763708
 21
4.8199954303
 31
0.0
  0
SPLINE
  5
55C
100
AcDbEntity
  8
0
100
AcDbSpline
 62
6
  6
CONTINUOUS
 70
0
 71
3
 72
24
 73
20
 74
18
 42
0.0000001
 43
0.0000001
 44
0.0000000001
 12
-0.0007031742
 22
0.0140354673
 32
0.0
 13
-0.0140186801
 23
0.0009825509
 33
0.0
 40
0.0
 40
0.0
 40
0.0
 40
0.0
 40
0.0066234328
 40
0.0137888017
 40
0.0219049438
 40
0.031256312
 40
0.0420295176
 40
0.0543463296
 40
0.0838976157
 40
0.1203203738
 40
0.1638142876
 40
0.2144925357
 40
0.272423592
 40
0.3376507753
 40
0.410202255
 40
0.4900965663
 40
0.5773458385
 40
0.7739343069
 40
1.0
 40
1.0
 40
1.0
 40
1.0
 10
6.9506339672
 20
4.8926213972
 30
0.0
 10
6.9506324147
 20
4.8926523849
 30
0.0
 10
6.9506194455
 20
4.8927167061
 30
0.0
 10
6.950572696
 20
4.8928091032
 30
0.0
 10
6.950499673
 20
4.8928992947
 30
0.0
 10
6.9504008184
 20
4.8929878163
 30
0.0
 10
6.9502761206
 20
4.8930751474
 30
0.0
 10
6.9500618774
 20
4.8931977533
 30
0.0
 10
6.9497248443
 20
4.8933446383
 30
0.0
 10
6.949238721
 20
4.8935087878
 30
0.0
 10
6.9486481875
 20
4.8936696352
 30
0.0
 10
6.9479531347
 20
4.8938270476
 30
0.0
 10
6.9471533503
 20
4.8939807961
 30
0.0
 10
6.9462488409
 20
4.8941307309
 30
0.0
 10
6.9452396276
 20
4.894276712
 30
0.0
 10
6.9441257718
 20
4.8944186405
 30
0.0
 10
6.942432655
 20
4.8946100063
 30
0.0
 10
6.9400544491
 20
4.8948343422
 30
0.0
 10
6.9380802907
 20
4.894985577
 30
0.0
 10
6.9370239099
 20
4.8950596173
 30
0.0
 11
6.9506339672
 21
4.8926213972
 31
0.0
 11
6.9506161576
 21
4.8927127571
 31
0.0
 11
6.9505719356
 21
4.8928032225
 31
0.0
 11
6.9505013135
 21
4.892892785
 31
0.0
 11
6.9504043034
 21
4.8929814364
 31
0.0
 11
6.9502809175
 21
4.893069168
 31
0.0
 11
6.9501311679
 21
4.8931559716
 31
0.0
 11
6.9497526264
 21
4.8933267612
 31
0.0
 11
6.9492687763
 21
4.8934937378
 31
0.0
 11
6.9486797151
 21
4.8936568344
 31
0.0
 11
6.9479855401
 21
4.8938159837
 31
0.0
 11
6.9471863486
 21
4.8939711185
 31
0.0
 11
6.946282238
 21
4.8941221718
 31
0.0
 11
6.9452733058
 21
4.8942690763
 31
0.0
 11
6.9441596493
 21
4.8944117648
 31
0.0
 11
6.9429413658
 21
4.8945501702
 31
0.0
 11
6.9401913075
 21
4.894813863
 31
0.0
 11
6.9370239099
 21
4.8950596173
 31
0.0
  0
SPLINE
  5
55D
100
AcDbEntity
  8
0
100
AcDbSpline
 62
9
  6
CONTINUOUS
 70
0
 71
3
 72
16
 73
12
 74
10
 42
0.0000001
 43
0.0000001
 44
0.0000000001
 12
-0.0256618124
 22
-0.0452633873
 32
0.0
 13
-0.0498383686
 23
-0.014947905
 33
0.0
 40
0.0
 40
0.0
 40
0.0
 40
0.0
 40
0.156838597
 40
0.3036064623
 40
0.4405553537
 40
0.5680837754
 40
0.6867830727
 40
0.7974941159
 40
0.9013701912
 40
0.9512374084
 40
1.0
 40
1.0
 40
1.0
 40
1.0
 10
6.8055513217
 20
4.702921219
 30
0.0
 10
6.8042097341
 20
4.7005548703
 30
0.0
 10
6.8014995981
 20
4.696036623
 30
0.0
 10
6.7971939693
 20
4.6897185656
 30
0.0
 10
6.7927896536
 20
4.6841004104
 30
0.0
 10
6.7882923803
 20
4.6791971121
 30
0.0
 10
6.7837065298
 20
4.6750236576
 30
0.0
 10
6.7790368681
 20
4.6715965857
 30
0.0
 10
6.7750226247
 20
4.6693472928
 30
0.0
 10
6.7717914743
 20
4.6679639978
 30
0.0
 10
6.7701715682
 20
4.6674081323
 30
0.0
 10
6.7693614855
 20
4.6671651661
 30
0.0
 11
6.8055513217
 21
4.702921219
 31
0.0
 11
6.8013411012
 21
4.6959305671
 31
0.0
 11
6.7970269024
 21
4.6896293629
 31
0.0
 11
6.7926159274
 21
4.6840330461
 31
0.0
 11
6.7881153783
 21
4.6791570566
 31
0.0
 11
6.7835324574
 21
4.6750168341
 31
0.0
 11
6.7788743669
 21
4.6716278183
 31
0.0
 11
6.7741483089
 21
4.6690054491
 31
0.0
 11
6.7717620427
 21
4.6679865818
 31
0.0
 11
6.7693614855
 21
4.6671651661
 31
0.0
  0
SPLINE
  5
55E
100
AcDbEntity
  8
0
100
AcDbSpline
 62
9
  6
CONTINUOUS
 70
0
 71
3
 72
8
 73
4
 74
2
 42
0.0000001
 43
0.0000001
 44
0.0000000001
 12
-0.0000506906
 22
-0.0000151584
 32
0.0
 13
-0.0000506906
 23
-0.0000151584
 33
0.0
 40
0.0
 40
0.0
 40
0.0
 40
0.0
 40
1.0
 40
1.0
 40
1.0
 40
1.0
 10
6.7693614855
 20
4.6671651661
 30
0.0
 10
6.7693445887
 20
4.6671601133
 30
0.0
 10
6.7693276918
 20
4.6671550605
 30
0.0
 10
6.769310795
 20
4.6671500077
 30
0.0
 11
6.7693614855
 21
4.6671651661
 31
0.0
 11
6.769310795
 21
4.6671500077
 31
0.0
  0
SPLINE
  5
55F
100
AcDbEntity
  8
0
100
AcDbSpline
 62
9
  6
CONTINUOUS
 70
0
 71
3
 72
9
 73
5
 74
3
 42
0.0000001
 43
0.0000001
 44
0.0000000001
 12
-0.0076120591
 22
-0.0022695264
 32
0.0
 13
-0.0079403717
 23
-0.0002114038
 33
0.0
 40
0.0
 40
0.0
 40
0.0
 40
0.0
 40
0.5033613783
 40
1.0
 40
1.0
 40
1.0
 40
1.0
 10
6.769310795
 20
4.6671500077
 30
0.0
 10
6.7680335895
 20
4.6667692104
 30
0.0
 10
6.7654463095
 20
4.6661691853
 30
0.0
 10
6.762801353
 20
4.6659179327
 30
0.0
 10
6.7614868546
 20
4.6658829357
 30
0.0
 11
6.769310795
 21
4.6671500077
 31
0.0
 11
6.7654143022
 21
4.6662535209
 31
0.0
 11
6.7614868546
 21
4.6658829357
 31
0.0
  0
SPLINE
  5
560
100
AcDbEntity
  8
0
100
AcDbSpline
 62
9
  6
CONTINUOUS
 70
0
 71
3
 72
29
 73
25
 74
23
 42
0.0000001
 43
0.0000001
 44
0.0000000001
 12
0.0048684074
 22
0.006697594
 32
0.0
 13
-0.0082795089
 23
0.0000942791
 33
0.0
 40
0.0
 40
0.0
 40
0.0
 40
0.0
 40
0.0020112063
 40
0.0037803519
 40
0.0077249575
 40
0.0103833798
 40
0.0136146655
 40
0.0219230305
 40
0.0327681959
 40
0.0461396838
 40
0.0619871571
 40
0.0802431
 40
0.1008314692
 40
0.1236715314
 40
0.1486797684
 40
0.1757709074
 40
0.2358532101
 40
0.3031596636
 40
0.3768509972
 40
0.4560791538
 40
0.5399935336
 40
0.6277419319
 40
0.811326567
 40
1.0
 40
1.0
 40
1.0
 40
1.0
 10
6.9080935188
 20
4.7419190402
 30
0.0
 10
6.9080967826
 20
4.7419235302
 30
0.0
 10
6.908101997
 20
4.7419328259
 30
0.0
 10
6.9081042302
 20
4.7419548039
 30
0.0
 10
6.9080898974
 20
4.7419756702
 30
0.0
 10
6.9080686765
 20
4.7419922417
 30
0.0
 10
6.9080346897
 20
4.7420121614
 30
0.0
 10
6.9079771147
 20
4.742035052
 30
0.0
 10
6.9078909346
 20
4.7420603983
 30
0.0
 10
6.9077830842
 20
4.7420850383
 30
0.0
 10
6.9076542447
 20
4.7421090249
 30
0.0
 10
6.9075050752
 20
4.7421322545
 30
0.0
 10
6.9073363025
 20
4.7421547101
 30
0.0
 10
6.9071486538
 20
4.7421763635
 30
0.0
 10
6.9069428668
 20
4.742197203
 30
0.0
 10
6.9066344747
 20
4.7422248469
 30
0.0
 10
6.906209272
 20
4.7422566323
 30
0.0
 10
6.9056553034
 20
4.7422903775
 30
0.0
 10
6.9050482366
 20
4.7423209513
 30
0.0
 10
6.9043951423
 20
4.7423484015
 30
0.0
 10
6.9037031045
 20
4.7423727882
 30
0.0
 10
6.9027230395
 20
4.742401736
 30
0.0
 10
6.9014537096
 20
4.7424298928
 30
0.0
 10
6.9004263732
 20
4.7424449426
 30
0.0
 10
6.8999056654
 20
4.7424508719
 30
0.0
 11
6.9080935188
 21
4.7419190402
 31
0.0
 11
6.9081011643
 21
4.7419338342
 31
0.0
 11
6.9081025051
 21
4.7419484214
 31
0.0
 11
6.9080866448
 21
4.7419769735
 31
0.0
 11
6.9080696296
 21
4.7419909379
 31
0.0
 11
6.9080466817
 21
4.7420046942
 31
0.0
 11
6.9079833598
 21
4.742031581
 31
0.0
 11
6.9078974231
 21
4.7420576317
 31
0.0
 11
6.9077896154
 21
4.7420828439
 31
0.0
 11
6.9076606807
 21
4.7421072151
 31
0.0
 11
6.9075113629
 21
4.7421307431
 31
0.0
 11
6.907342406
 21
4.7421534254
 31
0.0
 11
6.9071545539
 21
4.7421752597
 31
0.0
 11
6.9069485506
 21
4.7421962437
 31
0.0
 11
6.9067251399
 21
4.7422163749
 31
0.0
 11
6.9062290859
 21
4.7422540708
 31
0.0
 11
6.9056728421
 21
4.7422883746
 31
0.0
 11
6.9050634622
 21
4.7423193685
 31
0.0
 11
6.9044080375
 21
4.7423471387
 31
0.0
 11
6.9037136594
 21
4.742371771
 31
0.0
 11
6.9029874192
 21
4.7423933513
 31
0.0
 11
6.9014677182
 21
4.7424276998
 31
0.0
 11
6.8999056654
 21
4.7424508719
 31
0.0
  0
SPLINE
  5
561
100
AcDbEntity
  8
0
100
AcDbSpline
 62
9
  6
CONTINUOUS
 70
0
 71
3
 72
15
 73
11
 74
9
 42
0.0000001
 43
0.0000001
 44
0.0000000001
 12
0.0742756678
 22
-0.0635494447
 32
0.0
 13
0.0977482527
 23
-0.0008281525
 33
0.0
 40
0.0
 40
0.0
 40
0.0
 40
0.0
 40
0.1337371487
 40
0.2648379548
 40
0.393339955
 40
0.5192921596
 40
0.6427723788
 40
0.7639062019
 40
0.8828875014
 40
1.0
 40
1.0
 40
1.0
 40
1.0
 10
6.6723051173
 20
4.7017792538
 30
0.0
 10
6.675616256
 20
4.69894628
 30
0.0
 10
6.6823924853
 20
4.6935862198
 30
0.0
 10
6.6930511289
 20
4.686445519
 30
0.0
 10
6.7040299016
 20
4.6803097177
 30
0.0
 10
6.715253439
 20
4.6752068046
 30
0.0
 10
6.7266473573
 20
4.6711642197
 30
0.0
 10
6.7381377278
 20
4.6682099923
 30
0.0
 10
6.7496486145
 20
4.6663725711
 30
0.0
 10
6.7573428866
 20
4.6659083811
 30
0.0
 10
6.761158734
 20
4.6658760521
 30
0.0
 11
6.6723051173
 21
4.7017792538
 31
0.0
 11
6.6825620154
 21
4.6936736717
 31
0.0
 11
6.6932127473
 21
4.6865466307
 31
0.0
 11
6.7041817966
 21
4.680425672
 31
0.0
 11
6.715393647
 21
4.6753383368
 31
0.0
 11
6.7267727822
 21
4.6713121661
 31
0.0
 11
6.738243686
 21
4.668374701
 31
0.0
 11
6.7497308421
 21
4.6665534826
 31
0.0
 11
6.761158734
 21
4.6658760521
 31
0.0
  0
SPLINE
  5
562
100
AcDbEntity
  8
0
100
AcDbSpline
 62
9
  6
CONTINUOUS
 70
0
 71
3
 72
29
 73
25
 74
23
 42
0.0000001
 43
0.0000001
 44
0.0000000001
 12
0.0049006134
 22
0.0064736871
 32
0.0
 13
-0.0081192003
 23
0.0000567741
 33
0.0
 40
0.0
 40
0.0
 40
0.0
 40
0.0
 40
0.0018903675
 40
0.0035385769
 40
0.0073063542
 40
0.0099106971
 40
0.0131022672
 40
0.0213571658
 40
0.0321665803
 40
0.0455109
 40
0.0613354826
 40
0.0795706813
 40
0.1001394208
 40
0.1229605459
 40
0.1479504805
 40
0.1750241233
 40
0.23507506
 40
0.3023565484
 40
0.3760347484
 40
0.4552681138
 40
0.5392128864
 40
0.6270239123
 40
0.8108594015
 40
1.0
 40
1.0
 40
1.0
 40
1.0
 10
6.9057538761
 20
4.7387705994
 30
0.0
 10
6.9057569641
 20
4.7387746786
 30
0.0
 10
6.905761925
 20
4.7387831455
 30
0.0
 10
6.9057637109
 20
4.738803661
 30
0.0
 10
6.9057490429
 20
4.7388225893
 30
0.0
 10
6.9057282362
 20
4.73883751
 30
0.0
 10
6.9056945719
 20
4.7388556649
 30
0.0
 10
6.9056378888
 20
4.7388764138
 30
0.0
 10
6.9055531684
 20
4.7388993685
 30
0.0
 10
6.9054472396
 20
4.7389216189
 30
0.0
 10
6.9053207543
 20
4.7389432254
 30
0.0
 10
6.9051743684
 20
4.7389640846
 30
0.0
 10
6.9050087886
 20
4.7389841828
 30
0.0
 10
6.9048247247
 20
4.739003494
 30
0.0
 10
6.9046228945
 20
4.7390220081
 30
0.0
 10
6.904320443
 20
4.7390464662
 30
0.0
 10
6.9039034622
 20
4.7390743792
 30
0.0
 10
6.9033602147
 20
4.739103702
 30
0.0
 10
6.9027648395
 20
4.7391299391
 30
0.0
 10
6.9021242109
 20
4.7391531458
 30
0.0
 10
6.9014452149
 20
4.739173388
 30
0.0
 10
6.900483102
 20
4.7391968725
 30
0.0
 10
6.8992361707
 20
4.7392185819
 30
0.0
 10
6.8982267676
 20
4.7392288454
 30
0.0
 10
6.8977148774
 20
4.7392324248
 30
0.0
 11
6.9057538761
 21
4.7387705994
 31
0.0
 11
6.9057610956
 21
4.7387841442
 31
0.0
 11
6.9057621529
 21
4.7387974848
 31
0.0
 11
6.9057461426
 21
4.738823553
 31
0.0
 11
6.905729256
 21
4.7388362801
 31
0.0
 11
6.9057065688
 21
4.7388488024
 31
0.0
 11
6.9056441545
 21
4.7388732316
 31
0.0
 11
6.9055596231
 21
4.7388968391
 31
0.0
 11
6.905453698
 21
4.7389196233
 31
0.0
 11
6.9053271024
 21
4.7389415829
 31
0.0
 11
6.9051805595
 21
4.7389627162
 31
0.0
 11
6.9050147928
 21
4.7389830219
 31
0.0
 11
6.9048305254
 21
4.7390024983
 31
0.0
 11
6.9046284807
 21
4.7390211441
 31
0.0
 11
6.904409382
 21
4.7390389577
 31
0.0
 11
6.9039229311
 21
4.7390720837
 31
0.0
 11
6.9033774607
 21
4.7391019107
 31
0.0
 11
6.9027798303
 21
4.7391285254
 31
0.0
 11
6.9021369321
 21
4.7391520175
 31
0.0
 11
6.9014556582
 21
4.7391724769
 31
0.0
 11
6.9007429007
 21
4.7391899934
 31
0.0
 11
6.8992505034
 21
4.7392165564
 31
0.0
 11
6.8977148774
 21
4.7392324248
 31
0.0
  0
LINE
  5
563
100
AcDbEntity
  8
0
100
AcDbLine
 62
9
  6
CONTINUOUS
 10
6.7615004665
 20
4.665878619
 11
6.761158734
 21
4.6658760521
  0
LINE
  5
564
100
AcDbEntity
  8
0
100
AcDbLine
 62
9
  6
CONTINUOUS
 10
6.8703846289
 20
4.7030080255
 11
6.8642663904
 21
4.702921219
  0
SPLINE
  5
565
100
AcDbEntity
  8
0
100
AcDbSpline
 62
9
  6
CONTINUOUS
 70
0
 71
3
 72
15
 73
11
 74
9
 42
0.0000001
 43
0.0000001
 44
0.0000000001
 12
-0.0288801533
 22
0.0
 32
0.0
 13
-0.0288094801
 23
-0.002019185
 33
0.0
 40
0.0
 40
0.0
 40
0.0
 40
0.0
 40
0.159761748
 40
0.3011532747
 40
0.4297259525
 40
0.5510312439
 40
0.6694531834
 40
0.784711038
 40
0.895367016
 40
1.0
 40
1.0
 40
1.0
 40
1.0
 10
4.9515903811
 20
4.8956733062
 30
0.0
 10
4.9500523999
 20
4.8956733062
 30
0.0
 10
4.9471532778
 20
4.8956688376
 30
0.0
 10
4.9430164821
 20
4.8956449531
 30
0.0
 10
4.9392500416
 20
4.8956043676
 30
0.0
 10
4.935704969
 20
4.8955472424
 30
0.0
 10
4.9322883576
 20
4.8954757264
 30
0.0
 10
4.9289748676
 20
4.8953796873
 30
0.0
 10
4.9257953685
 20
4.8952493577
 30
0.0
 10
4.9237261341
 20
4.8951295551
 30
0.0
 10
4.9227213268
 20
4.8950591307
 30
0.0
 11
4.9515903811
 21
4.8956733062
 31
0.0
 11
4.9469764446
 21
4.895665112
 31
0.0
 11
4.9428931088
 21
4.8956406752
 31
0.0
 11
4.9391801306
 21
4.8956002149
 31
0.0
 11
4.935677267
 21
4.8955439497
 31
0.0
 11
4.9322580133
 21
4.895470441
 31
0.0
 11
4.9289308161
 21
4.8953716195
 31
0.0
 11
4.9257378592
 21
4.8952377583
 31
0.0
 11
4.9227213268
 21
4.8950591307
 31
0.0
  0
SPLINE
  5
566
100
AcDbEntity
  8
0
100
AcDbSpline
 62
9
  6
CONTINUOUS
 70
0
 71
3
 72
26
 73
22
 74
20
 42
0.0000001
 43
0.0000001
 44
0.0000000001
 12
-0.0827818069
 22
0.0491288786
 32
0.0
 13
0.0220870394
 23
0.0936943806
 33
0.0
 40
0.0
 40
0.0
 40
0.0
 40
0.0
 40
0.0549421947
 40
0.082499286
 40
0.1101522459
 40
0.1658570948
 40
0.2223047514
 40
0.2508783256
 40
0.2797108244
 40
0.308823907
 40
0.3382378297
 40
0.3980187204
 40
0.4591690667
 40
0.521758349
 40
0.5858312962
 40
0.651404206
 40
0.7184668191
 40
0.7869880981
 40
0.8568698854
 40
0.9279380617
 40
1.0
 40
1.0
 40
1.0
 40
1.0
 10
6.3892748782
 20
5.467634476
 30
0.0
 10
6.3877588068
 20
5.4685342254
 30
0.0
 10
6.3855479497
 20
5.4700006519
 30
0.0
 10
6.3827554807
 20
5.4721690777
 30
0.0
 10
6.3800548496
 20
5.4744891162
 30
0.0
 10
6.376872707
 20
5.4776618376
 30
0.0
 10
6.3739907718
 20
5.4811473419
 30
0.0
 10
6.3718630517
 20
5.4841183658
 30
0.0
 10
6.370350934
 20
5.4864477873
 30
0.0
 10
6.3689315049
 20
5.488866097
 30
0.0
 10
6.367156304
 20
5.4922228399
 30
0.0
 10
6.3651810884
 20
5.496631051
 30
0.0
 10
6.363220952
 20
5.5021904694
 30
0.0
 10
6.361667744
 20
5.508019533
 30
0.0
 10
6.3605321146
 20
5.5140880885
 30
0.0
 10
6.3598175786
 20
5.5203645682
 30
0.0
 10
6.3595271965
 20
5.526817506
 30
0.0
 10
6.359665267
 20
5.5334135177
 30
0.0
 10
6.3602300193
 20
5.5401154823
 30
0.0
 10
6.3612140978
 20
5.5468831517
 30
0.0
 10
6.3621403936
 20
5.5513845592
 30
0.0
 10
6.3626709386
 20
5.5536351587
 30
0.0
 11
6.3892748782
 21
5.467634476
 31
0.0
 11
6.3848670341
 21
5.4705573349
 31
0.0
 11
6.3827716975
 21
5.4721841302
 31
0.0
 11
6.3807524386
 21
5.4739186441
 31
0.0
 11
6.3769527573
 21
5.4777023687
 31
0.0
 11
6.373487053
 21
5.4818874626
 31
0.0
 11
6.3718851128
 21
5.4841233948
 31
0.0
 11
6.3703734714
 21
5.4864511148
 31
0.0
 11
6.3689543968
 21
5.4888677711
 31
0.0
 11
6.3676300682
 21
5.491370432
 31
0.0
 11
6.365271693
 21
5.496619639
 31
0.0
 11
6.3633091731
 21
5.5021693456
 31
0.0
 11
6.3617530811
 21
5.5079899326
 31
0.0
 11
6.3606130166
 21
5.5140514757
 31
0.0
 11
6.3598939501
 21
5.5203225991
 31
0.0
 11
6.3595994761
 21
5.5267714961
 31
0.0
 11
6.3597330179
 21
5.5333661756
 31
0.0
 11
6.3602934722
 21
5.5400697856
 31
0.0
 11
6.3612748546
 21
5.5468402314
 31
0.0
 11
6.3626709386
 21
5.5536351587
 31
0.0
  0
ENDSEC
  0
SECTION
  2
OBJECTS
  0
DICTIONARY
  5
C
100
AcDbDictionary
280
0
281
1
  3
ACAD_GROUP
350
D
  3
ACAD_MLINESTYLE
350
17
  3
ACAD_LAYOUT
350
1A
  3
ACAD_PLOTSETTINGS
350
19
  3
ACAD_PLOTSTYLENAME
350
E
  0
DICTIONARY
  5
D
102
{ACAD_REACTORS
330
C
102
}
100
AcDbDictionary
280
0
281
1
  0
ACDBDICTIONARYWDFLT
  5
E
102
{ACAD_REACTORS
330
C
102
}
100
AcDbDictionary
281
1
  3
Normal
350
F
100
AcDbDictionaryWithDefault
340
F
  0
DICTIONARY
  5
17
102
{ACAD_REACTORS
330
C
102
}
100
AcDbDictionary
280
0
281
1
  3
Standard
350
18
  0
DICTIONARY
  5
19
102
{ACAD_REACTORS
330
C
102
}
100
AcDbDictionary
281
1
  0
DICTIONARY
  5
1A
102
{ACAD_REACTORS
330
C
102
}
100
AcDbDictionary
281
1
  3
Model
350
567
  3
Layout1
350
568
  0
ACDBPLACEHOLDER
  5
F
102
{ACAD_REACTORS
330
E
102
}
  0
MLINESTYLE
  5
18
102
{ACAD_REACTORS
330
17
102
}
100
AcDbMlineStyle
  2
STANDARD
 70
0
  3

 62
256
 51
90.0
 52
90.0
 71
2
 49
0.5
 62
256
  6
BYLAYER
 49
-0.5
 62
256
  6
BYLAYER
  0
LAYOUT
  5
567
102
{ACAD_REACTORS
330
1A
102
}
100
AcDbPlotSettings
  1

  2
none_device
  4
ISO_A4_(297.00_x_210.00_MM)
  6

 40
0.0
 41
0.0
 42
0.0
 43
0.0
 44
297.0
 45
210.0
 46
0.0
 47
0.0
 48
0.0
 49
0.0
140
0.0
141
0.0
142
1.0
143
1.0
 70
1024
 72
0
 73
0
 74
0
  7

 75
0
147
1.0
148
0.0
149
0.0
100
AcDbLayout
  1
Model
 70
0
 71
0
 10
0.0
 20
0.0
 11
11.6929133858
 21
8.2677165354
 12
0.0
 22
0.0
 32
0.0
 14
0.0
 24
0.0
 34
0.0
 15
0.0
 25
0.0
 35
0.0
146
0.0
 13
0.0
 23
0.0
 33
0.0
 16
1.0
 26
0.0
 36
0.0
 17
0.0
 27
1.0
 37
0.0
 76
0
330
203
345
0
346
0
  0
LAYOUT
  5
568
102
{ACAD_REACTORS
330
1A
102
}
100
AcDbPlotSettings
  1

  2
none_device
  4
ISO_A4_(297.00_x_210.00_MM)
  6

 40
0.0
 41
0.0
 42
0.0
 43
0.0
 44
297.0
 45
210.0
 46
0.0
 47
0.0
 48
0.0
 49
0.0
140
0.0
141
0.0
142
1.0
143
1.0
 70
0
 72
0
 73
0
 74
0
  7

 75
0
147
1.0
148
0.0
149
0.0
100
AcDbLayout
  1
Layout1
 70
0
 71
1
 10
0.0
 20
0.0
 11
11.6929133858
 21
8.2677165354
 12
0.0
 22
0.0
 32
0.0
 14
0.0
 24
0.0
 34
0.0
 15
0.0
 25
0.0
 35
0.0
146
0.0
 13
0.0
 23
0.0
 33
0.0
 16
1.0
 26
0.0
 36
0.0
 17
0.0
 27
1.0
 37
0.0
 76
0
330
204
345
0
346
0
  0
ENDSEC
  0
EOF
