999
DXF file: E:\BT Custom\CADOUTPUT\_RIGHT.dxf
999
Pro/ENGINEER 2018400 by Parametric Technology Corporation
  0
SECTION
  2
HEADER
  9
$ACADVER
  1
AC1018
  9
$DWGCODEPAGE
  3
ANSI_1252
  9
$EXTMAX
 10
22.0
 20
17.0
 30
0.0
  9
$EXTMIN
 10
0.0
 20
0.0
 30
0.0
  9
$LIMMIN
 10
0.0
 20
0.0
  9
$LIMMAX
 10
22.0
 20
17.0
  9
$VIEWCTR
 10
11.0
 20
8.5
  9
$VIEWSIZE
 40
17.0
  9
$CLAYER
  8
0
  9
$LTSCALE
 40
1.21
  9
$CELTYPE
  6
BYLAYER
  9
$DIMSCALE
 40
1.0
  9
$DIMASZ
 40
0.1
  9
$DIMEXO
 40
0.0625
  9
$DIMDLI
 40
0.836
  9
$DIMEXE
 40
0.125
  9
$DIMCEN
 40
0.198
  9
$DIMLFAC
 40
1.0
  9
$DIMBLK
  1
_FILLED
  9
$DIMALT
 70
1
  9
$DIMALTD
 70
2
  9
$DIMALTTD
 70
2
  9
$DIMALTF
 40
25.4
  9
$DIMTXT
 40
0.08
  9
$DIMTOL
 70
1
  9
$DIMLIM
 70
0
  9
$DIMTFAC
 40
1.0
  9
$DIMTP
 40
0.001
  9
$DIMTM
 40
0.001
  9
$DIMGAP
 40
0.09
  9
$DIMDSEP
 70
46
  9
$AUNITS
 70
0
  9
$PDMODE
 70
3
  9
$PDSIZE
 40
0.06
  9
$HANDSEED
  5
248
  9
$TILEMODE
 70
1
  9
$MEASUREMENT
 70
0
  9
$INSUNITS
 70
1
  0
ENDSEC
  0
SECTION
  2
CLASSES
  0
CLASS
  1
ACDBDICTIONARYWDFLT
  2
AcDbDictionaryWithDefault
  3
AutoCAD 2000
 90
0
 91
1
280
0
281
0
  0
CLASS
  1
ACDBPLACEHOLDER
  2
AcDbPlaceHolder
  3
AutoCAD 2000
 90
0
 91
1
280
0
281
0
  0
CLASS
  1
LAYOUT
  2
AcDbLayout
  3
AutoCAD 2000
 90
0
 91
0
280
0
281
0
  0
ENDSEC
  0
SECTION
  2
TABLES
  0
TABLE
  2
VPORT
  5
8
100
AcDbSymbolTable
 70
2
  0
VPORT
  5
1F4
100
AcDbSymbolTableRecord
100
AcDbViewportTableRecord
  2
*ACTIVE
 70
0
 10
0.0
 20
0.0
 11
1.0
 21
1.0
 12
11.0
 22
8.5
 13
0.0
 23
0.0
 14
1.0
 24
1.0
 15
0.0
 25
0.0
 16
0.0
 26
0.0
 36
1.0
 17
0.0
 27
0.0
 37
0.0
 40
17.0
 41
1.2941176471
 42
50.0
 43
0.0
 44
0.0
 50
0.0
 51
0.0
 71
0
 72
100
 73
1
 74
1
 75
0
 76
0
 77
0
 78
0
  0
ENDTAB
  0
TABLE
  2
LTYPE
  5
5
100
AcDbSymbolTable
 70
6
  0
LTYPE
  5
14
100
AcDbSymbolTableRecord
100
AcDbLinetypeTableRecord
  2
BYBLOCK
 70
0
  3

 72
65
 73
0
 40
0.0
  0
LTYPE
  5
15
100
AcDbSymbolTableRecord
100
AcDbLinetypeTableRecord
  2
BYLAYER
 70
0
  3

 72
65
 73
0
 40
0.0
  0
LTYPE
  5
16
100
AcDbSymbolTableRecord
100
AcDbLinetypeTableRecord
  2
CONTINUOUS
 70
64
  3
Solid line
 72
65
 73
0
 40
0.0
  0
LTYPE
  5
1F5
100
AcDbSymbolTableRecord
100
AcDbLinetypeTableRecord
  2
CENTER
 70
64
  3
____ _ ____ _ ____ _ ____ _ ____ _ ____ _ ____
 72
65
 73
4
 40
0.6
 49
0.375
 74
0
 49
-0.075
 74
0
 49
0.075
 74
0
 49
-0.075
 74
0
  0
LTYPE
  5
1F6
100
AcDbSymbolTableRecord
100
AcDbLinetypeTableRecord
  2
HIDDEN
 70
64
  3
- - - - - - - - - - - - - - - - - - - -
 72
65
 73
2
 40
0.2
 49
0.1
 74
0
 49
-0.1
 74
0
  0
LTYPE
  5
1F7
100
AcDbSymbolTableRecord
100
AcDbLinetypeTableRecord
  2
PHANTOM
 70
64
  3
_____ _ _ _____ _ _ _____ _ _ _____
 72
65
 73
6
 40
0.8
 49
0.45
 74
0
 49
-0.05
 74
0
 49
0.1
 74
0
 49
-0.05
 74
0
 49
0.1
 74
0
 49
-0.05
 74
0
  0
LTYPE
  5
1F8
100
AcDbSymbolTableRecord
100
AcDbLinetypeTableRecord
  2
DOT
 70
64
  3
. . . . . . . . . . . . . . . . . . . .
 72
65
 73
2
 40
0.2
 49
0.1
 74
0
 49
-0.1
 74
0
  0
LTYPE
  5
1F9
100
AcDbSymbolTableRecord
100
AcDbLinetypeTableRecord
  2
DASHED
 70
64
  3
- - - - - - - - - - - - - - - - - - - -
 72
65
 73
2
 40
0.2
 49
0.1
 74
0
 49
-0.1
 74
0
  0
ENDTAB
  0
TABLE
  2
LAYER
  5
2
100
AcDbSymbolTable
 70
36
  0
LAYER
  5
10
100
AcDbSymbolTableRecord
100
AcDbLayerTableRecord
  2
0
 70
0
 62
7
  6
CONTINUOUS
370
-3
390
F
  0
LAYER
  5
1FA
100
AcDbSymbolTableRecord
100
AcDbLayerTableRecord
  2
DEFAULT_1
 70
0
 62
7
  6
CENTER
370
-3
390
F
  0
LAYER
  5
1FB
100
AcDbSymbolTableRecord
100
AcDbLayerTableRecord
  2
DEFAULT_2
 70
0
 62
8
  6
HIDDEN
370
-3
390
F
  0
LAYER
  5
1FC
100
AcDbSymbolTableRecord
100
AcDbLayerTableRecord
  2
DEFAULT_3
 70
0
 62
7
  6
PHANTOM
370
-3
390
F
  0
LAYER
  5
1FD
100
AcDbSymbolTableRecord
100
AcDbLayerTableRecord
  2
ALL_FEATURES
 70
0
 62
7
  6
CONTINUOUS
370
-3
390
F
  0
LAYER
  5
1FE
100
AcDbSymbolTableRecord
100
AcDbLayerTableRecord
  2
AXES_FEATURES
 70
0
 62
7
  6
CONTINUOUS
370
-3
390
F
  0
LAYER
  5
1FF
100
AcDbSymbolTableRecord
100
AcDbLayerTableRecord
  2
DIMENSIONS
 70
0
 62
7
  6
CONTINUOUS
370
-3
390
F
  0
ENDTAB
  0
TABLE
  2
STYLE
  5
3
100
AcDbSymbolTable
 70
1
  0
STYLE
  5
11
100
AcDbSymbolTableRecord
100
AcDbTextStyleTableRecord
  2
STANDARD
 70
0
 40
0.0
 41
0.8
 50
0.0
 71
0
 42
0.2
  3
txt
  4

  0
STYLE
  5
200
100
AcDbSymbolTableRecord
100
AcDbTextStyleTableRecord
  2
TEXTSTYLE_1
 70
0
 40
0.0
 41
0.8
 50
0.0
 71
0
 42
0.2
  3
gdt
  4

  0
ENDTAB
  0
TABLE
  2
VIEW
  5
6
100
AcDbSymbolTable
 70
0
  0
ENDTAB
  0
TABLE
  2
UCS
  5
7
100
AcDbSymbolTable
 70
0
  0
ENDTAB
  0
TABLE
  2
APPID
  5
9
100
AcDbSymbolTable
 70
1
  0
APPID
  5
201
100
AcDbSymbolTableRecord
100
AcDbRegAppTableRecord
  2
ACAD
 70
0
  0
ENDTAB
  0
TABLE
  2
BLOCK_RECORD
  5
1
100
AcDbSymbolTable
 70
0
  0
BLOCK_RECORD
  5
202
100
AcDbSymbolTableRecord
100
AcDbBlockTableRecord
  2
*Model_Space
  0
BLOCK_RECORD
  5
203
100
AcDbSymbolTableRecord
100
AcDbBlockTableRecord
  2
*Paper_Space
  0
BLOCK_RECORD
  5
204
100
AcDbSymbolTableRecord
100
AcDbBlockTableRecord
  2
_FILLED
  0
ENDTAB
  0
TABLE
  2
DIMSTYLE
  5
A
100
AcDbSymbolTable
 70
1
100
AcDbDimStyleTable
 71
0
  0
DIMSTYLE
105
205
100
AcDbSymbolTableRecord
100
AcDbDimStyleTableRecord
  2
STANDARD
 70
0
  3

  4

 40
1.0
 41
0.1
 42
0.0625
 43
0.38
 44
0.125
 45
0.0
 46
0.0
 47
0.001
 48
0.001
140
0.08
141
0.09
142
0.0
143
25.4
144
1.0
145
0.0
146
1.0
147
0.09
 71
1.0
 72
0.0
 73
1
 74
1
 75
0
 76
0
 77
0
 78
4
 79
1
170
1
171
2
172
0
173
0
174
0
175
0
176
0
177
0
178
0
270
2
179
3
271
3
272
3
273
2
274
2
275
0
280
0
281
0
282
0
283
1
284
4
285
0
286
0
287
3
288
0
340
11
278
46
341
204
342
204
343
204
344
204
  0
ENDTAB
  0
ENDSEC
  0
SECTION
  2
BLOCKS
  0
BLOCK
  5
20
100
AcDbEntity
  8
0
100
AcDbBlockBegin
  2
*Model_Space
 70
0
 10
0.0
 20
0.0
 30
0.0
  3
*Model_Space
  1

  0
ENDBLK
  5
21
100
AcDbEntity
  8
0
100
AcDbBlockEnd
  0
BLOCK
  5
1C
100
AcDbEntity
  8
0
100
AcDbBlockBegin
  2
*Paper_Space
 70
0
 10
0.0
 20
0.0
 30
0.0
  3
*Paper_Space
  1

  0
ENDBLK
  5
1D
100
AcDbEntity
  8
0
100
AcDbBlockEnd
  0
BLOCK
  5
206
100
AcDbEntity
  8
0
100
AcDbBlockBegin
  2
_FILLED
 70
64
 10
0.0
 20
0.0
  3
_FILLED
  1

  0
SOLID
  5
207
100
AcDbEntity
  8
0
  6
BYBLOCK
 62
0
100
AcDbTrace
 10
0.0
 20
0.0
 11
-1.0
 21
0.2
 12
-1.0
 22
-0.2
 13
-1.0
 23
-0.2
  0
ENDBLK
  5
208
100
AcDbEntity
  8
0
  6
BYBLOCK
 62
0
100
AcDbBlockEnd
  0
ENDSEC
  0
SECTION
  2
ENTITIES
  0
LINE
  5
209
100
AcDbEntity
  8
0
100
AcDbLine
 62
7
  6
CONTINUOUS
 10
9.5300029131
 20
6.9623396933
 11
11.8899640652
 21
6.9623396933
  0
LINE
  5
20A
100
AcDbEntity
  8
0
100
AcDbLine
 62
7
  6
CONTINUOUS
 10
9.7099834891
 20
7.1493396933
 11
11.7099834891
 21
7.1493396933
  0
LINE
  5
20B
100
AcDbEntity
  8
0
100
AcDbLine
 62
7
  6
CONTINUOUS
 10
11.5229861629
 20
7.3373396933
 11
9.8969808153
 21
7.3373396933
  0
LINE
  5
20C
100
AcDbEntity
  8
0
100
AcDbLine
 62
7
  6
CONTINUOUS
 10
11.5224834891
 20
7.4243396933
 11
9.8974834891
 21
7.4243396933
  0
LINE
  5
20D
100
AcDbEntity
  8
0
100
AcDbLine
 62
7
  6
CONTINUOUS
 10
9.8974834891
 20
7.4243396933
 11
9.8974834891
 21
7.3373390177
  0
LINE
  5
20E
100
AcDbEntity
  8
0
100
AcDbLine
 62
7
  6
CONTINUOUS
 10
10.3574834891
 20
9.1673396933
 11
10.3574834891
 21
8.7673396933
  0
LINE
  5
20F
100
AcDbEntity
  8
0
100
AcDbLine
 62
7
  6
CONTINUOUS
 10
10.4094834891
 20
9.2273610852
 11
10.3574834891
 21
9.1673396933
  0
LINE
  5
210
100
AcDbEntity
  8
0
100
AcDbLine
 62
7
  6
CONTINUOUS
 10
10.4724834891
 20
9.8274960962
 11
10.4724834891
 21
9.7774960962
  0
LINE
  5
211
100
AcDbEntity
  8
0
100
AcDbLine
 62
7
  6
CONTINUOUS
 10
10.5099834891
 20
8.7373396933
 11
10.5099834891
 21
8.7673396933
  0
LINE
  5
212
100
AcDbEntity
  8
0
100
AcDbLine
 62
7
  6
CONTINUOUS
 10
10.5149834891
 20
10.2409878905
 11
10.5149834891
 21
9.9673396933
  0
LINE
  5
213
100
AcDbEntity
  8
0
100
AcDbLine
 62
7
  6
CONTINUOUS
 10
10.3004834891
 20
8.7173396933
 11
11.1194834891
 21
8.7173396933
  0
LINE
  5
214
100
AcDbEntity
  8
0
100
AcDbLine
 62
7
  6
CONTINUOUS
 10
11.0994665104
 20
8.7373396933
 11
10.3205004678
 21
8.7373396933
  0
LINE
  5
215
100
AcDbEntity
  8
0
100
AcDbLine
 62
7
  6
CONTINUOUS
 10
10.3574845611
 20
8.7673396933
 11
11.0624824172
 21
8.7673396933
  0
LINE
  5
216
100
AcDbEntity
  8
0
100
AcDbLine
 62
7
  6
CONTINUOUS
 10
10.3204834891
 20
8.7373396933
 11
10.3004834891
 21
8.7173396933
  0
LINE
  5
217
100
AcDbEntity
  8
0
100
AcDbLine
 62
7
  6
CONTINUOUS
 10
11.0624834891
 20
9.1673396933
 11
10.3574834891
 21
9.1673396933
  0
LINE
  5
218
100
AcDbEntity
  8
0
100
AcDbLine
 62
7
  6
CONTINUOUS
 10
11.0994834891
 20
8.7373396933
 11
11.1194834891
 21
8.7173396933
  0
LINE
  5
219
100
AcDbEntity
  8
0
100
AcDbLine
 62
7
  6
CONTINUOUS
 10
10.9049834891
 20
10.2409878902
 11
10.9049834891
 21
9.9673396933
  0
LINE
  5
21A
100
AcDbEntity
  8
0
100
AcDbLine
 62
7
  6
CONTINUOUS
 10
10.9099834891
 20
8.7373396933
 11
10.9099834891
 21
8.7673396933
  0
LINE
  5
21B
100
AcDbEntity
  8
0
100
AcDbLine
 62
7
  6
CONTINUOUS
 10
10.9474834891
 20
9.8274960962
 11
10.9474834891
 21
9.7774960962
  0
LINE
  5
21C
100
AcDbEntity
  8
0
100
AcDbLine
 62
7
  6
CONTINUOUS
 10
11.0104834891
 20
9.2273610852
 11
10.4094834891
 21
9.2273610852
  0
LINE
  5
21D
100
AcDbEntity
  8
0
100
AcDbLine
 62
7
  6
CONTINUOUS
 10
11.0624834891
 20
9.1673396933
 11
11.0624834891
 21
8.7673396933
  0
LINE
  5
21E
100
AcDbEntity
  8
0
100
AcDbLine
 62
9
  6
CONTINUOUS
 10
10.394698598
 20
9.4982879424
 11
11.0252683803
 21
9.4982879424
  0
LINE
  5
21F
100
AcDbEntity
  8
0
100
AcDbLine
 62
7
  6
CONTINUOUS
 10
11.0104834891
 20
9.2273610852
 11
11.0624834891
 21
9.1673396933
  0
LINE
  5
220
100
AcDbEntity
  8
0
100
AcDbLine
 62
9
  6
CONTINUOUS
 10
10.4724834891
 20
9.7774960962
 11
10.9474834891
 21
9.7774960962
  0
LINE
  5
221
100
AcDbEntity
  8
0
100
AcDbLine
 62
7
  6
CONTINUOUS
 10
11.5224834891
 20
7.4243396933
 11
11.5224834891
 21
7.3373390177
  0
LINE
  5
222
100
AcDbEntity
  8
0
100
AcDbLine
 62
9
  6
CONTINUOUS
 10
10.9474834891
 20
9.8274960962
 11
10.4724834891
 21
9.8274960962
  0
LINE
  5
223
100
AcDbEntity
  8
0
100
AcDbLine
 62
9
  6
CONTINUOUS
 10
10.4537334891
 20
9.8474569955
 11
10.9662334891
 21
9.8474569955
  0
LINE
  5
224
100
AcDbEntity
  8
0
100
AcDbLine
 62
7
  6
CONTINUOUS
 10
10.9624672643
 20
9.9673396933
 11
10.457499714
 21
9.9673396933
  0
LINE
  5
225
100
AcDbEntity
  8
0
100
AcDbLine
 62
9
  6
CONTINUOUS
 10
10.9049834891
 20
10.1823396933
 11
10.5149834891
 21
10.1823396933
  0
ARC
  5
226
100
AcDbEntity
  8
0
100
AcDbCircle
 62
7
  6
CONTINUOUS
 10
7.3087936889
 20
8.9404812165
 40
3.0
100
AcDbArc
 50
329.6433854291
 51
355.7343714095
  0
ARC
  5
227
100
AcDbEntity
  8
0
100
AcDbCircle
 62
7
  6
CONTINUOUS
 10
14.1111732893
 20
8.9404812165
 40
3.0
100
AcDbArc
 50
184.2656285905
 51
210.3566145709
  0
ARC
  5
228
100
AcDbEntity
  8
0
100
AcDbCircle
 62
7
  6
CONTINUOUS
 10
11.4874834891
 20
9.7774960962
 40
0.54
100
AcDbArc
 50
180.0
 51
211.1347215689
  0
ARC
  5
229
100
AcDbEntity
  8
0
100
AcDbCircle
 62
7
  6
CONTINUOUS
 10
9.9324834891
 20
9.7774960962
 40
0.54
100
AcDbArc
 50
328.8652784311
 51
360.0
  0
ARC
  5
22A
100
AcDbEntity
  8
0
100
AcDbCircle
 62
7
  6
CONTINUOUS
 10
10.7096792023
 20
10.6330743067
 40
0.4382929177
100
AcDbArc
 50
286.61109515
 51
298.3889062717
  0
ARC
  5
22B
100
AcDbEntity
  8
0
100
AcDbCircle
 62
7
  6
CONTINUOUS
 10
10.7102877759
 20
10.6330743064
 40
0.4382929174
100
AcDbArc
 50
241.6110899647
 51
253.3889048057
  0
ARC
  5
22C
100
AcDbEntity
  8
0
100
AcDbCircle
 62
7
  6
CONTINUOUS
 10
10.7096792024
 20
10.6316050802
 40
0.4382929174
100
AcDbArc
 50
61.6110899648
 51
73.3889048057
  0
ARC
  5
22D
100
AcDbEntity
  8
0
100
AcDbCircle
 62
7
  6
CONTINUOUS
 10
10.7107181021
 20
10.63264398
 40
0.4382929173
100
AcDbArc
 50
196.611089964
 51
208.388906274
  0
ARC
  5
22E
100
AcDbEntity
  8
0
100
AcDbCircle
 62
7
  6
CONTINUOUS
 10
10.7107181021
 20
10.6320354067
 40
0.4382929173
100
AcDbArc
 50
151.6110899643
 51
163.3889062739
  0
ARC
  5
22F
100
AcDbEntity
  8
0
100
AcDbCircle
 62
7
  6
CONTINUOUS
 10
10.7092488761
 20
10.6320354067
 40
0.4382929173
100
AcDbArc
 50
16.6110899639
 51
28.3889062742
  0
ARC
  5
230
100
AcDbEntity
  8
0
100
AcDbCircle
 62
7
  6
CONTINUOUS
 10
10.7092488761
 20
10.63264398
 40
0.4382929173
100
AcDbArc
 50
331.6110899641
 51
343.3889062742
  0
ARC
  5
231
100
AcDbEntity
  8
0
100
AcDbCircle
 62
7
  6
CONTINUOUS
 10
10.7102877714
 20
10.6316050909
 40
0.438292906
100
AcDbArc
 50
106.6110949922
 51
118.3889064297
  0
ARC
  5
232
100
AcDbEntity
  8
0
100
AcDbCircle
 62
7
  6
CONTINUOUS
 10
10.6009834891
 20
9.3736783774
 40
0.241
100
AcDbArc
 50
148.8652784311
 51
217.3819608307
  0
ARC
  5
233
100
AcDbEntity
  8
0
100
AcDbCircle
 62
7
  6
CONTINUOUS
 10
10.8189834891
 20
9.3736783774
 40
0.241
100
AcDbArc
 50
322.6180391693
 51
31.1347215689
  0
ARC
  5
234
100
AcDbEntity
  8
0
100
AcDbCircle
 62
7
  6
CONTINUOUS
 10
11.702847378
 20
6.9623396933
 40
0.1871361111
100
AcDbArc
 50
0.0
 51
87.8145949287
  0
ARC
  5
235
100
AcDbEntity
  8
0
100
AcDbCircle
 62
7
  6
CONTINUOUS
 10
9.7171196002
 20
6.9623396933
 40
0.1871361111
100
AcDbArc
 50
92.1854050713
 51
180.0
  0
ARC
  5
236
100
AcDbEntity
  8
0
100
AcDbCircle
 62
7
  6
CONTINUOUS
 10
9.8969808153
 20
7.1503396933
 40
0.187
100
AcDbArc
 50
89.8459833005
 51
180.3063960032
  0
ARC
  5
237
100
AcDbEntity
  8
0
100
AcDbCircle
 62
7
  6
CONTINUOUS
 10
11.5229861629
 20
7.1503396933
 40
0.187
100
AcDbArc
 50
359.6936039968
 51
90.1540166995
  0
ARC
  5
238
100
AcDbEntity
  8
0
100
AcDbCircle
 62
7
  6
CONTINUOUS
 10
10.4574834891
 20
9.9073396933
 40
0.06
100
AcDbArc
 50
90.0
 51
266.4166783015
  0
ARC
  5
239
100
AcDbEntity
  8
0
100
AcDbCircle
 62
7
  6
CONTINUOUS
 10
10.9624834891
 20
9.9073396933
 40
0.06
100
AcDbArc
 50
273.5833216985
 51
90.0
  0
ARC
  5
23A
100
AcDbEntity
  8
0
100
AcDbCircle
 62
7
  6
CONTINUOUS
 10
10.9674834891
 20
9.8274960962
 40
0.02
100
AcDbArc
 50
93.5833216985
 51
180.0
  0
ARC
  5
23B
100
AcDbEntity
  8
0
100
AcDbCircle
 62
7
  6
CONTINUOUS
 10
10.4524834891
 20
9.8274960962
 40
0.02
100
AcDbArc
 50
0.0
 51
86.4166783015
  0
SPLINE
  5
23C
100
AcDbEntity
  8
0
100
AcDbSpline
 62
7
  6
CONTINUOUS
 70
0
 71
3
 72
29
 73
25
 74
0
 42
0.0000001
 43
0.0000001
 44
0.0000000001
 40
0.0
 40
0.0
 40
0.0
 40
0.0
 40
0.0103005832
 40
0.0241805611
 40
0.0415588496
 40
0.0623321528
 40
0.086346707
 40
0.1134221523
 40
0.1759833294
 40
0.2481637316
 40
0.3278356853
 40
0.412622914
 40
0.5000097901
 40
0.5873958806
 40
0.6721816992
 40
0.7518507355
 40
0.8240279906
 40
0.8865860579
 40
0.9136596964
 40
0.9376722446
 40
0.9584441108
 40
0.9758210824
 40
0.9896999076
 40
1.0
 40
1.0
 40
1.0
 40
1.0
 10
10.2907207434
 20
10.5073396933
 30
0.0
 10
10.2904752086
 20
10.5081641862
 30
0.0
 10
10.2900319921
 20
10.5101379414
 30
0.0
 10
10.2894613197
 20
10.5135617223
 30
0.0
 10
10.288903827
 20
10.5178723514
 30
0.0
 10
10.2883659767
 20
10.523036609
 30
0.0
 10
10.2878533507
 20
10.5290168003
 30
0.0
 10
10.2871760584
 20
10.5384846628
 30
0.0
 10
10.2864482078
 20
10.5519805303
 30
0.0
 10
10.2857635173
 20
10.5698751467
 30
0.0
 10
10.2852586413
 20
10.589632664
 30
0.0
 10
10.2849487112
 20
10.6106642334
 30
0.0
 10
10.2848440989
 20
10.6323420825
 30
0.0
 10
10.2849487659
 20
10.6540198134
 30
0.0
 10
10.2852587094
 20
10.6750509557
 30
0.0
 10
10.2857636431
 20
10.694807847
 30
0.0
 10
10.2864483257
 20
10.7127016969
 30
0.0
 10
10.2871761907
 20
10.7261968891
 30
0.0
 10
10.2878534691
 20
10.7356641731
 30
0.0
 10
10.2883660915
 20
10.7416439245
 30
0.0
 10
10.2889038917
 20
10.7468077875
 30
0.0
 10
10.2894613462
 20
10.7511180926
 30
0.0
 10
10.2900320056
 20
10.7545416259
 30
0.0
 10
10.2904752203
 20
10.7565152398
 30
0.0
 10
10.2907207434
 20
10.7573396933
 30
0.0
  0
SPLINE
  5
23D
100
AcDbEntity
  8
0
100
AcDbSpline
 62
7
  6
CONTINUOUS
 70
0
 71
3
 72
29
 73
25
 74
0
 42
0.0000001
 43
0.0000001
 44
0.0000000001
 40
0.0
 40
0.0
 40
0.0
 40
0.0
 40
0.0103005832
 40
0.0241805611
 40
0.0415588496
 40
0.0623321528
 40
0.086346707
 40
0.1134221523
 40
0.1759833294
 40
0.2481637316
 40
0.3278356853
 40
0.412622914
 40
0.5000097901
 40
0.5873958806
 40
0.6721816992
 40
0.7518507355
 40
0.8240279906
 40
0.8865860579
 40
0.9136596964
 40
0.9376722446
 40
0.9584441108
 40
0.9758210824
 40
0.9896999076
 40
1.0
 40
1.0
 40
1.0
 40
1.0
 10
10.5019083061
 20
10.2474878151
 30
0.0
 10
10.5011516824
 20
10.2478972003
 30
0.0
 10
10.4994426253
 20
10.2489794546
 30
0.0
 10
10.4966181203
 20
10.2509969069
 30
0.0
 10
10.4931758383
 20
10.2536507751
 30
0.0
 10
10.4891438392
 20
10.2569221391
 30
0.0
 10
10.484552724
 20
10.2607882916
 30
0.0
 10
10.4773790162
 20
10.2670041634
 30
0.0
 10
10.4673213287
 20
10.2760325147
 30
0.0
 10
10.4541837749
 20
10.28820177
 30
0.0
 10
10.4398560992
 20
10.3018154433
 30
0.0
 10
10.4247653801
 20
10.3164678549
 30
0.0
 10
10.409362854
 20
10.331722437
 30
0.0
 10
10.3941083942
 20
10.3471249183
 30
0.0
 10
10.379456294
 20
10.3622153446
 30
0.0
 10
10.3658431042
 20
10.3765426185
 30
0.0
 10
10.3536743854
 20
10.3896796249
 30
0.0
 10
10.3446465217
 20
10.3997368451
 30
0.0
 10
10.3384310491
 20
10.406910134
 30
0.0
 10
10.3345652051
 20
10.4115009354
 30
0.0
 10
10.3312940848
 20
10.4155326202
 30
0.0
 10
10.3286404187
 20
10.418974646
 30
0.0
 10
10.3266231322
 20
10.4217989668
 30
0.0
 10
10.3255409765
 20
10.4235079226
 30
0.0
 10
10.3251316108
 20
10.4242645103
 30
0.0
  0
SPLINE
  5
23E
100
AcDbEntity
  8
0
100
AcDbSpline
 62
7
  6
CONTINUOUS
 70
0
 71
3
 72
18
 73
14
 74
0
 42
0.0000001
 43
0.0000001
 44
0.0000000001
 40
0.0
 40
0.0
 40
0.0
 40
0.0
 40
0.174668346
 40
0.3443922093
 40
0.5037076583
 40
0.648046849
 40
0.7731759652
 40
0.8273239301
 40
0.8753469741
 40
0.9168888349
 40
0.9516421062
 40
0.9793996999
 40
1.0
 40
1.0
 40
1.0
 40
1.0
 10
10.7099834891
 20
10.2072354719
 30
0.0
 10
10.7026895778
 20
10.2072354719
 30
0.0
 10
10.6883081273
 20
10.2073051541
 30
0.0
 10
10.6672759181
 20
10.2076145715
 30
0.0
 10
10.6475142538
 20
10.2081198131
 30
0.0
 10
10.6296214543
 20
10.208804622
 30
0.0
 10
10.6161263241
 20
10.2095323641
 30
0.0
 10
10.6066585562
 20
10.2102096844
 30
0.0
 10
10.6006789421
 20
10.2107223276
 30
0.0
 10
10.5955152722
 20
10.2112601285
 30
0.0
 10
10.5912050746
 20
10.2118175671
 30
0.0
 10
10.5877815655
 20
10.2123882151
 30
0.0
 10
10.5858079473
 20
10.2128314231
 30
0.0
 10
10.5849834891
 20
10.2130769476
 30
0.0
  0
SPLINE
  5
23F
100
AcDbEntity
  8
0
100
AcDbSpline
 62
7
  6
CONTINUOUS
 70
0
 71
3
 72
18
 73
14
 74
0
 42
0.0000001
 43
0.0000001
 44
0.0000000001
 40
0.0
 40
0.0
 40
0.0
 40
0.0
 40
0.0206003124
 40
0.0483579342
 40
0.0831112351
 40
0.1246531246
 40
0.1726762057
 40
0.2268241977
 40
0.3519533415
 40
0.4962925586
 40
0.6556079731
 40
0.8253317124
 40
1.0
 40
1.0
 40
1.0
 40
1.0
 10
10.8349834891
 20
10.2130769476
 30
0.0
 10
10.8341590305
 20
10.2128314229
 30
0.0
 10
10.8321854106
 20
10.212388215
 30
0.0
 10
10.8287618986
 20
10.2118175668
 30
0.0
 10
10.8244516973
 20
10.2112601277
 30
0.0
 10
10.8192880235
 20
10.2107223263
 30
0.0
 10
10.8133084055
 20
10.2102096831
 30
0.0
 10
10.8038406337
 20
10.2095323628
 30
0.0
 10
10.7903455001
 20
10.2088046209
 30
0.0
 10
10.7724526998
 20
10.2081198123
 30
0.0
 10
10.7526910411
 20
10.2076145712
 30
0.0
 10
10.7316588409
 20
10.2073051538
 30
0.0
 10
10.7172773981
 20
10.2072354719
 30
0.0
 10
10.7099834891
 20
10.2072354719
 30
0.0
  0
SPLINE
  5
240
100
AcDbEntity
  8
0
100
AcDbSpline
 62
7
  6
CONTINUOUS
 70
0
 71
3
 72
18
 73
14
 74
0
 42
0.0000001
 43
0.0000001
 44
0.0000000001
 40
0.0
 40
0.0
 40
0.0
 40
0.0
 40
0.174668346
 40
0.3443922093
 40
0.5037076583
 40
0.648046849
 40
0.7731759652
 40
0.8273239301
 40
0.8753469741
 40
0.9168888349
 40
0.9516421062
 40
0.9793996999
 40
1.0
 40
1.0
 40
1.0
 40
1.0
 10
10.7099834891
 20
11.0574439148
 30
0.0
 10
10.7172774005
 20
11.0574439148
 30
0.0
 10
10.731658851
 20
11.0573742325
 30
0.0
 10
10.7526910602
 20
11.0570648152
 30
0.0
 10
10.7724527245
 20
11.0565595735
 30
0.0
 10
10.7903455239
 20
11.0558747647
 30
0.0
 10
10.8038406542
 20
11.0551470226
 30
0.0
 10
10.813308422
 20
11.0544697023
 30
0.0
 10
10.8192880362
 20
11.0539570591
 30
0.0
 10
10.8244517061
 20
11.0534192582
 30
0.0
 10
10.8287619037
 20
11.0528618196
 30
0.0
 10
10.8321854128
 20
11.0522911716
 30
0.0
 10
10.834159031
 20
11.0518479636
 30
0.0
 10
10.8349834891
 20
11.0516024391
 30
0.0
  0
SPLINE
  5
241
100
AcDbEntity
  8
0
100
AcDbSpline
 62
7
  6
CONTINUOUS
 70
0
 71
3
 72
29
 73
25
 74
0
 42
0.0000001
 43
0.0000001
 44
0.0000000001
 40
0.0
 40
0.0
 40
0.0
 40
0.0
 40
0.0103005832
 40
0.0241805611
 40
0.0415588496
 40
0.0623321528
 40
0.086346707
 40
0.1134221523
 40
0.1759833294
 40
0.2481637316
 40
0.3278356853
 40
0.412622914
 40
0.5000097901
 40
0.5873958806
 40
0.6721816992
 40
0.7518507355
 40
0.8240279906
 40
0.8865860579
 40
0.9136596964
 40
0.9376722446
 40
0.9584441108
 40
0.9758210824
 40
0.9896999076
 40
1.0
 40
1.0
 40
1.0
 40
1.0
 10
10.9180586721
 20
11.0171915716
 30
0.0
 10
10.9188152959
 20
11.0167821864
 30
0.0
 10
10.920524353
 20
11.0156999321
 30
0.0
 10
10.9233488579
 20
11.0136824798
 30
0.0
 10
10.92679114
 20
11.0110286115
 30
0.0
 10
10.9308231391
 20
11.0077572476
 30
0.0
 10
10.9354142542
 20
11.0038910951
 30
0.0
 10
10.9425879621
 20
10.9976752233
 30
0.0
 10
10.9526456495
 20
10.988646872
 30
0.0
 10
10.9657832034
 20
10.9764776167
 30
0.0
 10
10.9801108791
 20
10.9628639434
 30
0.0
 10
10.9952015981
 20
10.9482115318
 30
0.0
 10
11.0106041243
 20
10.9329569497
 30
0.0
 10
11.0258585841
 20
10.9175544684
 30
0.0
 10
11.0405106843
 20
10.902464042
 30
0.0
 10
11.0541238741
 20
10.8881367682
 30
0.0
 10
11.0662925929
 20
10.8749997618
 30
0.0
 10
11.0753204566
 20
10.8649425416
 30
0.0
 10
11.0815359291
 20
10.8577692527
 30
0.0
 10
11.0854017732
 20
10.8531784512
 30
0.0
 10
11.0886728935
 20
10.8491467665
 30
0.0
 10
11.0913265596
 20
10.8457047406
 30
0.0
 10
11.0933438461
 20
10.8428804199
 30
0.0
 10
11.0944260018
 20
10.841171464
 30
0.0
 10
11.0948353674
 20
10.8404148763
 30
0.0
  0
SPLINE
  5
242
100
AcDbEntity
  8
0
100
AcDbSpline
 62
7
  6
CONTINUOUS
 70
0
 71
3
 72
29
 73
25
 74
0
 42
0.0000001
 43
0.0000001
 44
0.0000000001
 40
0.0
 40
0.0
 40
0.0
 40
0.0
 40
0.0103005832
 40
0.0241805611
 40
0.0415588496
 40
0.0623321528
 40
0.086346707
 40
0.1134221523
 40
0.1759833294
 40
0.2481637316
 40
0.3278356853
 40
0.412622914
 40
0.5000097901
 40
0.5873958806
 40
0.6721816992
 40
0.7518507355
 40
0.8240279906
 40
0.8865860579
 40
0.9136596964
 40
0.9376722446
 40
0.9584441108
 40
0.9758210824
 40
0.9896999076
 40
1.0
 40
1.0
 40
1.0
 40
1.0
 10
11.1292462349
 20
10.7573396933
 30
0.0
 10
11.1294917696
 20
10.7565152005
 30
0.0
 10
11.1299349861
 20
10.7545414453
 30
0.0
 10
11.1305056585
 20
10.7511176644
 30
0.0
 10
11.1310631513
 20
10.7468070352
 30
0.0
 10
11.1316010016
 20
10.7416427777
 30
0.0
 10
11.1321136276
 20
10.7356625864
 30
0.0
 10
11.1327909199
 20
10.7261947238
 30
0.0
 10
11.1335187705
 20
10.7126988564
 30
0.0
 10
11.134203461
 20
10.69480424
 30
0.0
 10
11.1347083369
 20
10.6750467227
 30
0.0
 10
11.1350182671
 20
10.6540151533
 30
0.0
 10
11.1351228793
 20
10.6323373042
 30
0.0
 10
11.1350182123
 20
10.6106595733
 30
0.0
 10
11.1347082689
 20
10.589628431
 30
0.0
 10
11.1342033352
 20
10.5698715397
 30
0.0
 10
11.1335186525
 20
10.5519776898
 30
0.0
 10
11.1327907876
 20
10.5384824976
 30
0.0
 10
11.1321135091
 20
10.5290152136
 30
0.0
 10
11.1316008868
 20
10.5230354622
 30
0.0
 10
11.1310630865
 20
10.5178715992
 30
0.0
 10
11.130505632
 20
10.5135612941
 30
0.0
 10
11.1299349727
 20
10.5101377607
 30
0.0
 10
11.129491758
 20
10.5081641469
 30
0.0
 10
11.1292462349
 20
10.5073396933
 30
0.0
  0
SPLINE
  5
243
100
AcDbEntity
  8
0
100
AcDbSpline
 62
7
  6
CONTINUOUS
 70
0
 71
3
 72
29
 73
25
 74
0
 42
0.0000001
 43
0.0000001
 44
0.0000000001
 40
0.0
 40
0.0
 40
0.0
 40
0.0
 40
0.0103005832
 40
0.0241805611
 40
0.0415588496
 40
0.0623321528
 40
0.086346707
 40
0.1134221523
 40
0.1759833294
 40
0.2481637316
 40
0.3278356853
 40
0.412622914
 40
0.5000097901
 40
0.5873958806
 40
0.6721816992
 40
0.7518507355
 40
0.8240279906
 40
0.8865860579
 40
0.9136596964
 40
0.9376722446
 40
0.9584441107
 40
0.9758210824
 40
0.9896999076
 40
1.0
 40
1.0
 40
1.0
 40
1.0
 10
11.0948353674
 20
10.4242645103
 30
0.0
 10
11.0944259822
 20
10.4235078866
 30
0.0
 10
11.0933437279
 20
10.4217988295
 30
0.0
 10
11.0913262756
 20
10.4189743245
 30
0.0
 10
11.0886724073
 20
10.4155320425
 30
0.0
 10
11.0854010434
 20
10.4115000434
 30
0.0
 10
11.0815348909
 20
10.4069089282
 30
0.0
 10
11.0753190191
 20
10.3997352204
 30
0.0
 10
11.0662906678
 20
10.389677533
 30
0.0
 10
11.0541214125
 20
10.3765399791
 30
0.0
 10
11.0405077392
 20
10.3622123034
 30
0.0
 10
11.0258553276
 20
10.3471215843
 30
0.0
 10
11.0106007455
 20
10.3317190582
 30
0.0
 10
10.9951982642
 20
10.3164645984
 30
0.0
 10
10.9801078378
 20
10.3018124982
 30
0.0
 10
10.965780564
 20
10.2881993084
 30
0.0
 10
10.9526435576
 20
10.2760305896
 30
0.0
 10
10.9425863374
 20
10.2670027259
 30
0.0
 10
10.9354130485
 20
10.2607872534
 30
0.0
 10
10.930822247
 20
10.2569214093
 30
0.0
 10
10.9267905623
 20
10.253650289
 30
0.0
 10
10.9233485364
 20
10.2509966229
 30
0.0
 10
10.9205242157
 20
10.2489793364
 30
0.0
 10
10.9188152598
 20
10.2478971807
 30
0.0
 10
10.9180586721
 20
10.2474878151
 30
0.0
  0
SPLINE
  5
244
100
AcDbEntity
  8
0
100
AcDbSpline
 62
7
  6
CONTINUOUS
 70
0
 71
3
 72
29
 73
25
 74
0
 42
0.0000001
 43
0.0000001
 44
0.0000000001
 40
0.0
 40
0.0
 40
0.0
 40
0.0
 40
0.0103005832
 40
0.0241805611
 40
0.0415588496
 40
0.0623321528
 40
0.086346707
 40
0.1134221523
 40
0.1759833294
 40
0.2481637316
 40
0.3278356853
 40
0.412622914
 40
0.5000097901
 40
0.5873958806
 40
0.6721816992
 40
0.7518507355
 40
0.8240279906
 40
0.8865860579
 40
0.9136596964
 40
0.9376722446
 40
0.9584441107
 40
0.9758210824
 40
0.9896999076
 40
1.0
 40
1.0
 40
1.0
 40
1.0
 10
10.3251316108
 20
10.8404148763
 30
0.0
 10
10.325540996
 20
10.8411715001
 30
0.0
 10
10.3266232504
 20
10.8428805572
 30
0.0
 10
10.3286407027
 20
10.8457050621
 30
0.0
 10
10.3312945709
 20
10.8491473442
 30
0.0
 10
10.3345659349
 20
10.8531793433
 30
0.0
 10
10.3384320874
 20
10.8577704585
 30
0.0
 10
10.3446479592
 20
10.8649441663
 30
0.0
 10
10.3536763105
 20
10.8750018537
 30
0.0
 10
10.3658455658
 20
10.8881394076
 30
0.0
 10
10.3794592391
 20
10.9024670833
 30
0.0
 10
10.3941116507
 20
10.9175578023
 30
0.0
 10
10.4093662328
 20
10.9329603285
 30
0.0
 10
10.424768714
 20
10.9482147883
 30
0.0
 10
10.4398591404
 20
10.9628668885
 30
0.0
 10
10.4541864143
 20
10.9764800783
 30
0.0
 10
10.4673234207
 20
10.9886487971
 30
0.0
 10
10.4773806409
 20
10.9976766608
 30
0.0
 10
10.4845539298
 20
11.0038921333
 30
0.0
 10
10.4891447312
 20
11.0077579774
 30
0.0
 10
10.493176416
 20
11.0110290977
 30
0.0
 10
10.4966184418
 20
11.0136827638
 30
0.0
 10
10.4994427626
 20
11.0157000503
 30
0.0
 10
10.5011517184
 20
11.016782206
 30
0.0
 10
10.5019083061
 20
11.0171915716
 30
0.0
  0
SPLINE
  5
245
100
AcDbEntity
  8
0
100
AcDbSpline
 62
7
  6
CONTINUOUS
 70
0
 71
3
 72
18
 73
14
 74
0
 42
0.0000001
 43
0.0000001
 44
0.0000000001
 40
0.0
 40
0.0
 40
0.0
 40
0.0
 40
0.0206003124
 40
0.0483579342
 40
0.0831112351
 40
0.1246531246
 40
0.1726762057
 40
0.2268241977
 40
0.3519533416
 40
0.4962925586
 40
0.6556079731
 40
0.8253317124
 40
1.0
 40
1.0
 40
1.0
 40
1.0
 10
10.5849834891
 20
11.0516024391
 30
0.0
 10
10.5858079478
 20
11.0518479637
 30
0.0
 10
10.5877815677
 20
11.0522911717
 30
0.0
 10
10.5912050797
 20
11.0528618199
 30
0.0
 10
10.5955152809
 20
11.053419259
 30
0.0
 10
10.6006789548
 20
11.0539570604
 30
0.0
 10
10.6066585728
 20
11.0544697036
 30
0.0
 10
10.6161263445
 20
11.0551470239
 30
0.0
 10
10.6296214782
 20
11.0558747658
 30
0.0
 10
10.6475142784
 20
11.0565595744
 30
0.0
 10
10.6672759372
 20
11.0570648155
 30
0.0
 10
10.6883081373
 20
11.0573742328
 30
0.0
 10
10.7026895802
 20
11.0574439148
 30
0.0
 10
10.7099834891
 20
11.0574439148
 30
0.0
  0
ENDSEC
  0
SECTION
  2
OBJECTS
  0
DICTIONARY
  5
C
100
AcDbDictionary
280
0
281
1
  3
ACAD_GROUP
350
D
  3
ACAD_MLINESTYLE
350
17
  3
ACAD_LAYOUT
350
1A
  3
ACAD_PLOTSETTINGS
350
19
  3
ACAD_PLOTSTYLENAME
350
E
  0
DICTIONARY
  5
D
102
{ACAD_REACTORS
330
C
102
}
100
AcDbDictionary
280
0
281
1
  0
ACDBDICTIONARYWDFLT
  5
E
102
{ACAD_REACTORS
330
C
102
}
100
AcDbDictionary
281
1
  3
Normal
350
F
100
AcDbDictionaryWithDefault
340
F
  0
DICTIONARY
  5
17
102
{ACAD_REACTORS
330
C
102
}
100
AcDbDictionary
280
0
281
1
  3
Standard
350
18
  0
DICTIONARY
  5
19
102
{ACAD_REACTORS
330
C
102
}
100
AcDbDictionary
281
1
  0
DICTIONARY
  5
1A
102
{ACAD_REACTORS
330
C
102
}
100
AcDbDictionary
281
1
  3
Model
350
246
  3
Layout1
350
247
  0
ACDBPLACEHOLDER
  5
F
102
{ACAD_REACTORS
330
E
102
}
  0
MLINESTYLE
  5
18
102
{ACAD_REACTORS
330
17
102
}
100
AcDbMlineStyle
  2
STANDARD
 70
0
  3

 62
256
 51
90.0
 52
90.0
 71
2
 49
0.5
 62
256
  6
BYLAYER
 49
-0.5
 62
256
  6
BYLAYER
  0
LAYOUT
  5
246
102
{ACAD_REACTORS
330
1A
102
}
100
AcDbPlotSettings
  1

  2
none_device
  4
ANSI_C_(22.00_x_17.00_Inches)
  6

 40
0.0
 41
0.0
 42
0.0
 43
0.0
 44
558.8
 45
431.8
 46
0.0
 47
0.0
 48
0.0
 49
0.0
140
0.0
141
0.0
142
1.0
143
1.0
 70
1024
 72
0
 73
0
 74
0
  7

 75
0
147
1.0
148
0.0
149
0.0
100
AcDbLayout
  1
Model
 70
0
 71
0
 10
0.0
 20
0.0
 11
22.0
 21
17.0
 12
0.0
 22
0.0
 32
0.0
 14
0.0
 24
0.0
 34
0.0
 15
0.0
 25
0.0
 35
0.0
146
0.0
 13
0.0
 23
0.0
 33
0.0
 16
1.0
 26
0.0
 36
0.0
 17
0.0
 27
1.0
 37
0.0
 76
0
330
202
345
0
346
0
  0
LAYOUT
  5
247
102
{ACAD_REACTORS
330
1A
102
}
100
AcDbPlotSettings
  1

  2
none_device
  4
ANSI_C_(22.00_x_17.00_Inches)
  6

 40
0.0
 41
0.0
 42
0.0
 43
0.0
 44
558.8
 45
431.8
 46
0.0
 47
0.0
 48
0.0
 49
0.0
140
0.0
141
0.0
142
1.0
143
1.0
 70
0
 72
0
 73
0
 74
0
  7

 75
0
147
1.0
148
0.0
149
0.0
100
AcDbLayout
  1
Layout1
 70
0
 71
1
 10
0.0
 20
0.0
 11
22.0
 21
17.0
 12
0.0
 22
0.0
 32
0.0
 14
0.0
 24
0.0
 34
0.0
 15
0.0
 25
0.0
 35
0.0
146
0.0
 13
0.0
 23
0.0
 33
0.0
 16
1.0
 26
0.0
 36
0.0
 17
0.0
 27
1.0
 37
0.0
 76
0
330
203
345
0
346
0
  0
ENDSEC
  0
EOF
