999
DXF file: 3-2924tr_TOP.dxf
999
Pro/ENGINEER 2018400 by Parametric Technology Corporation
  0
SECTION
  2
HEADER
  9
$ACADVER
  1
AC1027
  9
$DWGCODEPAGE
  3
ANSI_1252
  9
$EXTMAX
 10
11.0
 20
8.5
 30
0.0
  9
$EXTMIN
 10
0.0
 20
0.0
 30
0.0
  9
$LIMMIN
 10
0.0
 20
0.0
  9
$LIMMAX
 10
11.0
 20
8.5
  9
$VIEWCTR
 10
5.5
 20
4.25
  9
$VIEWSIZE
 40
8.5
  9
$CLAYER
  8
0
  9
$LTSCALE
 40
0.605
  9
$CELTYPE
  6
BYLAYER
  9
$DIMSCALE
 40
1.0
  9
$DIMASZ
 40
0.1
  9
$DIMEXO
 40
0.0625
  9
$DIMDLI
 40
0.418
  9
$DIMEXE
 40
0.125
  9
$DIMCEN
 40
0.099
  9
$DIMLFAC
 40
1.0
  9
$DIMBLK
  1
_FILLED
  9
$DIMALT
 70
1
  9
$DIMALTD
 70
2
  9
$DIMALTTD
 70
2
  9
$DIMALTF
 40
25.4
  9
$DIMTXT
 40
0.08
  9
$DIMTOL
 70
1
  9
$DIMLIM
 70
0
  9
$DIMTFAC
 40
1.0
  9
$DIMTP
 40
0.001
  9
$DIMTM
 40
0.001
  9
$DIMGAP
 40
0.09
  9
$DIMDSEP
 70
46
  9
$AUNITS
 70
0
  9
$PDMODE
 70
3
  9
$PDSIZE
 40
0.3125
  9
$HANDSEED
  5
422
  9
$TILEMODE
 70
1
  9
$MEASUREMENT
 70
0
  9
$INSUNITS
 70
1
  0
ENDSEC
  0
SECTION
  2
CLASSES
  0
CLASS
  1
ACDBDICTIONARYWDFLT
  2
AcDbDictionaryWithDefault
  3
AutoCAD 2000
 90
0
 91
1
280
0
281
0
  0
CLASS
  1
ACDBPLACEHOLDER
  2
AcDbPlaceHolder
  3
AutoCAD 2000
 90
0
 91
1
280
0
281
0
  0
CLASS
  1
LAYOUT
  2
AcDbLayout
  3
AutoCAD 2000
 90
0
 91
0
280
0
281
0
  0
ENDSEC
  0
SECTION
  2
TABLES
  0
TABLE
  2
VPORT
  5
8
100
AcDbSymbolTable
 70
2
  0
VPORT
  5
1F4
100
AcDbSymbolTableRecord
100
AcDbViewportTableRecord
  2
*ACTIVE
 70
0
 10
0.0
 20
0.0
 11
1.0
 21
1.0
 12
5.5
 22
4.25
 13
0.0
 23
0.0
 14
1.0
 24
1.0
 15
0.0
 25
0.0
 16
0.0
 26
0.0
 36
1.0
 17
0.0
 27
0.0
 37
0.0
 40
8.5
 41
1.2941176471
 42
50.0
 43
0.0
 44
0.0
 50
0.0
 51
0.0
 71
0
 72
100
 73
1
 74
1
 75
0
 76
0
 77
0
 78
0
  0
ENDTAB
  0
TABLE
  2
LTYPE
  5
5
100
AcDbSymbolTable
 70
6
  0
LTYPE
  5
14
100
AcDbSymbolTableRecord
100
AcDbLinetypeTableRecord
  2
BYBLOCK
 70
0
  3

 72
65
 73
0
 40
0.0
  0
LTYPE
  5
15
100
AcDbSymbolTableRecord
100
AcDbLinetypeTableRecord
  2
BYLAYER
 70
0
  3

 72
65
 73
0
 40
0.0
  0
LTYPE
  5
16
100
AcDbSymbolTableRecord
100
AcDbLinetypeTableRecord
  2
CONTINUOUS
 70
64
  3
Solid line
 72
65
 73
0
 40
0.0
  0
LTYPE
  5
1F5
100
AcDbSymbolTableRecord
100
AcDbLinetypeTableRecord
  2
CENTER
 70
64
  3
____ _ ____ _ ____ _ ____ _ ____ _ ____ _ ____
 72
65
 73
4
 40
0.6
 49
0.375
 74
0
 49
-0.075
 74
0
 49
0.075
 74
0
 49
-0.075
 74
0
  0
LTYPE
  5
1F6
100
AcDbSymbolTableRecord
100
AcDbLinetypeTableRecord
  2
HIDDEN
 70
64
  3
- - - - - - - - - - - - - - - - - - - -
 72
65
 73
2
 40
0.2
 49
0.1
 74
0
 49
-0.1
 74
0
  0
LTYPE
  5
1F7
100
AcDbSymbolTableRecord
100
AcDbLinetypeTableRecord
  2
PHANTOM
 70
64
  3
_____ _ _ _____ _ _ _____ _ _ _____
 72
65
 73
6
 40
0.8
 49
0.45
 74
0
 49
-0.05
 74
0
 49
0.1
 74
0
 49
-0.05
 74
0
 49
0.1
 74
0
 49
-0.05
 74
0
  0
LTYPE
  5
1F8
100
AcDbSymbolTableRecord
100
AcDbLinetypeTableRecord
  2
DOT
 70
64
  3
. . . . . . . . . . . . . . . . . . . .
 72
65
 73
2
 40
0.2
 49
0.1
 74
0
 49
-0.1
 74
0
  0
LTYPE
  5
1F9
100
AcDbSymbolTableRecord
100
AcDbLinetypeTableRecord
  2
DASHED
 70
64
  3
- - - - - - - - - - - - - - - - - - - -
 72
65
 73
2
 40
0.2
 49
0.1
 74
0
 49
-0.1
 74
0
  0
ENDTAB
  0
TABLE
  2
LAYER
  5
2
100
AcDbSymbolTable
 70
36
  0
LAYER
  5
10
100
AcDbSymbolTableRecord
100
AcDbLayerTableRecord
  2
0
 70
0
 62
7
  6
CONTINUOUS
370
-3
390
F
  0
LAYER
  5
1FA
100
AcDbSymbolTableRecord
100
AcDbLayerTableRecord
  2
DEFAULT_1
 70
0
 62
7
  6
CENTER
370
-3
390
F
  0
LAYER
  5
1FB
100
AcDbSymbolTableRecord
100
AcDbLayerTableRecord
  2
DEFAULT_2
 70
0
 62
8
  6
HIDDEN
370
-3
390
F
  0
LAYER
  5
1FC
100
AcDbSymbolTableRecord
100
AcDbLayerTableRecord
  2
DEFAULT_3
 70
0
 62
7
  6
PHANTOM
370
-3
390
F
  0
LAYER
  5
1FD
100
AcDbSymbolTableRecord
100
AcDbLayerTableRecord
  2
2-110_ASSY_DATUMS
 70
0
 62
7
  6
CONTINUOUS
370
-3
390
F
  0
LAYER
  5
1FE
100
AcDbSymbolTableRecord
100
AcDbLayerTableRecord
  2
2-266_ASSY_PLANES
 70
0
 62
7
  6
CONTINUOUS
370
-3
390
F
  0
LAYER
  5
1FF
100
AcDbSymbolTableRecord
100
AcDbLayerTableRecord
  2
ALL_ASSEMBLY_MEMBERS
 70
0
 62
7
  6
CONTINUOUS
370
-3
390
F
  0
LAYER
  5
200
100
AcDbSymbolTableRecord
100
AcDbLayerTableRecord
  2
ALL_FEATURES
 70
0
 62
7
  6
CONTINUOUS
370
-3
390
F
  0
LAYER
  5
201
100
AcDbSymbolTableRecord
100
AcDbLayerTableRecord
  2
AXES_FEATURES
 70
0
 62
7
  6
CONTINUOUS
370
-3
390
F
  0
LAYER
  5
202
100
AcDbSymbolTableRecord
100
AcDbLayerTableRecord
  2
CHAMFER_FEATURES
 70
0
 62
7
  6
CONTINUOUS
370
-3
390
F
  0
LAYER
  5
203
100
AcDbSymbolTableRecord
100
AcDbLayerTableRecord
  2
COORDINATE_SYSTEMS
 70
0
 62
7
  6
CONTINUOUS
370
-3
390
F
  0
LAYER
  5
204
100
AcDbSymbolTableRecord
100
AcDbLayerTableRecord
  2
CUT_FEATURES
 70
0
 62
7
  6
CONTINUOUS
370
-3
390
F
  0
LAYER
  5
205
100
AcDbSymbolTableRecord
100
AcDbLayerTableRecord
  2
DATUM_CURVES
 70
0
 62
7
  6
CONTINUOUS
370
-3
390
F
  0
LAYER
  5
206
100
AcDbSymbolTableRecord
100
AcDbLayerTableRecord
  2
DATUM_PLANES
 70
0
 62
7
  6
CONTINUOUS
370
-3
390
F
  0
LAYER
  5
207
100
AcDbSymbolTableRecord
100
AcDbLayerTableRecord
  2
DEFAULT_COORDINATE_SYSTEM
 70
0
 62
7
  6
CONTINUOUS
370
-3
390
F
  0
LAYER
  5
208
100
AcDbSymbolTableRecord
100
AcDbLayerTableRecord
  2
DEFAULT_DATUM_AXES
 70
0
 62
7
  6
CONTINUOUS
370
-3
390
F
  0
LAYER
  5
209
100
AcDbSymbolTableRecord
100
AcDbLayerTableRecord
  2
DEFAULT_DATUM_CURVES
 70
0
 62
7
  6
CONTINUOUS
370
-3
390
F
  0
LAYER
  5
20A
100
AcDbSymbolTableRecord
100
AcDbLayerTableRecord
  2
DEFAULT_DATUM_PLANES
 70
0
 62
7
  6
CONTINUOUS
370
-3
390
F
  0
LAYER
  5
20B
100
AcDbSymbolTableRecord
100
AcDbLayerTableRecord
  2
DEFAULT_SURFACES
 70
0
 62
7
  6
CONTINUOUS
370
-3
390
F
  0
LAYER
  5
20C
100
AcDbSymbolTableRecord
100
AcDbLayerTableRecord
  2
DIMENSIONS
 70
0
 62
7
  6
CONTINUOUS
370
-3
390
F
  0
LAYER
  5
20D
100
AcDbSymbolTableRecord
100
AcDbLayerTableRecord
  2
HOLE_FEATURES
 70
0
 62
7
  6
CONTINUOUS
370
-3
390
F
  0
LAYER
  5
20E
100
AcDbSymbolTableRecord
100
AcDbLayerTableRecord
  2
NOTES
 70
0
 62
7
  6
CONTINUOUS
370
-3
390
F
  0
LAYER
  5
20F
100
AcDbSymbolTableRecord
100
AcDbLayerTableRecord
  2
PART_REFERENCE_DIMENSIONS
 70
0
 62
7
  6
CONTINUOUS
370
-3
390
F
  0
LAYER
  5
210
100
AcDbSymbolTableRecord
100
AcDbLayerTableRecord
  2
PLATED_SURFACE_AREA
 70
0
 62
7
  6
CONTINUOUS
370
-3
390
F
  0
LAYER
  5
211
100
AcDbSymbolTableRecord
100
AcDbLayerTableRecord
  2
PROTRUSION
 70
0
 62
7
  6
CONTINUOUS
370
-3
390
F
  0
LAYER
  5
212
100
AcDbSymbolTableRecord
100
AcDbLayerTableRecord
  2
PROTRUSION_FEATURES
 70
0
 62
7
  6
CONTINUOUS
370
-3
390
F
  0
LAYER
  5
213
100
AcDbSymbolTableRecord
100
AcDbLayerTableRecord
  2
QUILT
 70
0
 62
7
  6
CONTINUOUS
370
-3
390
F
  0
LAYER
  5
214
100
AcDbSymbolTableRecord
100
AcDbLayerTableRecord
  2
QUILTS
 70
0
 62
7
  6
CONTINUOUS
370
-3
390
F
  0
LAYER
  5
215
100
AcDbSymbolTableRecord
100
AcDbLayerTableRecord
  2
REFERENCE_DIMENSIONS
 70
0
 62
7
  6
CONTINUOUS
370
-3
390
F
  0
LAYER
  5
216
100
AcDbSymbolTableRecord
100
AcDbLayerTableRecord
  2
ROUND_FEATURES
 70
0
 62
7
  6
CONTINUOUS
370
-3
390
F
  0
LAYER
  5
217
100
AcDbSymbolTableRecord
100
AcDbLayerTableRecord
  2
SHELL_FEATURES
 70
0
 62
7
  6
CONTINUOUS
370
-3
390
F
  0
LAYER
  5
218
100
AcDbSymbolTableRecord
100
AcDbLayerTableRecord
  2
SURFACE_FEATURES
 70
0
 62
7
  6
CONTINUOUS
370
-3
390
F
  0
LAYER
  5
219
100
AcDbSymbolTableRecord
100
AcDbLayerTableRecord
  2
WETTED_SURFACES
 70
0
 62
7
  6
CONTINUOUS
370
-3
390
F
  0
LAYER
  5
21A
100
AcDbSymbolTableRecord
100
AcDbLayerTableRecord
  2
XSEC_DATUMS
 70
0
 62
7
  6
CONTINUOUS
370
-3
390
F
  0
ENDTAB
  0
TABLE
  2
STYLE
  5
3
100
AcDbSymbolTable
 70
1
  0
STYLE
  5
11
100
AcDbSymbolTableRecord
100
AcDbTextStyleTableRecord
  2
STANDARD
 70
0
 40
0.0
 41
0.8
 50
0.0
 71
0
 42
0.2
  3
txt
  4

  0
STYLE
  5
21B
100
AcDbSymbolTableRecord
100
AcDbTextStyleTableRecord
  2
TEXTSTYLE_1
 70
0
 40
0.0
 41
0.8
 50
0.0
 71
0
 42
0.2
  3
gdt
  4

  0
ENDTAB
  0
TABLE
  2
VIEW
  5
6
100
AcDbSymbolTable
 70
0
  0
ENDTAB
  0
TABLE
  2
UCS
  5
7
100
AcDbSymbolTable
 70
0
  0
ENDTAB
  0
TABLE
  2
APPID
  5
9
100
AcDbSymbolTable
 70
1
  0
APPID
  5
21C
100
AcDbSymbolTableRecord
100
AcDbRegAppTableRecord
  2
ACAD
 70
0
  0
ENDTAB
  0
TABLE
  2
BLOCK_RECORD
  5
1
100
AcDbSymbolTable
 70
0
  0
BLOCK_RECORD
  5
21D
100
AcDbSymbolTableRecord
100
AcDbBlockTableRecord
  2
*Model_Space
  0
BLOCK_RECORD
  5
21E
100
AcDbSymbolTableRecord
100
AcDbBlockTableRecord
  2
*Paper_Space
  0
BLOCK_RECORD
  5
21F
100
AcDbSymbolTableRecord
100
AcDbBlockTableRecord
  2
_FILLED
  0
ENDTAB
  0
TABLE
  2
DIMSTYLE
  5
A
100
AcDbSymbolTable
 70
1
100
AcDbDimStyleTable
 71
0
  0
DIMSTYLE
105
220
100
AcDbSymbolTableRecord
100
AcDbDimStyleTableRecord
  2
STANDARD
 70
0
  3

  4

 40
1.0
 41
0.1
 42
0.0625
 43
0.38
 44
0.125
 45
0.0
 46
0.0
 47
0.001
 48
0.001
140
0.08
141
0.09
142
0.0
143
25.4
144
1.0
145
0.0
146
1.0
147
0.09
 71
1.0
 72
0.0
 73
1
 74
1
 75
0
 76
0
 77
0
 78
4
 79
1
170
1
171
2
172
0
173
0
174
0
175
0
176
0
177
0
178
0
270
2
179
3
271
3
272
3
273
2
274
2
275
0
280
0
281
0
282
0
283
1
284
4
285
0
286
0
287
3
288
0
340
11
278
46
341
21F
342
21F
343
21F
344
21F
  0
ENDTAB
  0
ENDSEC
  0
SECTION
  2
BLOCKS
  0
BLOCK
  5
20
100
AcDbEntity
  8
0
100
AcDbBlockBegin
  2
*Model_Space
 70
0
 10
0.0
 20
0.0
 30
0.0
  3
*Model_Space
  1

  0
ENDBLK
  5
21
100
AcDbEntity
  8
0
100
AcDbBlockEnd
  0
BLOCK
  5
1C
100
AcDbEntity
  8
0
100
AcDbBlockBegin
  2
*Paper_Space
 70
0
 10
0.0
 20
0.0
 30
0.0
  3
*Paper_Space
  1

  0
ENDBLK
  5
1D
100
AcDbEntity
  8
0
100
AcDbBlockEnd
  0
BLOCK
  5
221
100
AcDbEntity
  8
0
100
AcDbBlockBegin
  2
_FILLED
 70
64
 10
0.0
 20
0.0
  3
_FILLED
  1

  0
SOLID
  5
222
100
AcDbEntity
  8
0
  6
BYBLOCK
 62
0
100
AcDbTrace
 10
0.0
 20
0.0
 11
-1.0
 21
0.2
 12
-1.0
 22
-0.2
 13
-1.0
 23
-0.2
  0
ENDBLK
  5
223
100
AcDbEntity
  8
0
  6
BYBLOCK
 62
0
100
AcDbBlockEnd
  0
ENDSEC
  0
SECTION
  2
ENTITIES
  0
MTEXT
  5
224
100
AcDbEntity
  8
0
100
AcDbMText
 62
2
  6
CONTINUOUS
  7
STANDARD
 71
3
 72
1
 10
4.1741071429
 20
3.0216485609
 30
0.0
 11
1.0
 21
0.0
 31
0.0
 73
2
 44
0.9
  1
SCALE  .500
 40
0.08
 41
0.704
  0
LINE
  5
225
100
AcDbEntity
  8
0
100
AcDbLine
 62
7
  6
CONTINUOUS
 10
0.0
 20
0.0
 11
0.0
 21
8.5
  0
LINE
  5
226
100
AcDbEntity
  8
0
100
AcDbLine
 62
7
  6
CONTINUOUS
 10
0.0
 20
0.0
 11
11.0
 21
0.0
  0
LINE
  5
227
100
AcDbEntity
  8
0
100
AcDbLine
 62
7
  6
CONTINUOUS
 10
0.0
 20
8.5
 11
11.0
 21
8.5
  0
LINE
  5
228
100
AcDbEntity
  8
0
100
AcDbLine
 62
7
  6
CONTINUOUS
 10
11.0
 20
0.0
 11
11.0
 21
8.5
  0
LINE
  5
229
100
AcDbEntity
  8
ALL_ASSEMBLY_MEMBERS
100
AcDbLine
 62
7
  6
CONTINUOUS
 10
2.5491071429
 20
5.1471423244
 11
2.5491071429
 21
5.2168739546
  0
LINE
  5
22A
100
AcDbEntity
  8
ALL_ASSEMBLY_MEMBERS
100
AcDbLine
 62
7
  6
CONTINUOUS
 10
4.792156309
 20
3.1166485609
 11
3.5553571429
 21
3.1166485609
  0
LINE
  5
22B
100
AcDbEntity
  8
ALL_ASSEMBLY_MEMBERS
100
AcDbLine
 62
7
  6
CONTINUOUS
 10
4.792156309
 20
3.3166485609
 11
4.2187414282
 21
3.3166485609
  0
LINE
  5
22C
100
AcDbEntity
  8
ALL_ASSEMBLY_MEMBERS
100
AcDbLine
 62
7
  6
CONTINUOUS
 10
4.1295495082
 20
3.316648559
 11
3.5553571429
 21
3.3166485609
  0
LINE
  5
22D
100
AcDbEntity
  8
ALL_ASSEMBLY_MEMBERS
100
AcDbLine
 62
7
  6
CONTINUOUS
 10
4.2187187563
 20
3.3166485607
 11
4.2187348714
 21
3.31664856
  0
LWPOLYLINE
  5
22E
100
AcDbEntity
  8
ALL_ASSEMBLY_MEMBERS
100
AcDbPolyline
 62
7
  6
CONTINUOUS
 90
14
 70
0
 10
4.7308705344
 20
3.3166476484
 10
4.7301104539
 20
3.3166548655
 10
4.7287289587
 20
3.3167041012
 10
4.7271233098
 20
3.3168186387
 10
4.7253391586
 20
3.317017267
 10
4.7234212316
 20
3.3173145209
 10
4.7213691837
 20
3.3177297033
 10
4.7192049864
 20
3.3182788503
 10
4.7170046558
 20
3.3189582863
 10
4.7147935546
 20
3.319769717
 10
4.7125668038
 20
3.3207247898
 10
4.7103513478
 20
3.3218220426
 10
4.7081628125
 20
3.3230621016
 10
4.706482542
 20
3.3241290467
  0
LWPOLYLINE
  5
22F
100
AcDbEntity
  8
ALL_ASSEMBLY_MEMBERS
100
AcDbPolyline
 62
7
  6
CONTINUOUS
 90
8
 70
0
 10
3.9728543534
 20
3.3316521384
 10
3.9733851993
 20
3.3316438167
 10
3.9759971397
 20
3.3314291203
 10
3.9786022154
 20
3.3309327731
 10
3.9811545134
 20
3.3301671602
 10
3.9835596168
 20
3.3291723285
 10
3.9856914204
 20
3.32803768
 10
3.9866071429
 20
3.3274366168
  0
LWPOLYLINE
  5
230
100
AcDbEntity
  8
ALL_ASSEMBLY_MEMBERS
100
AcDbPolyline
 62
7
  6
CONTINUOUS
 90
5
 70
0
 10
4.37548141
 20
3.331652273
 10
4.377303619
 20
3.3315753005
 10
4.378830817
 20
3.3313840727
 10
4.3800075675
 20
3.3311413258
 10
4.3806809889
 20
3.3309537362
  0
LINE
  5
231
100
AcDbEntity
  8
ALL_ASSEMBLY_MEMBERS
100
AcDbLine
 62
7
  6
CONTINUOUS
 10
3.9866081574
 20
3.6166485609
 11
4.3616061283
 21
3.6166485609
  0
LINE
  5
232
100
AcDbEntity
  8
ALL_ASSEMBLY_MEMBERS
100
AcDbLine
 62
7
  6
CONTINUOUS
 10
4.4022174931
 20
3.3166485609
 11
4.380705217
 21
3.3309900783
  0
LINE
  5
233
100
AcDbEntity
  8
ALL_ASSEMBLY_MEMBERS
100
AcDbLine
 62
7
  6
CONTINUOUS
 10
3.6053718502
 20
5.0537367309
 11
3.6053718502
 21
5.0603739546
  0
LINE
  5
234
100
AcDbEntity
  8
ALL_ASSEMBLY_MEMBERS
100
AcDbLine
 62
7
  6
CONTINUOUS
 10
3.6816071429
 20
4.8109989546
 11
3.6816071429
 21
4.9808739546
  0
LINE
  5
235
100
AcDbEntity
  8
ALL_ASSEMBLY_MEMBERS
100
AcDbLine
 62
7
  6
CONTINUOUS
 10
3.6891071429
 20
4.0826485609
 11
3.6891071429
 21
4.6141485609
  0
LINE
  5
236
100
AcDbEntity
  8
ALL_ASSEMBLY_MEMBERS
100
AcDbLine
 62
7
  6
CONTINUOUS
 10
3.6893571429
 20
4.7617863562
 11
3.6893571429
 21
4.673203679
  0
LINE
  5
237
100
AcDbEntity
  8
ALL_ASSEMBLY_MEMBERS
100
AcDbLine
 62
7
  6
CONTINUOUS
 10
3.6895260419
 20
4.7617863562
 11
3.6895260419
 21
4.673203679
  0
LINE
  5
238
100
AcDbEntity
  8
ALL_ASSEMBLY_MEMBERS
100
AcDbLine
 62
7
  6
CONTINUOUS
 10
3.6918236783
 20
4.8109989546
 11
3.6918236783
 21
4.7617863562
  0
LINE
  5
239
100
AcDbEntity
  8
ALL_ASSEMBLY_MEMBERS
100
AcDbLine
 62
7
  6
CONTINUOUS
 10
3.6918236783
 20
4.673203679
 11
3.6918236783
 21
4.6141485609
  0
LINE
  5
23A
100
AcDbEntity
  8
ALL_ASSEMBLY_MEMBERS
100
AcDbLine
 62
7
  6
CONTINUOUS
 10
3.6919934414
 20
4.7617863562
 11
3.6919934414
 21
4.673203679
  0
LINE
  5
23B
100
AcDbEntity
  8
ALL_ASSEMBLY_MEMBERS
100
AcDbLine
 62
7
  6
CONTINUOUS
 10
3.7041129437
 20
4.7005637889
 11
3.7041129437
 21
4.6950917674
  0
LINE
  5
23C
100
AcDbEntity
  8
ALL_ASSEMBLY_MEMBERS
100
AcDbLine
 62
7
  6
CONTINUOUS
 10
3.70441775
 20
4.7370439345
 11
3.70441775
 21
4.7315719131
  0
LINE
  5
23D
100
AcDbEntity
  8
ALL_ASSEMBLY_MEMBERS
100
AcDbLine
 62
7
  6
CONTINUOUS
 10
3.7056668306
 20
4.7005637889
 11
3.7056668306
 21
4.6950917674
  0
LINE
  5
23E
100
AcDbEntity
  8
ALL_ASSEMBLY_MEMBERS
100
AcDbLine
 62
7
  6
CONTINUOUS
 10
3.7059865539
 20
4.7370439345
 11
3.7059865539
 21
4.7333959202
  0
LINE
  5
23F
100
AcDbEntity
  8
ALL_ASSEMBLY_MEMBERS
100
AcDbLine
 62
7
  6
CONTINUOUS
 10
3.707993858
 20
4.7005637889
 11
3.707993858
 21
4.6950917674
  0
LINE
  5
240
100
AcDbEntity
  8
ALL_ASSEMBLY_MEMBERS
100
AcDbLine
 62
7
  6
CONTINUOUS
 10
3.7083130568
 20
4.7370439345
 11
3.7083130568
 21
4.7333959202
  0
LINE
  5
241
100
AcDbEntity
  8
ALL_ASSEMBLY_MEMBERS
100
AcDbLine
 62
7
  6
CONTINUOUS
 10
3.7145493371
 20
4.7370439345
 11
3.7145493371
 21
4.7333959202
  0
LINE
  5
242
100
AcDbEntity
  8
ALL_ASSEMBLY_MEMBERS
100
AcDbLine
 62
7
  6
CONTINUOUS
 10
3.7149430419
 20
4.7005637889
 11
3.7149430419
 21
4.6950917674
  0
LINE
  5
243
100
AcDbEntity
  8
ALL_ASSEMBLY_MEMBERS
100
AcDbLine
 62
7
  6
CONTINUOUS
 10
3.716547321
 20
4.7370439345
 11
3.716547321
 21
4.7315719131
  0
LINE
  5
244
100
AcDbEntity
  8
ALL_ASSEMBLY_MEMBERS
100
AcDbLine
 62
7
  6
CONTINUOUS
 10
3.7169557528
 20
4.7005637889
 11
3.7169557528
 21
4.6950917674
  0
LINE
  5
245
100
AcDbEntity
  8
ALL_ASSEMBLY_MEMBERS
100
AcDbLine
 62
7
  6
CONTINUOUS
 10
3.7188652895
 20
4.7370439345
 11
3.7188652895
 21
4.7315719131
  0
LINE
  5
246
100
AcDbEntity
  8
ALL_ASSEMBLY_MEMBERS
100
AcDbLine
 62
7
  6
CONTINUOUS
 10
3.7192736544
 20
4.7005637889
 11
3.7192736544
 21
4.6950917674
  0
LINE
  5
247
100
AcDbEntity
  8
ALL_ASSEMBLY_MEMBERS
100
AcDbLine
 62
7
  6
CONTINUOUS
 10
3.7203291996
 20
4.7589320255
 11
3.7203291996
 21
4.7115078344
  0
LINE
  5
248
100
AcDbEntity
  8
ALL_ASSEMBLY_MEMBERS
100
AcDbLine
 62
7
  6
CONTINUOUS
 10
3.7225332982
 20
4.7498119897
 11
3.7225332982
 21
4.7206278701
  0
LINE
  5
249
100
AcDbEntity
  8
ALL_ASSEMBLY_MEMBERS
100
AcDbLine
 62
7
  6
CONTINUOUS
 10
3.7248517024
 20
4.7498119897
 11
3.7248517024
 21
4.7260998916
  0
LINE
  5
24A
100
AcDbEntity
  8
ALL_ASSEMBLY_MEMBERS
100
AcDbLine
 62
7
  6
CONTINUOUS
 10
3.7351845399
 20
4.702387796
 11
3.7351845399
 21
4.6987397817
  0
LINE
  5
24B
100
AcDbEntity
  8
ALL_ASSEMBLY_MEMBERS
100
AcDbLine
 62
7
  6
CONTINUOUS
 10
3.7367733532
 20
4.7589320255
 11
3.7367733532
 21
4.7498119897
  0
LINE
  5
24C
100
AcDbEntity
  8
ALL_ASSEMBLY_MEMBERS
100
AcDbLine
 62
7
  6
CONTINUOUS
 10
3.7378474866
 20
4.7042118032
 11
3.7378474866
 21
4.6969157746
  0
LINE
  5
24D
100
AcDbEntity
  8
ALL_ASSEMBLY_MEMBERS
100
AcDbLine
 62
7
  6
CONTINUOUS
 10
3.7391021244
 20
4.7589320255
 11
3.7391021244
 21
4.7498119897
  0
LINE
  5
24E
100
AcDbEntity
  8
ALL_ASSEMBLY_MEMBERS
100
AcDbLine
 62
7
  6
CONTINUOUS
 10
3.7401774519
 20
4.7042118032
 11
3.7401774519
 21
4.6969157746
  0
LINE
  5
24F
100
AcDbEntity
  8
ALL_ASSEMBLY_MEMBERS
100
AcDbLine
 62
7
  6
CONTINUOUS
 10
3.7583424356
 20
5.0537367309
 11
3.7583424356
 21
5.0603739546
  0
LINE
  5
250
100
AcDbEntity
  8
ALL_ASSEMBLY_MEMBERS
100
AcDbLine
 62
7
  6
CONTINUOUS
 10
3.7703571429
 20
3.9266485609
 11
3.7703571429
 21
4.0826485609
  0
LINE
  5
251
100
AcDbEntity
  8
ALL_ASSEMBLY_MEMBERS
100
AcDbLine
 62
7
  6
CONTINUOUS
 10
4.1492167242
 20
4.7571080183
 11
4.1423405951
 21
4.7516359969
  0
LINE
  5
252
100
AcDbEntity
  8
ALL_ASSEMBLY_MEMBERS
100
AcDbLine
 62
7
  6
CONTINUOUS
 10
4.7064787822
 20
3.3241315259
 11
4.3663103113
 21
3.5509104513
  0
LWPOLYLINE
  5
253
100
AcDbEntity
  8
ALL_ASSEMBLY_MEMBERS
100
AcDbPolyline
 62
7
  6
CONTINUOUS
 90
5
 70
0
 10
4.3663089101
 20
3.5509113315
 10
4.3657627317
 20
3.5512888418
 10
4.3640235417
 20
3.5526690167
 10
4.3626068943
 20
3.5540386059
 10
4.3616071429
 20
3.5551972073
  0
LINE
  5
254
100
AcDbEntity
  8
ALL_ASSEMBLY_MEMBERS
100
AcDbLine
 62
7
  6
CONTINUOUS
 10
3.8856815657
 20
4.7617863562
 11
3.8856815657
 21
4.673203679
  0
LINE
  5
255
100
AcDbEntity
  8
ALL_ASSEMBLY_MEMBERS
100
AcDbLine
 62
7
  6
CONTINUOUS
 10
3.906644118
 20
4.7617863562
 11
3.906644118
 21
4.673203679
  0
LINE
  5
256
100
AcDbEntity
  8
ALL_ASSEMBLY_MEMBERS
100
AcDbLine
 62
7
  6
CONTINUOUS
 10
3.9080593602
 20
4.7617863562
 11
3.9080593602
 21
4.673203679
  0
LINE
  5
257
100
AcDbEntity
  8
ALL_ASSEMBLY_MEMBERS
100
AcDbLine
 62
7
  6
CONTINUOUS
 10
4.1134608584
 20
4.7589320255
 11
4.1052095051
 21
4.7461639754
  0
LINE
  5
258
100
AcDbEntity
  8
ALL_ASSEMBLY_MEMBERS
100
AcDbLine
 62
7
  6
CONTINUOUS
 10
4.1134608584
 20
4.7443399682
 11
4.1052095051
 21
4.7315719131
  0
LINE
  5
259
100
AcDbEntity
  8
ALL_ASSEMBLY_MEMBERS
100
AcDbLine
 62
7
  6
CONTINUOUS
 10
4.1423405951
 20
4.7516359969
 11
4.1382149184
 21
4.7461639754
  0
LINE
  5
25A
100
AcDbEntity
  8
ALL_ASSEMBLY_MEMBERS
100
AcDbLine
 62
7
  6
CONTINUOUS
 10
4.202850517
 20
4.7516359969
 11
4.1987248404
 21
4.7461639754
  0
LINE
  5
25B
100
AcDbEntity
  8
ALL_ASSEMBLY_MEMBERS
100
AcDbLine
 62
7
  6
CONTINUOUS
 10
4.1505919485
 20
4.7479879826
 11
4.1464662718
 21
4.7443399682
  0
LINE
  5
25C
100
AcDbEntity
  8
ALL_ASSEMBLY_MEMBERS
100
AcDbLine
 62
7
  6
CONTINUOUS
 10
4.2111018704
 20
4.7479879826
 11
4.2069761937
 21
4.7443399682
  0
LINE
  5
25D
100
AcDbEntity
  8
ALL_ASSEMBLY_MEMBERS
100
AcDbLine
 62
7
  6
CONTINUOUS
 10
4.1684698794
 20
4.6877957375
 11
4.1643442027
 21
4.6841477232
  0
LINE
  5
25E
100
AcDbEntity
  8
ALL_ASSEMBLY_MEMBERS
100
AcDbLine
 62
7
  6
CONTINUOUS
 10
4.2289798053
 20
4.6877957375
 11
4.2248541286
 21
4.6841477232
  0
LINE
  5
25F
100
AcDbEntity
  8
ALL_ASSEMBLY_MEMBERS
100
AcDbLine
 62
7
  6
CONTINUOUS
 10
4.2097266501
 20
4.7571080183
 11
4.202850517
 21
4.7516359969
  0
LINE
  5
260
100
AcDbEntity
  8
ALL_ASSEMBLY_MEMBERS
100
AcDbLine
 62
7
  6
CONTINUOUS
 10
4.17259556
 20
4.6804997083
 11
4.1657194309
 21
4.6750276863
  0
LINE
  5
261
100
AcDbEntity
  8
ALL_ASSEMBLY_MEMBERS
100
AcDbLine
 62
7
  6
CONTINUOUS
 10
4.2331054819
 20
4.6804997083
 11
4.2262293568
 21
4.6750276863
  0
LINE
  5
262
100
AcDbEntity
  8
ALL_ASSEMBLY_MEMBERS
100
AcDbLine
 62
7
  6
CONTINUOUS
 10
4.0166114688
 20
3.9166485609
 11
4.331602817
 21
3.9166485609
  0
LINE
  5
263
100
AcDbEntity
  8
ALL_ASSEMBLY_MEMBERS
100
AcDbLine
 62
7
  6
CONTINUOUS
 10
4.5778571429
 20
3.9266485609
 11
3.7703571429
 21
3.9266485609
  0
LINE
  5
264
100
AcDbEntity
  8
ALL_ASSEMBLY_MEMBERS
100
AcDbLine
 62
7
  6
CONTINUOUS
 10
3.9866072258
 20
3.3837584839
 11
3.9866071432
 21
3.3841892837
  0
LINE
  5
265
100
AcDbEntity
  8
ALL_ASSEMBLY_MEMBERS
100
AcDbLine
 62
7
  6
CONTINUOUS
 10
3.9866071429
 20
3.3166485609
 11
3.9866071429
 21
3.3841850367
  0
LINE
  5
266
100
AcDbEntity
  8
ALL_ASSEMBLY_MEMBERS
100
AcDbLine
 62
7
  6
CONTINUOUS
 10
3.9866072024
 20
3.5307419402
 11
3.9866071429
 21
3.6166485609
  0
LINE
  5
267
100
AcDbEntity
  8
ALL_ASSEMBLY_MEMBERS
100
AcDbLine
 62
7
  6
CONTINUOUS
 10
4.0166071429
 20
3.6166485609
 11
4.0166071429
 21
3.9166485609
  0
LINE
  5
268
100
AcDbEntity
  8
ALL_ASSEMBLY_MEMBERS
100
AcDbLine
 62
7
  6
CONTINUOUS
 10
4.135464468
 20
4.7388679468
 11
4.1340892418
 21
4.7333959202
  0
LINE
  5
269
100
AcDbEntity
  8
ALL_ASSEMBLY_MEMBERS
100
AcDbLine
 62
7
  6
CONTINUOUS
 10
4.1382149184
 20
4.7461639754
 11
4.135464468
 21
4.7388679468
  0
LINE
  5
26A
100
AcDbEntity
  8
ALL_ASSEMBLY_MEMBERS
100
AcDbLine
 62
7
  6
CONTINUOUS
 10
4.1987248404
 20
4.7461639754
 11
4.1959743919
 21
4.7388679468
  0
LINE
  5
26B
100
AcDbEntity
  8
ALL_ASSEMBLY_MEMBERS
100
AcDbLine
 62
7
  6
CONTINUOUS
 10
4.1794716852
 20
4.6932677603
 11
4.1767212367
 21
4.6859717304
  0
LINE
  5
26C
100
AcDbEntity
  8
ALL_ASSEMBLY_MEMBERS
100
AcDbLine
 62
7
  6
CONTINUOUS
 10
4.1464662718
 20
4.7443399682
 11
4.1409653709
 21
4.7333959202
  0
LINE
  5
26D
100
AcDbEntity
  8
ALL_ASSEMBLY_MEMBERS
100
AcDbLine
 62
7
  6
CONTINUOUS
 10
4.1739707803
 20
4.6987397817
 11
4.1684698794
 21
4.6877957375
  0
LINE
  5
26E
100
AcDbEntity
  8
ALL_ASSEMBLY_MEMBERS
100
AcDbLine
 62
7
  6
CONTINUOUS
 10
4.2069761937
 20
4.7443399682
 11
4.2014752967
 21
4.7333959202
  0
LINE
  5
26F
100
AcDbEntity
  8
ALL_ASSEMBLY_MEMBERS
100
AcDbLine
 62
7
  6
CONTINUOUS
 10
4.2344807101
 20
4.6987397817
 11
4.2289798053
 21
4.6877957375
  0
LINE
  5
270
100
AcDbEntity
  8
ALL_ASSEMBLY_MEMBERS
100
AcDbLine
 62
7
  6
CONTINUOUS
 10
4.1767212367
 20
4.6859717304
 11
4.17259556
 21
4.6804997083
  0
LINE
  5
271
100
AcDbEntity
  8
ALL_ASSEMBLY_MEMBERS
100
AcDbLine
 62
7
  6
CONTINUOUS
 10
4.2372311586
 20
4.6859717304
 11
4.2331054819
 21
4.6804997083
  0
LINE
  5
272
100
AcDbEntity
  8
ALL_ASSEMBLY_MEMBERS
100
AcDbLine
 62
7
  6
CONTINUOUS
 10
4.6591031914
 20
4.0826485609
 11
3.6891110943
 21
4.0826485609
  0
LINE
  5
273
100
AcDbEntity
  8
ALL_ASSEMBLY_MEMBERS
100
AcDbLine
 62
7
  6
CONTINUOUS
 10
3.6166117556
 20
5.0537367309
 11
3.6441071429
 21
4.9808739546
  0
LINE
  5
274
100
AcDbEntity
  8
ALL_ASSEMBLY_MEMBERS
100
AcDbLine
 62
7
  6
CONTINUOUS
 10
4.0951071429
 20
3.9266485609
 11
4.0951071429
 21
3.9166485609
  0
LINE
  5
275
100
AcDbEntity
  8
ALL_ASSEMBLY_MEMBERS
100
AcDbLine
 62
7
  6
CONTINUOUS
 10
4.1052095051
 20
4.7461639754
 11
4.1052095051
 21
4.7315719131
  0
LINE
  5
276
100
AcDbEntity
  8
ALL_ASSEMBLY_MEMBERS
100
AcDbLine
 62
7
  6
CONTINUOUS
 10
4.1134608584
 20
4.7443399682
 11
4.1134608584
 21
4.673203679
  0
LINE
  5
277
100
AcDbEntity
  8
ALL_ASSEMBLY_MEMBERS
100
AcDbLine
 62
7
  6
CONTINUOUS
 10
4.1217122118
 20
4.7589320255
 11
4.1217122118
 21
4.673203679
  0
LINE
  5
278
100
AcDbEntity
  8
ALL_ASSEMBLY_MEMBERS
100
AcDbLine
 62
7
  6
CONTINUOUS
 10
4.1327140156
 20
4.7242758844
 11
4.1327140156
 21
4.7078598201
  0
LINE
  5
279
100
AcDbEntity
  8
ALL_ASSEMBLY_MEMBERS
100
AcDbLine
 62
7
  6
CONTINUOUS
 10
4.1395901427
 20
4.7224518773
 11
4.1395901427
 21
4.7096838272
  0
LINE
  5
27A
100
AcDbEntity
  8
ALL_ASSEMBLY_MEMBERS
100
AcDbLine
 62
7
  6
CONTINUOUS
 10
4.1446071429
 20
4.3440687646
 11
4.1446071429
 21
4.3495967711
  0
LINE
  5
27B
100
AcDbEntity
  8
ALL_ASSEMBLY_MEMBERS
100
AcDbLine
 62
7
  6
CONTINUOUS
 10
4.1641076582
 20
4.9459989546
 11
4.1641076582
 21
4.8659989546
  0
LINE
  5
27C
100
AcDbEntity
  8
ALL_ASSEMBLY_MEMBERS
100
AcDbLine
 62
7
  6
CONTINUOUS
 10
4.1753460085
 20
4.7224518773
 11
4.1753460085
 21
4.7096838272
  0
LINE
  5
27D
100
AcDbEntity
  8
ALL_ASSEMBLY_MEMBERS
100
AcDbLine
 62
7
  6
CONTINUOUS
 10
4.1822221337
 20
4.7242758844
 11
4.1822221337
 21
4.7078598201
  0
LINE
  5
27E
100
AcDbEntity
  8
ALL_ASSEMBLY_MEMBERS
100
AcDbLine
 62
7
  6
CONTINUOUS
 10
4.1841066275
 20
4.9459989546
 11
4.1841066275
 21
4.8659989546
  0
LINE
  5
27F
100
AcDbEntity
  8
ALL_ASSEMBLY_MEMBERS
100
AcDbLine
 62
7
  6
CONTINUOUS
 10
4.0866072062
 20
3.4637130619
 11
4.0866071429
 21
3.3166485609
  0
LINE
  5
280
100
AcDbEntity
  8
ALL_ASSEMBLY_MEMBERS
100
AcDbLine
 62
7
  6
CONTINUOUS
 10
4.1409653709
 20
4.7333959202
 11
4.1395901427
 21
4.7224518773
  0
LINE
  5
281
100
AcDbEntity
  8
ALL_ASSEMBLY_MEMBERS
100
AcDbLine
 62
7
  6
CONTINUOUS
 10
4.1753460085
 20
4.7096838272
 11
4.1739707803
 21
4.6987397817
  0
LINE
  5
282
100
AcDbEntity
  8
ALL_ASSEMBLY_MEMBERS
100
AcDbLine
 62
7
  6
CONTINUOUS
 10
4.2014752967
 20
4.7333959202
 11
4.2001000685
 21
4.7224518773
  0
LINE
  5
283
100
AcDbEntity
  8
ALL_ASSEMBLY_MEMBERS
100
AcDbLine
 62
7
  6
CONTINUOUS
 10
4.2358559304
 20
4.7096838272
 11
4.2344807101
 21
4.6987397817
  0
LINE
  5
284
100
AcDbEntity
  8
ALL_ASSEMBLY_MEMBERS
100
AcDbLine
 62
7
  6
CONTINUOUS
 10
4.1340892418
 20
4.7333959202
 11
4.1327140156
 21
4.7242758844
  0
LINE
  5
285
100
AcDbEntity
  8
ALL_ASSEMBLY_MEMBERS
100
AcDbLine
 62
7
  6
CONTINUOUS
 10
4.1822221337
 20
4.7078598201
 11
4.1808469134
 21
4.6987397817
  0
LINE
  5
286
100
AcDbEntity
  8
ALL_ASSEMBLY_MEMBERS
100
AcDbLine
 62
7
  6
CONTINUOUS
 10
4.1945991637
 20
4.7333959202
 11
4.1932239434
 21
4.7242758844
  0
LINE
  5
287
100
AcDbEntity
  8
ALL_ASSEMBLY_MEMBERS
100
AcDbLine
 62
7
  6
CONTINUOUS
 10
4.2427320556
 20
4.7078598201
 11
4.2413568353
 21
4.6987397817
  0
LINE
  5
288
100
AcDbEntity
  8
ALL_ASSEMBLY_MEMBERS
100
AcDbLine
 62
7
  6
CONTINUOUS
 10
4.1808469134
 20
4.6987397817
 11
4.1794716852
 21
4.6932677603
  0
LINE
  5
289
100
AcDbEntity
  8
ALL_ASSEMBLY_MEMBERS
100
AcDbLine
 62
7
  6
CONTINUOUS
 10
4.1959743919
 20
4.7388679468
 11
4.1945991637
 21
4.7333959202
  0
LINE
  5
28A
100
AcDbEntity
  8
ALL_ASSEMBLY_MEMBERS
100
AcDbLine
 62
7
  6
CONTINUOUS
 10
4.2413568353
 20
4.6987397817
 11
4.239981615
 21
4.6932677603
  0
LINE
  5
28B
100
AcDbEntity
  8
ALL_ASSEMBLY_MEMBERS
100
AcDbLine
 62
7
  6
CONTINUOUS
 10
4.239981615
 20
4.6932677603
 11
4.2372311586
 21
4.6859717304
  0
LINE
  5
28C
100
AcDbEntity
  8
ALL_ASSEMBLY_MEMBERS
100
AcDbLine
 62
7
  6
CONTINUOUS
 10
4.1932239434
 20
4.7242758844
 11
4.1932239434
 21
4.7078598201
  0
LINE
  5
28D
100
AcDbEntity
  8
ALL_ASSEMBLY_MEMBERS
100
AcDbLine
 62
7
  6
CONTINUOUS
 10
4.2001000685
 20
4.7224518773
 11
4.2001000685
 21
4.7096838272
  0
LINE
  5
28E
100
AcDbEntity
  8
ALL_ASSEMBLY_MEMBERS
100
AcDbLine
 62
7
  6
CONTINUOUS
 10
4.2036071429
 20
4.3440687646
 11
4.2036071429
 21
4.3495967711
  0
LINE
  5
28F
100
AcDbEntity
  8
ALL_ASSEMBLY_MEMBERS
100
AcDbLine
 62
7
  6
CONTINUOUS
 10
4.2358559304
 20
4.7224518773
 11
4.2358559304
 21
4.7096838272
  0
LINE
  5
290
100
AcDbEntity
  8
ALL_ASSEMBLY_MEMBERS
100
AcDbLine
 62
7
  6
CONTINUOUS
 10
4.2427320556
 20
4.7242758844
 11
4.2427320556
 21
4.7078598201
  0
LINE
  5
291
100
AcDbEntity
  8
ALL_ASSEMBLY_MEMBERS
100
AcDbLine
 62
7
  6
CONTINUOUS
 10
4.2531071429
 20
3.9266485609
 11
4.2531071429
 21
3.9166485609
  0
LINE
  5
292
100
AcDbEntity
  8
ALL_ASSEMBLY_MEMBERS
100
AcDbLine
 62
7
  6
CONTINUOUS
 10
4.2616071428
 20
3.4635829972
 11
4.2616071413
 21
3.4635997848
  0
LINE
  5
293
100
AcDbEntity
  8
ALL_ASSEMBLY_MEMBERS
100
AcDbLine
 62
7
  6
CONTINUOUS
 10
4.2616071429
 20
3.3166485609
 11
4.2616071429
 21
3.4635819535
  0
LINE
  5
294
100
AcDbEntity
  8
ALL_ASSEMBLY_MEMBERS
100
AcDbLine
 62
7
  6
CONTINUOUS
 10
4.2006234088
 20
4.3508985609
 11
4.1795137495
 21
4.3508985609
  0
LINE
  5
295
100
AcDbEntity
  8
ALL_ASSEMBLY_MEMBERS
100
AcDbLine
 62
7
  6
CONTINUOUS
 10
4.1687005363
 20
4.3508985609
 11
4.1475908769
 21
4.3508985609
  0
LINE
  5
296
100
AcDbEntity
  8
ALL_ASSEMBLY_MEMBERS
100
AcDbLine
 62
7
  6
CONTINUOUS
 10
4.1382149184
 20
4.6859717304
 11
4.135464468
 21
4.6932677603
  0
LINE
  5
297
100
AcDbEntity
  8
ALL_ASSEMBLY_MEMBERS
100
AcDbLine
 62
7
  6
CONTINUOUS
 10
4.135464468
 20
4.6932677603
 11
4.1340892418
 21
4.6987397817
  0
LINE
  5
298
100
AcDbEntity
  8
ALL_ASSEMBLY_MEMBERS
100
AcDbLine
 62
7
  6
CONTINUOUS
 10
4.1808469134
 20
4.7333959202
 11
4.1794716852
 21
4.7388679468
  0
LINE
  5
299
100
AcDbEntity
  8
ALL_ASSEMBLY_MEMBERS
100
AcDbLine
 62
7
  6
CONTINUOUS
 10
4.1959743919
 20
4.6932677603
 11
4.1945991637
 21
4.6987397817
  0
LINE
  5
29A
100
AcDbEntity
  8
ALL_ASSEMBLY_MEMBERS
100
AcDbLine
 62
7
  6
CONTINUOUS
 10
4.1340892418
 20
4.6987397817
 11
4.1327140156
 21
4.7078598201
  0
LINE
  5
29B
100
AcDbEntity
  8
ALL_ASSEMBLY_MEMBERS
100
AcDbLine
 62
7
  6
CONTINUOUS
 10
4.1822221337
 20
4.7242758844
 11
4.1808469134
 21
4.7333959202
  0
LINE
  5
29C
100
AcDbEntity
  8
ALL_ASSEMBLY_MEMBERS
100
AcDbLine
 62
7
  6
CONTINUOUS
 10
4.1945991637
 20
4.6987397817
 11
4.1932239434
 21
4.7078598201
  0
LINE
  5
29D
100
AcDbEntity
  8
ALL_ASSEMBLY_MEMBERS
100
AcDbLine
 62
7
  6
CONTINUOUS
 10
4.2427320556
 20
4.7242758844
 11
4.2413568353
 21
4.7333959202
  0
LINE
  5
29E
100
AcDbEntity
  8
ALL_ASSEMBLY_MEMBERS
100
AcDbLine
 62
7
  6
CONTINUOUS
 10
4.1409653709
 20
4.6987397817
 11
4.1395901427
 21
4.7096838272
  0
LINE
  5
29F
100
AcDbEntity
  8
ALL_ASSEMBLY_MEMBERS
100
AcDbLine
 62
7
  6
CONTINUOUS
 10
4.1753460085
 20
4.7224518773
 11
4.1739707803
 21
4.7333959202
  0
LINE
  5
2A0
100
AcDbEntity
  8
ALL_ASSEMBLY_MEMBERS
100
AcDbLine
 62
7
  6
CONTINUOUS
 10
4.2014752967
 20
4.6987397817
 11
4.2001000685
 21
4.7096838272
  0
LINE
  5
2A1
100
AcDbEntity
  8
ALL_ASSEMBLY_MEMBERS
100
AcDbLine
 62
7
  6
CONTINUOUS
 10
4.2358559304
 20
4.7224518773
 11
4.2344807101
 21
4.7333959202
  0
LINE
  5
2A2
100
AcDbEntity
  8
ALL_ASSEMBLY_MEMBERS
100
AcDbLine
 62
7
  6
CONTINUOUS
 10
4.3316071429
 20
3.6166485609
 11
4.3316071429
 21
3.9166485609
  0
LINE
  5
2A3
100
AcDbEntity
  8
ALL_ASSEMBLY_MEMBERS
100
AcDbLine
 62
7
  6
CONTINUOUS
 10
4.3616071373
 20
3.5311287002
 11
4.3616071428
 21
3.5310483488
  0
LINE
  5
2A4
100
AcDbEntity
  8
ALL_ASSEMBLY_MEMBERS
100
AcDbLine
 62
7
  6
CONTINUOUS
 10
4.3616071429
 20
3.3166485609
 11
4.3616071429
 21
3.3842165973
  0
LINE
  5
2A5
100
AcDbEntity
  8
ALL_ASSEMBLY_MEMBERS
100
AcDbLine
 62
7
  6
CONTINUOUS
 10
4.3616071429
 20
3.5310499702
 11
4.3616071429
 21
3.6166485609
  0
LINE
  5
2A6
100
AcDbEntity
  8
ALL_ASSEMBLY_MEMBERS
100
AcDbLine
 62
7
  6
CONTINUOUS
 10
4.4401549255
 20
4.7617863562
 11
4.4401549255
 21
4.673203679
  0
LINE
  5
2A7
100
AcDbEntity
  8
ALL_ASSEMBLY_MEMBERS
100
AcDbLine
 62
7
  6
CONTINUOUS
 10
4.4415701677
 20
4.7617863562
 11
4.4415701677
 21
4.673203679
  0
LINE
  5
2A8
100
AcDbEntity
  8
ALL_ASSEMBLY_MEMBERS
100
AcDbLine
 62
7
  6
CONTINUOUS
 10
4.7316025301
 20
5.0537367309
 11
4.7041071429
 21
4.9808739546
  0
LINE
  5
2A9
100
AcDbEntity
  8
ALL_ASSEMBLY_MEMBERS
100
AcDbLine
 62
7
  6
CONTINUOUS
 10
4.1423405951
 20
4.6804997083
 11
4.1382149184
 21
4.6859717304
  0
LINE
  5
2AA
100
AcDbEntity
  8
ALL_ASSEMBLY_MEMBERS
100
AcDbLine
 62
7
  6
CONTINUOUS
 10
4.202850517
 20
4.6804997083
 11
4.1987248404
 21
4.6859717304
  0
LINE
  5
2AB
100
AcDbEntity
  8
ALL_ASSEMBLY_MEMBERS
100
AcDbLine
 62
7
  6
CONTINUOUS
 10
4.1767212367
 20
4.7461639754
 11
4.17259556
 21
4.7516359969
  0
LINE
  5
2AC
100
AcDbEntity
  8
ALL_ASSEMBLY_MEMBERS
100
AcDbLine
 62
7
  6
CONTINUOUS
 10
4.1464662718
 20
4.6877957375
 11
4.1409653709
 21
4.6987397817
  0
LINE
  5
2AD
100
AcDbEntity
  8
ALL_ASSEMBLY_MEMBERS
100
AcDbLine
 62
7
  6
CONTINUOUS
 10
4.1739707803
 20
4.7333959202
 11
4.1684698794
 21
4.7443399682
  0
LINE
  5
2AE
100
AcDbEntity
  8
ALL_ASSEMBLY_MEMBERS
100
AcDbLine
 62
7
  6
CONTINUOUS
 10
4.2069761937
 20
4.6877957375
 11
4.2014752967
 21
4.6987397817
  0
LINE
  5
2AF
100
AcDbEntity
  8
ALL_ASSEMBLY_MEMBERS
100
AcDbLine
 62
7
  6
CONTINUOUS
 10
4.2344807101
 20
4.7333959202
 11
4.2289798053
 21
4.7443399682
  0
LINE
  5
2B0
100
AcDbEntity
  8
ALL_ASSEMBLY_MEMBERS
100
AcDbLine
 62
7
  6
CONTINUOUS
 10
4.1987248404
 20
4.6859717304
 11
4.1959743919
 21
4.6932677603
  0
LINE
  5
2B1
100
AcDbEntity
  8
ALL_ASSEMBLY_MEMBERS
100
AcDbLine
 62
7
  6
CONTINUOUS
 10
4.1794716852
 20
4.7388679468
 11
4.1767212367
 21
4.7461639754
  0
LINE
  5
2B2
100
AcDbEntity
  8
ALL_ASSEMBLY_MEMBERS
100
AcDbLine
 62
7
  6
CONTINUOUS
 10
4.239981615
 20
4.7388679468
 11
4.2372311586
 21
4.7461639754
  0
LINE
  5
2B3
100
AcDbEntity
  8
ALL_ASSEMBLY_MEMBERS
100
AcDbLine
 62
7
  6
CONTINUOUS
 10
4.2413568353
 20
4.7333959202
 11
4.239981615
 21
4.7388679468
  0
LINE
  5
2B4
100
AcDbEntity
  8
ALL_ASSEMBLY_MEMBERS
100
AcDbLine
 62
7
  6
CONTINUOUS
 10
4.46253272
 20
4.7617863562
 11
4.46253272
 21
4.673203679
  0
LINE
  5
2B5
100
AcDbEntity
  8
ALL_ASSEMBLY_MEMBERS
100
AcDbLine
 62
7
  6
CONTINUOUS
 10
4.5778571429
 20
3.9266485609
 11
4.5778571429
 21
4.0826485609
  0
LINE
  5
2B6
100
AcDbEntity
  8
ALL_ASSEMBLY_MEMBERS
100
AcDbLine
 62
7
  6
CONTINUOUS
 10
4.5898718502
 20
5.0537367309
 11
4.5898718502
 21
5.0603739546
  0
LWPOLYLINE
  5
2B7
100
AcDbEntity
  8
ALL_ASSEMBLY_MEMBERS
100
AcDbPolyline
 62
7
  6
CONTINUOUS
 90
5
 70
0
 10
3.9866071429
 20
3.5551944417
 10
3.9855894018
 20
3.5540195283
 10
3.9841808602
 20
3.5526601402
 10
3.9824484571
 20
3.5512864883
 10
3.9819049234
 20
3.5509109229
  0
LINE
  5
2B8
100
AcDbEntity
  8
ALL_ASSEMBLY_MEMBERS
100
AcDbLine
 62
7
  6
CONTINUOUS
 10
4.2248541286
 20
4.6841477232
 11
4.2179780034
 21
4.6823237161
  0
LINE
  5
2B9
100
AcDbEntity
  8
ALL_ASSEMBLY_MEMBERS
100
AcDbLine
 62
7
  6
CONTINUOUS
 10
4.1643442027
 20
4.6841477232
 11
4.1574680776
 21
4.6823237161
  0
LINE
  5
2BA
100
AcDbEntity
  8
ALL_ASSEMBLY_MEMBERS
100
AcDbLine
 62
7
  6
CONTINUOUS
 10
4.2262293568
 20
4.6750276863
 11
4.2179780034
 21
4.673203679
  0
LINE
  5
2BB
100
AcDbEntity
  8
ALL_ASSEMBLY_MEMBERS
100
AcDbLine
 62
7
  6
CONTINUOUS
 10
4.1657194309
 20
4.6750276863
 11
4.1574680776
 21
4.673203679
  0
LINE
  5
2BC
100
AcDbEntity
  8
ALL_ASSEMBLY_MEMBERS
100
AcDbLine
 62
7
  6
CONTINUOUS
 10
3.6891071429
 20
4.6141485609
 11
4.6591071429
 21
4.6141485609
  0
LINE
  5
2BD
100
AcDbEntity
  8
ALL_ASSEMBLY_MEMBERS
100
AcDbLine
 62
7
  6
CONTINUOUS
 10
4.6588571429
 20
4.673203679
 11
4.6562208443
 21
4.673203679
  0
LINE
  5
2BE
100
AcDbEntity
  8
ALL_ASSEMBLY_MEMBERS
100
AcDbLine
 62
7
  6
CONTINUOUS
 10
4.6417633827
 20
4.673203679
 11
4.6364987521
 21
4.673203679
  0
LINE
  5
2BF
100
AcDbEntity
  8
ALL_ASSEMBLY_MEMBERS
100
AcDbLine
 62
7
  6
CONTINUOUS
 10
4.6254722429
 20
4.673203679
 11
4.6191313149
 21
4.673203679
  0
LINE
  5
2C0
100
AcDbEntity
  8
ALL_ASSEMBLY_MEMBERS
100
AcDbLine
 62
7
  6
CONTINUOUS
 10
4.6111999962
 20
4.673203679
 11
4.6040961888
 21
4.673203679
  0
LINE
  5
2C1
100
AcDbEntity
  8
ALL_ASSEMBLY_MEMBERS
100
AcDbLine
 62
7
  6
CONTINUOUS
 10
4.46253272
 20
4.673203679
 11
4.4401549255
 21
4.673203679
  0
LINE
  5
2C2
100
AcDbEntity
  8
ALL_ASSEMBLY_MEMBERS
100
AcDbLine
 62
7
  6
CONTINUOUS
 10
4.1217122118
 20
4.673203679
 11
4.1134608584
 21
4.673203679
  0
LINE
  5
2C3
100
AcDbEntity
  8
ALL_ASSEMBLY_MEMBERS
100
AcDbLine
 62
7
  6
CONTINUOUS
 10
3.6895260419
 20
4.673203679
 11
3.6919934414
 21
4.673203679
  0
LINE
  5
2C4
100
AcDbEntity
  8
ALL_ASSEMBLY_MEMBERS
100
AcDbLine
 62
7
  6
CONTINUOUS
 10
3.708997814
 20
4.673203679
 11
3.713459169
 21
4.673203679
  0
LINE
  5
2C5
100
AcDbEntity
  8
ALL_ASSEMBLY_MEMBERS
100
AcDbLine
 62
7
  6
CONTINUOUS
 10
3.727162558
 20
4.673203679
 11
3.7324044017
 21
4.673203679
  0
LINE
  5
2C6
100
AcDbEntity
  8
ALL_ASSEMBLY_MEMBERS
100
AcDbLine
 62
7
  6
CONTINUOUS
 10
3.8856815657
 20
4.673203679
 11
3.9080593602
 21
4.673203679
  0
LINE
  5
2C7
100
AcDbEntity
  8
ALL_ASSEMBLY_MEMBERS
100
AcDbLine
 62
7
  6
CONTINUOUS
 10
4.6361976304
 20
4.6750276863
 11
4.633877779
 21
4.6750276863
  0
LINE
  5
2C8
100
AcDbEntity
  8
ALL_ASSEMBLY_MEMBERS
100
AcDbLine
 62
7
  6
CONTINUOUS
 10
3.7130039912
 20
4.6750276863
 11
3.7153232394
 21
4.6750276863
  0
LINE
  5
2C9
100
AcDbEntity
  8
ALL_ASSEMBLY_MEMBERS
100
AcDbLine
 62
7
  6
CONTINUOUS
 10
3.7325960815
 20
4.6750276863
 11
3.7349207019
 21
4.6750276863
  0
LINE
  5
2CA
100
AcDbEntity
  8
ALL_ASSEMBLY_MEMBERS
100
AcDbLine
 62
7
  6
CONTINUOUS
 10
4.6334194372
 20
4.6804997083
 11
4.6311009993
 21
4.6804997083
  0
LINE
  5
2CB
100
AcDbEntity
  8
ALL_ASSEMBLY_MEMBERS
100
AcDbLine
 62
7
  6
CONTINUOUS
 10
3.7149430419
 20
4.6804997083
 11
3.7172614281
 21
4.6804997083
  0
LINE
  5
2CC
100
AcDbEntity
  8
ALL_ASSEMBLY_MEMBERS
100
AcDbLine
 62
7
  6
CONTINUOUS
 10
3.7351845399
 20
4.6804997083
 11
3.7375116376
 21
4.6804997083
  0
LINE
  5
2CD
100
AcDbEntity
  8
ALL_ASSEMBLY_MEMBERS
100
AcDbLine
 62
7
  6
CONTINUOUS
 10
4.6417633827
 20
4.6823237161
 11
4.6388208141
 21
4.6823237161
  0
LINE
  5
2CE
100
AcDbEntity
  8
ALL_ASSEMBLY_MEMBERS
100
AcDbLine
 62
7
  6
CONTINUOUS
 10
3.7300818721
 20
4.6823237161
 11
3.727162558
 21
4.6823237161
  0
LINE
  5
2CF
100
AcDbEntity
  8
ALL_ASSEMBLY_MEMBERS
100
AcDbLine
 62
7
  6
CONTINUOUS
 10
3.7107744767
 20
4.6823237161
 11
3.7093472286
 21
4.6823237161
  0
LINE
  5
2D0
100
AcDbEntity
  8
ALL_ASSEMBLY_MEMBERS
100
AcDbLine
 62
7
  6
CONTINUOUS
 10
4.6436002105
 20
4.6841477232
 11
4.6412713057
 21
4.6841477232
  0
LINE
  5
2D1
100
AcDbEntity
  8
ALL_ASSEMBLY_MEMBERS
100
AcDbLine
 62
7
  6
CONTINUOUS
 10
3.7079673475
 20
4.6841477232
 11
3.7102910294
 21
4.6841477232
  0
LINE
  5
2D2
100
AcDbEntity
  8
ALL_ASSEMBLY_MEMBERS
100
AcDbLine
 62
7
  6
CONTINUOUS
 10
3.725275455
 20
4.6841477232
 11
3.7275949508
 21
4.6841477232
  0
LINE
  5
2D3
100
AcDbEntity
  8
ALL_ASSEMBLY_MEMBERS
100
AcDbLine
 62
7
  6
CONTINUOUS
 10
3.7161418328
 20
4.6859717304
 11
3.7184598831
 21
4.6859717304
  0
LINE
  5
2D4
100
AcDbEntity
  8
ALL_ASSEMBLY_MEMBERS
100
AcDbLine
 62
7
  6
CONTINUOUS
 10
4.6449119927
 20
4.6877957375
 11
4.6425803957
 21
4.6877957375
  0
LINE
  5
2D5
100
AcDbEntity
  8
ALL_ASSEMBLY_MEMBERS
100
AcDbLine
 62
7
  6
CONTINUOUS
 10
4.6316782385
 20
4.6877957375
 11
4.629360268
 21
4.6877957375
  0
LINE
  5
2D6
100
AcDbEntity
  8
ALL_ASSEMBLY_MEMBERS
100
AcDbLine
 62
7
  6
CONTINUOUS
 10
3.70663493
 20
4.6877957375
 11
3.7089604306
 21
4.6877957375
  0
LINE
  5
2D7
100
AcDbEntity
  8
ALL_ASSEMBLY_MEMBERS
100
AcDbLine
 62
7
  6
CONTINUOUS
 10
3.7238911099
 20
4.6877957375
 11
3.7262099918
 21
4.6877957375
  0
LINE
  5
2D8
100
AcDbEntity
  8
ALL_ASSEMBLY_MEMBERS
100
AcDbLine
 62
7
  6
CONTINUOUS
 10
3.7367733532
 20
4.6877957375
 11
3.7391021244
 21
4.6877957375
  0
LINE
  5
2D9
100
AcDbEntity
  8
ALL_ASSEMBLY_MEMBERS
100
AcDbLine
 62
7
  6
CONTINUOUS
 10
4.6457550569
 20
4.6932677603
 11
4.6434214986
 21
4.6932677603
  0
LINE
  5
2DA
100
AcDbEntity
  8
ALL_ASSEMBLY_MEMBERS
100
AcDbLine
 62
7
  6
CONTINUOUS
 10
4.6339874607
 20
4.6950917674
 11
4.6281686945
 21
4.6950917674
  0
LINE
  5
2DB
100
AcDbEntity
  8
ALL_ASSEMBLY_MEMBERS
100
AcDbLine
 62
7
  6
CONTINUOUS
 10
3.7056668306
 20
4.6950917674
 11
3.707993858
 21
4.6950917674
  0
LINE
  5
2DC
100
AcDbEntity
  8
ALL_ASSEMBLY_MEMBERS
100
AcDbLine
 62
7
  6
CONTINUOUS
 10
3.7169557528
 20
4.6950917674
 11
3.7192736544
 21
4.6950917674
  0
LINE
  5
2DD
100
AcDbEntity
  8
ALL_ASSEMBLY_MEMBERS
100
AcDbLine
 62
7
  6
CONTINUOUS
 10
3.7203291996
 20
4.6950917674
 11
3.7253015016
 21
4.6950917674
  0
LINE
  5
2DE
100
AcDbEntity
  8
ALL_ASSEMBLY_MEMBERS
100
AcDbLine
 62
7
  6
CONTINUOUS
 10
4.1574680776
 20
4.673203679
 11
4.1492167242
 21
4.6750276863
  0
LINE
  5
2DF
100
AcDbEntity
  8
ALL_ASSEMBLY_MEMBERS
100
AcDbLine
 62
7
  6
CONTINUOUS
 10
4.2179780034
 20
4.673203679
 11
4.2097266501
 21
4.6750276863
  0
LINE
  5
2E0
100
AcDbEntity
  8
ALL_ASSEMBLY_MEMBERS
100
AcDbLine
 62
7
  6
CONTINUOUS
 10
4.1574680776
 20
4.6823237161
 11
4.1505919485
 21
4.6841477232
  0
LINE
  5
2E1
100
AcDbEntity
  8
ALL_ASSEMBLY_MEMBERS
100
AcDbLine
 62
7
  6
CONTINUOUS
 10
4.2179780034
 20
4.6823237161
 11
4.2111018704
 21
4.6841477232
  0
LINE
  5
2E2
100
AcDbEntity
  8
ALL_ASSEMBLY_MEMBERS
100
AcDbLine
 62
7
  6
CONTINUOUS
 10
4.1492167242
 20
4.6750276863
 11
4.1423405951
 21
4.6804997083
  0
LINE
  5
2E3
100
AcDbEntity
  8
ALL_ASSEMBLY_MEMBERS
100
AcDbLine
 62
7
  6
CONTINUOUS
 10
4.2097266501
 20
4.6750276863
 11
4.202850517
 21
4.6804997083
  0
LINE
  5
2E4
100
AcDbEntity
  8
ALL_ASSEMBLY_MEMBERS
100
AcDbLine
 62
7
  6
CONTINUOUS
 10
4.17259556
 20
4.7516359969
 11
4.1657194309
 21
4.7571080183
  0
LINE
  5
2E5
100
AcDbEntity
  8
ALL_ASSEMBLY_MEMBERS
100
AcDbLine
 62
7
  6
CONTINUOUS
 10
4.2331054819
 20
4.7516359969
 11
4.2262293568
 21
4.7571080183
  0
LINE
  5
2E6
100
AcDbEntity
  8
ALL_ASSEMBLY_MEMBERS
100
AcDbLine
 62
7
  6
CONTINUOUS
 10
4.1505919485
 20
4.6841477232
 11
4.1464662718
 21
4.6877957375
  0
LINE
  5
2E7
100
AcDbEntity
  8
ALL_ASSEMBLY_MEMBERS
100
AcDbLine
 62
7
  6
CONTINUOUS
 10
4.2111018704
 20
4.6841477232
 11
4.2069761937
 21
4.6877957375
  0
LINE
  5
2E8
100
AcDbEntity
  8
ALL_ASSEMBLY_MEMBERS
100
AcDbLine
 62
7
  6
CONTINUOUS
 10
4.1684698794
 20
4.7443399682
 11
4.1643442027
 21
4.7479879826
  0
LINE
  5
2E9
100
AcDbEntity
  8
ALL_ASSEMBLY_MEMBERS
100
AcDbLine
 62
7
  6
CONTINUOUS
 10
4.2289798053
 20
4.7443399682
 11
4.2248541286
 21
4.7479879826
  0
LINE
  5
2EA
100
AcDbEntity
  8
ALL_ASSEMBLY_MEMBERS
100
AcDbLine
 62
7
  6
CONTINUOUS
 10
4.2372311586
 20
4.7461639754
 11
4.2331054819
 21
4.7516359969
  0
LINE
  5
2EB
100
AcDbEntity
  8
ALL_ASSEMBLY_MEMBERS
100
AcDbLine
 62
7
  6
CONTINUOUS
 10
4.599092666
 20
4.7461639754
 11
4.599092666
 21
4.7315719131
  0
LINE
  5
2EC
100
AcDbEntity
  8
ALL_ASSEMBLY_MEMBERS
100
AcDbLine
 62
7
  6
CONTINUOUS
 10
4.6014343462
 20
4.7461639754
 11
4.6014343462
 21
4.7315719131
  0
LINE
  5
2ED
100
AcDbEntity
  8
ALL_ASSEMBLY_MEMBERS
100
AcDbLine
 62
7
  6
CONTINUOUS
 10
4.6040961888
 20
4.738302222
 11
4.6040961888
 21
4.673203679
  0
LINE
  5
2EE
100
AcDbEntity
  8
ALL_ASSEMBLY_MEMBERS
100
AcDbLine
 62
7
  6
CONTINUOUS
 10
4.6064309385
 20
4.7443399682
 11
4.6064309385
 21
4.673203679
  0
LINE
  5
2EF
100
AcDbEntity
  8
ALL_ASSEMBLY_MEMBERS
100
AcDbLine
 62
7
  6
CONTINUOUS
 10
4.6111999962
 20
4.7589320255
 11
4.6111999962
 21
4.673203679
  0
LINE
  5
2F0
100
AcDbEntity
  8
ALL_ASSEMBLY_MEMBERS
100
AcDbLine
 62
7
  6
CONTINUOUS
 10
4.6148843525
 20
4.7461639754
 11
4.6148843525
 21
4.7315719131
  0
LINE
  5
2F1
100
AcDbEntity
  8
ALL_ASSEMBLY_MEMBERS
100
AcDbLine
 62
7
  6
CONTINUOUS
 10
4.6172076135
 20
4.7461639754
 11
4.6172076135
 21
4.7315719131
  0
LINE
  5
2F2
100
AcDbEntity
  8
ALL_ASSEMBLY_MEMBERS
100
AcDbLine
 62
7
  6
CONTINUOUS
 10
4.6191313149
 20
4.737278206
 11
4.6191313149
 21
4.673203679
  0
LINE
  5
2F3
100
AcDbEntity
  8
ALL_ASSEMBLY_MEMBERS
100
AcDbLine
 62
7
  6
CONTINUOUS
 10
4.621451605
 20
4.7443399682
 11
4.621451605
 21
4.673203679
  0
LINE
  5
2F4
100
AcDbEntity
  8
ALL_ASSEMBLY_MEMBERS
100
AcDbLine
 62
7
  6
CONTINUOUS
 10
4.6254722429
 20
4.7589320255
 11
4.6254722429
 21
4.673203679
  0
LINE
  5
2F5
100
AcDbEntity
  8
ALL_ASSEMBLY_MEMBERS
100
AcDbLine
 62
7
  6
CONTINUOUS
 10
4.6281686945
 20
4.7589320255
 11
4.6281686945
 21
4.7115078344
  0
LINE
  5
2F6
100
AcDbEntity
  8
ALL_ASSEMBLY_MEMBERS
100
AcDbLine
 62
7
  6
CONTINUOUS
 10
4.6304865117
 20
4.7589320255
 11
4.6304865117
 21
4.7115078344
  0
LINE
  5
2F7
100
AcDbEntity
  8
ALL_ASSEMBLY_MEMBERS
100
AcDbLine
 62
7
  6
CONTINUOUS
 10
4.6334194372
 20
4.7498119897
 11
4.6334194372
 21
4.7206278701
  0
LINE
  5
2F8
100
AcDbEntity
  8
ALL_ASSEMBLY_MEMBERS
100
AcDbLine
 62
7
  6
CONTINUOUS
 10
4.6438325365
 20
4.702387796
 11
4.6438325365
 21
4.6987397817
  0
LINE
  5
2F9
100
AcDbEntity
  8
ALL_ASSEMBLY_MEMBERS
100
AcDbLine
 62
7
  6
CONTINUOUS
 10
4.6461671258
 20
4.702387796
 11
4.6461671258
 21
4.6987397817
  0
LINE
  5
2FA
100
AcDbEntity
  8
ALL_ASSEMBLY_MEMBERS
100
AcDbLine
 62
7
  6
CONTINUOUS
 10
4.6473653926
 20
4.7589320255
 11
4.6473653926
 21
4.7498119897
  0
LINE
  5
2FB
100
AcDbEntity
  8
ALL_ASSEMBLY_MEMBERS
100
AcDbLine
 62
7
  6
CONTINUOUS
 10
4.6481325286
 20
4.7042118032
 11
4.6481325286
 21
4.6969157746
  0
LINE
  5
2FC
100
AcDbEntity
  8
ALL_ASSEMBLY_MEMBERS
100
AcDbLine
 62
7
  6
CONTINUOUS
 10
4.6562208443
 20
4.7617863562
 11
4.6562208443
 21
4.673203679
  0
LINE
  5
2FD
100
AcDbEntity
  8
ALL_ASSEMBLY_MEMBERS
100
AcDbLine
 62
7
  6
CONTINUOUS
 10
4.6563906074
 20
4.8109989546
 11
4.6563906074
 21
4.7617863562
  0
LINE
  5
2FE
100
AcDbEntity
  8
ALL_ASSEMBLY_MEMBERS
100
AcDbLine
 62
7
  6
CONTINUOUS
 10
4.6563906074
 20
4.673203679
 11
4.6563906074
 21
4.6141485609
  0
LINE
  5
2FF
100
AcDbEntity
  8
ALL_ASSEMBLY_MEMBERS
100
AcDbLine
 62
7
  6
CONTINUOUS
 10
4.6586882438
 20
4.7617863562
 11
4.6586882438
 21
4.673203679
  0
LINE
  5
300
100
AcDbEntity
  8
ALL_ASSEMBLY_MEMBERS
100
AcDbLine
 62
7
  6
CONTINUOUS
 10
4.6588571429
 20
4.7617863562
 11
4.6588571429
 21
4.673203679
  0
LINE
  5
301
100
AcDbEntity
  8
ALL_ASSEMBLY_MEMBERS
100
AcDbLine
 62
7
  6
CONTINUOUS
 10
4.6591071429
 20
4.0826485609
 11
4.6591071429
 21
4.6141485609
  0
LINE
  5
302
100
AcDbEntity
  8
ALL_ASSEMBLY_MEMBERS
100
AcDbLine
 62
7
  6
CONTINUOUS
 10
4.6666071429
 20
4.8109989546
 11
4.6666071429
 21
4.9808739546
  0
LINE
  5
303
100
AcDbEntity
  8
ALL_ASSEMBLY_MEMBERS
100
AcDbLine
 62
7
  6
CONTINUOUS
 10
3.6417386641
 20
3.32413363
 11
3.9818748612
 21
3.5508910977
  0
LINE
  5
304
100
AcDbEntity
  8
ALL_ASSEMBLY_MEMBERS
100
AcDbLine
 62
7
  6
CONTINUOUS
 10
3.9818774354
 20
3.5508928138
 11
3.9819063887
 21
3.5509120659
  0
LWPOLYLINE
  5
305
100
AcDbEntity
  8
ALL_ASSEMBLY_MEMBERS
100
AcDbPolyline
 62
7
  6
CONTINUOUS
 90
14
 70
0
 10
3.6417308636
 20
3.3241284985
 10
3.6400188208
 20
3.3230424125
 10
3.6378033832
 20
3.3217905318
 10
3.6355502139
 20
3.3206800405
 10
3.6332778433
 20
3.3197132182
 10
3.6310232579
 20
3.318895845
 10
3.6287823472
 20
3.3182157829
 10
3.6265810134
 20
3.3176705915
 10
3.6245059046
 20
3.3172645311
 10
3.6225856885
 20
3.3169800665
 10
3.6208142367
 20
3.3167947072
 10
3.6192278466
 20
3.3166916258
 10
3.6178718473
 20
3.3166513279
 10
3.6173441182
 20
3.316647813
  0
LINE
  5
306
100
AcDbEntity
  8
ALL_ASSEMBLY_MEMBERS
100
AcDbLine
 62
7
  6
CONTINUOUS
 10
4.2179780034
 20
4.7498119897
 11
4.2111018704
 21
4.7479879826
  0
LINE
  5
307
100
AcDbEntity
  8
ALL_ASSEMBLY_MEMBERS
100
AcDbLine
 62
7
  6
CONTINUOUS
 10
4.1574680776
 20
4.7498119897
 11
4.1505919485
 21
4.7479879826
  0
LINE
  5
308
100
AcDbEntity
  8
ALL_ASSEMBLY_MEMBERS
100
AcDbLine
 62
7
  6
CONTINUOUS
 10
4.2179780034
 20
4.7589320255
 11
4.2097266501
 21
4.7571080183
  0
LINE
  5
309
100
AcDbEntity
  8
ALL_ASSEMBLY_MEMBERS
100
AcDbLine
 62
7
  6
CONTINUOUS
 10
4.1574680776
 20
4.7589320255
 11
4.1492167242
 21
4.7571080183
  0
LINE
  5
30A
100
AcDbEntity
  8
ALL_ASSEMBLY_MEMBERS
100
AcDbLine
 62
7
  6
CONTINUOUS
 10
3.7378474866
 20
4.6969157746
 11
3.7401774519
 21
4.6969157746
  0
LINE
  5
30B
100
AcDbEntity
  8
ALL_ASSEMBLY_MEMBERS
100
AcDbLine
 62
7
  6
CONTINUOUS
 10
4.6461671258
 20
4.6987397817
 11
4.6438325365
 21
4.6987397817
  0
LINE
  5
30C
100
AcDbEntity
  8
ALL_ASSEMBLY_MEMBERS
100
AcDbLine
 62
7
  6
CONTINUOUS
 10
3.7056668306
 20
4.7005637889
 11
3.707993858
 21
4.7005637889
  0
LINE
  5
30D
100
AcDbEntity
  8
ALL_ASSEMBLY_MEMBERS
100
AcDbLine
 62
7
  6
CONTINUOUS
 10
3.7169557528
 20
4.7005637889
 11
3.7192736544
 21
4.7005637889
  0
LINE
  5
30E
100
AcDbEntity
  8
ALL_ASSEMBLY_MEMBERS
100
AcDbLine
 62
7
  6
CONTINUOUS
 10
4.6461671258
 20
4.702387796
 11
4.6438325365
 21
4.702387796
  0
LINE
  5
30F
100
AcDbEntity
  8
ALL_ASSEMBLY_MEMBERS
100
AcDbLine
 62
7
  6
CONTINUOUS
 10
3.7378474866
 20
4.7042118032
 11
3.7401774519
 21
4.7042118032
  0
LINE
  5
310
100
AcDbEntity
  8
ALL_ASSEMBLY_MEMBERS
100
AcDbLine
 62
7
  6
CONTINUOUS
 10
4.6457550569
 20
4.7078598201
 11
4.6434214986
 21
4.7078598201
  0
LINE
  5
311
100
AcDbEntity
  8
ALL_ASSEMBLY_MEMBERS
100
AcDbLine
 62
7
  6
CONTINUOUS
 10
3.70663493
 20
4.7078598201
 11
3.7089604306
 21
4.7078598201
  0
LINE
  5
312
100
AcDbEntity
  8
ALL_ASSEMBLY_MEMBERS
100
AcDbLine
 62
7
  6
CONTINUOUS
 10
3.7161418328
 20
4.7096838272
 11
3.7184598831
 21
4.7096838272
  0
LINE
  5
313
100
AcDbEntity
  8
ALL_ASSEMBLY_MEMBERS
100
AcDbLine
 62
7
  6
CONTINUOUS
 10
4.6345492953
 20
4.7115078344
 11
4.6281686945
 21
4.7115078344
  0
LINE
  5
314
100
AcDbEntity
  8
ALL_ASSEMBLY_MEMBERS
100
AcDbLine
 62
7
  6
CONTINUOUS
 10
3.7079673475
 20
4.7115078344
 11
3.7102910294
 21
4.7115078344
  0
LINE
  5
315
100
AcDbEntity
  8
ALL_ASSEMBLY_MEMBERS
100
AcDbLine
 62
7
  6
CONTINUOUS
 10
3.7203291996
 20
4.7115078344
 11
3.7257542654
 21
4.7115078344
  0
LINE
  5
316
100
AcDbEntity
  8
ALL_ASSEMBLY_MEMBERS
100
AcDbLine
 62
7
  6
CONTINUOUS
 10
4.6449119927
 20
4.7133318415
 11
4.6425803957
 21
4.7133318415
  0
LINE
  5
317
100
AcDbEntity
  8
ALL_ASSEMBLY_MEMBERS
100
AcDbLine
 62
7
  6
CONTINUOUS
 10
3.7107744767
 20
4.7133318415
 11
3.7093472286
 21
4.7133318415
  0
LINE
  5
318
100
AcDbEntity
  8
ALL_ASSEMBLY_MEMBERS
100
AcDbLine
 62
7
  6
CONTINUOUS
 10
3.7367733532
 20
4.7133318415
 11
3.7391021244
 21
4.7133318415
  0
LINE
  5
319
100
AcDbEntity
  8
ALL_ASSEMBLY_MEMBERS
100
AcDbLine
 62
7
  6
CONTINUOUS
 10
3.7145493371
 20
4.7151558487
 11
3.7168678656
 21
4.7151558487
  0
LINE
  5
31A
100
AcDbEntity
  8
ALL_ASSEMBLY_MEMBERS
100
AcDbLine
 62
7
  6
CONTINUOUS
 10
4.6436002105
 20
4.7169798558
 11
4.6412713057
 21
4.7169798558
  0
LINE
  5
31B
100
AcDbEntity
  8
ALL_ASSEMBLY_MEMBERS
100
AcDbLine
 62
7
  6
CONTINUOUS
 10
3.7137707675
 20
4.7169798558
 11
3.7160896256
 21
4.7169798558
  0
LINE
  5
31C
100
AcDbEntity
  8
ALL_ASSEMBLY_MEMBERS
100
AcDbLine
 62
7
  6
CONTINUOUS
 10
3.725275455
 20
4.7169798558
 11
3.7275949508
 21
4.7169798558
  0
LINE
  5
31D
100
AcDbEntity
  8
ALL_ASSEMBLY_MEMBERS
100
AcDbLine
 62
7
  6
CONTINUOUS
 10
4.6417633827
 20
4.718803863
 11
4.6388208141
 21
4.718803863
  0
LINE
  5
31E
100
AcDbEntity
  8
ALL_ASSEMBLY_MEMBERS
100
AcDbLine
 62
7
  6
CONTINUOUS
 10
3.7300818721
 20
4.718803863
 11
3.727162558
 21
4.718803863
  0
LINE
  5
31F
100
AcDbEntity
  8
ALL_ASSEMBLY_MEMBERS
100
AcDbLine
 62
7
  6
CONTINUOUS
 10
3.7145493371
 20
4.718803863
 11
3.7168678656
 21
4.718803863
  0
LINE
  5
320
100
AcDbEntity
  8
ALL_ASSEMBLY_MEMBERS
100
AcDbLine
 62
7
  6
CONTINUOUS
 10
3.7107744767
 20
4.7206278701
 11
3.7093472286
 21
4.7206278701
  0
LINE
  5
321
100
AcDbEntity
  8
ALL_ASSEMBLY_MEMBERS
100
AcDbLine
 62
7
  6
CONTINUOUS
 10
3.7351845399
 20
4.7206278701
 11
3.7375116376
 21
4.7206278701
  0
LINE
  5
322
100
AcDbEntity
  8
ALL_ASSEMBLY_MEMBERS
100
AcDbLine
 62
7
  6
CONTINUOUS
 10
3.7079673475
 20
4.7224518773
 11
3.7102910294
 21
4.7224518773
  0
LINE
  5
323
100
AcDbEntity
  8
ALL_ASSEMBLY_MEMBERS
100
AcDbLine
 62
7
  6
CONTINUOUS
 10
3.7157392907
 20
4.7242758844
 11
3.7180574379
 21
4.7242758844
  0
LINE
  5
324
100
AcDbEntity
  8
ALL_ASSEMBLY_MEMBERS
100
AcDbLine
 62
7
  6
CONTINUOUS
 10
4.6361976304
 20
4.7260998916
 11
4.633877779
 21
4.7260998916
  0
LINE
  5
325
100
AcDbEntity
  8
ALL_ASSEMBLY_MEMBERS
100
AcDbLine
 62
7
  6
CONTINUOUS
 10
3.7325960815
 20
4.7260998916
 11
3.7349207019
 21
4.7260998916
  0
LINE
  5
326
100
AcDbEntity
  8
ALL_ASSEMBLY_MEMBERS
100
AcDbLine
 62
7
  6
CONTINUOUS
 10
4.6417633827
 20
4.7279238988
 11
4.6364987521
 21
4.7279238988
  0
LINE
  5
327
100
AcDbEntity
  8
ALL_ASSEMBLY_MEMBERS
100
AcDbLine
 62
7
  6
CONTINUOUS
 10
3.70663493
 20
4.7279238988
 11
3.7089604306
 21
4.7279238988
  0
LINE
  5
328
100
AcDbEntity
  8
ALL_ASSEMBLY_MEMBERS
100
AcDbLine
 62
7
  6
CONTINUOUS
 10
3.727162558
 20
4.7279238988
 11
3.7324044017
 21
4.7279238988
  0
LINE
  5
329
100
AcDbEntity
  8
ALL_ASSEMBLY_MEMBERS
100
AcDbLine
 62
7
  6
CONTINUOUS
 10
4.6172076135
 20
4.7315719131
 11
4.6148843525
 21
4.7315719131
  0
LINE
  5
32A
100
AcDbEntity
  8
ALL_ASSEMBLY_MEMBERS
100
AcDbLine
 62
7
  6
CONTINUOUS
 10
4.6014343462
 20
4.7315719131
 11
4.599092666
 21
4.7315719131
  0
LINE
  5
32B
100
AcDbEntity
  8
ALL_ASSEMBLY_MEMBERS
100
AcDbLine
 62
7
  6
CONTINUOUS
 10
3.716547321
 20
4.7315719131
 11
3.7188652895
 21
4.7315719131
  0
LINE
  5
32C
100
AcDbEntity
  8
ALL_ASSEMBLY_MEMBERS
100
AcDbLine
 62
7
  6
CONTINUOUS
 10
3.7059865539
 20
4.7333959202
 11
3.7083130568
 21
4.7333959202
  0
LINE
  5
32D
100
AcDbEntity
  8
ALL_ASSEMBLY_MEMBERS
100
AcDbLine
 62
7
  6
CONTINUOUS
 10
3.7059865539
 20
4.7370439345
 11
3.7083130568
 21
4.7370439345
  0
LINE
  5
32E
100
AcDbEntity
  8
ALL_ASSEMBLY_MEMBERS
100
AcDbLine
 62
7
  6
CONTINUOUS
 10
3.716547321
 20
4.7370439345
 11
3.7188652895
 21
4.7370439345
  0
LINE
  5
32F
100
AcDbEntity
  8
ALL_ASSEMBLY_MEMBERS
100
AcDbLine
 62
7
  6
CONTINUOUS
 10
3.70663493
 20
4.7425159611
 11
3.7089604306
 21
4.7425159611
  0
LINE
  5
330
100
AcDbEntity
  8
ALL_ASSEMBLY_MEMBERS
100
AcDbLine
 62
7
  6
CONTINUOUS
 10
4.6172076135
 20
4.7461639754
 11
4.6148843525
 21
4.7461639754
  0
LINE
  5
331
100
AcDbEntity
  8
ALL_ASSEMBLY_MEMBERS
100
AcDbLine
 62
7
  6
CONTINUOUS
 10
4.6014343462
 20
4.7461639754
 11
4.599092666
 21
4.7461639754
  0
LINE
  5
332
100
AcDbEntity
  8
ALL_ASSEMBLY_MEMBERS
100
AcDbLine
 62
7
  6
CONTINUOUS
 10
3.7157392907
 20
4.7461639754
 11
3.7180574379
 21
4.7461639754
  0
LINE
  5
333
100
AcDbEntity
  8
ALL_ASSEMBLY_MEMBERS
100
AcDbLine
 62
7
  6
CONTINUOUS
 10
3.7079673475
 20
4.7479879826
 11
3.7102910294
 21
4.7479879826
  0
LINE
  5
334
100
AcDbEntity
  8
ALL_ASSEMBLY_MEMBERS
100
AcDbLine
 62
7
  6
CONTINUOUS
 10
4.6473653926
 20
4.7498119897
 11
4.6334194372
 21
4.7498119897
  0
LINE
  5
335
100
AcDbEntity
  8
ALL_ASSEMBLY_MEMBERS
100
AcDbLine
 62
7
  6
CONTINUOUS
 10
3.7107744767
 20
4.7498119897
 11
3.7093472286
 21
4.7498119897
  0
LINE
  5
336
100
AcDbEntity
  8
ALL_ASSEMBLY_MEMBERS
100
AcDbLine
 62
7
  6
CONTINUOUS
 10
3.7225332982
 20
4.7498119897
 11
3.7391021244
 21
4.7498119897
  0
LINE
  5
337
100
AcDbEntity
  8
ALL_ASSEMBLY_MEMBERS
100
AcDbLine
 62
7
  6
CONTINUOUS
 10
3.7145493371
 20
4.7516359969
 11
3.7168678656
 21
4.7516359969
  0
LINE
  5
338
100
AcDbEntity
  8
ALL_ASSEMBLY_MEMBERS
100
AcDbLine
 62
7
  6
CONTINUOUS
 10
3.7126250259
 20
4.7571080183
 11
3.7149444918
 21
4.7571080183
  0
LINE
  5
339
100
AcDbEntity
  8
ALL_ASSEMBLY_MEMBERS
100
AcDbLine
 62
7
  6
CONTINUOUS
 10
4.6473653926
 20
4.7589320255
 11
4.6281686945
 21
4.7589320255
  0
LINE
  5
33A
100
AcDbEntity
  8
ALL_ASSEMBLY_MEMBERS
100
AcDbLine
 62
7
  6
CONTINUOUS
 10
4.6254722429
 20
4.7589320255
 11
4.6191313149
 21
4.7589320255
  0
LINE
  5
33B
100
AcDbEntity
  8
ALL_ASSEMBLY_MEMBERS
100
AcDbLine
 62
7
  6
CONTINUOUS
 10
4.6111999962
 20
4.7589320255
 11
4.6040961888
 21
4.7589320255
  0
LINE
  5
33C
100
AcDbEntity
  8
ALL_ASSEMBLY_MEMBERS
100
AcDbLine
 62
7
  6
CONTINUOUS
 10
4.1217122118
 20
4.7589320255
 11
4.1134608584
 21
4.7589320255
  0
LINE
  5
33D
100
AcDbEntity
  8
ALL_ASSEMBLY_MEMBERS
100
AcDbLine
 62
7
  6
CONTINUOUS
 10
3.7093472286
 20
4.7589320255
 11
3.713095259
 21
4.7589320255
  0
LINE
  5
33E
100
AcDbEntity
  8
ALL_ASSEMBLY_MEMBERS
100
AcDbLine
 62
7
  6
CONTINUOUS
 10
3.7203291996
 20
4.7589320255
 11
3.7391021244
 21
4.7589320255
  0
LINE
  5
33F
100
AcDbEntity
  8
ALL_ASSEMBLY_MEMBERS
100
AcDbLine
 62
7
  6
CONTINUOUS
 10
4.6588571429
 20
4.7617863562
 11
4.6562208443
 21
4.7617863562
  0
LINE
  5
340
100
AcDbEntity
  8
ALL_ASSEMBLY_MEMBERS
100
AcDbLine
 62
7
  6
CONTINUOUS
 10
4.46253272
 20
4.7617863562
 11
4.4401549255
 21
4.7617863562
  0
LINE
  5
341
100
AcDbEntity
  8
ALL_ASSEMBLY_MEMBERS
100
AcDbLine
 62
7
  6
CONTINUOUS
 10
3.6895260419
 20
4.7617863562
 11
3.6919934414
 21
4.7617863562
  0
LINE
  5
342
100
AcDbEntity
  8
ALL_ASSEMBLY_MEMBERS
100
AcDbLine
 62
7
  6
CONTINUOUS
 10
3.8856815657
 20
4.7617863562
 11
3.9080593602
 21
4.7617863562
  0
LINE
  5
343
100
AcDbEntity
  8
ALL_ASSEMBLY_MEMBERS
100
AcDbLine
 62
7
  6
CONTINUOUS
 10
3.6816071429
 20
4.8109989546
 11
4.6666071429
 21
4.8109989546
  0
LINE
  5
344
100
AcDbEntity
  8
ALL_ASSEMBLY_MEMBERS
100
AcDbLine
 62
7
  6
CONTINUOUS
 10
4.1657194309
 20
4.7571080183
 11
4.1574680776
 21
4.7589320255
  0
LINE
  5
345
100
AcDbEntity
  8
ALL_ASSEMBLY_MEMBERS
100
AcDbLine
 62
7
  6
CONTINUOUS
 10
4.2262293568
 20
4.7571080183
 11
4.2179780034
 21
4.7589320255
  0
LINE
  5
346
100
AcDbEntity
  8
ALL_ASSEMBLY_MEMBERS
100
AcDbLine
 62
7
  6
CONTINUOUS
 10
4.1643442027
 20
4.7479879826
 11
4.1574680776
 21
4.7498119897
  0
LINE
  5
347
100
AcDbEntity
  8
ALL_ASSEMBLY_MEMBERS
100
AcDbLine
 62
7
  6
CONTINUOUS
 10
4.2248541286
 20
4.7479879826
 11
4.2179780034
 21
4.7498119897
  0
LINE
  5
348
100
AcDbEntity
  8
ALL_ASSEMBLY_MEMBERS
100
AcDbLine
 62
7
  6
CONTINUOUS
 10
4.7428424356
 20
5.0537367309
 11
4.7428424356
 21
5.0603739546
  0
LINE
  5
349
100
AcDbEntity
  8
ALL_ASSEMBLY_MEMBERS
100
AcDbLine
 62
7
  6
CONTINUOUS
 10
3.9459967926
 20
3.3166485609
 11
3.9673712765
 21
3.3308982169
  0
LINE
  5
34A
100
AcDbEntity
  8
ALL_ASSEMBLY_MEMBERS
100
AcDbLine
 62
7
  6
CONTINUOUS
 10
4.1841066275
 20
4.8659989546
 11
4.1641076582
 21
4.8659989546
  0
LINE
  5
34B
100
AcDbEntity
  8
ALL_ASSEMBLY_MEMBERS
100
AcDbLine
 62
7
  6
CONTINUOUS
 10
4.1641076582
 20
4.9459989546
 11
4.1841066275
 21
4.9459989546
  0
LWPOLYLINE
  5
34C
100
AcDbEntity
  8
ALL_ASSEMBLY_MEMBERS
100
AcDbPolyline
 62
7
  6
CONTINUOUS
 90
8
 70
0
 10
3.9669890067
 20
3.3307654526
 10
3.9669602882
 20
3.3307518783
 10
3.9670376963
 20
3.3307825095
 10
3.9675050106
 20
3.3309446046
 10
3.9683442742
 20
3.3311736676
 10
3.9695122035
 20
3.3314040483
 10
3.970975148
 20
3.3315802316
 10
3.9727201922
 20
3.3316522618
  0
LINE
  5
34D
100
AcDbEntity
  8
ALL_ASSEMBLY_MEMBERS
100
AcDbLine
 62
7
  6
CONTINUOUS
 10
3.6441071429
 20
4.9808739546
 11
4.7041071429
 21
4.9808739546
  0
LINE
  5
34E
100
AcDbEntity
  8
ALL_ASSEMBLY_MEMBERS
100
AcDbLine
 62
7
  6
CONTINUOUS
 10
3.6053718502
 20
5.0537367309
 11
3.7583424356
 21
5.0537367309
  0
LINE
  5
34F
100
AcDbEntity
  8
ALL_ASSEMBLY_MEMBERS
100
AcDbLine
 62
7
  6
CONTINUOUS
 10
4.5898718502
 20
5.0537367309
 11
4.7428424356
 21
5.0537367309
  0
LINE
  5
350
100
AcDbEntity
  8
ALL_ASSEMBLY_MEMBERS
100
AcDbLine
 62
7
  6
CONTINUOUS
 10
2.632685398
 20
5.0603739546
 11
5.7155288877
 21
5.0603739546
  0
LINE
  5
351
100
AcDbEntity
  8
ALL_ASSEMBLY_MEMBERS
100
AcDbLine
 62
7
  6
CONTINUOUS
 10
5.7452162184
 20
5.0813424592
 11
2.6029980673
 21
5.0813424592
  0
LWPOLYLINE
  5
352
100
AcDbEntity
  8
ALL_ASSEMBLY_MEMBERS
100
AcDbPolyline
 62
7
  6
CONTINUOUS
 90
8
 70
0
 10
4.3616071429
 20
3.3274389682
 10
4.3622549966
 20
3.3278761717
 10
4.3643758778
 20
3.3290383344
 10
4.366778054
 20
3.3300648996
 10
4.3693416114
 20
3.3308650037
 10
4.3719738121
 20
3.3313947107
 10
4.3746259223
 20
3.3316374445
 10
4.3753571397
 20
3.3316521301
  0
LINE
  5
353
100
AcDbEntity
  8
ALL_ASSEMBLY_MEMBERS
100
AcDbLine
 62
7
  6
CONTINUOUS
 10
5.7798829847
 20
5.1181327793
 11
2.568331301
 21
5.1181327793
  0
LINE
  5
354
100
AcDbEntity
  8
ALL_ASSEMBLY_MEMBERS
100
AcDbLine
 62
7
  6
CONTINUOUS
 10
5.7991071429
 20
5.1471423244
 11
2.5491071429
 21
5.1471423244
  0
LINE
  5
355
100
AcDbEntity
  8
ALL_ASSEMBLY_MEMBERS
100
AcDbLine
 62
7
  6
CONTINUOUS
 10
2.5491071429
 20
5.2168739546
 11
5.7991071429
 21
5.2168739546
  0
LINE
  5
356
100
AcDbEntity
  8
ALL_ASSEMBLY_MEMBERS
100
AcDbLine
 62
7
  6
CONTINUOUS
 10
5.7991071429
 20
5.1471423244
 11
5.7991071429
 21
5.2168739546
  0
ARC
  5
357
100
AcDbEntity
  8
ALL_ASSEMBLY_MEMBERS
100
AcDbCircle
 62
7
  6
CONTINUOUS
 10
4.7928571429
 20
3.2166485609
 40
0.1
100
AcDbArc
 50
270.0
 51
90.0
  0
ARC
  5
358
100
AcDbEntity
  8
ALL_ASSEMBLY_MEMBERS
100
AcDbCircle
 62
7
  6
CONTINUOUS
 10
3.5553571429
 20
3.2166485609
 40
0.1
100
AcDbArc
 50
90.0
 51
270.0
  0
CIRCLE
  5
359
100
AcDbEntity
  8
ALL_ASSEMBLY_MEMBERS
100
AcDbCircle
 62
7
  6
CONTINUOUS
 10
4.1741071429
 20
4.2861485609
 40
0.07
  0
ARC
  5
35A
100
AcDbEntity
  8
ALL_ASSEMBLY_MEMBERS
100
AcDbCircle
 62
7
  6
CONTINUOUS
 10
3.9318102826
 20
3.3871008394
 40
0.0664890941
100
AcDbArc
 50
302.2354021024
 51
303.6578387384
  0
CIRCLE
  5
35B
100
AcDbEntity
  8
ALL_ASSEMBLY_MEMBERS
100
AcDbCircle
 62
7
  6
CONTINUOUS
 10
4.1741071429
 20
4.2861485609
 40
0.065
  0
ARC
  5
35C
100
AcDbEntity
  8
ALL_ASSEMBLY_MEMBERS
100
AcDbCircle
 62
7
  6
CONTINUOUS
 10
2.5438897516
 20
5.0603739546
 40
0.0627173913
100
AcDbArc
 50
19.5319940446
 51
67.0635891141
  0
ARC
  5
35D
100
AcDbEntity
  8
ALL_ASSEMBLY_MEMBERS
100
AcDbCircle
 62
7
  6
CONTINUOUS
 10
5.8043245342
 20
5.0603739546
 40
0.0627173913
100
AcDbArc
 50
112.9364108859
 51
160.4680059554
  0
ARC
  5
35E
100
AcDbEntity
  8
ALL_ASSEMBLY_MEMBERS
100
AcDbCircle
 62
7
  6
CONTINUOUS
 10
3.9361475725
 20
3.3802389403
 40
0.0583713568
100
AcDbArc
 50
300.2472502756
 51
302.2269350226
  0
CIRCLE
  5
35F
100
AcDbEntity
  8
ALL_ASSEMBLY_MEMBERS
100
AcDbCircle
 62
7
  6
CONTINUOUS
 10
4.1741071429
 20
4.2861485609
 40
0.0445454545
  0
ARC
  5
360
100
AcDbEntity
  8
ALL_ASSEMBLY_MEMBERS
100
AcDbCircle
 62
7
  6
CONTINUOUS
 10
2.5806071429
 20
5.1471423244
 40
0.0315
100
AcDbArc
 50
180.0
 51
247.0635891141
  0
ARC
  5
361
100
AcDbEntity
  8
ALL_ASSEMBLY_MEMBERS
100
AcDbCircle
 62
7
  6
CONTINUOUS
 10
5.7676071429
 20
5.1471423244
 40
0.0315
100
AcDbArc
 50
292.9364108859
 51
360.0
  0
ARC
  5
362
100
AcDbEntity
  8
ALL_ASSEMBLY_MEMBERS
100
AcDbCircle
 62
7
  6
CONTINUOUS
 10
2.632685398
 20
5.0918739546
 40
0.0315
100
AcDbArc
 50
199.5319940446
 51
270.0
  0
ARC
  5
363
100
AcDbEntity
  8
ALL_ASSEMBLY_MEMBERS
100
AcDbCircle
 62
7
  6
CONTINUOUS
 10
5.7155288877
 20
5.0918739546
 40
0.0315
100
AcDbArc
 50
270.0
 51
340.4680059554
  0
SPLINE
  5
364
100
AcDbEntity
  8
ALL_ASSEMBLY_MEMBERS
100
AcDbSpline
 62
7
  6
CONTINUOUS
 70
0
 71
3
 72
19
 73
15
 74
0
 42
0.0000001
 43
0.0000001
 44
0.0000000001
 40
0.0
 40
0.0
 40
0.0
 40
0.0
 40
0.1249158798
 40
0.1874766357
 40
0.2500078059
 40
0.3749226349
 40
0.4998388355
 40
0.5623760549
 40
0.624922107
 40
0.6874570601
 40
0.7499641082
 40
0.8124888753
 40
0.8750775682
 40
1.0
 40
1.0
 40
1.0
 40
1.0
 10
4.1841066275
 20
4.9459989546
 30
0.0
 10
4.1841066275
 20
4.9466526435
 30
0.0
 10
4.1840095132
 20
4.947637236
 30
0.0
 10
4.1836910929
 20
4.9489077452
 30
0.0
 10
4.1832496355
 20
4.9501413528
 30
0.0
 10
4.1824737733
 20
4.9515927588
 30
0.0
 10
4.1814289975
 20
4.9528645114
 30
0.0
 10
4.180458084
 20
4.9537439734
 30
0.0
 10
4.1796680272
 20
4.9543296218
 30
0.0
 10
4.1788245711
 20
4.9548349498
 30
0.0
 10
4.1779352135
 20
4.9552539715
 30
0.0
 10
4.1770086731
 20
4.9555838264
 30
0.0
 10
4.1757389658
 20
4.9559044512
 30
0.0
 10
4.1747546328
 20
4.9560086754
 30
0.0
 10
4.1741009096
 20
4.9560086754
 30
0.0
  0
SPLINE
  5
365
100
AcDbEntity
  8
ALL_ASSEMBLY_MEMBERS
100
AcDbSpline
 62
7
  6
CONTINUOUS
 70
0
 71
3
 72
19
 73
15
 74
0
 42
0.0000001
 43
0.0000001
 44
0.0000000001
 40
0.0
 40
0.0
 40
0.0
 40
0.0
 40
0.1249852322
 40
0.1876498082
 40
0.2502234468
 40
0.3127340834
 40
0.3752485557
 40
0.4377807889
 40
0.5003042382
 40
0.6251763742
 40
0.750059398
 40
0.8125725634
 40
0.8751106733
 40
1.0
 40
1.0
 40
1.0
 40
1.0
 10
4.1741009096
 20
4.9560086754
 30
0.0
 10
4.1734473654
 20
4.9560086754
 30
0.0
 10
4.1724629189
 20
4.9559045035
 30
0.0
 10
4.1711939418
 20
4.9555809258
 30
0.0
 10
4.170268318
 20
4.9552488783
 30
0.0
 10
4.1693799178
 20
4.9548293078
 30
0.0
 10
4.1685375826
 20
4.954323887
 30
0.0
 10
4.1677489426
 20
4.9537380263
 30
0.0
 10
4.1667798334
 20
4.9528586569
 30
0.0
 10
4.1657371261
 20
4.9515874981
 30
0.0
 10
4.1649628732
 20
4.9501372662
 30
0.0
 10
4.1645223581
 20
4.9489048112
 30
0.0
 10
4.164204522
 20
4.9476355694
 30
0.0
 10
4.1641076582
 20
4.9466519973
 30
0.0
 10
4.1641076582
 20
4.9459989546
 30
0.0
  0
SPLINE
  5
366
100
AcDbEntity
  8
ALL_ASSEMBLY_MEMBERS
100
AcDbSpline
 62
7
  6
CONTINUOUS
 70
0
 71
3
 72
19
 73
15
 74
0
 42
0.0000001
 43
0.0000001
 44
0.0000000001
 40
0.0
 40
0.0
 40
0.0
 40
0.0
 40
0.1248897374
 40
0.1874284864
 40
0.2499423405
 40
0.3748263175
 40
0.4996987803
 40
0.5622219563
 40
0.6247539668
 40
0.6872683074
 40
0.7497784126
 40
0.8123512284
 40
0.8750150897
 40
1.0
 40
1.0
 40
1.0
 40
1.0
 10
4.1641076582
 20
4.8659989546
 30
0.0
 10
4.1641076582
 20
4.8653459075
 30
0.0
 10
4.1642045236
 20
4.8643623264
 30
0.0
 10
4.1645223661
 20
4.8630930721
 30
0.0
 10
4.1649628903
 20
4.8618606028
 30
0.0
 10
4.16573716
 20
4.8604103612
 30
0.0
 10
4.1667798826
 20
4.8591392009
 30
0.0
 10
4.1677490007
 20
4.8582598354
 30
0.0
 10
4.168537646
 20
4.8576739822
 30
0.0
 10
4.1693799793
 20
4.8571685606
 30
0.0
 10
4.1702683795
 20
4.8567489992
 30
0.0
 10
4.1711940026
 20
4.8564169715
 30
0.0
 10
4.1724629783
 20
4.8560934117
 30
0.0
 10
4.1734474218
 20
4.8559892367
 30
0.0
 10
4.1741009666
 20
4.8559892367
 30
0.0
  0
SPLINE
  5
367
100
AcDbEntity
  8
ALL_ASSEMBLY_MEMBERS
100
AcDbSpline
 62
7
  6
CONTINUOUS
 70
0
 71
3
 72
19
 73
15
 74
0
 42
0.0000001
 43
0.0000001
 44
0.0000000001
 40
0.0
 40
0.0
 40
0.0
 40
0.0
 40
0.1249225465
 40
0.1875115499
 40
0.2500366903
 40
0.3125439719
 40
0.3750791332
 40
0.4376254688
 40
0.5001629066
 40
0.625079081
 40
0.7499938268
 40
0.8125248195
 40
0.8750850005
 40
1.0
 40
1.0
 40
1.0
 40
1.0
 10
4.1741009666
 20
4.8559892367
 30
0.0
 10
4.174754688
 20
4.8559892367
 30
0.0
 10
4.1757390204
 20
4.8560934605
 30
0.0
 10
4.177008724
 20
4.8564140987
 30
0.0
 10
4.1779352619
 20
4.8567439636
 30
0.0
 10
4.1788246201
 20
4.8571629856
 30
0.0
 10
4.179668074
 20
4.857668318
 30
0.0
 10
4.1804581283
 20
4.8582539702
 30
0.0
 10
4.1814290331
 20
4.8591334384
 30
0.0
 10
4.1824738013
 20
4.8604051898
 30
0.0
 10
4.1832496524
 20
4.8618565938
 30
0.0
 10
4.1836911002
 20
4.8630901949
 30
0.0
 10
4.1840095187
 20
4.8643606909
 30
0.0
 10
4.1841066275
 20
4.8653452727
 30
0.0
 10
4.1841066275
 20
4.8659989546
 30
0.0
  0
SPLINE
  5
368
100
AcDbEntity
  8
ALL_ASSEMBLY_MEMBERS
100
AcDbSpline
 62
7
  6
CONTINUOUS
 70
0
 71
3
 72
23
 73
19
 74
0
 42
0.0000001
 43
0.0000001
 44
0.0000000001
 40
0.0
 40
0.0
 40
0.0
 40
0.0
 40
0.0625894612
 40
0.1251103516
 40
0.1875527937
 40
0.2499535372
 40
0.3123715312
 40
0.3748506607
 40
0.4374005927
 40
0.4999981737
 40
0.5625959114
 40
0.6251459903
 40
0.6876251787
 40
0.7500426322
 40
0.8124429849
 40
0.8748853777
 40
0.9374080387
 40
1.0
 40
1.0
 40
1.0
 40
1.0
 10
4.1741071429
 20
4.1986485609
 30
0.0
 10
4.1686022231
 20
4.1986485609
 30
0.0
 10
4.1575595812
 20
4.1998872154
 30
0.0
 10
4.1418513815
 20
4.2053168875
 30
0.0
 10
4.1276618362
 20
4.2139321385
 30
0.0
 10
4.1155193654
 20
4.2252185535
 30
0.0
 10
4.1057751612
 20
4.2386227911
 30
0.0
 10
4.0986652025
 20
4.2535984795
 30
0.0
 10
4.0943410575
 20
4.269614155
 30
0.0
 10
4.0928900328
 20
4.2861480875
 30
0.0
 10
4.0943408911
 20
4.3026820478
 30
0.0
 10
4.098664886
 20
4.3186977979
 30
0.0
 10
4.1057746897
 20
4.3336735257
 30
0.0
 10
4.1155186925
 20
4.3470778141
 30
0.0
 10
4.1276609675
 20
4.3583643039
 30
0.0
 10
4.1418504676
 20
4.3669798636
 30
0.0
 10
4.1575589917
 20
4.3724097576
 30
0.0
 10
4.1686020033
 20
4.3736485609
 30
0.0
 10
4.1741071429
 20
4.3736485609
 30
0.0
  0
SPLINE
  5
369
100
AcDbEntity
  8
ALL_ASSEMBLY_MEMBERS
100
AcDbSpline
 62
7
  6
CONTINUOUS
 70
0
 71
3
 72
23
 73
19
 74
0
 42
0.0000001
 43
0.0000001
 44
0.0000000001
 40
0.0
 40
0.0
 40
0.0
 40
0.0
 40
0.0625897451
 40
0.1251108001
 40
0.1875532231
 40
0.2499539339
 40
0.3123718958
 40
0.3748510232
 40
0.4374009447
 40
0.4999985106
 40
0.5625962383
 40
0.6251463022
 40
0.6876254857
 40
0.7500429124
 40
0.8124432601
 40
0.8748856248
 40
0.9374081845
 40
1.0
 40
1.0
 40
1.0
 40
1.0
 10
4.1741071429
 20
4.3736485609
 30
0.0
 10
4.1796120875
 20
4.3736485609
 30
0.0
 10
4.1906547684
 20
4.3724098903
 30
0.0
 10
4.2063630007
 20
4.3669801949
 30
0.0
 10
4.2205525394
 20
4.3583649131
 30
0.0
 10
4.2326949911
 20
4.3470784893
 30
0.0
 10
4.2424391754
 20
4.3336742445
 30
0.0
 10
4.2495491166
 20
4.3186985524
 30
0.0
 10
4.2538732445
 20
4.3026828747
 30
0.0
 10
4.2553242528
 20
4.286148944
 30
0.0
 10
4.2538733791
 20
4.2696149887
 30
0.0
 10
4.2495493704
 20
4.2535992451
 30
0.0
 10
4.2424395545
 20
4.2386235276
 30
0.0
 10
4.2326955418
 20
4.2252192506
 30
0.0
 10
4.2205532611
 20
4.2139327743
 30
0.0
 10
4.2063637626
 20
4.2053172357
 30
0.0
 10
4.1906552598
 20
4.1998873554
 30
0.0
 10
4.1796122696
 20
4.1986485609
 30
0.0
 10
4.1741071429
 20
4.1986485609
 30
0.0
  0
SPLINE
  5
36A
100
AcDbEntity
  8
ALL_ASSEMBLY_MEMBERS
100
AcDbSpline
 62
7
  6
CONTINUOUS
 70
0
 71
3
 72
35
 73
31
 74
0
 42
0.0000001
 43
0.0000001
 44
0.0000000001
 40
0.0
 40
0.0
 40
0.0
 40
0.0
 40
0.0317325147
 40
0.0634379422
 40
0.0949958817
 40
0.1263563662
 40
0.1575038943
 40
0.1884421084
 40
0.2191945499
 40
0.2497921359
 40
0.2802981862
 40
0.3107742173
 40
0.3412844636
 40
0.3718894327
 40
0.4335023735
 40
0.4958285897
 40
0.5272565593
 40
0.5588108671
 40
0.5904608788
 40
0.6221789123
 40
0.6539231083
 40
0.6856631995
 40
0.7490533046
 40
0.8122099036
 40
0.8436888346
 40
0.8750928595
 40
0.9064207779
 40
0.9376769919
 40
0.9688679566
 40
1.0
 40
1.0
 40
1.0
 40
1.0
 10
4.1741071429
 20
3.5926479237
 30
0.0
 10
4.1710746252
 20
3.5926477876
 30
0.0
 10
4.1650089786
 20
3.5923810264
 30
0.0
 10
4.1559972316
 20
3.5911967078
 30
0.0
 10
4.147158026
 20
3.589233433
 30
0.0
 10
4.1385771354
 20
3.5865154779
 30
0.0
 10
4.1303247424
 20
3.5830720569
 30
0.0
 10
4.1224631232
 20
3.5789348686
 30
0.0
 10
4.1150434774
 20
3.5741453753
 30
0.0
 10
4.1081132907
 20
3.5687386849
 30
0.0
 10
4.1017039757
 20
3.5627629211
 30
0.0
 10
4.0958420856
 20
3.5562611244
 30
0.0
 10
4.0905449536
 20
3.5492801243
 30
0.0
 10
4.0842296582
 20
3.5393840322
 30
0.0
 10
4.0777725248
 20
3.526035796
 30
0.0
 10
4.0732012518
 20
3.5118650476
 30
0.0
 10
4.0705592737
 20
3.5001798497
 30
0.0
 10
4.0690564478
 20
3.4912573639
 30
0.0
 10
4.0680125842
 20
3.4822426944
 30
0.0
 10
4.067399777
 20
3.473170763
 30
0.0
 10
4.0671892365
 20
3.4640723393
 30
0.0
 10
4.0674131417
 20
3.4519467258
 30
0.0
 10
4.0685867047
 20
3.4368503661
 30
0.0
 10
4.0708240755
 20
3.4219025395
 30
0.0
 10
4.0732178971
 20
3.4100958721
 30
0.0
 10
4.0753023223
 20
3.4013354234
 30
0.0
 10
4.0776744726
 20
3.3926705863
 30
0.0
 10
4.080337269
 20
3.3841117895
 30
0.0
 10
4.0832917241
 20
3.375669166
 30
0.0
 10
4.0854601742
 20
3.3701203138
 30
0.0
 10
4.0865957421
 20
3.3673704218
 30
0.0
  0
SPLINE
  5
36B
100
AcDbEntity
  8
ALL_ASSEMBLY_MEMBERS
100
AcDbSpline
 62
7
  6
CONTINUOUS
 70
0
 71
3
 72
49
 73
45
 74
0
 42
0.0000001
 43
0.0000001
 44
0.0000000001
 40
0.0
 40
0.0
 40
0.0
 40
0.0
 40
0.0097283566
 40
0.018742014
 40
0.0231213803
 40
0.0274856486
 40
0.0363735597
 40
0.045748537
 40
0.0557723877
 40
0.0665199334
 40
0.0779925037
 40
0.0901359861
 40
0.1029023793
 40
0.116250984
 40
0.1301272276
 40
0.1592455179
 40
0.1899699801
 40
0.2220418106
 40
0.2552879151
 40
0.2895752621
 40
0.3247939313
 40
0.3977735445
 40
0.4738206785
 40
0.5526434238
 40
0.6337148295
 40
0.6746937609
 40
0.7155309027
 40
0.7357280741
 40
0.7556770386
 40
0.7944286039
 40
0.8309787638
 40
0.8646379809
 40
0.8802063704
 40
0.8948939174
 40
0.9086881182
 40
0.9215874397
 40
0.9336195747
 40
0.9448323775
 40
0.9552911314
 40
0.9650810329
 40
0.9743077852
 40
0.983101242
 40
0.9916128774
 40
1.0
 40
1.0
 40
1.0
 40
1.0
 10
3.9532706649
 20
3.3256234242
 30
0.0
 10
3.9525044825
 20
3.3256234985
 30
0.0
 10
3.9510217343
 20
3.3257678352
 30
0.0
 10
3.9492834126
 20
3.3263740268
 30
0.0
 10
3.9480738118
 20
3.3270829905
 30
0.0
 10
3.9469719403
 20
3.3279336065
 30
0.0
 10
3.945770957
 20
3.3292719645
 30
0.0
 10
3.9446360179
 20
3.331201715
 30
0.0
 10
3.9437613806
 20
3.3334170308
 30
0.0
 10
3.9431192696
 20
3.3358787876
 30
0.0
 10
3.9426815179
 20
3.3385525194
 30
0.0
 10
3.942421051
 20
3.341407955
 30
0.0
 10
3.9423193558
 20
3.3444207162
 30
0.0
 10
3.942360157
 20
3.3475710003
 30
0.0
 10
3.942585749
 20
3.3520035103
 30
0.0
 10
3.9431479428
 20
3.357785177
 30
0.0
 10
3.9441616061
 20
3.3649542288
 30
0.0
 10
3.9454478745
 20
3.3724090134
 30
0.0
 10
3.9469537789
 20
3.3801082502
 30
0.0
 10
3.9486323236
 20
3.3880249907
 30
0.0
 10
3.9510731848
 20
3.3989782847
 30
0.0
 10
3.9543611636
 20
3.4131116745
 30
0.0
 10
3.9583790287
 20
3.4306011484
 30
0.0
 10
3.9622552521
 20
3.4487758958
 30
0.0
 10
3.9651076747
 20
3.4643406597
 30
0.0
 10
3.9670395623
 20
3.4770238836
 30
0.0
 10
3.9680775394
 20
3.4849915676
 30
0.0
 10
3.9688006315
 20
3.4913286004
 30
0.0
 10
3.9694392285
 20
3.4975095921
 30
0.0
 10
3.9701140577
 20
3.5049812297
 30
0.0
 10
3.9707885718
 20
3.5135361256
 30
0.0
 10
3.9713361854
 20
3.5202697856
 30
0.0
 10
3.9718315685
 20
3.5252793449
 30
0.0
 10
3.9722356723
 20
3.5287252799
 30
0.0
 10
3.9726987292
 20
3.5319517935
 30
0.0
 10
3.9732388557
 20
3.5349543594
 30
0.0
 10
3.9738699042
 20
3.5377314157
 30
0.0
 10
3.9746051514
 20
3.540283833
 30
0.0
 10
3.9754591074
 20
3.5426125501
 30
0.0
 10
3.9764437388
 20
3.5447184891
 30
0.0
 10
3.9775675038
 20
3.5466033635
 30
0.0
 10
3.978839575
 20
3.5482677314
 30
0.0
 10
3.9802667791
 20
3.5497099688
 30
0.0
 10
3.9813252399
 20
3.550524723
 30
0.0
 10
3.9818748343
 20
3.5508911548
 30
0.0
  0
SPLINE
  5
36C
100
AcDbEntity
  8
ALL_ASSEMBLY_MEMBERS
100
AcDbSpline
 62
7
  6
CONTINUOUS
 70
0
 71
3
 72
26
 73
22
 74
0
 42
0.0000001
 43
0.0000001
 44
0.0000000001
 40
0.0
 40
0.0
 40
0.0
 40
0.0
 40
0.0512075629
 40
0.1012125476
 40
0.1489165105
 40
0.1941883605
 40
0.237066091
 40
0.2777757326
 40
0.3165906694
 40
0.3537426649
 40
0.4889904697
 40
0.5502344454
 40
0.6080228953
 40
0.662768373
 40
0.7148229917
 40
0.764543482
 40
0.8123549358
 40
0.8588249095
 40
0.9047551249
 40
0.9512875791
 40
1.0
 40
1.0
 40
1.0
 40
1.0
 10
4.1741071429
 20
3.3218738312
 30
0.0
 10
4.1755712761
 20
3.3218738072
 30
0.0
 10
4.1784654092
 20
3.321934835
 30
0.0
 10
4.1827170024
 20
3.3221800893
 30
0.0
 10
4.1867887624
 20
3.3225528366
 30
0.0
 10
4.1906464425
 20
3.3230097538
 30
0.0
 10
4.1942968801
 20
3.3235096477
 30
0.0
 10
4.197757663
 20
3.3240307576
 30
0.0
 10
4.201052848
 20
3.3245514372
 30
0.0
 10
4.2070162578
 20
3.3255031575
 30
0.0
 10
4.2136198384
 20
3.3265281813
 30
0.0
 10
4.2208514311
 20
3.3272952125
 30
0.0
 10
4.2258122004
 20
3.3276076418
 30
0.0
 10
4.2305208925
 20
3.3276458074
 30
0.0
 10
4.2349923067
 20
3.3273777729
 30
0.0
 10
4.2392315087
 20
3.3267673685
 30
0.0
 10
4.2432351506
 20
3.3257713718
 30
0.0
 10
4.2469907433
 20
3.3243361654
 30
0.0
 10
4.2504741544
 20
3.3223936066
 30
0.0
 10
4.2536423796
 20
3.3198610427
 30
0.0
 10
4.255436822
 20
3.3177877503
 30
0.0
 10
4.256248771
 20
3.3166561107
 30
0.0
  0
SPLINE
  5
36D
100
AcDbEntity
  8
ALL_ASSEMBLY_MEMBERS
100
AcDbSpline
 62
7
  6
CONTINUOUS
 70
0
 71
3
 72
14
 73
10
 74
0
 42
0.0000001
 43
0.0000001
 44
0.0000000001
 40
0.0
 40
0.0
 40
0.0
 40
0.0
 40
0.0992809839
 40
0.2060788448
 40
0.32058213
 40
0.4427128703
 40
0.5722134976
 40
0.7086673513
 40
1.0
 40
1.0
 40
1.0
 40
1.0
 10
4.3949436208
 20
3.3256234242
 30
0.0
 10
4.3944114554
 20
3.3256234746
 30
0.0
 10
4.393306185
 20
3.3256979219
 30
0.0
 10
4.3916117204
 20
3.3259985729
 30
0.0
 10
4.3898338378
 20
3.3264845704
 30
0.0
 10
4.3879855049
 20
3.3271493811
 30
0.0
 10
4.3860787549
 20
3.3279844069
 30
0.0
 10
4.3834135514
 20
3.3293359362
 30
0.0
 10
4.3814466096
 20
3.330521664
 30
0.0
 10
4.3801376851
 20
3.3313733157
 30
0.0
  0
SPLINE
  5
36E
100
AcDbEntity
  8
ALL_ASSEMBLY_MEMBERS
100
AcDbSpline
 62
7
  6
CONTINUOUS
 70
0
 71
3
 72
28
 73
24
 74
0
 42
0.0000001
 43
0.0000001
 44
0.0000000001
 40
0.0
 40
0.0
 40
0.0
 40
0.0
 40
0.0627743273
 40
0.126105452
 40
0.1897352182
 40
0.253390012
 40
0.2851076358
 40
0.3166962077
 40
0.3481305736
 40
0.3793899222
 40
0.4104611739
 40
0.4413453401
 40
0.4720733099
 40
0.5026812764
 40
0.5332021935
 40
0.563672565
 40
0.6246277081
 40
0.6858889226
 40
0.7476579896
 40
0.8100247174
 40
0.8729746763
 40
0.9363972319
 40
1.0
 40
1.0
 40
1.0
 40
1.0
 10
4.2616080888
 20
3.4635988847
 30
0.0
 10
4.2616074471
 20
3.466571586
 30
0.0
 10
4.2614264168
 20
3.4725451881
 30
0.0
 10
4.2605514795
 20
3.4814951344
 30
0.0
 10
4.2589760069
 20
3.4903934837
 30
0.0
 10
4.2570088613
 20
3.4976744252
 30
0.0
 10
4.255009549
 20
3.5033470536
 30
0.0
 10
4.2532922127
 20
3.5074943591
 30
0.0
 10
4.2513556894
 20
3.5115199192
 30
0.0
 10
4.2492038855
 20
3.5154068143
 30
0.0
 10
4.2468398692
 20
3.5191378456
 30
0.0
 10
4.2442656282
 20
3.5226961567
 30
0.0
 10
4.241491895
 20
3.526072833
 30
0.0
 10
4.2385293179
 20
3.5292615609
 30
0.0
 10
4.2353875396
 20
3.5322563857
 30
0.0
 10
4.2309729486
 20
3.5359837635
 30
0.0
 10
4.2250455595
 20
3.5401547088
 30
0.0
 10
4.2173954662
 20
3.5443581531
 30
0.0
 10
4.2092920966
 20
3.5477748593
 30
0.0
 10
4.2008230654
 20
3.5504193745
 30
0.0
 10
4.1920734533
 20
3.5523009271
 30
0.0
 10
4.1831374115
 20
3.5534263914
 30
0.0
 10
4.1771190753
 20
3.5536767239
 30
0.0
 10
4.1741071429
 20
3.5536767806
 30
0.0
  0
SPLINE
  5
36F
100
AcDbEntity
  8
ALL_ASSEMBLY_MEMBERS
100
AcDbSpline
 62
7
  6
CONTINUOUS
 70
0
 71
3
 72
20
 73
16
 74
0
 42
0.0000001
 43
0.0000001
 44
0.0000000001
 40
0.0
 40
0.0
 40
0.0
 40
0.0
 40
0.1755337158
 40
0.3338545252
 40
0.4780214204
 40
0.6098578156
 40
0.7300108017
 40
0.7855762663
 40
0.8378002463
 40
0.8862712637
 40
0.9302486306
 40
0.9502766124
 40
0.9687333567
 40
0.9853788695
 40
1.0
 40
1.0
 40
1.0
 40
1.0
 10
4.6532438456
 20
3.3166582235
 30
0.0
 10
4.6559799556
 20
3.3184494138
 30
0.0
 10
4.6614410328
 20
3.3214811854
 30
0.0
 10
4.6697686721
 20
3.3247034252
 30
0.0
 10
4.6776400699
 20
3.3266634425
 30
0.0
 10
4.68497696
 20
3.3275979197
 30
0.0
 10
4.690720084
 20
3.3276735819
 30
0.0
 10
4.6949567371
 20
3.3273531482
 30
0.0
 10
4.6978432423
 20
3.3269601626
 30
0.0
 10
4.7004871872
 20
3.3264272281
 30
0.0
 10
4.7025094764
 20
3.3258690531
 30
0.0
 10
4.7039605534
 20
3.325362979
 30
0.0
 10
4.7049126797
 20
3.3249762519
 30
0.0
 10
4.7057484217
 20
3.3245752743
 30
0.0
 10
4.7062529881
 20
3.3242819717
 30
0.0
 10
4.7064797467
 20
3.3241310373
 30
0.0
  0
SPLINE
  5
370
100
AcDbEntity
  8
ALL_ASSEMBLY_MEMBERS
100
AcDbSpline
 62
7
  6
CONTINUOUS
 70
0
 71
3
 72
28
 73
24
 74
0
 42
0.0000001
 43
0.0000001
 44
0.0000000001
 40
0.0
 40
0.0
 40
0.0
 40
0.0
 40
0.0635963205
 40
0.127011816
 40
0.189955476
 40
0.2523181995
 40
0.3140858405
 40
0.3753471121
 40
0.436300976
 40
0.4667682329
 40
0.4972839726
 40
0.527885856
 40
0.5586069885
 40
0.5894835562
 40
0.6205469716
 40
0.6517990759
 40
0.683227381
 40
0.7148117323
 40
0.746527584
 40
0.8101886059
 40
0.8738306528
 40
0.9371798178
 40
1.0
 40
1.0
 40
1.0
 40
1.0
 10
4.1741071429
 20
3.5536767806
 30
0.0
 10
4.1710979008
 20
3.5536767251
 30
0.0
 10
4.1650849757
 20
3.5534268449
 30
0.0
 10
4.1561568319
 20
3.5523034116
 30
0.0
 10
4.1474146095
 20
3.5504252354
 30
0.0
 10
4.1389520646
 20
3.5477854867
 30
0.0
 10
4.1308539907
 20
3.544374888
 30
0.0
 10
4.1232079443
 20
3.5401787587
 30
0.0
 10
4.1172828236
 20
3.5360150076
 30
0.0
 10
4.1128691828
 20
3.5322943184
 30
0.0
 10
4.1097278353
 20
3.5293050175
 30
0.0
 10
4.1067654175
 20
3.5261220214
 30
0.0
 10
4.1039913805
 20
3.5227513423
 30
0.0
 10
4.1014162008
 20
3.5191993164
 30
0.0
 10
4.0990506502
 20
3.5154746753
 30
0.0
 10
4.0968968585
 20
3.5115940491
 30
0.0
 10
4.094957898
 20
3.5075745112
 30
0.0
 10
4.0932376947
 20
3.5034328589
 30
0.0
 10
4.0912341501
 20
3.4977667565
 30
0.0
 10
4.0892611297
 20
3.4904927901
 30
0.0
 10
4.0876768496
 20
3.4816015068
 30
0.0
 10
4.0867946269
 20
3.4726557232
 30
0.0
 10
4.0866097967
 20
3.4666839781
 30
0.0
 10
4.0866062242
 20
3.4637114633
 30
0.0
  0
SPLINE
  5
371
100
AcDbEntity
  8
ALL_ASSEMBLY_MEMBERS
100
AcDbSpline
 62
7
  6
CONTINUOUS
 70
0
 71
3
 72
25
 73
21
 74
0
 42
0.0000001
 43
0.0000001
 44
0.0000000001
 40
0.0
 40
0.0
 40
0.0
 40
0.0
 40
0.0487141747
 40
0.0952488949
 40
0.1411815906
 40
0.1876548077
 40
0.2354697882
 40
0.2851937168
 40
0.3372519385
 40
0.3920029385
 40
0.4497947732
 40
0.5110456844
 40
0.6463022962
 40
0.7222656308
 40
0.7629710322
 40
0.8058372632
 40
0.8511005667
 40
0.8987992868
 40
0.9487963505
 40
1.0
 40
1.0
 40
1.0
 40
1.0
 10
4.0919709834
 20
3.3166637377
 30
0.0
 10
4.0927834877
 20
3.317794854
 30
0.0
 10
4.0945782828
 20
3.3198675644
 30
0.0
 10
4.097747444
 20
3.3223986167
 30
0.0
 10
4.1012313671
 20
3.3243397766
 30
0.0
 10
4.1049871998
 20
3.3257738445
 30
0.0
 10
4.1089908931
 20
3.3267689474
 30
0.0
 10
4.113230033
 20
3.3273786178
 30
0.0
 10
4.1177013565
 20
3.3276459914
 30
0.0
 10
4.1224098876
 20
3.327607302
 30
0.0
 10
4.1273705423
 20
3.3272945175
 30
0.0
 10
4.1346018603
 20
3.3265270168
 30
0.0
 10
4.1423019136
 20
3.3253325637
 30
0.0
 10
4.1494124202
 20
3.3241887728
 30
0.0
 10
4.1539225423
 20
3.3235089105
 30
0.0
 10
4.1575718791
 20
3.3230091109
 30
0.0
 10
4.1614284623
 20
3.3225526439
 30
0.0
 10
4.1654991509
 20
3.3221799124
 30
0.0
 10
4.1697497992
 20
3.3219347368
 30
0.0
 10
4.1726432805
 20
3.3218738026
 30
0.0
 10
4.1741071429
 20
3.3218738312
 30
0.0
  0
SPLINE
  5
372
100
AcDbEntity
  8
ALL_ASSEMBLY_MEMBERS
100
AcDbSpline
 62
7
  6
CONTINUOUS
 70
0
 71
3
 72
49
 73
45
 74
0
 42
0.0000001
 43
0.0000001
 44
0.0000000001
 40
0.0
 40
0.0
 40
0.0
 40
0.0
 40
0.0083834213
 40
0.0168901608
 40
0.0256806697
 40
0.0349026088
 40
0.044685575
 40
0.0551367876
 40
0.0663419189
 40
0.0783651492
 40
0.091251536
 40
0.1050260305
 40
0.1196962738
 40
0.1352489524
 40
0.1688575263
 40
0.2053765816
 40
0.2441000792
 40
0.2842357066
 40
0.3250679379
 40
0.366057941
 40
0.4471513814
 40
0.5260004083
 40
0.6020735984
 40
0.6750749822
 40
0.7103090828
 40
0.7446058593
 40
0.7778643067
 40
0.8099488409
 40
0.8406790115
 40
0.855463144
 40
0.8698142551
 40
0.8836863686
 40
0.8970364541
 40
0.9098116423
 40
0.9219569456
 40
0.9334306102
 40
0.9441848481
 40
0.9542176378
 40
0.9636009594
 40
0.9724959531
 40
0.9768634265
 40
0.9812458753
 40
0.9902654029
 40
1.0
 40
1.0
 40
1.0
 40
1.0
 10
4.3663398608
 20
3.5508907595
 30
0.0
 10
4.3668892217
 20
3.5505245026
 30
0.0
 10
4.3679472288
 20
3.5497102562
 30
0.0
 10
4.3693736902
 20
3.5482685973
 30
0.0
 10
4.3706459007
 20
3.5466056197
 30
0.0
 10
4.3717694516
 20
3.5447219199
 30
0.0
 10
4.3727531618
 20
3.5426172335
 30
0.0
 10
4.3736070332
 20
3.5402903757
 30
0.0
 10
4.3743428639
 20
3.5377400945
 30
0.0
 10
4.374973529
 20
3.5349653164
 30
0.0
 10
4.3755130377
 20
3.5319659777
 30
0.0
 10
4.3759768342
 20
3.5287435491
 30
0.0
 10
4.3763809728
 20
3.5253017889
 30
0.0
 10
4.3768755947
 20
3.5202987728
 30
0.0
 10
4.3774218031
 20
3.513572698
 30
0.0
 10
4.3780970389
 20
3.5050265373
 30
0.0
 10
4.3789101495
 20
3.4959757059
 30
0.0
 10
4.3799263004
 20
3.486603361
 30
0.0
 10
4.381166609
 20
3.4770778735
 30
0.0
 10
4.3830974387
 20
3.4643922272
 30
0.0
 10
4.3859496647
 20
3.4488226693
 30
0.0
 10
4.3898256933
 20
3.43064188
 30
0.0
 10
4.393845436
 20
3.4131468387
 30
0.0
 10
4.3971336006
 20
3.3990083845
 30
0.0
 10
4.3995764326
 20
3.388051759
 30
0.0
 10
4.4012550611
 20
3.3801320483
 30
0.0
 10
4.4027620172
 20
3.3724302188
 30
0.0
 10
4.4040498104
 20
3.3649733724
 30
0.0
 10
4.4049051331
 20
3.3589204044
 30
0.0
 10
4.4054108984
 20
3.3542323341
 30
0.0
 10
4.4056874778
 20
3.3508560303
 30
0.0
 10
4.4058527287
 20
3.3475853525
 30
0.0
 10
4.4058937521
 20
3.3444346357
 30
0.0
 10
4.4057944264
 20
3.3414208464
 30
0.0
 10
4.4055349311
 20
3.3385643602
 30
0.0
 10
4.4050973218
 20
3.3358898448
 30
0.0
 10
4.4044559183
 20
3.3334265662
 30
0.0
 10
4.4035818384
 20
3.3312090019
 30
0.0
 10
4.4024470988
 20
3.3292768989
 30
0.0
 10
4.4012458664
 20
3.3279367527
 30
0.0
 10
4.4001435225
 20
3.3270850112
 30
0.0
 10
4.3989333318
 20
3.3263751489
 30
0.0
 10
4.3971940102
 20
3.3257680874
 30
0.0
 10
4.3957102949
 20
3.3256235161
 30
0.0
 10
4.3949436208
 20
3.3256234242
 30
0.0
  0
SPLINE
  5
373
100
AcDbEntity
  8
ALL_ASSEMBLY_MEMBERS
100
AcDbSpline
 62
7
  6
CONTINUOUS
 70
0
 71
3
 72
20
 73
16
 74
0
 42
0.0000001
 43
0.0000001
 44
0.0000000001
 40
0.0
 40
0.0
 40
0.0
 40
0.0
 40
0.01463307
 40
0.0312780067
 40
0.0497287893
 40
0.0697568493
 40
0.1137371141
 40
0.162203095
 40
0.2144252709
 40
0.2699871339
 40
0.3901342108
 40
0.5219659982
 40
0.6661335413
 40
0.8244597765
 40
1.0
 40
1.0
 40
1.0
 40
1.0
 10
3.6417342098
 20
3.3241309546
 30
0.0
 10
3.6419611832
 20
3.3242819568
 30
0.0
 10
3.6424660008
 20
3.3245752163
 30
0.0
 10
3.6433017738
 20
3.3249763009
 30
0.0
 10
3.6442537582
 20
3.3253630041
 30
0.0
 10
3.6457047621
 20
3.3258690111
 30
0.0
 10
3.6477269565
 20
3.3264272015
 30
0.0
 10
3.6503707675
 20
3.3269601238
 30
0.0
 10
3.6532570118
 20
3.3273530896
 30
0.0
 10
3.6574933543
 20
3.3276735517
 30
0.0
 10
3.6632360839
 20
3.3275979947
 30
0.0
 10
3.6705726464
 20
3.3266637237
 30
0.0
 10
3.6784439341
 20
3.3247039615
 30
0.0
 10
3.6867717794
 20
3.3214820903
 30
0.0
 10
3.6922328061
 20
3.3184500869
 30
0.0
 10
3.6949690784
 20
3.3166590586
 30
0.0
  0
LINE
  5
374
100
AcDbEntity
  8
ALL_ASSEMBLY_MEMBERS
100
AcDbLine
 62
7
  6
CONTINUOUS
 10
4.1741071429
 20
3.3160943633
 11
4.2187194462
 21
3.3166483728
  0
SPLINE
  5
375
100
AcDbEntity
  8
ALL_ASSEMBLY_MEMBERS
100
AcDbSpline
 62
7
  6
CONTINUOUS
 70
0
 71
3
 72
11
 73
7
 74
0
 42
0.0000001
 43
0.0000001
 44
0.0000000001
 40
0.0
 40
0.0
 40
0.0
 40
0.0
 40
0.2879248098
 40
0.5517479043
 40
0.789121321
 40
1.0
 40
1.0
 40
1.0
 40
1.0
 10
3.9655511231
 20
3.3298142786
 30
0.0
 10
3.9644639413
 20
3.3291813047
 30
0.0
 10
3.9623369443
 20
3.3280402452
 30
0.0
 10
3.9591539234
 20
3.3266977636
 30
0.0
 10
3.956152224
 20
3.3258457653
 30
0.0
 10
3.9541920516
 20
3.3256234362
 30
0.0
 10
3.9532706649
 20
3.3256234242
 30
0.0
  0
SPLINE
  5
376
100
AcDbEntity
  8
ALL_ASSEMBLY_MEMBERS
100
AcDbSpline
 62
7
  6
CONTINUOUS
 70
0
 71
3
 72
18
 73
14
 74
0
 42
0.0000001
 43
0.0000001
 44
0.0000000001
 40
0.0
 40
0.0
 40
0.0
 40
0.0
 40
0.1217290397
 40
0.2462248187
 40
0.3728937405
 40
0.4368170749
 40
0.5009994747
 40
0.629525906
 40
0.7570115302
 40
0.8197351623
 40
0.8813805033
 40
0.9415899173
 40
1.0
 40
1.0
 40
1.0
 40
1.0
 10
3.986606894
 20
3.3841892951
 30
0.0
 10
3.9866070677
 20
3.3900887641
 30
0.0
 10
3.9866866514
 20
3.4020217536
 30
0.0
 10
3.9869124315
 20
3.4200922101
 30
0.0
 10
3.9870961301
 20
3.435361541
 30
0.0
 10
3.9871999475
 20
3.447708511
 30
0.0
 10
3.9872602269
 20
3.4601457897
 30
0.0
 10
3.9872436345
 20
3.4756638918
 30
0.0
 10
3.9870851002
 20
3.4911104251
 30
0.0
 10
3.9869107145
 20
3.5033150413
 30
0.0
 10
3.9867730428
 20
3.5122593826
 30
0.0
 10
3.9866584014
 20
3.5209949792
 30
0.0
 10
3.9866142803
 20
3.5267436586
 30
0.0
 10
3.9866082682
 20
3.5295744351
 30
0.0
  0
LINE
  5
377
100
AcDbEntity
  8
ALL_ASSEMBLY_MEMBERS
100
AcDbLine
 62
7
  6
CONTINUOUS
 10
3.9866082682
 20
3.5295744351
 11
3.9866067227
 21
3.5307454624
  0
SPLINE
  5
378
100
AcDbEntity
  8
ALL_ASSEMBLY_MEMBERS
100
AcDbSpline
 62
7
  6
CONTINUOUS
 70
0
 71
3
 72
17
 73
13
 74
0
 42
0.0000001
 43
0.0000001
 44
0.0000000001
 40
0.0
 40
0.0
 40
0.0
 40
0.0
 40
0.0580933956
 40
0.1180790546
 40
0.1795766258
 40
0.2422264024
 40
0.3697054245
 40
0.4983579371
 40
0.6266382896
 40
0.7534838207
 40
0.8781425921
 40
1.0
 40
1.0
 40
1.0
 40
1.0
 10
4.361607208
 20
3.5310493989
 30
0.0
 10
4.3616072385
 20
3.5282059401
 30
0.0
 10
4.3615715997
 20
3.5224264078
 30
0.0
 10
4.3614603829
 20
3.5136374848
 30
0.0
 10
4.3613238743
 20
3.5046258784
 30
0.0
 10
4.3611436166
 20
3.4923110146
 30
0.0
 10
4.3609773564
 20
3.4767085696
 30
0.0
 10
4.3609463896
 20
3.4578927693
 30
0.0
 10
4.361072892
 20
3.4391084969
 30
0.0
 10
4.3612965984
 20
3.4205207474
 30
0.0
 10
4.3615250631
 20
3.4022475249
 30
0.0
 10
4.3616071614
 20
3.3901815042
 30
0.0
 10
4.3616071691
 20
3.3842170306
 30
0.0
  0
LINE
  5
379
100
AcDbEntity
  8
ALL_ASSEMBLY_MEMBERS
100
AcDbLine
 62
7
  6
CONTINUOUS
 10
4.1295498746
 20
3.3166483675
 11
4.1741071429
 21
3.3160943633
  0
SPLINE
  5
37A
100
AcDbEntity
  8
ALL_ASSEMBLY_MEMBERS
100
AcDbSpline
 62
7
  6
CONTINUOUS
 70
0
 71
3
 72
31
 73
27
 74
0
 42
0.0000001
 43
0.0000001
 44
0.0000000001
 40
0.0
 40
0.0
 40
0.0
 40
0.0
 40
0.0623018534
 40
0.1248672308
 40
0.1877264705
 40
0.2508733584
 40
0.2825421609
 40
0.3142584561
 40
0.377723548
 40
0.4410735785
 40
0.4726298242
 40
0.5040610183
 40
0.5663987895
 40
0.6280278429
 40
0.6586417877
 40
0.6891604774
 40
0.7196432542
 40
0.7501548931
 40
0.7807573871
 40
0.8115145218
 40
0.8424581175
 40
0.8736123981
 40
0.9049805117
 40
0.9365466747
 40
0.9682600592
 40
1.0
 40
1.0
 40
1.0
 40
1.0
 10
4.261615337
 20
3.3673648135
 30
0.0
 10
4.2638881094
 20
3.3728676484
 30
0.0
 10
4.2680276927
 20
3.38407245
 30
0.0
 10
4.273060215
 20
3.4013053371
 30
0.0
 10
4.2769393546
 20
3.4189168616
 30
0.0
 10
4.2791776776
 20
3.4338308536
 30
0.0
 10
4.2803276109
 20
3.4458701818
 30
0.0
 10
4.2810308004
 20
3.4579743066
 30
0.0
 10
4.2810171084
 20
3.4731416852
 30
0.0
 10
4.2796643645
 20
3.4882407207
 30
0.0
 10
4.2776606572
 20
3.5001520206
 30
0.0
 10
4.2750204962
 20
3.5118390904
 30
0.0
 10
4.2704510227
 20
3.52601301
 30
0.0
 10
4.2639950424
 20
3.5393652892
 30
0.0
 10
4.2576798289
 20
3.5492648572
 30
0.0
 10
4.2523826018
 20
3.556248376
 30
0.0
 10
4.2465207586
 20
3.5627525726
 30
0.0
 10
4.2401111789
 20
3.5687301348
 30
0.0
 10
4.2331806806
 20
3.5741383897
 30
0.0
 10
4.2257606288
 20
3.5789294504
 30
0.0
 10
4.2178982156
 20
3.5830680798
 30
0.0
 10
4.2096445567
 20
3.5865127409
 30
0.0
 10
4.2010620506
 20
3.5892319458
 30
0.0
 10
4.1922209435
 20
3.5911960529
 30
0.0
 10
4.1832072369
 20
3.5923808871
 30
0.0
 10
4.1771402864
 20
3.5926477822
 30
0.0
 10
4.1741071429
 20
3.5926479237
 30
0.0
  0
ELLIPSE
  5
37B
100
AcDbEntity
  8
ALL_ASSEMBLY_MEMBERS
100
AcDbEllipse
 62
7
  6
CONTINUOUS
 10
4.1741071429
 20
4.7107061139
 30
0.0
 11
0.4356620756
 21
0.3097087495
 31
0.0
 40
0.6863174071
 41
-3.9803437747
 42
-3.9676270558
  0
ELLIPSE
  5
37C
100
AcDbEntity
  8
ALL_ASSEMBLY_MEMBERS
100
AcDbEllipse
 62
7
  6
CONTINUOUS
 10
4.1741071429
 20
4.7209686324
 30
0.0
 11
0.4845296417
 21
0.0531218498
 31
0.0
 40
0.2751161207
 41
2.7138845034
 42
2.7266070117
  0
ELLIPSE
  5
37D
100
AcDbEntity
  8
ALL_ASSEMBLY_MEMBERS
100
AcDbEllipse
 62
7
  6
CONTINUOUS
 10
4.1741071429
 20
4.680158946
 30
0.0
 11
0.4845296416
 21
-0.0531218552
 31
0.0
 40
0.2751161442
 41
-2.726607006
 42
-2.7138844977
  0
ELLIPSE
  5
37E
100
AcDbEntity
  8
ALL_ASSEMBLY_MEMBERS
100
AcDbEllipse
 62
7
  6
CONTINUOUS
 10
4.1741071429
 20
4.6904214653
 30
0.0
 11
-0.4356620527
 21
0.3097088087
 31
0.0
 40
0.6863174268
 41
0.8260345095
 42
0.8387512283
  0
ELLIPSE
  5
37F
100
AcDbEntity
  8
ALL_ASSEMBLY_MEMBERS
100
AcDbEllipse
 62
7
  6
CONTINUOUS
 10
4.1741071429
 20
4.7025480279
 30
0.0
 11
-0.2110172983
 21
0.9517381511
 31
0.0
 40
0.4585406789
 41
1.4848993014
 42
1.4925274221
  0
ELLIPSE
  5
380
100
AcDbEntity
  8
ALL_ASSEMBLY_MEMBERS
100
AcDbEllipse
 62
7
  6
CONTINUOUS
 10
4.1741071429
 20
4.7099242172
 30
0.0
 11
-0.1839239125
 21
1.4338152941
 31
0.0
 40
0.3128035903
 41
1.5410292945
 42
1.5461141727
  0
ELLIPSE
  5
381
100
AcDbEntity
  8
ALL_ASSEMBLY_MEMBERS
100
AcDbEllipse
 62
7
  6
CONTINUOUS
 10
4.1741071429
 20
4.6708936311
 30
0.0
 11
0.4841680723
 21
0.069531332
 31
0.0
 40
0.3415053426
 41
2.6695629887
 42
2.6797561081
  0
ELLIPSE
  5
382
100
AcDbEntity
  8
ALL_ASSEMBLY_MEMBERS
100
AcDbEllipse
 62
7
  6
CONTINUOUS
 10
4.1741071429
 20
4.6488034608
 30
0.0
 11
0.4021127937
 21
0.3867250719
 31
0.0
 40
0.7000252448
 41
-4.164805553
 42
-4.15715572
  0
ELLIPSE
  5
383
100
AcDbEntity
  8
ALL_ASSEMBLY_MEMBERS
100
AcDbEllipse
 62
7
  6
CONTINUOUS
 10
4.1741071429
 20
4.6000630107
 30
0.0
 11
0.2001645895
 21
1.0730713555
 31
0.0
 40
0.4114299686
 41
1.5606800957
 42
1.5657826121
  0
ELLIPSE
  5
384
100
AcDbEntity
  8
ALL_ASSEMBLY_MEMBERS
100
AcDbEllipse
 62
7
  6
CONTINUOUS
 10
4.1741071429
 20
4.5068588381
 30
0.0
 11
0.173492527
 21
2.1521377604
 31
0.0
 40
0.2103210759
 41
1.498485551
 42
1.5010376571
  0
ELLIPSE
  5
385
100
AcDbEntity
  8
ALL_ASSEMBLY_MEMBERS
100
AcDbEllipse
 62
7
  6
CONTINUOUS
 10
4.1741071429
 20
4.8942688293
 30
0.0
 11
-0.1734925196
 21
2.1521387659
 31
0.0
 40
0.210320979
 41
-4.6426302942
 42
-4.6400781881
  0
ELLIPSE
  5
386
100
AcDbEntity
  8
ALL_ASSEMBLY_MEMBERS
100
AcDbEllipse
 62
7
  6
CONTINUOUS
 10
4.1741071429
 20
4.8010645478
 30
0.0
 11
-0.2001646079
 21
1.0730711015
 31
0.0
 40
0.4114300582
 41
-4.7073753074
 42
-4.7022727909
  0
ELLIPSE
  5
387
100
AcDbEntity
  8
ALL_ASSEMBLY_MEMBERS
100
AcDbEllipse
 62
7
  6
CONTINUOUS
 10
4.1741071429
 20
4.7523241182
 30
0.0
 11
-0.4021127937
 21
0.3867250719
 31
0.0
 40
0.7000252448
 41
1.0155630664
 42
1.0232128994
  0
ELLIPSE
  5
388
100
AcDbEntity
  8
ALL_ASSEMBLY_MEMBERS
100
AcDbEllipse
 62
7
  6
CONTINUOUS
 10
4.1741071429
 20
4.7302339479
 30
0.0
 11
0.4841680723
 21
-0.069531332
 31
0.0
 40
0.3415053426
 41
-2.6797561081
 42
-2.6695629887
  0
ELLIPSE
  5
389
100
AcDbEntity
  8
ALL_ASSEMBLY_MEMBERS
100
AcDbEllipse
 62
7
  6
CONTINUOUS
 10
4.1741071429
 20
4.7297178585
 30
0.0
 11
0.4841680714
 21
0.0695313633
 31
0.0
 40
0.3415054598
 41
2.7840417005
 42
2.7942212431
  0
ELLIPSE
  5
38A
100
AcDbEntity
  8
ALL_ASSEMBLY_MEMBERS
100
AcDbEllipse
 62
7
  6
CONTINUOUS
 10
4.1741071429
 20
4.7442498287
 30
0.0
 11
0.3546536662
 21
0.4793660332
 31
0.0
 40
0.6893673371
 41
-4.2104130135
 42
-4.2002376741
  0
ELLIPSE
  5
38B
100
AcDbEntity
  8
ALL_ASSEMBLY_MEMBERS
100
AcDbEllipse
 62
7
  6
CONTINUOUS
 10
4.1741071429
 20
4.7605757353
 30
0.0
 11
0.2001647206
 21
1.0730695455
 31
0.0
 40
0.4114306072
 41
-4.6105355829
 42
-4.6054491537
  0
ELLIPSE
  5
38C
100
AcDbEntity
  8
ALL_ASSEMBLY_MEMBERS
100
AcDbEllipse
 62
7
  6
CONTINUOUS
 10
4.1741071429
 20
4.709864094
 30
0.0
 11
-0.200164647
 21
1.0730705612
 31
0.0
 40
0.4114302488
 41
1.4638566668
 42
1.468943096
  0
ELLIPSE
  5
38D
100
AcDbEntity
  8
ALL_ASSEMBLY_MEMBERS
100
AcDbEllipse
 62
7
  6
CONTINUOUS
 10
4.1741071429
 20
4.7261900311
 30
0.0
 11
-0.3546536662
 21
0.4793660332
 31
0.0
 40
0.6893673371
 41
1.0586450205
 42
1.06882036
  0
ELLIPSE
  5
38E
100
AcDbEntity
  8
ALL_ASSEMBLY_MEMBERS
100
AcDbEllipse
 62
7
  6
CONTINUOUS
 10
4.1741071429
 20
4.7407220013
 30
0.0
 11
0.4841680714
 21
-0.0695313633
 31
0.0
 40
0.3415054598
 41
-2.7942212431
 42
-2.7840417005
  0
ELLIPSE
  5
38F
100
AcDbEntity
  8
ALL_ASSEMBLY_MEMBERS
100
AcDbEllipse
 62
7
  6
CONTINUOUS
 10
4.1741071429
 20
4.6914137044
 30
0.0
 11
0.4841680714
 21
0.0695313633
 31
0.0
 40
0.3415054598
 41
2.7840417005
 42
2.7942212431
  0
ELLIPSE
  5
390
100
AcDbEntity
  8
ALL_ASSEMBLY_MEMBERS
100
AcDbEllipse
 62
7
  6
CONTINUOUS
 10
4.1741071429
 20
4.6986796908
 30
0.0
 11
0.4668511673
 21
0.2089255909
 31
0.0
 40
0.6246664746
 41
2.5502781873
 42
2.5604535267
  0
ELLIPSE
  5
391
100
AcDbEntity
  8
ALL_ASSEMBLY_MEMBERS
100
AcDbEllipse
 62
7
  6
CONTINUOUS
 10
4.1741071429
 20
4.7168196112
 30
0.0
 11
0.2110171867
 21
0.9517391668
 31
0.0
 40
0.4585402462
 41
-4.5883562274
 42
-4.5807268405
  0
ELLIPSE
  5
392
100
AcDbEntity
  8
ALL_ASSEMBLY_MEMBERS
100
AcDbEllipse
 62
7
  6
CONTINUOUS
 10
4.1741071429
 20
4.6788359413
 30
0.0
 11
-0.211017168
 21
0.9517393376
 31
0.0
 40
0.4585401734
 41
1.4391342299
 42
1.4467636167
  0
ELLIPSE
  5
393
100
AcDbEntity
  8
ALL_ASSEMBLY_MEMBERS
100
AcDbEllipse
 62
7
  6
CONTINUOUS
 10
4.1741071429
 20
4.6969758668
 30
0.0
 11
0.4668511673
 21
-0.2089255909
 31
0.0
 40
0.6246664746
 41
-2.5604535267
 42
-2.5502781873
  0
ELLIPSE
  5
394
100
AcDbEntity
  8
ALL_ASSEMBLY_MEMBERS
100
AcDbEllipse
 62
7
  6
CONTINUOUS
 10
4.1741071429
 20
4.7042418532
 30
0.0
 11
0.4841680714
 21
-0.0695313633
 31
0.0
 40
0.3415054598
 41
-2.7942212431
 42
-2.7840417005
  0
ELLIPSE
  5
395
100
AcDbEntity
  8
ALL_ASSEMBLY_MEMBERS
100
AcDbEllipse
 62
7
  6
CONTINUOUS
 10
4.1741071429
 20
4.6878558381
 30
0.0
 11
0.4668512029
 21
-0.2089254365
 31
0.0
 40
0.6246663258
 41
-2.6063101801
 42
-2.6012078026
  0
ELLIPSE
  5
396
100
AcDbEntity
  8
ALL_ASSEMBLY_MEMBERS
100
AcDbEllipse
 62
7
  6
CONTINUOUS
 10
4.1741071429
 20
4.6569078059
 30
0.0
 11
-0.2578960711
 21
0.7014332479
 31
0.0
 40
0.5851642007
 41
1.2648458323
 42
1.272503669
  0
ELLIPSE
  5
397
100
AcDbEntity
  8
ALL_ASSEMBLY_MEMBERS
100
AcDbEllipse
 62
7
  6
CONTINUOUS
 10
4.1741071429
 20
4.5895397254
 30
0.0
 11
-0.1839239562
 21
1.4338136914
 31
0.0
 40
0.3128039274
 41
1.4315508783
 42
1.436659149
  0
ELLIPSE
  5
398
100
AcDbEntity
  8
ALL_ASSEMBLY_MEMBERS
100
AcDbEllipse
 62
7
  6
CONTINUOUS
 10
4.1741071429
 20
4.8136627386
 30
0.0
 11
0.3259986888
 21
0.53452672
 31
0.0
 40
0.6711697407
 41
-1.3248817727
 42
-1.3025825674
  0
ELLIPSE
  5
399
100
AcDbEntity
  8
ALL_ASSEMBLY_MEMBERS
100
AcDbEllipse
 62
7
  6
CONTINUOUS
 10
4.1741071429
 20
4.9145842686
 30
0.0
 11
0.1770586083
 21
1.7931568303
 31
0.0
 40
0.2516550235
 41
-4.5935119134
 42
-4.5884036427
  0
ELLIPSE
  5
39A
100
AcDbEntity
  8
ALL_ASSEMBLY_MEMBERS
100
AcDbEllipse
 62
7
  6
CONTINUOUS
 10
4.1741071429
 20
4.8135320539
 30
0.0
 11
0.2578960711
 21
0.7014332479
 31
0.0
 40
0.5851642007
 41
-4.4140963225
 42
-4.4064384859
  0
ELLIPSE
  5
39B
100
AcDbEntity
  8
ALL_ASSEMBLY_MEMBERS
100
AcDbEllipse
 62
7
  6
CONTINUOUS
 10
4.1741071429
 20
4.7887736293
 30
0.0
 11
0.4356621873
 21
0.3097084593
 31
0.0
 40
0.6863173103
 41
-3.8709533301
 42
-3.8582013196
  0
ELLIPSE
  5
39C
100
AcDbEntity
  8
ALL_ASSEMBLY_MEMBERS
100
AcDbEllipse
 62
7
  6
CONTINUOUS
 10
4.1741071429
 20
4.767663222
 30
0.0
 11
0.4845296421
 21
0.0531218233
 31
0.0
 40
0.2751160055
 41
2.8232569308
 42
2.835996958
  0
ELLIPSE
  5
39D
100
AcDbEntity
  8
ALL_ASSEMBLY_MEMBERS
100
AcDbEllipse
 62
7
  6
CONTINUOUS
 10
4.1741071429
 20
4.7711025462
 30
0.0
 11
0.3259987817
 21
0.5345265359
 31
0.0
 40
0.671169814
 41
-1.2507643659
 42
-1.2286210799
  0
ELLIPSE
  5
39E
100
AcDbEntity
  8
ALL_ASSEMBLY_MEMBERS
100
AcDbEllipse
 62
7
  6
CONTINUOUS
 10
4.1741071429
 20
4.6999842306
 30
0.0
 11
0.4630591816
 21
0.2245111552
 31
0.0
 40
0.6386464466
 41
-0.6183052266
 42
-0.6035566623
  0
ELLIPSE
  5
39F
100
AcDbEntity
  8
ALL_ASSEMBLY_MEMBERS
100
AcDbEllipse
 62
7
  6
CONTINUOUS
 10
4.1741071429
 20
4.7113146515
 30
0.0
 11
0.4846322909
 21
0.0448829864
 31
0.0
 40
0.2379966242
 41
-0.3253141803
 42
-0.3105556307
  0
ELLIPSE
  5
3A0
100
AcDbEntity
  8
ALL_ASSEMBLY_MEMBERS
100
AcDbEllipse
 62
7
  6
CONTINUOUS
 10
4.1741071429
 20
4.6898129276
 30
0.0
 11
0.4846322909
 21
-0.0448829864
 31
0.0
 40
0.2379966242
 41
0.3105556307
 42
0.3253141803
  0
ELLIPSE
  5
3A1
100
AcDbEntity
  8
ALL_ASSEMBLY_MEMBERS
100
AcDbEllipse
 62
7
  6
CONTINUOUS
 10
4.1741071429
 20
4.6992549421
 30
0.0
 11
0.4734427814
 21
-0.1768432279
 31
0.0
 40
0.588594106
 41
0.5196885314
 42
0.5307507159
  0
ELLIPSE
  5
3A2
100
AcDbEntity
  8
ALL_ASSEMBLY_MEMBERS
100
AcDbEllipse
 62
7
  6
CONTINUOUS
 10
4.1741071429
 20
4.7221733408
 30
0.0
 11
-0.207495773
 21
0.9858241387
 31
0.0
 40
0.4443956471
 41
-1.6987885097
 42
-1.6914161614
  0
ELLIPSE
  5
3A3
100
AcDbEntity
  8
ALL_ASSEMBLY_MEMBERS
100
AcDbEllipse
 62
7
  6
CONTINUOUS
 10
4.1741071429
 20
4.6650234945
 30
0.0
 11
0.4847035227
 21
0.0351495033
 31
0.0
 40
0.1909698234
 41
-0.2802019056
 42
-0.2617015349
  0
ELLIPSE
  5
3A4
100
AcDbEntity
  8
ALL_ASSEMBLY_MEMBERS
100
AcDbEllipse
 62
7
  6
CONTINUOUS
 10
4.1741071429
 20
4.6450151109
 30
0.0
 11
0.4782981758
 21
0.1456294577
 31
0.0
 40
0.5412725914
 41
-0.4111891223
 42
-0.3926539211
  0
ELLIPSE
  5
3A5
100
AcDbEntity
  8
ALL_ASSEMBLY_MEMBERS
100
AcDbEllipse
 62
7
  6
CONTINUOUS
 10
4.1741071429
 20
4.6016450776
 30
0.0
 11
0.2800134072
 21
0.636735321
 31
0.0
 40
0.6214444929
 41
-1.1842741772
 42
-1.1731335909
  0
ELLIPSE
  5
3A6
100
AcDbEntity
  8
ALL_ASSEMBLY_MEMBERS
100
AcDbEllipse
 62
7
  6
CONTINUOUS
 10
4.1741071429
 20
4.5262635497
 30
0.0
 11
0.190868369
 21
1.2357421379
 31
0.0
 40
0.3605861895
 41
-1.3842710587
 42
-1.3768349866
  0
ELLIPSE
  5
3A7
100
AcDbEntity
  8
ALL_ASSEMBLY_MEMBERS
100
AcDbEllipse
 62
7
  6
CONTINUOUS
 10
4.1741071429
 20
4.874864052
 30
0.0
 11
-0.1908683611
 21
1.2357423122
 31
0.0
 40
0.3605861413
 41
-1.7647576494
 42
-1.7573215773
  0
ELLIPSE
  5
3A8
100
AcDbEntity
  8
ALL_ASSEMBLY_MEMBERS
100
AcDbEllipse
 62
7
  6
CONTINUOUS
 10
4.1741071429
 20
4.7994824939
 30
0.0
 11
-0.2800134331
 21
0.6367352539
 31
0.0
 40
0.6214445296
 41
-1.968459128
 42
-1.9573185418
  0
ELLIPSE
  5
3A9
100
AcDbEntity
  8
ALL_ASSEMBLY_MEMBERS
100
AcDbEllipse
 62
7
  6
CONTINUOUS
 10
4.1741071429
 20
4.7561124644
 30
0.0
 11
0.4782981788
 21
-0.1456294353
 31
0.0
 40
0.541272552
 41
0.3926538838
 42
0.411189085
  0
ELLIPSE
  5
3AA
100
AcDbEntity
  8
ALL_ASSEMBLY_MEMBERS
100
AcDbEllipse
 62
7
  6
CONTINUOUS
 10
4.1741071429
 20
4.7361040825
 30
0.0
 11
0.4847035227
 21
-0.0351495
 31
0.0
 40
0.1909698069
 41
0.2617015324
 42
0.2802019031
  0
ELLIPSE
  5
3AB
100
AcDbEntity
  8
ALL_ASSEMBLY_MEMBERS
100
AcDbEllipse
 62
7
  6
CONTINUOUS
 10
4.1741071429
 20
4.6641076801
 30
0.0
 11
0.484529642
 21
-0.0531218287
 31
0.0
 40
0.275116029
 41
-2.8385463295
 42
-2.8258040739
  0
ELLIPSE
  5
3AC
100
AcDbEntity
  8
ALL_ASSEMBLY_MEMBERS
100
AcDbEllipse
 62
7
  6
CONTINUOUS
 10
4.1741071429
 20
4.6422676654
 30
0.0
 11
-0.4356621459
 21
0.3097085669
 31
0.0
 40
0.6863173461
 41
0.7140568349
 42
0.7268114943
  0
ELLIPSE
  5
3AD
100
AcDbEntity
  8
ALL_ASSEMBLY_MEMBERS
100
AcDbEllipse
 62
7
  6
CONTINUOUS
 10
4.1741071429
 20
4.6167796326
 30
0.0
 11
-0.2578960294
 21
0.701433387
 31
0.0
 40
0.5851641221
 41
1.2622921148
 42
1.2699517446
  0
ELLIPSE
  5
3AE
100
AcDbEntity
  8
ALL_ASSEMBLY_MEMBERS
100
AcDbEllipse
 62
7
  6
CONTINUOUS
 10
4.1741071429
 20
4.5129914974
 30
0.0
 11
-0.1770586193
 21
1.7931559956
 31
0.0
 40
0.2516551382
 41
1.4442558639
 42
1.4493654161
  0
ELLIPSE
  5
3AF
100
AcDbEntity
  8
ALL_ASSEMBLY_MEMBERS
100
AcDbEllipse
 62
7
  6
CONTINUOUS
 10
4.1741071429
 20
4.8826640845
 30
0.0
 11
0.177058616
 21
1.7931562471
 31
0.0
 40
0.2516551037
 41
-4.5909580771
 42
-4.5858485249
  0
ELLIPSE
  5
3B0
100
AcDbEntity
  8
ALL_ASSEMBLY_MEMBERS
100
AcDbEllipse
 62
7
  6
CONTINUOUS
 10
4.1741071429
 20
4.7615778922
 30
0.0
 11
0.3546537589
 21
0.4793658574
 31
0.0
 40
0.6893673822
 41
-4.1543810131
 42
-4.1441693573
  0
ELLIPSE
  5
3B1
100
AcDbEntity
  8
ALL_ASSEMBLY_MEMBERS
100
AcDbEllipse
 62
7
  6
CONTINUOUS
 10
4.1741071429
 20
4.7461038735
 30
0.0
 11
0.4668512029
 21
0.2089254365
 31
0.0
 40
0.6246663258
 41
2.6012078026
 42
2.6063101801
  0
ELLIPSE
  5
3B2
100
AcDbEntity
  8
ALL_ASSEMBLY_MEMBERS
100
AcDbEllipse
 62
7
  6
CONTINUOUS
 10
4.1741071429
 20
4.691017804
 30
0.0
 11
0.4817044942
 21
-0.0691776629
 31
0.0
 40
0.3415058114
 41
-2.7050160301
 42
-2.6947853447
  0
ELLIPSE
  5
3B3
100
AcDbEntity
  8
ALL_ASSEMBLY_MEMBERS
100
AcDbEllipse
 62
7
  6
CONTINUOUS
 10
4.1741071429
 20
4.6586717146
 30
0.0
 11
0.4644757236
 21
-0.2078624458
 31
0.0
 40
0.6246664002
 41
-2.6016242452
 42
-2.5913732513
  0
ELLIPSE
  5
3B4
100
AcDbEntity
  8
ALL_ASSEMBLY_MEMBERS
100
AcDbEllipse
 62
7
  6
CONTINUOUS
 10
4.1741071429
 20
4.6586717146
 30
0.0
 11
0.4668511851
 21
-0.2089255137
 31
0.0
 40
0.6246664002
 41
-2.601207666
 42
-2.5910091369
  0
ELLIPSE
  5
3B5
100
AcDbEntity
  8
ALL_ASSEMBLY_MEMBERS
100
AcDbEllipse
 62
7
  6
CONTINUOUS
 10
4.1741071429
 20
4.6714097212
 30
0.0
 11
0.4817044969
 21
-0.0691775694
 31
0.0
 40
0.3415054598
 41
-2.8149612884
 42
-2.8098396765
  0
ELLIPSE
  5
3B6
100
AcDbEntity
  8
ALL_ASSEMBLY_MEMBERS
100
AcDbEllipse
 62
7
  6
CONTINUOUS
 10
4.1741071429
 20
4.6714097212
 30
0.0
 11
0.4841680714
 21
-0.0695313633
 31
0.0
 40
0.3415054598
 41
-2.8145971741
 42
-2.804406043
  0
ELLIPSE
  5
3B7
100
AcDbEntity
  8
ALL_ASSEMBLY_MEMBERS
100
AcDbEllipse
 62
7
  6
CONTINUOUS
 10
4.1741071429
 20
4.691017804
 30
0.0
 11
0.4841680686
 21
-0.0695314572
 31
0.0
 40
0.3415058114
 41
-2.7052120566
 42
-2.6950335265
  0
ELLIPSE
  5
3B8
100
AcDbEntity
  8
ALL_ASSEMBLY_MEMBERS
100
AcDbEllipse
 62
7
  6
CONTINUOUS
 10
4.1741071429
 20
4.8282547681
 30
0.0
 11
0.3259988447
 21
0.534526411
 31
0.0
 40
0.6711698637
 41
-1.3248813381
 42
-1.3025821329
  0
ELLIPSE
  5
3B9
100
AcDbEntity
  8
ALL_ASSEMBLY_MEMBERS
100
AcDbEllipse
 62
7
  6
CONTINUOUS
 10
4.1741071429
 20
4.8282547681
 30
0.0
 11
0.3243400769
 21
0.5318066001
 31
0.0
 40
0.6711698637
 41
-1.3256157268
 42
-1.3032004624
  0
ELLIPSE
  5
3BA
100
AcDbEntity
  8
ALL_ASSEMBLY_MEMBERS
100
AcDbEllipse
 62
7
  6
CONTINUOUS
 10
4.1741071429
 20
4.7370679641
 30
0.0
 11
0.4820642286
 21
-0.0528514816
 31
0.0
 40
0.2751158134
 41
-2.6982804374
 42
-2.6854723786
  0
ELLIPSE
  5
3BB
100
AcDbEntity
  8
ALL_ASSEMBLY_MEMBERS
100
AcDbEllipse
 62
7
  6
CONTINUOUS
 10
4.1741071429
 20
4.7370679641
 30
0.0
 11
0.4845296428
 21
-0.0531217792
 31
0.0
 40
0.2751158134
 41
-2.6986070031
 42
-2.6858644385
  0
ELLIPSE
  5
3BC
100
AcDbEntity
  8
ALL_ASSEMBLY_MEMBERS
100
AcDbEllipse
 62
7
  6
CONTINUOUS
 10
4.1741071429
 20
4.7590041467
 30
0.0
 11
-0.4334453124
 21
0.30813287
 31
0.0
 40
0.6863174071
 41
0.879885828
 42
0.8927065257
  0
ELLIPSE
  5
3BD
100
AcDbEntity
  8
ALL_ASSEMBLY_MEMBERS
100
AcDbEllipse
 62
7
  6
CONTINUOUS
 10
4.1741071429
 20
4.7590041467
 30
0.0
 11
-0.4356620756
 21
0.3097087495
 31
0.0
 40
0.6863174071
 41
0.879493768
 42
0.8922487784
  0
ELLIPSE
  5
3BE
100
AcDbEntity
  8
ALL_ASSEMBLY_MEMBERS
100
AcDbEllipse
 62
7
  6
CONTINUOUS
 10
4.1741071429
 20
4.8059084522
 30
0.0
 11
-0.2099434945
 21
0.9468962978
 31
0.0
 40
0.4585403189
 41
1.5591997581
 42
1.5668991476
  0
ELLIPSE
  5
3BF
100
AcDbEntity
  8
ALL_ASSEMBLY_MEMBERS
100
AcDbEllipse
 62
7
  6
CONTINUOUS
 10
4.1741071429
 20
4.8059084522
 30
0.0
 11
-0.2110172055
 21
0.951738996
 31
0.0
 40
0.4585403189
 41
1.5587420108
 42
1.5664018812
  0
ELLIPSE
  5
3C0
100
AcDbEntity
  8
ALL_ASSEMBLY_MEMBERS
100
AcDbEllipse
 62
7
  6
CONTINUOUS
 10
4.1741071429
 20
4.7856945928
 30
0.0
 11
0.3259989376
 21
0.5345262269
 31
0.0
 40
0.6711699369
 41
-1.2507639313
 42
-1.2286206453
  0
ELLIPSE
  5
3C1
100
AcDbEntity
  8
ALL_ASSEMBLY_MEMBERS
100
AcDbEllipse
 62
7
  6
CONTINUOUS
 10
4.1741071429
 20
4.7856945928
 30
0.0
 11
0.3243401693
 21
0.5318064169
 31
0.0
 40
0.6711699369
 41
-1.2511147927
 42
-1.2288578778
  0
ELLIPSE
  5
3C2
100
AcDbEntity
  8
ALL_ASSEMBLY_MEMBERS
100
AcDbEllipse
 62
7
  6
CONTINUOUS
 10
4.1741071429
 20
4.710109775
 30
0.0
 11
0.4817044942
 21
0.0691776629
 31
0.0
 40
0.3415058114
 41
8.9779706519
 42
8.9882013373
  0
ELLIPSE
  5
3C3
100
AcDbEntity
  8
ALL_ASSEMBLY_MEMBERS
100
AcDbEllipse
 62
7
  6
CONTINUOUS
 10
4.1741071429
 20
4.7516600332
 30
0.0
 11
0.4820642278
 21
-0.0528515343
 31
0.0
 40
0.2751160439
 41
-2.8133316337
 42
-2.8005427031
  0
ELLIPSE
  5
3C4
100
AcDbEntity
  8
ALL_ASSEMBLY_MEMBERS
100
AcDbEllipse
 62
7
  6
CONTINUOUS
 10
4.1741071429
 20
4.710109775
 30
0.0
 11
0.4841680686
 21
0.0695314572
 31
0.0
 40
0.3415058114
 41
2.6950335265
 42
2.7052120566
  0
ELLIPSE
  5
3C5
100
AcDbEntity
  8
ALL_ASSEMBLY_MEMBERS
100
AcDbEllipse
 62
7
  6
CONTINUOUS
 10
4.1741071429
 20
4.7516600332
 30
0.0
 11
0.484529642
 21
-0.0531218322
 31
0.0
 40
0.2751160439
 41
-2.8130721217
 42
-2.8003483937
  0
ELLIPSE
  5
3C6
100
AcDbEntity
  8
ALL_ASSEMBLY_MEMBERS
100
AcDbEllipse
 62
7
  6
CONTINUOUS
 10
4.1741071429
 20
4.6963696429
 30
0.0
 11
0.3528493905
 21
0.4769263331
 31
0.0
 40
0.6893674814
 41
-4.2792623293
 42
-4.2690356602
  0
ELLIPSE
  5
3C7
100
AcDbEntity
  8
ALL_ASSEMBLY_MEMBERS
100
AcDbEllipse
 62
7
  6
CONTINUOUS
 10
4.1741071429
 20
4.7407640677
 30
0.0
 11
-0.4334454607
 21
0.308132485
 31
0.0
 40
0.686317278
 41
0.7648147469
 42
0.777597438
  0
ELLIPSE
  5
3C8
100
AcDbEntity
  8
ALL_ASSEMBLY_MEMBERS
100
AcDbEllipse
 62
7
  6
CONTINUOUS
 10
4.1741071429
 20
4.7407640677
 30
0.0
 11
-0.4356622246
 21
0.3097083626
 31
0.0
 40
0.686317278
 41
0.7650090563
 42
0.7777266395
  0
ELLIPSE
  5
3C9
100
AcDbEntity
  8
ALL_ASSEMBLY_MEMBERS
100
AcDbEllipse
 62
7
  6
CONTINUOUS
 10
4.1741071429
 20
4.6963696429
 30
0.0
 11
0.3546539631
 21
0.4793654706
 31
0.0
 40
0.6893674814
 41
-4.2790663028
 42
-4.2688917277
  0
ELLIPSE
  5
3CA
100
AcDbEntity
  8
ALL_ASSEMBLY_MEMBERS
100
AcDbEllipse
 62
7
  6
CONTINUOUS
 10
4.1741071429
 20
4.7335161115
 30
0.0
 11
-0.2565838281
 21
0.6978641712
 31
0.0
 40
0.5851642007
 41
1.3334926163
 42
1.3411601046
  0
ELLIPSE
  5
3CB
100
AcDbEntity
  8
ALL_ASSEMBLY_MEMBERS
100
AcDbEllipse
 62
7
  6
CONTINUOUS
 10
4.1741071429
 20
4.8869132007
 30
0.0
 11
-0.176157672
 21
1.7840339535
 31
0.0
 40
0.251654861
 41
-4.6398114528
 42
-4.6346753393
  0
ELLIPSE
  5
3CC
100
AcDbEntity
  8
ALL_ASSEMBLY_MEMBERS
100
AcDbEllipse
 62
7
  6
CONTINUOUS
 10
4.1741071429
 20
4.7335161115
 30
0.0
 11
-0.2578960711
 21
0.7014332479
 31
0.0
 40
0.5851642007
 41
1.3336218178
 42
1.3412502738
  0
ELLIPSE
  5
3CD
100
AcDbEntity
  8
ALL_ASSEMBLY_MEMBERS
100
AcDbEllipse
 62
7
  6
CONTINUOUS
 10
4.1741071429
 20
4.7290290986
 30
0.0
 11
0.4846322902
 21
-0.0448830582
 31
0.0
 40
0.2379969588
 41
0.2735943692
 42
0.2883920801
  0
ELLIPSE
  5
3CE
100
AcDbEntity
  8
ALL_ASSEMBLY_MEMBERS
100
AcDbEllipse
 62
7
  6
CONTINUOUS
 10
4.1741071429
 20
4.7290290986
 30
0.0
 11
0.4821663537
 21
-0.0446546814
 31
0.0
 40
0.2379969588
 41
6.5562793864
 42
6.5711534012
  0
ELLIPSE
  5
3CF
100
AcDbEntity
  8
ALL_ASSEMBLY_MEMBERS
100
AcDbEllipse
 62
7
  6
CONTINUOUS
 10
4.1741071429
 20
4.714544313
 30
0.0
 11
-0.1761576992
 21
1.7840318986
 31
0.0
 40
0.2516551449
 41
1.5282335062
 42
1.533344561
  0
ELLIPSE
  5
3D0
100
AcDbEntity
  8
ALL_ASSEMBLY_MEMBERS
100
AcDbEllipse
 62
7
  6
CONTINUOUS
 10
4.1741071429
 20
4.7491111391
 30
0.0
 11
0.4734427814
 21
-0.1768432279
 31
0.0
 40
0.588594106
 41
0.4568564648
 42
0.4679686539
  0
ELLIPSE
  5
3D1
100
AcDbEntity
  8
ALL_ASSEMBLY_MEMBERS
100
AcDbEllipse
 62
7
  6
CONTINUOUS
 10
4.1741071429
 20
4.7491111391
 30
0.0
 11
0.47103378
 21
-0.175943403
 31
0.0
 40
0.588594106
 41
0.4562987307
 42
0.467468364
  0
ELLIPSE
  5
3D2
100
AcDbEntity
  8
ALL_ASSEMBLY_MEMBERS
100
AcDbEllipse
 62
7
  6
CONTINUOUS
 10
4.1741071429
 20
4.7938351076
 30
0.0
 11
-0.2501318493
 21
0.728790877
 31
0.0
 40
0.569753021
 41
-1.8799443451
 42
-1.8725288025
  0
ELLIPSE
  5
3D3
100
AcDbEntity
  8
ALL_ASSEMBLY_MEMBERS
100
AcDbEllipse
 62
7
  6
CONTINUOUS
 10
4.1741071429
 20
4.7938351076
 30
0.0
 11
-0.2488591127
 21
0.7250825974
 31
0.0
 40
0.569753021
 41
-1.880540491
 42
-1.8730865367
  0
ELLIPSE
  5
3D4
100
AcDbEntity
  8
ALL_ASSEMBLY_MEMBERS
100
AcDbEllipse
 62
7
  6
CONTINUOUS
 10
4.1741071429
 20
4.8798114593
 30
0.0
 11
-0.1826258381
 21
1.484169538
 31
0.0
 40
0.3025481177
 41
-1.7277547305
 42
-1.7240446013
  0
ELLIPSE
  5
3D5
100
AcDbEntity
  8
ALL_ASSEMBLY_MEMBERS
100
AcDbEllipse
 62
7
  6
CONTINUOUS
 10
4.1741071429
 20
4.8798114593
 30
0.0
 11
-0.1816965899
 21
1.4766176932
 31
0.0
 40
0.3025481177
 41
-1.7283701194
 42
-1.7246407472
  0
ELLIPSE
  5
3D6
100
AcDbEntity
  8
ALL_ASSEMBLY_MEMBERS
100
AcDbEllipse
 62
7
  6
CONTINUOUS
 10
4.1741071429
 20
4.5213162013
 30
0.0
 11
0.1826258551
 21
1.4841688429
 31
0.0
 40
0.3025482548
 41
-1.4175480146
 42
-1.4138378854
  0
ELLIPSE
  5
3D7
100
AcDbEntity
  8
ALL_ASSEMBLY_MEMBERS
100
AcDbEllipse
 62
7
  6
CONTINUOUS
 10
4.1741071429
 20
4.5213162013
 30
0.0
 11
0.1816966067
 21
1.4766170017
 31
0.0
 40
0.3025482548
 41
-1.4169518687
 42
-1.4132224965
  0
ELLIPSE
  5
3D8
100
AcDbEntity
  8
ALL_ASSEMBLY_MEMBERS
100
AcDbEllipse
 62
7
  6
CONTINUOUS
 10
4.1741071429
 20
4.6072924527
 30
0.0
 11
0.250131799
 21
0.7287910644
 31
0.0
 40
0.5697529161
 41
-1.269063972
 42
-1.2616484294
  0
ELLIPSE
  5
3D9
100
AcDbEntity
  8
ALL_ASSEMBLY_MEMBERS
100
AcDbEllipse
 62
7
  6
CONTINUOUS
 10
4.1741071429
 20
4.6072924527
 30
0.0
 11
0.2488590627
 21
0.7250827838
 31
0.0
 40
0.5697529161
 41
-1.2685062378
 42
-1.2610522835
  0
ELLIPSE
  5
3DA
100
AcDbEntity
  8
ALL_ASSEMBLY_MEMBERS
100
AcDbEllipse
 62
7
  6
CONTINUOUS
 10
4.1741071429
 20
4.6520164399
 30
0.0
 11
0.4734427814
 21
0.1768432279
 31
0.0
 40
0.588594106
 41
-0.4679686539
 42
-0.4568564648
  0
ELLIPSE
  5
3DB
100
AcDbEntity
  8
ALL_ASSEMBLY_MEMBERS
100
AcDbEllipse
 62
7
  6
CONTINUOUS
 10
4.1741071429
 20
4.6520164399
 30
0.0
 11
0.47103378
 21
0.175943403
 31
0.0
 40
0.588594106
 41
-0.467468364
 42
-0.4562987307
  0
ELLIPSE
  5
3DC
100
AcDbEntity
  8
ALL_ASSEMBLY_MEMBERS
100
AcDbEllipse
 62
7
  6
CONTINUOUS
 10
4.1741071429
 20
4.6720984805
 30
0.0
 11
0.4846322902
 21
0.0448830582
 31
0.0
 40
0.2379969588
 41
-0.2883920801
 42
-0.2735943692
  0
ELLIPSE
  5
3DD
100
AcDbEntity
  8
ALL_ASSEMBLY_MEMBERS
100
AcDbEllipse
 62
7
  6
CONTINUOUS
 10
4.1741071429
 20
4.6720984805
 30
0.0
 11
0.4821663537
 21
0.0446546814
 31
0.0
 40
0.2379969588
 41
-0.287968094
 42
-0.2730940792
  0
ELLIPSE
  5
3DE
100
AcDbEntity
  8
ALL_ASSEMBLY_MEMBERS
100
AcDbEllipse
 62
7
  6
CONTINUOUS
 10
4.1741071429
 20
4.8869132007
 30
0.0
 11
-0.1770585927
 21
1.7931580129
 31
0.0
 40
0.251654861
 41
-4.6403087193
 42
-4.6351990007
  0
ELLIPSE
  5
3DF
100
AcDbEntity
  8
ALL_ASSEMBLY_MEMBERS
100
AcDbEllipse
 62
7
  6
CONTINUOUS
 10
4.1741071429
 20
4.714544313
 30
0.0
 11
-0.17705862
 21
1.7931559474
 31
0.0
 40
0.2516551449
 41
1.5283236754
 42
1.5334087178
  0
ELLIPSE
  5
3E0
100
AcDbEntity
  8
ALL_ASSEMBLY_MEMBERS
100
AcDbEllipse
 62
7
  6
CONTINUOUS
 10
4.1741071429
 20
4.7495716002
 30
0.0
 11
0.182988122
 21
1.4265173665
 31
0.0
 40
0.3128040763
 41
-4.6596770866
 42
-4.6545660318
  0
ELLIPSE
  5
3E1
100
AcDbEntity
  8
ALL_ASSEMBLY_MEMBERS
100
AcDbEllipse
 62
7
  6
CONTINUOUS
 10
4.1741071429
 20
4.7607259846
 30
0.0
 11
0.4817044969
 21
0.0691775694
 31
0.0
 40
0.3415054598
 41
9.0930249837
 42
9.0981465956
  0
ELLIPSE
  5
3E2
100
AcDbEntity
  8
ALL_ASSEMBLY_MEMBERS
100
AcDbEllipse
 62
7
  6
CONTINUOUS
 10
4.1741071429
 20
4.7495716002
 30
0.0
 11
0.1839239755
 21
1.4338129838
 31
0.0
 40
0.3128040763
 41
-4.6597412434
 42
-4.654656201
  0
ELLIPSE
  5
3E3
100
AcDbEntity
  8
ALL_ASSEMBLY_MEMBERS
100
AcDbEllipse
 62
7
  6
CONTINUOUS
 10
4.1741071429
 20
4.7607259846
 30
0.0
 11
0.4841680714
 21
0.0695313633
 31
0.0
 40
0.3415054598
 41
2.804406043
 42
2.8145971741
  0
ELLIPSE
  5
3E4
100
AcDbEntity
  8
ALL_ASSEMBLY_MEMBERS
100
AcDbEllipse
 62
7
  6
CONTINUOUS
 10
4.1741071429
 20
4.7369237484
 30
0.0
 11
0.2565838281
 21
0.6978641712
 31
0.0
 40
0.5851642007
 41
-4.4827527582
 42
-4.4750852699
  0
ELLIPSE
  5
3E5
100
AcDbEntity
  8
ALL_ASSEMBLY_MEMBERS
100
AcDbEllipse
 62
7
  6
CONTINUOUS
 10
4.1741071429
 20
4.7369237484
 30
0.0
 11
0.2578960711
 21
0.7014332479
 31
0.0
 40
0.5851642007
 41
-4.4828429274
 42
-4.4752144714
  0
ELLIPSE
  5
3E6
100
AcDbEntity
  8
ALL_ASSEMBLY_MEMBERS
100
AcDbEllipse
 62
7
  6
CONTINUOUS
 10
4.1741071429
 20
4.7002852615
 30
0.0
 11
-0.207495773
 21
0.9858241387
 31
0.0
 40
0.4443956471
 41
-1.6766755349
 42
-1.6693064443
  0
ELLIPSE
  5
3E7
100
AcDbEntity
  8
ALL_ASSEMBLY_MEMBERS
100
AcDbEllipse
 62
7
  6
CONTINUOUS
 10
4.1741071429
 20
4.7002852615
 30
0.0
 11
-0.2064399799
 21
0.9808080064
 31
0.0
 40
0.4443956471
 41
-1.676740052
 42
-1.6693332706
  0
ELLIPSE
  5
3E8
100
AcDbEntity
  8
ALL_ASSEMBLY_MEMBERS
100
AcDbEllipse
 62
7
  6
CONTINUOUS
 10
4.1741071429
 20
4.6961220901
 30
0.0
 11
-0.2800134072
 21
0.636735321
 31
0.0
 40
0.6214444929
 41
-1.8612406191
 42
-1.8501855787
  0
ELLIPSE
  5
3E9
100
AcDbEntity
  8
ALL_ASSEMBLY_MEMBERS
100
AcDbEllipse
 62
7
  6
CONTINUOUS
 10
4.1741071429
 20
4.6961220901
 30
0.0
 11
-0.2785886254
 21
0.6334954443
 31
0.0
 40
0.6214444929
 41
-1.8613616941
 42
-1.8502500958
  0
ELLIPSE
  5
3EA
100
AcDbEntity
  8
ALL_ASSEMBLY_MEMBERS
100
AcDbEllipse
 62
7
  6
CONTINUOUS
 10
4.1741071429
 20
4.6875297828
 30
0.0
 11
0.4782981758
 21
-0.1456294577
 31
0.0
 40
0.5412725914
 41
0.4702996175
 42
0.4887317785
  0
ELLIPSE
  5
3EB
100
AcDbEntity
  8
ALL_ASSEMBLY_MEMBERS
100
AcDbEllipse
 62
7
  6
CONTINUOUS
 10
4.1741071429
 20
4.6875297828
 30
0.0
 11
0.475864469
 21
-0.1448884567
 31
0.0
 40
0.5412725914
 41
0.4700841696
 42
0.4886107035
  0
ELLIPSE
  5
3EC
100
AcDbEntity
  8
ALL_ASSEMBLY_MEMBERS
100
AcDbEllipse
 62
7
  6
CONTINUOUS
 10
4.1741071429
 20
4.679195047
 30
0.0
 11
0.4847035229
 21
-0.0351494601
 31
0.0
 40
0.1909696071
 41
0.3023654898
 42
0.3208119973
  0
ELLIPSE
  5
3ED
100
AcDbEntity
  8
ALL_ASSEMBLY_MEMBERS
100
AcDbEllipse
 62
7
  6
CONTINUOUS
 10
4.1741071429
 20
4.679195047
 30
0.0
 11
0.482237224
 21
-0.0349706104
 31
0.0
 40
0.1909696071
 41
0.3020554476
 42
0.3205965494
  0
ELLIPSE
  5
3EE
100
AcDbEntity
  8
ALL_ASSEMBLY_MEMBERS
100
AcDbEllipse
 62
7
  6
CONTINUOUS
 10
4.1741071429
 20
4.7862019954
 30
0.0
 11
0.3528491689
 21
0.4769267529
 31
0.0
 40
0.6893673732
 41
-4.1693178615
 42
-4.1590668675
  0
ELLIPSE
  5
3EF
100
AcDbEntity
  8
ALL_ASSEMBLY_MEMBERS
100
AcDbEllipse
 62
7
  6
CONTINUOUS
 10
4.1741071429
 20
4.7278638014
 30
0.0
 11
0.4644757768
 21
0.2078622154
 31
0.0
 40
0.6246661769
 41
2.545321506
 42
2.5504339689
  0
ELLIPSE
  5
3F0
100
AcDbEntity
  8
ALL_ASSEMBLY_MEMBERS
100
AcDbEllipse
 62
7
  6
CONTINUOUS
 10
4.1741071429
 20
4.7278638014
 30
0.0
 11
0.4668512386
 21
0.2089252821
 31
0.0
 40
0.6246661769
 41
2.5451923044
 42
2.5502787336
  0
ELLIPSE
  5
3F1
100
AcDbEntity
  8
ALL_ASSEMBLY_MEMBERS
100
AcDbEllipse
 62
7
  6
CONTINUOUS
 10
4.1741071429
 20
4.7862019954
 30
0.0
 11
0.3546537404
 21
0.4793658925
 31
0.0
 40
0.6893673732
 41
-4.1696819759
 42
-4.1594834467
  0
ELLIPSE
  5
3F2
100
AcDbEntity
  8
ALL_ASSEMBLY_MEMBERS
100
AcDbEllipse
 62
7
  6
CONTINUOUS
 10
4.1741071429
 20
4.7060959103
 30
0.0
 11
0.4644757768
 21
-0.2078622154
 31
0.0
 40
0.6246661769
 41
-2.5504339689
 42
-2.545321506
  0
ELLIPSE
  5
3F3
100
AcDbEntity
  8
ALL_ASSEMBLY_MEMBERS
100
AcDbEllipse
 62
7
  6
CONTINUOUS
 10
4.1741071429
 20
4.7060959103
 30
0.0
 11
0.4668512386
 21
-0.2089252821
 31
0.0
 40
0.6246661769
 41
-2.5502787336
 42
-2.5451923044
  0
ELLIPSE
  5
3F4
100
AcDbEntity
  8
ALL_ASSEMBLY_MEMBERS
100
AcDbEllipse
 62
7
  6
CONTINUOUS
 10
4.1741071429
 20
4.7015659314
 30
0.0
 11
-0.3528490951
 21
0.4769268928
 31
0.0
 40
0.6893673371
 41
1.0737775876
 42
1.0840006492
  0
ELLIPSE
  5
3F5
100
AcDbEntity
  8
ALL_ASSEMBLY_MEMBERS
100
AcDbEllipse
 62
7
  6
CONTINUOUS
 10
4.1741071429
 20
4.7015659314
 30
0.0
 11
-0.3546536662
 21
0.4793660332
 31
0.0
 40
0.6893673371
 41
1.0739067891
 42
1.0840778115
  0
ELLIPSE
  5
3F6
100
AcDbEntity
  8
ALL_ASSEMBLY_MEMBERS
100
AcDbEllipse
 62
7
  6
CONTINUOUS
 10
4.1741071429
 20
4.8298880958
 30
0.0
 11
0.1991461286
 21
1.0676108832
 31
0.0
 40
0.4114301116
 41
-4.5541034629
 42
-4.5489748047
  0
ELLIPSE
  5
3F7
100
AcDbEntity
  8
ALL_ASSEMBLY_MEMBERS
100
AcDbEllipse
 62
7
  6
CONTINUOUS
 10
4.1741071429
 20
4.6826241863
 30
0.0
 11
-0.1761577058
 21
1.7840313981
 31
0.0
 40
0.251655214
 41
1.5307890648
 42
1.5358999382
  0
ELLIPSE
  5
3F8
100
AcDbEntity
  8
ALL_ASSEMBLY_MEMBERS
100
AcDbEllipse
 62
7
  6
CONTINUOUS
 10
4.1741071429
 20
4.8298880958
 30
0.0
 11
0.2001646188
 21
1.0730709503
 31
0.0
 40
0.4114301116
 41
-4.5545200421
 42
-4.5494176646
  0
ELLIPSE
  5
3F9
100
AcDbEntity
  8
ALL_ASSEMBLY_MEMBERS
100
AcDbEllipse
 62
7
  6
CONTINUOUS
 10
4.1741071429
 20
4.6826241863
 30
0.0
 11
-0.1770586266
 21
1.7931554444
 31
0.0
 40
0.251655214
 41
1.530866227
 42
1.5359510908
  0
ELLIPSE
  5
3FA
100
AcDbEntity
  8
ALL_ASSEMBLY_MEMBERS
100
AcDbEllipse
 62
7
  6
CONTINUOUS
 10
4.1741071429
 20
4.7130313675
 30
0.0
 11
0.1761577091
 21
1.7840311479
 31
0.0
 40
0.2516552486
 41
1.6056927228
 42
1.6108035962
  0
ELLIPSE
  5
3FB
100
AcDbEntity
  8
ALL_ASSEMBLY_MEMBERS
100
AcDbEllipse
 62
7
  6
CONTINUOUS
 10
4.1741071429
 20
4.7130313675
 30
0.0
 11
0.1770586299
 21
1.7931551929
 31
0.0
 40
0.2516552486
 41
-4.677543737
 42
-4.6724588732
  0
ELLIPSE
  5
3FC
100
AcDbEntity
  8
ALL_ASSEMBLY_MEMBERS
100
AcDbEllipse
 62
7
  6
CONTINUOUS
 10
4.1741071429
 20
4.6967955901
 30
0.0
 11
0.2565838006
 21
0.6978642627
 31
0.0
 40
0.5851641487
 41
-4.4853083988
 42
-4.4776413078
  0
ELLIPSE
  5
3FD
100
AcDbEntity
  8
ALL_ASSEMBLY_MEMBERS
100
AcDbEllipse
 62
7
  6
CONTINUOUS
 10
4.1741071429
 20
4.6967955901
 30
0.0
 11
0.2578960435
 21
0.70143334
 31
0.0
 40
0.5851641487
 41
-4.485385561
 42
-4.4777574963
  0
ELLIPSE
  5
3FE
100
AcDbEntity
  8
ALL_ASSEMBLY_MEMBERS
100
AcDbEllipse
 62
7
  6
CONTINUOUS
 10
4.1741071429
 20
4.7219325313
 30
0.0
 11
0.4847035229
 21
0.0351494568
 31
0.0
 40
0.1909695906
 41
-0.3208119948
 42
-0.3023654873
  0
ELLIPSE
  5
3FF
100
AcDbEntity
  8
ALL_ASSEMBLY_MEMBERS
100
AcDbEllipse
 62
7
  6
CONTINUOUS
 10
4.1741071429
 20
4.7219325313
 30
0.0
 11
0.482237224
 21
0.0349706071
 31
0.0
 40
0.1909695906
 41
-0.3205965469
 42
-0.3020554451
  0
ELLIPSE
  5
400
100
AcDbEntity
  8
ALL_ASSEMBLY_MEMBERS
100
AcDbEllipse
 62
7
  6
CONTINUOUS
 10
4.1741071429
 20
4.7135977963
 30
0.0
 11
0.4782981788
 21
0.1456294353
 31
0.0
 40
0.541272552
 41
-0.4887317412
 42
-0.4702995801
  0
ELLIPSE
  5
401
100
AcDbEntity
  8
ALL_ASSEMBLY_MEMBERS
100
AcDbEllipse
 62
7
  6
CONTINUOUS
 10
4.1741071429
 20
4.7135977963
 30
0.0
 11
0.4758644719
 21
0.1448884344
 31
0.0
 40
0.541272552
 41
-0.4732157386
 42
-0.4700841322
  0
ELLIPSE
  5
402
100
AcDbEntity
  8
ALL_ASSEMBLY_MEMBERS
100
AcDbEllipse
 62
7
  6
CONTINUOUS
 10
4.1741071429
 20
4.6902772408
 30
0.0
 11
0.4334452897
 21
0.3081329288
 31
0.0
 40
0.6863174268
 41
-3.9217468707
 42
-3.9089651839
  0
ELLIPSE
  5
403
100
AcDbEntity
  8
ALL_ASSEMBLY_MEMBERS
100
AcDbEllipse
 62
7
  6
CONTINUOUS
 10
4.1741071429
 20
4.6902772408
 30
0.0
 11
0.4356620527
 21
0.3097088087
 31
0.0
 40
0.6863174268
 41
-3.9218630593
 42
-3.9091464651
  0
ELLIPSE
  5
404
100
AcDbEntity
  8
ALL_ASSEMBLY_MEMBERS
100
AcDbEllipse
 62
7
  6
CONTINUOUS
 10
4.1741071429
 20
4.6405518457
 30
0.0
 11
-0.1991462019
 21
1.0676098726
 31
0.0
 40
0.41143047
 41
1.4073819844
 42
1.4125106426
  0
ELLIPSE
  5
405
100
AcDbEntity
  8
ALL_ASSEMBLY_MEMBERS
100
AcDbEllipse
 62
7
  6
CONTINUOUS
 10
4.1741071429
 20
4.6405518457
 30
0.0
 11
-0.2001646924
 21
1.0730699345
 31
0.0
 40
0.41143047
 41
1.4078248443
 42
1.4129272218
  0
ELLIPSE
  5
406
100
AcDbEntity
  8
ALL_ASSEMBLY_MEMBERS
100
AcDbEllipse
 62
7
  6
CONTINUOUS
 10
4.1741071429
 20
4.6801108683
 30
0.0
 11
0.482064228
 21
0.0528515221
 31
0.0
 40
0.2751159905
 41
2.797985741
 42
2.8107732586
  0
ELLIPSE
  5
407
100
AcDbEntity
  8
ALL_ASSEMBLY_MEMBERS
100
AcDbEllipse
 62
7
  6
CONTINUOUS
 10
4.1741071429
 20
4.6801108683
 30
0.0
 11
0.4845296422
 21
0.0531218199
 31
0.0
 40
0.2751159905
 41
2.7978044598
 42
2.8105267963
  0
ELLIPSE
  5
408
100
AcDbEntity
  8
ALL_ASSEMBLY_MEMBERS
100
AcDbEllipse
 62
7
  6
CONTINUOUS
 10
4.1741071429
 20
4.5142144026
 30
0.0
 11
0.1761576753
 21
1.7840337033
 31
0.0
 40
0.2516548955
 41
1.4930826931
 42
1.4982188066
  0
ELLIPSE
  5
409
100
AcDbEntity
  8
ALL_ASSEMBLY_MEMBERS
100
AcDbEllipse
 62
7
  6
CONTINUOUS
 10
4.1741071429
 20
4.6842378644
 30
0.0
 11
-0.3528491689
 21
0.4769267529
 31
0.0
 40
0.6893673732
 41
1.017474214
 42
1.0277252079
  0
ELLIPSE
  5
40A
100
AcDbEntity
  8
ALL_ASSEMBLY_MEMBERS
100
AcDbEllipse
 62
7
  6
CONTINUOUS
 10
4.1741071429
 20
4.6842378644
 30
0.0
 11
-0.3546537404
 21
0.4793658925
 31
0.0
 40
0.6893673732
 41
1.0178907931
 42
1.0280893223
  0
ELLIPSE
  5
40B
100
AcDbEntity
  8
ALL_ASSEMBLY_MEMBERS
100
AcDbEllipse
 62
7
  6
CONTINUOUS
 10
4.1741071429
 20
4.7097138753
 30
0.0
 11
0.4817044969
 21
-0.0691775694
 31
0.0
 40
0.3415054598
 41
-2.8149612884
 42
-2.8098396765
  0
ELLIPSE
  5
40C
100
AcDbEntity
  8
ALL_ASSEMBLY_MEMBERS
100
AcDbEllipse
 62
7
  6
CONTINUOUS
 10
4.1741071429
 20
4.5142144026
 30
0.0
 11
0.177058596
 21
1.7931577614
 31
0.0
 40
0.2516548955
 41
1.4936063544
 42
1.498716073
  0
ELLIPSE
  5
40D
100
AcDbEntity
  8
ALL_ASSEMBLY_MEMBERS
100
AcDbEllipse
 62
7
  6
CONTINUOUS
 10
4.1741071429
 20
4.7097138753
 30
0.0
 11
0.4841680714
 21
-0.0695313633
 31
0.0
 40
0.3415054598
 41
-2.8145971741
 42
-2.804406043
  0
ELLIPSE
  5
40E
100
AcDbEntity
  8
ALL_ASSEMBLY_MEMBERS
100
AcDbEllipse
 62
7
  6
CONTINUOUS
 10
4.1741071429
 20
4.5952191187
 30
0.0
 11
0.2099434851
 21
0.9468963828
 31
0.0
 40
0.4585402825
 41
-4.7084918227
 42
-4.7007924332
  0
ELLIPSE
  5
40F
100
AcDbEntity
  8
ALL_ASSEMBLY_MEMBERS
100
AcDbEllipse
 62
7
  6
CONTINUOUS
 10
4.1741071429
 20
4.5952191187
 30
0.0
 11
0.2110171961
 21
0.9517390814
 31
0.0
 40
0.4585402825
 41
-4.7079945563
 42
-4.7003346858
  0
ELLIPSE
  5
410
100
AcDbEntity
  8
ALL_ASSEMBLY_MEMBERS
100
AcDbEllipse
 62
7
  6
CONTINUOUS
 10
4.1741071429
 20
4.6421234283
 30
0.0
 11
0.4334452897
 21
0.3081329288
 31
0.0
 40
0.6863174268
 41
-4.0342992866
 42
-4.0214785888
  0
ELLIPSE
  5
411
100
AcDbEntity
  8
ALL_ASSEMBLY_MEMBERS
100
AcDbEllipse
 62
7
  6
CONTINUOUS
 10
4.1741071429
 20
4.6421234283
 30
0.0
 11
0.4356620527
 21
0.3097088087
 31
0.0
 40
0.6863174268
 41
-4.0338415392
 42
-4.0210865289
  0
ELLIPSE
  5
412
100
AcDbEntity
  8
ALL_ASSEMBLY_MEMBERS
100
AcDbEllipse
 62
7
  6
CONTINUOUS
 10
4.1741071429
 20
4.6640596129
 30
0.0
 11
0.4820642285
 21
0.052851487
 31
0.0
 40
0.2751158369
 41
2.6854723729
 42
2.6982804317
  0
ELLIPSE
  5
413
100
AcDbEntity
  8
ALL_ASSEMBLY_MEMBERS
100
AcDbEllipse
 62
7
  6
CONTINUOUS
 10
4.1741071429
 20
4.6640596129
 30
0.0
 11
0.4845296427
 21
0.0531217846
 31
0.0
 40
0.2751158369
 41
2.6858644329
 42
2.6986069975
  0
ELLIPSE
  5
414
100
AcDbEntity
  8
ALL_ASSEMBLY_MEMBERS
100
AcDbEllipse
 62
7
  6
CONTINUOUS
 10
4.1741071429
 20
4.7242458364
 30
0.0
 11
0.4817044969
 21
0.0691775694
 31
0.0
 40
0.3415054598
 41
9.0930249837
 42
9.0981465956
  0
ELLIPSE
  5
415
100
AcDbEntity
  8
ALL_ASSEMBLY_MEMBERS
100
AcDbEllipse
 62
7
  6
CONTINUOUS
 10
4.1741071429
 20
4.7318122123
 30
0.0
 11
-0.182988171
 21
1.4265155693
 31
0.0
 40
0.3128044563
 41
1.5564159305
 42
1.5615284492
  0
ELLIPSE
  5
416
100
AcDbEntity
  8
ALL_ASSEMBLY_MEMBERS
100
AcDbEllipse
 62
7
  6
CONTINUOUS
 10
4.1741071429
 20
4.7242458364
 30
0.0
 11
0.4841680714
 21
0.0695313633
 31
0.0
 40
0.3415054598
 41
2.804406043
 42
2.8145971741
  0
ELLIPSE
  5
417
100
AcDbEntity
  8
ALL_ASSEMBLY_MEMBERS
100
AcDbEllipse
 62
7
  6
CONTINUOUS
 10
4.1741071429
 20
4.7318122123
 30
0.0
 11
-0.1839240248
 21
1.4338111775
 31
0.0
 40
0.3128044563
 41
1.556285014
 42
1.5613714981
  0
ELLIPSE
  5
418
100
AcDbEntity
  8
ALL_ASSEMBLY_MEMBERS
100
AcDbEllipse
 62
7
  6
CONTINUOUS
 10
4.1741071429
 20
4.736983843
 30
0.0
 11
0.4644757236
 21
0.2078624458
 31
0.0
 40
0.6246664002
 41
2.5913732513
 42
2.6016242452
  0
ELLIPSE
  5
419
100
AcDbEntity
  8
ALL_ASSEMBLY_MEMBERS
100
AcDbEllipse
 62
7
  6
CONTINUOUS
 10
4.1741071429
 20
4.736983843
 30
0.0
 11
0.4668511851
 21
0.2089255137
 31
0.0
 40
0.6246664002
 41
2.5910091369
 42
2.601207666
  0
ELLIPSE
  5
41A
100
AcDbEntity
  8
ALL_ASSEMBLY_MEMBERS
100
AcDbEllipse
 62
7
  6
CONTINUOUS
 10
4.1741071429
 20
4.7855238944
 30
0.0
 11
0.2099434699
 21
0.946896522
 31
0.0
 40
0.4585402229
 41
-4.5293809328
 42
-4.5216870953
  0
ELLIPSE
  5
41B
100
AcDbEntity
  8
ALL_ASSEMBLY_MEMBERS
100
AcDbEllipse
 62
7
  6
CONTINUOUS
 10
4.1741071429
 20
4.7855238944
 30
0.0
 11
0.2110171808
 21
0.9517392213
 31
0.0
 40
0.4585402229
 41
-4.529797512
 42
-4.5221431086
  0
ELLIPSE
  5
41C
100
AcDbEntity
  8
ALL_ASSEMBLY_MEMBERS
100
AcDbEllipse
 62
7
  6
CONTINUOUS
 10
4.1741071429
 20
4.7024679212
 30
0.0
 11
-0.4000667381
 21
0.3847573131
 31
0.0
 40
0.7000252448
 41
0.972439552
 42
0.9801098693
  0
ELLIPSE
  5
41D
100
AcDbEntity
  8
ALL_ASSEMBLY_MEMBERS
100
AcDbEllipse
 62
7
  6
CONTINUOUS
 10
4.1741071429
 20
4.6101316768
 30
0.0
 11
-0.2099434885
 21
0.9468963521
 31
0.0
 40
0.4585402957
 41
1.3800943987
 42
1.3877882363
  0
ELLIPSE
  5
41E
100
AcDbEntity
  8
ALL_ASSEMBLY_MEMBERS
100
AcDbEllipse
 62
7
  6
CONTINUOUS
 10
4.1741071429
 20
4.7024679212
 30
0.0
 11
-0.4021127937
 21
0.3867250719
 31
0.0
 40
0.7000252448
 41
0.9722826009
 42
0.9799138428
  0
ELLIPSE
  5
41F
100
AcDbEntity
  8
ALL_ASSEMBLY_MEMBERS
100
AcDbEllipse
 62
7
  6
CONTINUOUS
 10
4.1741071429
 20
4.6101316768
 30
0.0
 11
-0.2110171995
 21
0.9517390505
 31
0.0
 40
0.4585402957
 41
1.380550412
 42
1.3882048155
  0
ENDSEC
  0
SECTION
  2
OBJECTS
  0
DICTIONARY
  5
C
100
AcDbDictionary
280
0
281
1
  3
ACAD_GROUP
350
D
  3
ACAD_MLINESTYLE
350
17
  3
ACAD_LAYOUT
350
1A
  3
ACAD_PLOTSETTINGS
350
19
  3
ACAD_PLOTSTYLENAME
350
E
  0
DICTIONARY
  5
D
102
{ACAD_REACTORS
330
C
102
}
100
AcDbDictionary
280
0
281
1
  0
ACDBDICTIONARYWDFLT
  5
E
102
{ACAD_REACTORS
330
C
102
}
100
AcDbDictionary
281
1
  3
Normal
350
F
100
AcDbDictionaryWithDefault
340
F
  0
DICTIONARY
  5
17
102
{ACAD_REACTORS
330
C
102
}
100
AcDbDictionary
280
0
281
1
  3
Standard
350
18
  0
DICTIONARY
  5
19
102
{ACAD_REACTORS
330
C
102
}
100
AcDbDictionary
281
1
  0
DICTIONARY
  5
1A
102
{ACAD_REACTORS
330
C
102
}
100
AcDbDictionary
281
1
  3
Model
350
420
  3
Layout1
350
421
  0
ACDBPLACEHOLDER
  5
F
102
{ACAD_REACTORS
330
E
102
}
  0
MLINESTYLE
  5
18
102
{ACAD_REACTORS
330
17
102
}
100
AcDbMlineStyle
  2
STANDARD
 70
0
  3

 62
256
 51
90.0
 52
90.0
 71
2
 49
0.5
 62
256
  6
BYLAYER
 49
-0.5
 62
256
  6
BYLAYER
  0
LAYOUT
  5
420
102
{ACAD_REACTORS
330
1A
102
}
100
AcDbPlotSettings
  1

  2
none_device
  4
ANSI_A_(11.00_x_8.50_Inches)
  6

 40
0.0
 41
0.0
 42
0.0
 43
0.0
 44
279.4
 45
215.9
 46
0.0
 47
0.0
 48
0.0
 49
0.0
140
0.0
141
0.0
142
1.0
143
1.0
 70
1024
 72
0
 73
0
 74
0
  7

 75
0
147
1.0
148
0.0
149
0.0
100
AcDbLayout
  1
Model
 70
0
 71
0
 10
0.0
 20
0.0
 11
11.0
 21
8.5
 12
0.0
 22
0.0
 32
0.0
 14
0.0
 24
0.0
 34
0.0
 15
0.0
 25
0.0
 35
0.0
146
0.0
 13
0.0
 23
0.0
 33
0.0
 16
1.0
 26
0.0
 36
0.0
 17
0.0
 27
1.0
 37
0.0
 76
0
330
21D
345
0
346
0
  0
LAYOUT
  5
421
102
{ACAD_REACTORS
330
1A
102
}
100
AcDbPlotSettings
  1

  2
none_device
  4
ANSI_A_(11.00_x_8.50_Inches)
  6

 40
0.0
 41
0.0
 42
0.0
 43
0.0
 44
279.4
 45
215.9
 46
0.0
 47
0.0
 48
0.0
 49
0.0
140
0.0
141
0.0
142
1.0
143
1.0
 70
0
 72
0
 73
0
 74
0
  7

 75
0
147
1.0
148
0.0
149
0.0
100
AcDbLayout
  1
Layout1
 70
0
 71
1
 10
0.0
 20
0.0
 11
11.0
 21
8.5
 12
0.0
 22
0.0
 32
0.0
 14
0.0
 24
0.0
 34
0.0
 15
0.0
 25
0.0
 35
0.0
146
0.0
 13
0.0
 23
0.0
 33
0.0
 16
1.0
 26
0.0
 36
0.0
 17
0.0
 27
1.0
 37
0.0
 76
0
330
21E
345
0
346
0
  0
ENDSEC
  0
EOF
