999
DXF file: E:\BT Custom\CADOUTPUT\_RIGHT.dxf
999
Pro/ENGINEER 2018400 by Parametric Technology Corporation
  0
SECTION
  2
HEADER
  9
$ACADVER
  1
AC1018
  9
$DWGCODEPAGE
  3
ANSI_1252
  9
$EXTMAX
 10
22.0
 20
17.0
 30
0.0
  9
$EXTMIN
 10
0.0
 20
0.0
 30
0.0
  9
$LIMMIN
 10
0.0
 20
0.0
  9
$LIMMAX
 10
22.0
 20
17.0
  9
$VIEWCTR
 10
11.0
 20
8.5
  9
$VIEWSIZE
 40
17.0
  9
$CLAYER
  8
0
  9
$LTSCALE
 40
1.21
  9
$CELTYPE
  6
BYLAYER
  9
$DIMSCALE
 40
1.0
  9
$DIMASZ
 40
0.1
  9
$DIMEXO
 40
0.0625
  9
$DIMDLI
 40
0.836
  9
$DIMEXE
 40
0.125
  9
$DIMCEN
 40
0.198
  9
$DIMLFAC
 40
1.0
  9
$DIMBLK
  1
_FILLED
  9
$DIMALT
 70
1
  9
$DIMALTD
 70
2
  9
$DIMALTTD
 70
2
  9
$DIMALTF
 40
25.4
  9
$DIMTXT
 40
0.08
  9
$DIMTOL
 70
1
  9
$DIMLIM
 70
0
  9
$DIMTFAC
 40
1.0
  9
$DIMTP
 40
0.001
  9
$DIMTM
 40
0.001
  9
$DIMGAP
 40
0.09
  9
$DIMDSEP
 70
46
  9
$AUNITS
 70
0
  9
$PDMODE
 70
3
  9
$PDSIZE
 40
0.06
  9
$HANDSEED
  5
36C
  9
$TILEMODE
 70
1
  9
$MEASUREMENT
 70
0
  9
$INSUNITS
 70
1
  0
ENDSEC
  0
SECTION
  2
CLASSES
  0
CLASS
  1
ACDBDICTIONARYWDFLT
  2
AcDbDictionaryWithDefault
  3
AutoCAD 2000
 90
0
 91
1
280
0
281
0
  0
CLASS
  1
ACDBPLACEHOLDER
  2
AcDbPlaceHolder
  3
AutoCAD 2000
 90
0
 91
1
280
0
281
0
  0
CLASS
  1
LAYOUT
  2
AcDbLayout
  3
AutoCAD 2000
 90
0
 91
0
280
0
281
0
  0
ENDSEC
  0
SECTION
  2
TABLES
  0
TABLE
  2
VPORT
  5
8
100
AcDbSymbolTable
 70
2
  0
VPORT
  5
1F4
100
AcDbSymbolTableRecord
100
AcDbViewportTableRecord
  2
*ACTIVE
 70
0
 10
0.0
 20
0.0
 11
1.0
 21
1.0
 12
11.0
 22
8.5
 13
0.0
 23
0.0
 14
1.0
 24
1.0
 15
0.0
 25
0.0
 16
0.0
 26
0.0
 36
1.0
 17
0.0
 27
0.0
 37
0.0
 40
17.0
 41
1.2941176471
 42
50.0
 43
0.0
 44
0.0
 50
0.0
 51
0.0
 71
0
 72
100
 73
1
 74
1
 75
0
 76
0
 77
0
 78
0
  0
ENDTAB
  0
TABLE
  2
LTYPE
  5
5
100
AcDbSymbolTable
 70
6
  0
LTYPE
  5
14
100
AcDbSymbolTableRecord
100
AcDbLinetypeTableRecord
  2
BYBLOCK
 70
0
  3

 72
65
 73
0
 40
0.0
  0
LTYPE
  5
15
100
AcDbSymbolTableRecord
100
AcDbLinetypeTableRecord
  2
BYLAYER
 70
0
  3

 72
65
 73
0
 40
0.0
  0
LTYPE
  5
16
100
AcDbSymbolTableRecord
100
AcDbLinetypeTableRecord
  2
CONTINUOUS
 70
64
  3
Solid line
 72
65
 73
0
 40
0.0
  0
LTYPE
  5
1F5
100
AcDbSymbolTableRecord
100
AcDbLinetypeTableRecord
  2
CENTER
 70
64
  3
____ _ ____ _ ____ _ ____ _ ____ _ ____ _ ____
 72
65
 73
4
 40
0.6
 49
0.375
 74
0
 49
-0.075
 74
0
 49
0.075
 74
0
 49
-0.075
 74
0
  0
LTYPE
  5
1F6
100
AcDbSymbolTableRecord
100
AcDbLinetypeTableRecord
  2
HIDDEN
 70
64
  3
- - - - - - - - - - - - - - - - - - - -
 72
65
 73
2
 40
0.2
 49
0.1
 74
0
 49
-0.1
 74
0
  0
LTYPE
  5
1F7
100
AcDbSymbolTableRecord
100
AcDbLinetypeTableRecord
  2
PHANTOM
 70
64
  3
_____ _ _ _____ _ _ _____ _ _ _____
 72
65
 73
6
 40
0.8
 49
0.45
 74
0
 49
-0.05
 74
0
 49
0.1
 74
0
 49
-0.05
 74
0
 49
0.1
 74
0
 49
-0.05
 74
0
  0
LTYPE
  5
1F8
100
AcDbSymbolTableRecord
100
AcDbLinetypeTableRecord
  2
DOT
 70
64
  3
. . . . . . . . . . . . . . . . . . . .
 72
65
 73
2
 40
0.2
 49
0.1
 74
0
 49
-0.1
 74
0
  0
LTYPE
  5
1F9
100
AcDbSymbolTableRecord
100
AcDbLinetypeTableRecord
  2
DASHED
 70
64
  3
- - - - - - - - - - - - - - - - - - - -
 72
65
 73
2
 40
0.2
 49
0.1
 74
0
 49
-0.1
 74
0
  0
ENDTAB
  0
TABLE
  2
LAYER
  5
2
100
AcDbSymbolTable
 70
36
  0
LAYER
  5
10
100
AcDbSymbolTableRecord
100
AcDbLayerTableRecord
  2
0
 70
0
 62
7
  6
CONTINUOUS
370
-3
390
F
  0
LAYER
  5
1FA
100
AcDbSymbolTableRecord
100
AcDbLayerTableRecord
  2
DEFAULT_1
 70
0
 62
7
  6
CENTER
370
-3
390
F
  0
LAYER
  5
1FB
100
AcDbSymbolTableRecord
100
AcDbLayerTableRecord
  2
DEFAULT_2
 70
0
 62
8
  6
HIDDEN
370
-3
390
F
  0
LAYER
  5
1FC
100
AcDbSymbolTableRecord
100
AcDbLayerTableRecord
  2
DEFAULT_3
 70
0
 62
7
  6
PHANTOM
370
-3
390
F
  0
LAYER
  5
1FD
100
AcDbSymbolTableRecord
100
AcDbLayerTableRecord
  2
ALL_FEATURES
 70
0
 62
7
  6
CONTINUOUS
370
-3
390
F
  0
LAYER
  5
1FE
100
AcDbSymbolTableRecord
100
AcDbLayerTableRecord
  2
AXES_FEATURES
 70
0
 62
7
  6
CONTINUOUS
370
-3
390
F
  0
LAYER
  5
1FF
100
AcDbSymbolTableRecord
100
AcDbLayerTableRecord
  2
DIMENSIONS
 70
0
 62
7
  6
CONTINUOUS
370
-3
390
F
  0
ENDTAB
  0
TABLE
  2
STYLE
  5
3
100
AcDbSymbolTable
 70
1
  0
STYLE
  5
11
100
AcDbSymbolTableRecord
100
AcDbTextStyleTableRecord
  2
STANDARD
 70
0
 40
0.0
 41
0.8
 50
0.0
 71
0
 42
0.2
  3
txt
  4

  0
STYLE
  5
200
100
AcDbSymbolTableRecord
100
AcDbTextStyleTableRecord
  2
TEXTSTYLE_1
 70
0
 40
0.0
 41
0.8
 50
0.0
 71
0
 42
0.2
  3
gdt
  4

  0
ENDTAB
  0
TABLE
  2
VIEW
  5
6
100
AcDbSymbolTable
 70
0
  0
ENDTAB
  0
TABLE
  2
UCS
  5
7
100
AcDbSymbolTable
 70
0
  0
ENDTAB
  0
TABLE
  2
APPID
  5
9
100
AcDbSymbolTable
 70
1
  0
APPID
  5
201
100
AcDbSymbolTableRecord
100
AcDbRegAppTableRecord
  2
ACAD
 70
0
  0
ENDTAB
  0
TABLE
  2
BLOCK_RECORD
  5
1
100
AcDbSymbolTable
 70
0
  0
BLOCK_RECORD
  5
202
100
AcDbSymbolTableRecord
100
AcDbBlockTableRecord
  2
*Model_Space
  0
BLOCK_RECORD
  5
203
100
AcDbSymbolTableRecord
100
AcDbBlockTableRecord
  2
*Paper_Space
  0
BLOCK_RECORD
  5
204
100
AcDbSymbolTableRecord
100
AcDbBlockTableRecord
  2
_FILLED
  0
ENDTAB
  0
TABLE
  2
DIMSTYLE
  5
A
100
AcDbSymbolTable
 70
1
100
AcDbDimStyleTable
 71
0
  0
DIMSTYLE
105
205
100
AcDbSymbolTableRecord
100
AcDbDimStyleTableRecord
  2
STANDARD
 70
0
  3

  4

 40
1.0
 41
0.1
 42
0.0625
 43
0.38
 44
0.125
 45
0.0
 46
0.0
 47
0.001
 48
0.001
140
0.08
141
0.09
142
0.0
143
25.4
144
1.0
145
0.0
146
1.0
147
0.09
 71
1.0
 72
0.0
 73
1
 74
1
 75
0
 76
0
 77
0
 78
4
 79
1
170
1
171
2
172
0
173
0
174
0
175
0
176
0
177
0
178
0
270
2
179
3
271
3
272
3
273
2
274
2
275
0
280
0
281
0
282
0
283
1
284
4
285
0
286
0
287
3
288
0
340
11
278
46
341
204
342
204
343
204
344
204
  0
ENDTAB
  0
ENDSEC
  0
SECTION
  2
BLOCKS
  0
BLOCK
  5
20
100
AcDbEntity
  8
0
100
AcDbBlockBegin
  2
*Model_Space
 70
0
 10
0.0
 20
0.0
 30
0.0
  3
*Model_Space
  1

  0
ENDBLK
  5
21
100
AcDbEntity
  8
0
100
AcDbBlockEnd
  0
BLOCK
  5
1C
100
AcDbEntity
  8
0
100
AcDbBlockBegin
  2
*Paper_Space
 70
0
 10
0.0
 20
0.0
 30
0.0
  3
*Paper_Space
  1

  0
ENDBLK
  5
1D
100
AcDbEntity
  8
0
100
AcDbBlockEnd
  0
BLOCK
  5
206
100
AcDbEntity
  8
0
100
AcDbBlockBegin
  2
_FILLED
 70
64
 10
0.0
 20
0.0
  3
_FILLED
  1

  0
SOLID
  5
207
100
AcDbEntity
  8
0
  6
BYBLOCK
 62
0
100
AcDbTrace
 10
0.0
 20
0.0
 11
-1.0
 21
0.2
 12
-1.0
 22
-0.2
 13
-1.0
 23
-0.2
  0
ENDBLK
  5
208
100
AcDbEntity
  8
0
  6
BYBLOCK
 62
0
100
AcDbBlockEnd
  0
ENDSEC
  0
SECTION
  2
ENTITIES
  0
LINE
  5
209
100
AcDbEntity
  8
0
100
AcDbLine
 62
7
  6
CONTINUOUS
 10
9.5274907569
 20
7.304891804
 11
11.8924762214
 21
7.304891804
  0
LINE
  5
20A
100
AcDbEntity
  8
0
100
AcDbLine
 62
9
  6
CONTINUOUS
 10
11.8613194765
 20
7.4390154029
 11
9.5586475018
 21
7.4390154029
  0
LINE
  5
20B
100
AcDbEntity
  8
0
100
AcDbLine
 62
9
  6
CONTINUOUS
 10
11.8191040079
 20
7.4826563954
 11
9.6008629704
 21
7.4826563954
  0
LINE
  5
20C
100
AcDbEntity
  8
0
100
AcDbLine
 62
7
  6
CONTINUOUS
 10
9.6898062662
 20
9.9771045084
 11
9.6077170091
 21
9.9196249919
  0
LINE
  5
20D
100
AcDbEntity
  8
0
100
AcDbLine
 62
7
  6
CONTINUOUS
 10
9.9906651118
 20
7.801676495
 11
9.9982312236
 21
7.7949770526
  0
LINE
  5
20E
100
AcDbEntity
  8
0
100
AcDbLine
 62
9
  6
CONTINUOUS
 10
11.5388606774
 20
7.6876698666
 11
9.8811063008
 21
7.6876698666
  0
LINE
  5
20F
100
AcDbEntity
  8
0
100
AcDbLine
 62
7
  6
CONTINUOUS
 10
10.0450116039
 20
7.779891804
 11
11.3749553744
 21
7.779891804
  0
LINE
  5
210
100
AcDbEntity
  8
0
100
AcDbLine
 62
9
  6
CONTINUOUS
 10
9.6077170091
 20
10.3701586162
 11
9.6077170091
 21
9.9196249919
  0
LINE
  5
211
100
AcDbEntity
  8
0
100
AcDbLine
 62
7
  6
CONTINUOUS
 10
10.0434834891
 20
7.9398777403
 11
11.3764834891
 21
7.9398777403
  0
LINE
  5
212
100
AcDbEntity
  8
0
100
AcDbLine
 62
9
  6
CONTINUOUS
 10
9.6898062662
 20
9.9771045084
 11
9.6898062662
 21
10.3126790997
  0
LINE
  5
213
100
AcDbEntity
  8
0
100
AcDbLine
 62
7
  6
CONTINUOUS
 10
9.7149834891
 20
10.333970488
 11
9.7149834891
 21
9.95581312
  0
LINE
  5
214
100
AcDbEntity
  8
0
100
AcDbLine
 62
9
  6
CONTINUOUS
 10
9.7398466477
 20
9.9539745108
 11
9.7398466477
 21
10.3358090973
  0
LINE
  5
215
100
AcDbEntity
  8
0
100
AcDbLine
 62
7
  6
CONTINUOUS
 10
9.5586475018
 20
7.4390154029
 11
9.5274834891
 21
7.304891804
  0
LINE
  5
216
100
AcDbEntity
  8
0
100
AcDbLine
 62
9
  6
CONTINUOUS
 10
10.1013174735
 20
9.958213874
 11
10.1013174735
 21
10.3315697341
  0
LINE
  5
217
100
AcDbEntity
  8
0
100
AcDbLine
 62
9
  6
CONTINUOUS
 10
10.1234775105
 20
10.2354682976
 11
10.1234775105
 21
10.0542475918
  0
LINE
  5
218
100
AcDbEntity
  8
0
100
AcDbLine
 62
7
  6
CONTINUOUS
 10
11.7301607121
 20
10.3126790997
 11
11.8122499691
 21
10.3701586162
  0
LINE
  5
219
100
AcDbEntity
  8
0
100
AcDbLine
 62
7
  6
CONTINUOUS
 10
10.370355934
 20
8.8191704445
 11
10.370355934
 21
8.9086131636
  0
LINE
  5
21A
100
AcDbEntity
  8
0
100
AcDbLine
 62
7
  6
CONTINUOUS
 10
10.4081969001
 20
8.8191704445
 11
10.4081969001
 21
8.9086131636
  0
LINE
  5
21B
100
AcDbEntity
  8
0
100
AcDbLine
 62
7
  6
CONTINUOUS
 10
10.3352495997
 20
8.9086131394
 11
10.3352495997
 21
8.8191704687
  0
LINE
  5
21C
100
AcDbEntity
  8
0
100
AcDbLine
 62
7
  6
CONTINUOUS
 10
10.4484678093
 20
8.8191704445
 11
10.4484678093
 21
8.9086131636
  0
LINE
  5
21D
100
AcDbEntity
  8
0
100
AcDbLine
 62
7
  6
CONTINUOUS
 10
10.4599834891
 20
9.119891804
 11
10.4599834891
 21
9.726891804
  0
LINE
  5
21E
100
AcDbEntity
  8
0
100
AcDbLine
 62
7
  6
CONTINUOUS
 10
10.4908444059
 20
8.8191704445
 11
10.4908444059
 21
8.9086131636
  0
LINE
  5
21F
100
AcDbEntity
  8
0
100
AcDbLine
 62
7
  6
CONTINUOUS
 10
10.5349854795
 20
8.8191704445
 11
10.5349854795
 21
8.9086131636
  0
LINE
  5
220
100
AcDbEntity
  8
0
100
AcDbLine
 62
7
  6
CONTINUOUS
 10
11.2481245053
 20
10.4589924576
 11
11.2399834902
 21
10.4448918058
  0
LINE
  5
221
100
AcDbEntity
  8
0
100
AcDbLine
 62
7
  6
CONTINUOUS
 10
11.1999834891
 20
8.803891804
 11
10.2199834892
 21
8.803891804
  0
LINE
  5
222
100
AcDbEntity
  8
0
100
AcDbLine
 62
7
  6
CONTINUOUS
 10
10.5805356123
 20
8.8191704445
 11
10.5805356123
 21
8.9086131636
  0
LINE
  5
223
100
AcDbEntity
  8
0
100
AcDbLine
 62
7
  6
CONTINUOUS
 10
10.6271280413
 20
8.8191704445
 11
10.6271280413
 21
8.9086131636
  0
LINE
  5
224
100
AcDbEntity
  8
0
100
AcDbLine
 62
7
  6
CONTINUOUS
 10
10.6743876106
 20
8.8191704445
 11
10.6743876106
 21
8.9086131636
  0
LINE
  5
225
100
AcDbEntity
  8
0
100
AcDbLine
 62
7
  6
CONTINUOUS
 10
10.7219337929
 20
8.8191704445
 11
10.7219337929
 21
8.9086131636
  0
LINE
  5
226
100
AcDbEntity
  8
0
100
AcDbLine
 62
7
  6
CONTINUOUS
 10
11.1999834891
 20
8.923891804
 11
10.2199834892
 21
8.923891804
  0
LINE
  5
227
100
AcDbEntity
  8
0
100
AcDbLine
 62
7
  6
CONTINUOUS
 10
10.769383753
 20
8.8191704445
 11
10.769383753
 21
8.9086131636
  0
LINE
  5
228
100
AcDbEntity
  8
0
100
AcDbLine
 62
7
  6
CONTINUOUS
 10
10.8163554306
 20
8.8191704445
 11
10.8163554306
 21
8.9086131636
  0
LINE
  5
229
100
AcDbEntity
  8
0
100
AcDbLine
 62
7
  6
CONTINUOUS
 10
10.8624706164
 20
8.8191704445
 11
10.8624706164
 21
8.9086131636
  0
LINE
  5
22A
100
AcDbEntity
  8
0
100
AcDbLine
 62
7
  6
CONTINUOUS
 10
11.0000271319
 20
9.119891804
 11
10.4199398464
 21
9.119891804
  0
LINE
  5
22B
100
AcDbEntity
  8
0
100
AcDbLine
 62
7
  6
CONTINUOUS
 10
10.9073579972
 20
8.8191704445
 11
10.9073579972
 21
8.9086131636
  0
LINE
  5
22C
100
AcDbEntity
  8
0
100
AcDbLine
 62
7
  6
CONTINUOUS
 10
10.9506561464
 20
8.8191704445
 11
10.9506561464
 21
8.9086131636
  0
LINE
  5
22D
100
AcDbEntity
  8
0
100
AcDbLine
 62
7
  6
CONTINUOUS
 10
10.9599834891
 20
9.119891804
 11
10.9599834891
 21
9.726891804
  0
LINE
  5
22E
100
AcDbEntity
  8
0
100
AcDbLine
 62
7
  6
CONTINUOUS
 10
10.9920164333
 20
8.8191704445
 11
10.9920164333
 21
8.9086131636
  0
LINE
  5
22F
100
AcDbEntity
  8
0
100
AcDbLine
 62
7
  6
CONTINUOUS
 10
11.0311058306
 20
8.8191704445
 11
11.0311058306
 21
8.9086131636
  0
LINE
  5
230
100
AcDbEntity
  8
0
100
AcDbLine
 62
7
  6
CONTINUOUS
 10
10.171842473
 20
10.4589924576
 11
10.1799834881
 21
10.4448918059
  0
LINE
  5
231
100
AcDbEntity
  8
0
100
AcDbLine
 62
7
  6
CONTINUOUS
 10
11.0676095961
 20
8.8191704445
 11
11.0676095961
 21
8.9086131636
  0
LINE
  5
232
100
AcDbEntity
  8
0
100
AcDbLine
 62
9
  6
CONTINUOUS
 10
11.2964894677
 20
10.0542572175
 11
11.2964894677
 21
10.2356308588
  0
LINE
  5
233
100
AcDbEntity
  8
0
100
AcDbLine
 62
9
  6
CONTINUOUS
 10
11.3186495048
 20
10.3315697341
 11
11.3186495048
 21
9.958213874
  0
LINE
  5
234
100
AcDbEntity
  8
0
100
AcDbLine
 62
7
  6
CONTINUOUS
 10
9.6898062662
 20
10.3126790997
 11
9.6077170091
 21
10.3701586162
  0
LINE
  5
235
100
AcDbEntity
  8
0
100
AcDbLine
 62
9
  6
CONTINUOUS
 10
10.9599834891
 20
9.726891804
 11
10.4600420534
 21
9.726891804
  0
LINE
  5
236
100
AcDbEntity
  8
0
100
AcDbLine
 62
7
  6
CONTINUOUS
 10
11.8613194765
 20
7.4390154029
 11
11.8924834891
 21
7.304891804
  0
LINE
  5
237
100
AcDbEntity
  8
0
100
AcDbLine
 62
7
  6
CONTINUOUS
 10
10.2052774474
 20
9.844891804
 11
11.2146790635
 21
9.844891804
  0
LINE
  5
238
100
AcDbEntity
  8
0
100
AcDbLine
 62
9
  6
CONTINUOUS
 10
11.2895401484
 20
9.8986255235
 11
10.831689005
 21
9.8986255233
  0
LINE
  5
239
100
AcDbEntity
  8
0
100
AcDbLine
 62
9
  6
CONTINUOUS
 10
10.5882779732
 20
9.8986255233
 11
10.1304268299
 21
9.8986255235
  0
LINE
  5
23A
100
AcDbEntity
  8
0
100
AcDbLine
 62
9
  6
CONTINUOUS
 10
11.6801203305
 20
9.9539745108
 11
11.6801203305
 21
10.3358090973
  0
LINE
  5
23B
100
AcDbEntity
  8
0
100
AcDbLine
 62
7
  6
CONTINUOUS
 10
11.7049834891
 20
9.95581312
 11
11.7049834891
 21
10.333970488
  0
LINE
  5
23C
100
AcDbEntity
  8
0
100
AcDbLine
 62
9
  6
CONTINUOUS
 10
11.7301607121
 20
10.3126790997
 11
11.7301607121
 21
9.9771045084
  0
LINE
  5
23D
100
AcDbEntity
  8
0
100
AcDbLine
 62
9
  6
CONTINUOUS
 10
11.8122499691
 20
9.9196249919
 11
11.8122499691
 21
10.3701586162
  0
LINE
  5
23E
100
AcDbEntity
  8
0
100
AcDbLine
 62
7
  6
CONTINUOUS
 10
11.4293018664
 20
7.801676495
 11
11.4217357547
 21
7.7949770526
  0
LINE
  5
23F
100
AcDbEntity
  8
0
100
AcDbLine
 62
9
  6
CONTINUOUS
 10
10.132224792
 20
10.3964216805
 11
10.6014207562
 21
10.3964216833
  0
LINE
  5
240
100
AcDbEntity
  8
0
100
AcDbLine
 62
9
  6
CONTINUOUS
 10
10.8185462221
 20
10.3964216833
 11
11.287742221
 21
10.3964215717
  0
LINE
  5
241
100
AcDbEntity
  8
0
100
AcDbLine
 62
7
  6
CONTINUOUS
 10
11.7301607121
 20
9.9771045084
 11
11.8122499691
 21
9.9196249919
  0
LINE
  5
242
100
AcDbEntity
  8
0
100
AcDbLine
 62
7
  6
CONTINUOUS
 10
10.1799834881
 20
10.4448918058
 11
11.2399834902
 21
10.4448918058
  0
LINE
  5
243
100
AcDbEntity
  8
0
100
AcDbLine
 62
9
  6
CONTINUOUS
 10
11.2481245053
 20
10.4589924576
 11
10.171842473
 21
10.4589924576
  0
LINE
  5
244
100
AcDbEntity
  8
0
100
AcDbLine
 62
9
  6
CONTINUOUS
 10
10.1874937663
 20
10.5141974349
 11
11.232473212
 21
10.5141974349
  0
LINE
  5
245
100
AcDbEntity
  8
0
100
AcDbLine
 62
9
  6
CONTINUOUS
 10
11.1806087833
 20
10.5907287817
 11
10.239358195
 21
10.5907287817
  0
LINE
  5
246
100
AcDbEntity
  8
0
100
AcDbLine
 62
7
  6
CONTINUOUS
 10
11.1647145678
 20
10.604891804
 11
10.2552524105
 21
10.604891804
  0
LINE
  5
247
100
AcDbEntity
  8
0
100
AcDbLine
 62
9
  6
CONTINUOUS
 10
11.0965013463
 20
10.6492033299
 11
10.323465632
 21
10.6492033299
  0
ARC
  5
248
100
AcDbEntity
  8
0
100
AcDbCircle
 62
7
  6
CONTINUOUS
 10
9.4767658478
 20
7.9463372168
 40
0.48
100
AcDbArc
 50
284.9831919527
 51
327.3918704587
  0
ARC
  5
249
100
AcDbEntity
  8
0
100
AcDbCircle
 62
7
  6
CONTINUOUS
 10
9.6161165761
 20
7.4256622947
 40
0.059
100
AcDbArc
 50
104.9831928821
 51
166.919261208
  0
ARC
  5
24A
100
AcDbEntity
  8
0
100
AcDbCircle
 62
7
  6
CONTINUOUS
 10
9.2229715507
 20
8.5575258269
 40
1.027
100
AcDbArc
 50
323.0290504961
 51
13.8799876593
  0
ARC
  5
24B
100
AcDbEntity
  8
0
100
AcDbCircle
 62
7
  6
CONTINUOUS
 10
10.0495814896
 20
7.579891804
 40
0.2
100
AcDbArc
 50
90.0
 51
147.3918704587
  0
ARC
  5
24C
100
AcDbEntity
  8
0
100
AcDbCircle
 62
7
  6
CONTINUOUS
 10
10.0459276666
 20
7.9365239248
 40
0.1534039638
100
AcDbArc
 50
268.8065265665
 51
272.6779381304
  0
ARC
  5
24D
100
AcDbEntity
  8
0
100
AcDbCircle
 62
7
  6
CONTINUOUS
 10
10.0449834891
 20
7.859891804
 40
0.08
100
AcDbArc
 50
234.2390558149
 51
270.0
  0
ARC
  5
24E
100
AcDbEntity
  8
0
100
AcDbCircle
 62
7
  6
CONTINUOUS
 10
10.0449834891
 20
7.859891804
 40
0.08
100
AcDbArc
 50
91.0743588229
 51
125.7609441851
  0
ARC
  5
24F
100
AcDbEntity
  8
0
100
AcDbCircle
 62
7
  6
CONTINUOUS
 10
10.3422993608
 20
8.8638897499
 40
0.1246139331
100
AcDbArc
 50
176.4108746496
 51
183.5878012563
  0
ARC
  5
250
100
AcDbEntity
  8
0
100
AcDbCircle
 62
7
  6
CONTINUOUS
 10
10.2986636988
 20
8.863889118
 40
0.1009800597
100
AcDbArc
 50
175.5689799951
 51
184.4293861469
  0
ARC
  5
251
100
AcDbEntity
  8
0
100
AcDbCircle
 62
7
  6
CONTINUOUS
 10
10.2672939883
 20
8.8638883883
 40
0.0854871717
100
AcDbArc
 50
174.7633830662
 51
185.2346871532
  0
ARC
  5
252
100
AcDbEntity
  8
0
100
AcDbCircle
 62
7
  6
CONTINUOUS
 10
10.2448407954
 20
8.8638875834
 40
0.0746579977
100
AcDbArc
 50
174.0006923307
 51
185.9968736227
  0
ARC
  5
253
100
AcDbEntity
  8
0
100
AcDbCircle
 62
7
  6
CONTINUOUS
 10
10.2296621626
 20
8.8638968688
 40
0.0667569838
100
AcDbArc
 50
173.2866949228
 51
186.7108343832
  0
ARC
  5
254
100
AcDbEntity
  8
0
100
AcDbCircle
 62
7
  6
CONTINUOUS
 10
10.2199834891
 20
8.863891804
 40
0.06
100
AcDbArc
 50
209.4093195034
 51
270.0
  0
ARC
  5
255
100
AcDbEntity
  8
0
100
AcDbCircle
 62
7
  6
CONTINUOUS
 10
10.2199834891
 20
8.863891804
 40
0.06
100
AcDbArc
 50
90.0
 51
150.5906804966
  0
ARC
  5
256
100
AcDbEntity
  8
0
100
AcDbCircle
 62
7
  6
CONTINUOUS
 10
10.2193077211
 20
8.8646097868
 40
0.0593124645
100
AcDbArc
 50
220.7315160797
 51
230.0050474633
  0
ARC
  5
257
100
AcDbEntity
  8
0
100
AcDbCircle
 62
7
  6
CONTINUOUS
 10
10.2193077085
 20
8.8631738349
 40
0.0593124459
100
AcDbArc
 50
129.9949516874
 51
139.2690992296
  0
ARC
  5
258
100
AcDbEntity
  8
0
100
AcDbCircle
 62
7
  6
CONTINUOUS
 10
10.218419408
 20
8.8639077805
 40
0.0581604073
100
AcDbArc
 50
139.2459964451
 51
220.75462651
  0
ARC
  5
259
100
AcDbEntity
  8
0
100
AcDbCircle
 62
7
  6
CONTINUOUS
 10
10.2187683142
 20
8.8664053288
 40
0.0572319032
100
AcDbArc
 50
132.482141393
 51
141.7010590949
  0
ARC
  5
25A
100
AcDbEntity
  8
0
100
AcDbCircle
 62
7
  6
CONTINUOUS
 10
10.2187682609
 20
8.861378229
 40
0.0572318301
100
AcDbArc
 50
218.2995483699
 51
227.5178640305
  0
ARC
  5
25B
100
AcDbEntity
  8
0
100
AcDbCircle
 62
7
  6
CONTINUOUS
 10
10.2202713857
 20
8.8597610826
 40
0.0563492279
100
AcDbArc
 50
216.9252911691
 51
226.0826103218
  0
ARC
  5
25C
100
AcDbEntity
  8
0
100
AcDbCircle
 62
7
  6
CONTINUOUS
 10
10.2202712937
 20
8.8680226083
 40
0.0563491044
100
AcDbArc
 50
133.9173807159
 51
143.0741035282
  0
ARC
  5
25D
100
AcDbEntity
  8
0
100
AcDbCircle
 62
7
  6
CONTINUOUS
 10
10.2184417181
 20
8.8638845876
 40
0.0544091579
100
AcDbArc
 50
171.7543965607
 51
188.2487717375
  0
ARC
  5
25E
100
AcDbEntity
  8
0
100
AcDbCircle
 62
7
  6
CONTINUOUS
 10
10.2235221656
 20
8.8638837765
 40
0.0513201478
100
AcDbArc
 50
171.2532508522
 51
188.7499277642
  0
ARC
  5
25F
100
AcDbEntity
  8
0
100
AcDbCircle
 62
7
  6
CONTINUOUS
 10
10.2337147448
 20
8.8638768863
 40
0.0490131263
100
AcDbArc
 50
170.8299239597
 51
189.1734005206
  0
ARC
  5
260
100
AcDbEntity
  8
0
100
AcDbCircle
 62
7
  6
CONTINUOUS
 10
10.2486517978
 20
8.8638743988
 40
0.0472210825
100
AcDbArc
 50
170.4756802396
 51
189.5277690876
  0
ARC
  5
261
100
AcDbEntity
  8
0
100
AcDbCircle
 62
7
  6
CONTINUOUS
 10
10.2681602209
 20
8.8638723779
 40
0.0459056136
100
AcDbArc
 50
170.1975378747
 51
189.8060094055
  0
ARC
  5
262
100
AcDbEntity
  8
0
100
AcDbCircle
 62
7
  6
CONTINUOUS
 10
10.2920437005
 20
8.8638679939
 40
0.0450380783
100
AcDbArc
 50
170.0011378792
 51
190.0024733527
  0
ARC
  5
263
100
AcDbEntity
  8
0
100
AcDbCircle
 62
7
  6
CONTINUOUS
 10
10.5144366086
 20
8.8638906429
 40
0.2450488283
100
AcDbArc
 50
178.1759271727
 51
181.8233994119
  0
ARC
  5
264
100
AcDbEntity
  8
0
100
AcDbCircle
 62
7
  6
CONTINUOUS
 10
10.4061612333
 20
8.8638902637
 40
0.1645101024
100
AcDbArc
 50
177.2822290371
 51
182.7167679147
  0
ARC
  5
265
100
AcDbEntity
  8
0
100
AcDbCircle
 62
7
  6
CONTINUOUS
 10
10.4199434851
 20
8.919891804
 40
0.2
100
AcDbArc
 50
90.0
 51
178.8540080016
  0
ARC
  5
266
100
AcDbEntity
  8
0
100
AcDbCircle
 62
7
  6
CONTINUOUS
 10
7.1724775914
 20
10.1440366136
 40
2.9523745829
100
AcDbArc
 50
356.4218218447
 51
0.0165963872
  0
ARC
  5
267
100
AcDbEntity
  8
0
100
AcDbCircle
 62
7
  6
CONTINUOUS
 10
7.1734933244
 20
10.1457907611
 40
2.9513581114
100
AcDbArc
 50
0.0238618386
 51
3.5799773775
  0
ARC
  5
268
100
AcDbEntity
  8
0
100
AcDbCircle
 62
7
  6
CONTINUOUS
 10
7.5471297684
 20
10.16820225
 40
2.5770518406
100
AcDbArc
 50
3.6013824024
 51
3.928665467
  0
ARC
  5
269
100
AcDbEntity
  8
0
100
AcDbCircle
 62
7
  6
CONTINUOUS
 10
7.5575759901
 20
10.120904349
 40
2.566583479
100
AcDbArc
 50
356.1429764871
 51
356.4006817712
  0
ARC
  5
26A
100
AcDbEntity
  8
0
100
AcDbCircle
 62
7
  6
CONTINUOUS
 10
10.7099834891
 20
9.5448918041
 40
1.17
100
AcDbArc
 50
70.7095459639
 51
109.2904540361
  0
ARC
  5
26B
100
AcDbEntity
  8
0
100
AcDbCircle
 62
7
  6
CONTINUOUS
 10
10.5599834891
 20
10.144891804
 40
0.77
100
AcDbArc
 50
15.4402762792
 51
19.0663079413
  0
ARC
  5
26C
100
AcDbEntity
  8
0
100
AcDbCircle
 62
7
  6
CONTINUOUS
 10
10.5599834891
 20
10.144891804
 40
0.77
100
AcDbArc
 50
341.347577105
 51
344.5597237208
  0
CIRCLE
  5
26D
100
AcDbEntity
  8
0
100
AcDbCircle
 62
7
  6
CONTINUOUS
 10
10.7099834891
 20
10.144891804
 40
0.275
  0
ARC
  5
26E
100
AcDbEntity
  8
0
100
AcDbCircle
 62
7
  6
CONTINUOUS
 10
9.4499834891
 20
10.144891804
 40
0.275
100
AcDbArc
 50
55.0
 51
305.0
  0
ARC
  5
26F
100
AcDbEntity
  8
0
100
AcDbCircle
 62
7
  6
CONTINUOUS
 10
9.9226075302
 20
9.783391804
 40
0.25
100
AcDbArc
 50
44.3699304528
 51
136.9739483152
  0
ARC
  5
270
100
AcDbEntity
  8
0
100
AcDbCircle
 62
7
  6
CONTINUOUS
 10
9.9226075302
 20
10.506391804
 40
0.25
100
AcDbArc
 50
223.0260516848
 51
315.6300695472
  0
ARC
  5
271
100
AcDbEntity
  8
0
100
AcDbCircle
 62
7
  6
CONTINUOUS
 10
10.3419834891
 20
9.726891804
 40
0.118
100
AcDbArc
 50
0.0
 51
89.9999870546
  0
ARC
  5
272
100
AcDbEntity
  8
0
100
AcDbCircle
 62
7
  6
CONTINUOUS
 10
10.1400194592
 20
10.6022098782
 40
0.1
100
AcDbArc
 50
298.3426227077
 51
353.4072780679
  0
ARC
  5
273
100
AcDbEntity
  8
0
100
AcDbCircle
 62
7
  6
CONTINUOUS
 10
10.2052774482
 20
9.923891804
 40
0.079
100
AcDbArc
 50
198.6524227613
 51
269.9999993655
  0
ARC
  5
274
100
AcDbEntity
  8
0
100
AcDbCircle
 62
7
  6
CONTINUOUS
 10
10.2068909449
 20
10.370615371
 40
0.079
100
AcDbArc
 50
109.9134773482
 51
160.9337774627
  0
ARC
  5
275
100
AcDbEntity
  8
0
100
AcDbCircle
 62
7
  6
CONTINUOUS
 10
10.3399834891
 20
10.6020105296
 40
0.05
100
AcDbArc
 50
109.2904540363
 51
176.6453337496
  0
ARC
  5
276
100
AcDbEntity
  8
0
100
AcDbCircle
 62
7
  6
CONTINUOUS
 10
10.2064834891
 20
10.4789924576
 40
0.04
100
AcDbArc
 50
118.3426227079
 51
210.0
  0
ARC
  5
277
100
AcDbEntity
  8
0
100
AcDbCircle
 62
7
  6
CONTINUOUS
 10
10.123477513
 20
10.309891804
 40
0.031
100
AcDbArc
 50
99.4483449935
 51
135.6300714454
  0
ARC
  5
278
100
AcDbEntity
  8
0
100
AcDbCircle
 62
7
  6
CONTINUOUS
 10
10.123477513
 20
9.979891804
 40
0.031
100
AcDbArc
 50
224.3699285546
 51
260.5517509818
  0
ARC
  5
279
100
AcDbEntity
  8
0
100
AcDbCircle
 62
7
  6
CONTINUOUS
 10
9.6989834891
 20
9.9639980757
 40
0.016
100
AcDbArc
 50
0.0
 51
125.0
  0
ARC
  5
27A
100
AcDbEntity
  8
0
100
AcDbCircle
 62
7
  6
CONTINUOUS
 10
9.6989834891
 20
10.3257855324
 40
0.016
100
AcDbArc
 50
235.0
 51
360.0
  0
ARC
  5
27B
100
AcDbEntity
  8
0
100
AcDbCircle
 62
7
  6
CONTINUOUS
 10
9.7281499512
 20
10.324891804
 40
0.016
100
AcDbArc
 50
43.0260516848
 51
145.3765489001
  0
ARC
  5
27C
100
AcDbEntity
  8
0
100
AcDbCircle
 62
7
  6
CONTINUOUS
 10
9.7281499512
 20
9.964891804
 40
0.016
100
AcDbArc
 50
214.6234510999
 51
316.9739483152
  0
ARC
  5
27D
100
AcDbEntity
  8
0
100
AcDbCircle
 62
7
  6
CONTINUOUS
 10
10.2552523925
 20
10.588891804
 40
0.016
100
AcDbArc
 50
89.9999355877
 51
173.4072701279
  0
ARC
  5
27E
100
AcDbEntity
  8
0
100
AcDbCircle
 62
7
  6
CONTINUOUS
 10
11.3703854887
 20
7.579891804
 40
0.2
100
AcDbArc
 50
32.6081295413
 51
90.0
  0
ARC
  5
27F
100
AcDbEntity
  8
0
100
AcDbCircle
 62
7
  6
CONTINUOUS
 10
11.3749834891
 20
7.859891804
 40
0.08
100
AcDbArc
 50
270.0
 51
305.7609441851
  0
ARC
  5
280
100
AcDbEntity
  8
0
100
AcDbCircle
 62
7
  6
CONTINUOUS
 10
11.3749834891
 20
7.859891804
 40
0.08
100
AcDbArc
 50
54.2390558149
 51
88.9256411771
  0
ARC
  5
281
100
AcDbEntity
  8
0
100
AcDbCircle
 62
7
  6
CONTINUOUS
 10
10.9685098072
 20
8.863893137
 40
0.1964632425
100
AcDbArc
 50
357.7245679451
 51
2.2746009946
  0
ARC
  5
282
100
AcDbEntity
  8
0
100
AcDbCircle
 62
7
  6
CONTINUOUS
 10
11.0492764324
 20
8.8638935781
 40
0.1415646812
100
AcDbArc
 50
356.8411966386
 51
3.1575854081
  0
ARC
  5
283
100
AcDbEntity
  8
0
100
AcDbCircle
 62
7
  6
CONTINUOUS
 10
11.0000234931
 20
8.919891804
 40
0.2
100
AcDbArc
 50
1.1459919984
 51
90.0
  0
ARC
  5
284
100
AcDbEntity
  8
0
100
AcDbCircle
 62
7
  6
CONTINUOUS
 10
11.1014528747
 20
8.8638941611
 40
0.111384508
100
AcDbArc
 50
355.9837665984
 51
4.0147678522
  0
ARC
  5
285
100
AcDbEntity
  8
0
100
AcDbCircle
 62
7
  6
CONTINUOUS
 10
11.1383293079
 20
8.8638948449
 40
0.0924554337
100
AcDbArc
 50
355.159274737
 51
4.8389598179
  0
ARC
  5
286
100
AcDbEntity
  8
0
100
AcDbCircle
 62
7
  6
CONTINUOUS
 10
11.1649415296
 20
8.863895615
 40
0.0795971527
100
AcDbArc
 50
354.3743923784
 51
5.6235571872
  0
ARC
  5
287
100
AcDbEntity
  8
0
100
AcDbCircle
 62
7
  6
CONTINUOUS
 10
11.1835938123
 20
8.8638871683
 40
0.0703946477
100
AcDbArc
 50
353.6354302586
 51
6.3622514163
  0
ARC
  5
288
100
AcDbEntity
  8
0
100
AcDbCircle
 62
7
  6
CONTINUOUS
 10
11.1954860711
 20
8.8638863027
 40
0.0635719152
100
AcDbArc
 50
352.9482846625
 51
7.0491485972
  0
ARC
  5
289
100
AcDbEntity
  8
0
100
AcDbCircle
 62
7
  6
CONTINUOUS
 10
11.1991061631
 20
8.8638977405
 40
0.0608276152
100
AcDbArc
 50
352.6307110294
 51
7.372000196
  0
ARC
  5
28A
100
AcDbEntity
  8
0
100
AcDbCircle
 62
7
  6
CONTINUOUS
 10
11.1999834891
 20
8.863891804
 40
0.06
100
AcDbArc
 50
324.0
 51
330.4945968999
  0
ARC
  5
28B
100
AcDbEntity
  8
0
100
AcDbCircle
 62
7
  6
CONTINUOUS
 10
11.1999834891
 20
8.863891804
 40
0.06
100
AcDbArc
 50
270.0
 51
306.0
  0
ARC
  5
28C
100
AcDbEntity
  8
0
100
AcDbCircle
 62
7
  6
CONTINUOUS
 10
11.1999834891
 20
8.863891804
 40
0.06
100
AcDbArc
 50
54.0
 51
90.0
  0
ARC
  5
28D
100
AcDbEntity
  8
0
100
AcDbCircle
 62
7
  6
CONTINUOUS
 10
11.1999834891
 20
8.863891804
 40
0.06
100
AcDbArc
 50
29.5054031001
 51
36.0
  0
ARC
  5
28E
100
AcDbEntity
  8
0
100
AcDbCircle
 62
7
  6
CONTINUOUS
 10
11.20016783
 20
8.8637117971
 40
0.0597508871
100
AcDbArc
 50
330.5577779658
 51
352.676962943
  0
ARC
  5
28F
100
AcDbEntity
  8
0
100
AcDbCircle
 62
7
  6
CONTINUOUS
 10
11.2001679222
 20
8.8640718496
 40
0.059750788
100
AcDbArc
 50
7.3257726455
 51
29.4422333396
  0
ARC
  5
290
100
AcDbEntity
  8
0
100
AcDbCircle
 62
7
  6
CONTINUOUS
 10
11.2013472444
 20
8.8646723621
 40
0.0584286214
100
AcDbArc
 50
29.4978669582
 51
39.5490439376
  0
ARC
  5
291
100
AcDbEntity
  8
0
100
AcDbCircle
 62
7
  6
CONTINUOUS
 10
11.2013473078
 20
8.8631112008
 40
0.0584285438
100
AcDbArc
 50
320.4515670002
 51
330.5021412085
  0
ARC
  5
292
100
AcDbEntity
  8
0
100
AcDbCircle
 62
7
  6
CONTINUOUS
 10
11.2015110968
 20
8.8629894302
 40
0.0582247142
100
AcDbArc
 50
311.1852934355
 51
320.441339084
  0
ARC
  5
293
100
AcDbEntity
  8
0
100
AcDbCircle
 62
7
  6
CONTINUOUS
 10
11.201511116
 20
8.8647941965
 40
0.0582246876
100
AcDbArc
 50
39.5592773337
 51
48.8147087647
  0
ARC
  5
294
100
AcDbEntity
  8
0
100
AcDbCircle
 62
7
  6
CONTINUOUS
 10
11.2012004112
 20
8.8664021829
 40
0.0572337409
100
AcDbArc
 50
38.3015011028
 51
47.5205129604
  0
ARC
  5
295
100
AcDbEntity
  8
0
100
AcDbCircle
 62
7
  6
CONTINUOUS
 10
11.2012004645
 20
8.861381375
 40
0.0572336679
100
AcDbArc
 50
312.4794816228
 51
321.6978914365
  0
ARC
  5
296
100
AcDbEntity
  8
0
100
AcDbCircle
 62
7
  6
CONTINUOUS
 10
11.199642293
 20
8.8638994368
 40
0.0527734517
100
AcDbArc
 50
351.4964007378
 51
8.5067235798
  0
ARC
  5
297
100
AcDbEntity
  8
0
100
AcDbCircle
 62
7
  6
CONTINUOUS
 10
11.192025954
 20
8.863900206
 40
0.0500553699
100
AcDbArc
 50
351.0300427405
 51
8.9732509035
  0
ARC
  5
298
100
AcDbEntity
  8
0
100
AcDbCircle
 62
7
  6
CONTINUOUS
 10
11.1794055472
 20
8.8639080152
 40
0.048056981
100
AcDbArc
 50
350.6443272474
 51
9.3590990234
  0
ARC
  5
299
100
AcDbEntity
  8
0
100
AcDbCircle
 62
7
  6
CONTINUOUS
 10
11.1621657455
 20
8.8639102785
 40
0.0465113184
100
AcDbArc
 50
350.3282003877
 51
9.6756966408
  0
ARC
  5
29A
100
AcDbEntity
  8
0
100
AcDbCircle
 62
7
  6
CONTINUOUS
 10
11.1404675987
 20
8.8639120434
 40
0.045408589
100
AcDbArc
 50
350.0881642914
 51
9.9154600074
  0
ARC
  5
29B
100
AcDbEntity
  8
0
100
AcDbCircle
 62
7
  6
CONTINUOUS
 10
11.1145118103
 20
8.8639161782
 40
0.0447316824
100
AcDbArc
 50
349.931243811
 51
10.0724309824
  0
ARC
  5
29C
100
AcDbEntity
  8
0
100
AcDbCircle
 62
7
  6
CONTINUOUS
 10
11.9432011305
 20
7.9463372168
 40
0.48
100
AcDbArc
 50
212.6081295413
 51
255.0168080473
  0
ARC
  5
29D
100
AcDbEntity
  8
0
100
AcDbCircle
 62
7
  6
CONTINUOUS
 10
11.8038504022
 20
7.4256622947
 40
0.059
100
AcDbArc
 50
13.080738792
 51
75.0168071179
  0
ARC
  5
29E
100
AcDbEntity
  8
0
100
AcDbCircle
 62
7
  6
CONTINUOUS
 10
12.1969954275
 20
8.5575258269
 40
1.027
100
AcDbArc
 50
166.1200123407
 51
216.9709495039
  0
ARC
  5
29F
100
AcDbEntity
  8
0
100
AcDbCircle
 62
7
  6
CONTINUOUS
 10
14.2476538867
 20
10.1457485428
 40
2.9525389372
100
AcDbArc
 50
176.424250068
 51
180.0166255078
  0
ARC
  5
2A0
100
AcDbEntity
  8
0
100
AcDbCircle
 62
7
  6
CONTINUOUS
 10
14.2466606032
 20
10.1440057005
 40
2.9515453078
100
AcDbArc
 50
180.0241094378
 51
183.5804022613
  0
ARC
  5
2A1
100
AcDbEntity
  8
0
100
AcDbCircle
 62
7
  6
CONTINUOUS
 10
13.908595748
 20
10.1237623245
 40
2.612876328
100
AcDbArc
 50
183.6003130485
 51
183.9234054384
  0
ARC
  5
2A2
100
AcDbEntity
  8
0
100
AcDbCircle
 62
7
  6
CONTINUOUS
 10
13.8349531242
 20
10.170496871
 40
2.5390986047
100
AcDbArc
 50
176.1379129451
 51
176.400799737
  0
ARC
  5
2A3
100
AcDbEntity
  8
0
100
AcDbCircle
 62
7
  6
CONTINUOUS
 10
10.8599834891
 20
10.144891804
 40
0.77
100
AcDbArc
 50
195.4402762792
 51
198.652422895
  0
ARC
  5
2A4
100
AcDbEntity
  8
0
100
AcDbCircle
 62
7
  6
CONTINUOUS
 10
10.8599834891
 20
10.144891804
 40
0.77
100
AcDbArc
 50
160.9336920587
 51
164.5597237208
  0
ARC
  5
2A5
100
AcDbEntity
  8
0
100
AcDbCircle
 62
7
  6
CONTINUOUS
 10
11.9699834891
 20
10.144891804
 40
0.275
100
AcDbArc
 50
235.0
 51
125.0
  0
ARC
  5
2A6
100
AcDbEntity
  8
0
100
AcDbCircle
 62
7
  6
CONTINUOUS
 10
11.4973594481
 20
9.783391804
 40
0.25
100
AcDbArc
 50
43.0260516848
 51
135.6300695472
  0
ARC
  5
2A7
100
AcDbEntity
  8
0
100
AcDbCircle
 62
7
  6
CONTINUOUS
 10
11.4973594481
 20
10.506391804
 40
0.25
100
AcDbArc
 50
224.3699304528
 51
316.9739483152
  0
ARC
  5
2A8
100
AcDbEntity
  8
0
100
AcDbCircle
 62
7
  6
CONTINUOUS
 10
11.0779834891
 20
9.726891804
 40
0.118
100
AcDbArc
 50
90.0000129454
 51
180.0
  0
ARC
  5
2A9
100
AcDbEntity
  8
0
100
AcDbCircle
 62
7
  6
CONTINUOUS
 10
11.279947519
 20
10.6022098782
 40
0.1
100
AcDbArc
 50
186.5927219321
 51
241.6573772923
  0
ARC
  5
2AA
100
AcDbEntity
  8
0
100
AcDbCircle
 62
7
  6
CONTINUOUS
 10
11.21468953
 20
9.923891804
 40
0.079
100
AcDbArc
 50
270.0000006345
 51
341.3475772387
  0
ARC
  5
2AB
100
AcDbEntity
  8
0
100
AcDbCircle
 62
7
  6
CONTINUOUS
 10
11.2130760333
 20
10.3706153711
 40
0.079
100
AcDbArc
 50
19.0662225134
 51
70.0865226334
  0
ARC
  5
2AC
100
AcDbEntity
  8
0
100
AcDbCircle
 62
7
  6
CONTINUOUS
 10
11.0799834891
 20
10.6020105296
 40
0.05
100
AcDbArc
 50
3.3546662504
 51
70.7095459637
  0
ARC
  5
2AD
100
AcDbEntity
  8
0
100
AcDbCircle
 62
7
  6
CONTINUOUS
 10
11.2134834891
 20
10.4789924576
 40
0.04
100
AcDbArc
 50
330.0
 51
61.6573772921
  0
ARC
  5
2AE
100
AcDbEntity
  8
0
100
AcDbCircle
 62
7
  6
CONTINUOUS
 10
11.2964894653
 20
10.309891804
 40
0.031
100
AcDbArc
 50
44.3699285546
 51
80.5512709876
  0
ARC
  5
2AF
100
AcDbEntity
  8
0
100
AcDbCircle
 62
7
  6
CONTINUOUS
 10
11.2964894653
 20
9.979891804
 40
0.031
100
AcDbArc
 50
279.4479976237
 51
315.6300714454
  0
ARC
  5
2B0
100
AcDbEntity
  8
0
100
AcDbCircle
 62
7
  6
CONTINUOUS
 10
11.7209834891
 20
9.9639980757
 40
0.016
100
AcDbArc
 50
55.0
 51
180.0
  0
ARC
  5
2B1
100
AcDbEntity
  8
0
100
AcDbCircle
 62
7
  6
CONTINUOUS
 10
11.7209834891
 20
10.3257855324
 40
0.016
100
AcDbArc
 50
180.0
 51
305.0
  0
ARC
  5
2B2
100
AcDbEntity
  8
0
100
AcDbCircle
 62
7
  6
CONTINUOUS
 10
11.691817027
 20
10.324891804
 40
0.016
100
AcDbArc
 50
34.6234510999
 51
136.9739483152
  0
ARC
  5
2B3
100
AcDbEntity
  8
0
100
AcDbCircle
 62
7
  6
CONTINUOUS
 10
11.691817027
 20
9.964891804
 40
0.016
100
AcDbArc
 50
223.0260516848
 51
325.3765489001
  0
ARC
  5
2B4
100
AcDbEntity
  8
0
100
AcDbCircle
 62
7
  6
CONTINUOUS
 10
11.1647145858
 20
10.588891804
 40
0.016
100
AcDbArc
 50
6.5927298721
 51
90.0000644123
  0
LINE
  5
2B5
100
AcDbEntity
  8
0
100
AcDbLine
 62
7
  6
CONTINUOUS
 10
11.2951116802
 20
10.144891804
 11
11.2951124633
 21
10.1427637213
  0
LINE
  5
2B6
100
AcDbEntity
  8
0
100
AcDbLine
 62
7
  6
CONTINUOUS
 10
11.3018429277
 20
9.9449819031
 11
11.3021930283
 21
9.939891804
  0
LINE
  5
2B7
100
AcDbEntity
  8
0
100
AcDbLine
 62
7
  6
CONTINUOUS
 10
10.11777395
 20
9.939891804
 11
10.1183461964
 21
9.9482581645
  0
LINE
  5
2B8
100
AcDbEntity
  8
0
100
AcDbLine
 62
7
  6
CONTINUOUS
 10
10.1248552981
 20
10.144891804
 11
10.1248545125
 21
10.1470199076
  0
LINE
  5
2B9
100
AcDbEntity
  8
0
100
AcDbLine
 62
7
  6
CONTINUOUS
 10
10.1181258606
 20
10.3447674888
 11
10.11777395
 21
10.349891804
  0
LINE
  5
2BA
100
AcDbEntity
  8
0
100
AcDbLine
 62
7
  6
CONTINUOUS
 10
11.3021930283
 20
10.349891804
 11
11.3016206435
 21
10.3415181176
  0
SPLINE
  5
2BB
100
AcDbEntity
  8
0
100
AcDbSpline
 62
7
  6
CONTINUOUS
 70
0
 71
3
 72
9
 73
5
 74
0
 42
0.0000001
 43
0.0000001
 44
0.0000000001
 40
0.0
 40
0.0
 40
0.0
 40
0.0
 40
0.5241503733
 40
1.0
 40
1.0
 40
1.0
 40
1.0
 10
10.1633628963
 20
8.8716907185
 30
0.0
 10
10.164032034
 20
8.8773672449
 30
0.0
 10
10.166722097
 20
8.8880866819
 30
0.0
 10
10.1721063585
 20
8.897728767
 30
0.0
 10
10.1752250758
 20
8.9018761137
 30
0.0
  0
SPLINE
  5
2BC
100
AcDbEntity
  8
0
100
AcDbSpline
 62
7
  6
CONTINUOUS
 70
0
 71
3
 72
11
 73
7
 74
0
 42
0.0000001
 43
0.0000001
 44
0.0000000001
 40
0.0
 40
0.0
 40
0.0
 40
0.0
 40
0.2790617868
 40
0.540437194
 40
0.7804726092
 40
1.0
 40
1.0
 40
1.0
 40
1.0
 10
10.1705916878
 20
8.871690572
 30
0.0
 10
10.1709897206
 20
8.8754703755
 30
0.0
 10
10.172327648
 20
8.8827450227
 30
0.0
 10
10.1758830706
 20
8.8928085596
 30
0.0
 10
10.1806071589
 20
8.9014632885
 30
0.0
 10
10.1844791637
 20
8.9064229812
 30
0.0
 10
10.1865144581
 20
8.9086131636
 30
0.0
  0
SPLINE
  5
2BD
100
AcDbEntity
  8
0
100
AcDbSpline
 62
7
  6
CONTINUOUS
 70
0
 71
3
 72
10
 73
6
 74
0
 42
0.0000001
 43
0.0000001
 44
0.0000000001
 40
0.0
 40
0.0
 40
0.0
 40
0.0
 40
0.2844657965
 40
0.5483529561
 40
1.0
 40
1.0
 40
1.0
 40
1.0
 10
10.1821636167
 20
8.8716907185
 30
0.0
 10
10.1825100077
 20
8.8754604143
 30
0.0
 10
10.1836697336
 20
8.8826975819
 30
0.0
 10
10.1875793314
 20
8.8954373877
 30
0.0
 10
10.1922719079
 20
8.9039447021
 30
0.0
 10
10.1960574084
 20
8.9086131636
 30
0.0
  0
SPLINE
  5
2BE
100
AcDbEntity
  8
0
100
AcDbSpline
 62
7
  6
CONTINUOUS
 70
0
 71
3
 72
11
 73
7
 74
0
 42
0.0000001
 43
0.0000001
 44
0.0000000001
 40
0.0
 40
0.0
 40
0.0
 40
0.0
 40
0.289046097
 40
0.5547723498
 40
0.7917026647
 40
1.0
 40
1.0
 40
1.0
 40
1.0
 10
10.1979854614
 20
8.8716907185
 30
0.0
 10
10.1982777611
 20
8.8754511846
 30
0.0
 10
10.1992488802
 20
8.8826449734
 30
0.0
 10
10.2018473077
 20
8.8926702741
 30
0.0
 10
10.2053040674
 20
8.9013070926
 30
0.0
 10
10.2082009337
 20
8.9063716826
 30
0.0
 10
10.209738419
 20
8.9086131636
 30
0.0
  0
SPLINE
  5
2BF
100
AcDbEntity
  8
0
100
AcDbSpline
 62
7
  6
CONTINUOUS
 70
0
 71
3
 72
11
 73
7
 74
0
 42
0.0000001
 43
0.0000001
 44
0.0000000001
 40
0.0
 40
0.0
 40
0.0
 40
0.0
 40
0.2936903309
 40
0.5615180201
 40
0.7970736929
 40
1.0
 40
1.0
 40
1.0
 40
1.0
 10
10.217929842
 20
8.8716907185
 30
0.0
 10
10.2181660384
 20
8.8754431374
 30
0.0
 10
10.2189468333
 20
8.8826022009
 30
0.0
 10
10.2210410633
 20
8.8926068633
 30
0.0
 10
10.2238265188
 20
8.9012277874
 30
0.0
 10
10.2261858609
 20
8.9063421159
 30
0.0
 10
10.2274473324
 20
8.9086131636
 30
0.0
  0
SPLINE
  5
2C0
100
AcDbEntity
  8
0
100
AcDbSpline
 62
7
  6
CONTINUOUS
 70
0
 71
3
 72
11
 73
7
 74
0
 42
0.0000001
 43
0.0000001
 44
0.0000000001
 40
0.0
 40
0.0
 40
0.0
 40
0.0
 40
0.2977421967
 40
0.5674434198
 40
0.8018395582
 40
1.0
 40
1.0
 40
1.0
 40
1.0
 10
10.2418361692
 20
8.8716907185
 30
0.0
 10
10.2420146724
 20
8.8754365563
 30
0.0
 10
10.2426023008
 20
8.882566767
 30
0.0
 10
10.2441811279
 20
8.8925521848
 30
0.0
 10
10.2462799185
 20
8.9011552055
 30
0.0
 10
10.2480740695
 20
8.9063124636
 30
0.0
 10
10.2490415589
 20
8.9086131636
 30
0.0
  0
SPLINE
  5
2C1
100
AcDbEntity
  8
0
100
AcDbSpline
 62
7
  6
CONTINUOUS
 70
0
 71
3
 72
11
 73
7
 74
0
 42
0.0000001
 43
0.0000001
 44
0.0000000001
 40
0.0
 40
0.0
 40
0.0
 40
0.0
 40
0.3009111973
 40
0.572103763
 40
0.8056204481
 40
1.0
 40
1.0
 40
1.0
 40
1.0
 10
10.2695119527
 20
8.8716907185
 30
0.0
 10
10.2696315836
 20
8.8754316772
 30
0.0
 10
10.2700241867
 20
8.8825402455
 30
0.0
 10
10.2710801534
 20
8.892509879
 30
0.0
 10
10.2724830128
 20
8.9010963337
 30
0.0
 10
10.2736905832
 20
8.9062862579
 30
0.0
 10
10.2743472249
 20
8.9086131636
 30
0.0
  0
SPLINE
  5
2C2
100
AcDbEntity
  8
0
100
AcDbSpline
 62
7
  6
CONTINUOUS
 70
0
 71
3
 72
11
 73
7
 74
0
 42
0.0000001
 43
0.0000001
 44
0.0000000001
 40
0.0
 40
0.0
 40
0.0
 40
0.0
 40
0.3018986973
 40
0.5776610341
 40
0.8118155429
 40
1.0
 40
1.0
 40
1.0
 40
1.0
 10
10.3006720441
 20
8.863891804
 30
0.0
 10
10.3006720441
 20
8.8684022268
 30
0.0
 10
10.3007895245
 20
8.8770330877
 30
0.0
 10
10.3012969569
 20
8.8891529708
 30
0.0
 10
10.3020629462
 20
8.8995562879
 30
0.0
 10
10.3027663984
 20
8.9058294216
 30
0.0
 10
10.3031605726
 20
8.9086131636
 30
0.0
  0
SPLINE
  5
2C3
100
AcDbEntity
  8
0
100
AcDbSpline
 62
7
  6
CONTINUOUS
 70
0
 71
3
 72
11
 73
7
 74
0
 42
0.0000001
 43
0.0000001
 44
0.0000000001
 40
0.0
 40
0.0
 40
0.0
 40
0.0
 40
0.3023765841
 40
0.5784042984
 40
0.812444575
 40
1.0
 40
1.0
 40
1.0
 40
1.0
 10
11.1024841676
 20
8.863891804
 30
0.0
 10
11.1024841676
 20
8.8593817114
 30
0.0
 10
11.1024251762
 20
8.850754407
 30
0.0
 10
11.1021703976
 20
8.8386386197
 30
0.0
 10
11.1017858343
 20
8.828239907
 30
0.0
 10
11.1014323351
 20
8.8219608708
 30
0.0
 10
11.1012338067
 20
8.8191704445
 30
0.0
  0
SPLINE
  5
2C4
100
AcDbEntity
  8
0
100
AcDbSpline
 62
7
  6
CONTINUOUS
 70
0
 71
3
 72
11
 73
7
 74
0
 42
0.0000001
 43
0.0000001
 44
0.0000000001
 40
0.0
 40
0.0
 40
0.0
 40
0.0
 40
0.3011063227
 40
0.5764297571
 40
0.810775286
 40
1.0
 40
1.0
 40
1.0
 40
1.0
 10
11.1354414725
 20
8.863891804
 30
0.0
 10
11.1354414725
 20
8.8593808289
 30
0.0
 10
11.1352650222
 20
8.850744015
 30
0.0
 10
11.1345027873
 20
8.8386173672
 30
0.0
 10
11.1333519819
 20
8.8282065351
 30
0.0
 10
11.1322968446
 20
8.8219433943
 30
0.0
 10
11.1317077248
 20
8.8191704445
 30
0.0
  0
SPLINE
  5
2C5
100
AcDbEntity
  8
0
100
AcDbSpline
 62
7
  6
CONTINUOUS
 70
0
 71
3
 72
11
 73
7
 74
0
 42
0.0000001
 43
0.0000001
 44
0.0000000001
 40
0.0
 40
0.0
 40
0.0
 40
0.0
 40
0.299446896
 40
0.5699475176
 40
0.8038674925
 40
1.0
 40
1.0
 40
1.0
 40
1.0
 10
11.1648181407
 20
8.8560928895
 30
0.0
 10
11.1646688084
 20
8.8523497047
 30
0.0
 10
11.1641780376
 20
8.8452312364
 30
0.0
 10
11.1628586455
 20
8.8352542321
 30
0.0
 10
11.1611052879
 20
8.8266598499
 30
0.0
 10
11.1596007713
 20
8.8214848809
 30
0.0
 10
11.1587859789
 20
8.8191704445
 30
0.0
  0
SPLINE
  5
2C6
100
AcDbEntity
  8
0
100
AcDbSpline
 62
7
  6
CONTINUOUS
 70
0
 71
3
 72
11
 73
7
 74
0
 42
0.0000001
 43
0.0000001
 44
0.0000000001
 40
0.0
 40
0.0
 40
0.0
 40
0.0
 40
0.2957987234
 40
0.5645966335
 40
0.7995441555
 40
1.0
 40
1.0
 40
1.0
 40
1.0
 10
11.1906260263
 20
8.8560928553
 30
0.0
 10
11.1904183634
 20
8.8523439137
 30
0.0
 10
11.1897333925
 20
8.845200037
 30
0.0
 10
11.1878944604
 20
8.8352052625
 30
0.0
 10
11.1854491654
 20
8.8265931956
 30
0.0
 10
11.1833679451
 20
8.8214564237
 30
0.0
 10
11.1822505385
 20
8.8191704445
 30
0.0
  0
SPLINE
  5
2C7
100
AcDbEntity
  8
0
100
AcDbSpline
 62
7
  6
CONTINUOUS
 70
0
 71
3
 72
11
 73
7
 74
0
 42
0.0000001
 43
0.0000001
 44
0.0000000001
 40
0.0
 40
0.0
 40
0.0
 40
0.0
 40
0.2914128451
 40
0.5582038667
 40
0.7944277609
 40
1.0
 40
1.0
 40
1.0
 40
1.0
 10
11.2125638498
 20
8.8560928896
 30
0.0
 10
11.2122992405
 20
8.852336594
 30
0.0
 10
11.2114223933
 20
8.8451607246
 30
0.0
 10
11.2090731791
 20
8.8351457406
 30
0.0
 10
11.2059480842
 20
8.8265164042
 30
0.0
 10
11.2033148847
 20
8.821426458
 30
0.0
 10
11.2019124705
 20
8.8191704445
 30
0.0
  0
SPLINE
  5
2C8
100
AcDbEntity
  8
0
100
AcDbSpline
 62
7
  6
CONTINUOUS
 70
0
 71
3
 72
10
 73
6
 74
0
 42
0.0000001
 43
0.0000001
 44
0.0000000001
 40
0.0
 40
0.0
 40
0.0
 40
0.0
 40
0.2869252884
 40
0.5518753337
 40
1.0
 40
1.0
 40
1.0
 40
1.0
 10
11.2304549651
 20
8.8560928896
 30
0.0
 10
11.2301352101
 20
8.8523279147
 30
0.0
 10
11.2290680712
 20
8.845110532
 30
0.0
 10
11.2254741581
 20
8.832427482
 30
0.0
 10
11.221152629
 20
8.823892778
 30
0.0
 10
11.2176134597
 20
8.8191704445
 30
0.0
  0
SPLINE
  5
2C9
100
AcDbEntity
  8
0
100
AcDbSpline
 62
7
  6
CONTINUOUS
 70
0
 71
3
 72
11
 73
7
 74
0
 42
0.0000001
 43
0.0000001
 44
0.0000000001
 40
0.0
 40
0.0
 40
0.0
 40
0.0
 40
0.2815584369
 40
0.5440003734
 40
0.7832413421
 40
1.0
 40
1.0
 40
1.0
 40
1.0
 10
11.2441553175
 20
8.8560928896
 30
0.0
 10
11.2437826445
 20
8.8523182097
 30
0.0
 10
11.2425337568
 20
8.8450646116
 30
0.0
 10
11.2392085215
 20
8.8350097792
 30
0.0
 10
11.2347880198
 20
8.8263575471
 30
0.0
 10
11.2311452741
 20
8.821372126
 30
0.0
 10
11.2292270839
 20
8.8191704445
 30
0.0
  0
SPLINE
  5
2CA
100
AcDbEntity
  8
0
100
AcDbSpline
 62
7
  6
CONTINUOUS
 70
0
 71
3
 72
11
 73
7
 74
0
 42
0.0000001
 43
0.0000001
 44
0.0000000001
 40
0.0
 40
0.0
 40
0.0
 40
0.0
 40
0.2765731522
 40
0.5368996405
 40
0.7777381259
 40
1.0
 40
1.0
 40
1.0
 40
1.0
 10
11.2535545936
 20
8.8560928896
 30
0.0
 10
11.2531316657
 20
8.8523078111
 30
0.0
 10
11.2517056692
 20
8.8450116959
 30
0.0
 10
11.2479241582
 20
8.8349402262
 30
0.0
 10
11.2429028936
 20
8.8262843388
 30
0.0
 10
11.2388087901
 20
8.8213498957
 30
0.0
 10
11.2366598319
 20
8.8191704445
 30
0.0
  0
SPLINE
  5
2CB
100
AcDbEntity
  8
0
100
AcDbSpline
 62
7
  6
CONTINUOUS
 70
0
 71
3
 72
11
 73
7
 74
0
 42
0.0000001
 43
0.0000001
 44
0.0000000001
 40
0.0
 40
0.0
 40
0.0
 40
0.0
 40
0.2655169624
 40
0.5219061303
 40
0.7668760853
 40
1.0
 40
1.0
 40
1.0
 40
1.0
 10
11.2585771119
 20
8.8560928896
 30
0.0
 10
11.258217731
 20
8.8531909535
 30
0.0
 10
11.2571130735
 20
8.8475278014
 30
0.0
 10
11.2543568438
 20
8.8395174223
 30
0.0
 10
11.2506975933
 20
8.8322768085
 30
0.0
 10
11.2477063243
 20
8.8279220355
 30
0.0
 10
11.2461147892
 20
8.8259074948
 30
0.0
  0
SPLINE
  5
2CC
100
AcDbEntity
  8
0
100
AcDbSpline
 62
7
  6
CONTINUOUS
 70
0
 71
3
 72
16
 73
12
 74
0
 42
0.0000001
 43
0.0000001
 44
0.0000000001
 40
0.0
 40
0.0
 40
0.0
 40
0.0
 40
0.0725476867
 40
0.1516497069
 40
0.2399101892
 40
0.340987074
 40
0.4601491037
 40
0.6050304248
 40
0.7850683948
 40
0.889441987
 40
1.0
 40
1.0
 40
1.0
 40
1.0
 10
11.4217358729
 20
7.9248089961
 30
0.0
 10
11.4231626877
 20
7.9237814171
 30
0.0
 10
11.4260334388
 20
7.921473328
 30
0.0
 10
11.4301473762
 20
7.9173475758
 30
0.0
 10
11.4341949063
 20
7.9122350657
 30
0.0
 10
11.4381295255
 20
7.9058569593
 30
0.0
 10
11.4418641532
 20
7.8978113971
 30
0.0
 10
11.4452079218
 20
7.8875543898
 30
0.0
 10
11.4472043753
 20
7.8773123875
 30
0.0
 10
11.4481620037
 20
7.8677826704
 30
0.0
 10
11.4483398643
 20
7.8625713837
 30
0.0
 10
11.4483398643
 20
7.8598918042
 30
0.0
  0
SPLINE
  5
2CD
100
AcDbEntity
  8
0
100
AcDbSpline
 62
7
  6
CONTINUOUS
 70
0
 71
3
 72
13
 73
9
 74
0
 42
0.0000001
 43
0.0000001
 44
0.0000000001
 40
0.0
 40
0.0
 40
0.0
 40
0.0
 40
0.1948664809
 40
0.3678744622
 40
0.514413227
 40
0.6387017516
 40
0.8397174984
 40
1.0
 40
1.0
 40
1.0
 40
1.0
 10
9.971627114
 20
7.8598918042
 30
0.0
 10
9.971627114
 20
7.8558271402
 30
0.0
 10
9.9720199763
 20
7.848147358
 30
0.0
 10
9.9736349417
 20
7.8375233461
 30
0.0
 10
9.9759046865
 20
7.8285326455
 30
0.0
 10
9.9791949556
 20
7.8192460174
 30
0.0
 10
9.9837959076
 20
7.8101585513
 30
0.0
 10
9.9883934671
 20
7.8041294922
 30
0.0
 10
9.9906651118
 20
7.801676495
 30
0.0
  0
SPLINE
  5
2CE
100
AcDbEntity
  8
0
100
AcDbSpline
 62
7
  6
CONTINUOUS
 70
0
 71
3
 72
13
 73
9
 74
0
 42
0.0000001
 43
0.0000001
 44
0.0000000001
 40
0.0
 40
0.0
 40
0.0
 40
0.0
 40
0.1948664809
 40
0.3678744622
 40
0.514413227
 40
0.6387017516
 40
0.8397174984
 40
1.0
 40
1.0
 40
1.0
 40
1.0
 10
11.4483398643
 20
7.8598918042
 30
0.0
 10
11.4483398643
 20
7.8558271402
 30
0.0
 10
11.4479470019
 20
7.848147358
 30
0.0
 10
11.4463320366
 20
7.8375233461
 30
0.0
 10
11.4440622918
 20
7.8285326455
 30
0.0
 10
11.4407720227
 20
7.8192460174
 30
0.0
 10
11.4361710707
 20
7.8101585513
 30
0.0
 10
11.4315735112
 20
7.8041294922
 30
0.0
 10
11.4293018664
 20
7.801676495
 30
0.0
  0
SPLINE
  5
2CF
100
AcDbEntity
  8
0
100
AcDbSpline
 62
7
  6
CONTINUOUS
 70
0
 71
3
 72
16
 73
12
 74
0
 42
0.0000001
 43
0.0000001
 44
0.0000000001
 40
0.0
 40
0.0
 40
0.0
 40
0.0
 40
0.0725476867
 40
0.1516497069
 40
0.2399101892
 40
0.340987074
 40
0.4601491037
 40
0.6050304248
 40
0.7850683948
 40
0.889441987
 40
1.0
 40
1.0
 40
1.0
 40
1.0
 10
9.9982311053
 20
7.9248089961
 30
0.0
 10
9.9968042906
 20
7.9237814171
 30
0.0
 10
9.9939335394
 20
7.921473328
 30
0.0
 10
9.9898196021
 20
7.9173475758
 30
0.0
 10
9.985772072
 20
7.9122350657
 30
0.0
 10
9.9818374528
 20
7.9058569593
 30
0.0
 10
9.9781028251
 20
7.8978113971
 30
0.0
 10
9.9747590564
 20
7.8875543898
 30
0.0
 10
9.972762603
 20
7.8773123875
 30
0.0
 10
9.9718049746
 20
7.8677826704
 30
0.0
 10
9.971627114
 20
7.8625713837
 30
0.0
 10
9.971627114
 20
7.8598918042
 30
0.0
  0
SPLINE
  5
2D0
100
AcDbEntity
  8
0
100
AcDbSpline
 62
7
  6
CONTINUOUS
 70
0
 71
3
 72
11
 73
7
 74
0
 42
0.0000001
 43
0.0000001
 44
0.0000000001
 40
0.0
 40
0.0
 40
0.0
 40
0.0
 40
0.3023763826
 40
0.5784041175
 40
0.8124445542
 40
1.0
 40
1.0
 40
1.0
 40
1.0
 10
11.1024841676
 20
8.863891804
 30
0.0
 10
11.1024841676
 20
8.8684018937
 30
0.0
 10
11.1024251763
 20
8.8770291954
 30
0.0
 10
11.1021703977
 20
8.8891449824
 30
0.0
 10
11.1017858345
 20
8.8995436981
 30
0.0
 10
11.1014323351
 20
8.905822737
 30
0.0
 10
11.1012338067
 20
8.9086131636
 30
0.0
  0
SPLINE
  5
2D1
100
AcDbEntity
  8
0
100
AcDbSpline
 62
7
  6
CONTINUOUS
 70
0
 71
3
 72
11
 73
7
 74
0
 42
0.0000001
 43
0.0000001
 44
0.0000000001
 40
0.0
 40
0.0
 40
0.0
 40
0.0
 40
0.301106122
 40
0.5764295766
 40
0.810775265
 40
1.0
 40
1.0
 40
1.0
 40
1.0
 10
11.1354414725
 20
8.863891804
 30
0.0
 10
11.1354414725
 20
8.8684027761
 30
0.0
 10
11.1352650225
 20
8.8770395874
 30
0.0
 10
11.1345027877
 20
8.8891662349
 30
0.0
 10
11.1333519825
 20
8.89957707
 30
0.0
 10
11.1322968447
 20
8.9058402135
 30
0.0
 10
11.1317077248
 20
8.9086131636
 30
0.0
  0
SPLINE
  5
2D2
100
AcDbEntity
  8
0
100
AcDbSpline
 62
7
  6
CONTINUOUS
 70
0
 71
3
 72
11
 73
7
 74
0
 42
0.0000001
 43
0.0000001
 44
0.0000000001
 40
0.0
 40
0.0
 40
0.0
 40
0.0
 40
0.2994471676
 40
0.5699490931
 40
0.8038691993
 40
1.0
 40
1.0
 40
1.0
 40
1.0
 10
11.1648182534
 20
8.8716878932
 30
0.0
 10
11.1646689647
 20
8.8754313655
 30
0.0
 10
11.1641782489
 20
8.8825503964
 30
0.0
 10
11.1628588574
 20
8.8925281875
 30
0.0
 10
11.161105432
 20
8.9011232271
 30
0.0
 10
11.1596008255
 20
8.9062985731
 30
0.0
 10
11.1587859789
 20
8.9086131636
 30
0.0
  0
SPLINE
  5
2D3
100
AcDbEntity
  8
0
100
AcDbSpline
 62
7
  6
CONTINUOUS
 70
0
 71
3
 72
11
 73
7
 74
0
 42
0.0000001
 43
0.0000001
 44
0.0000000001
 40
0.0
 40
0.0
 40
0.0
 40
0.0
 40
0.2957990877
 40
0.564598315
 40
0.7995459171
 40
1.0
 40
1.0
 40
1.0
 40
1.0
 10
11.1906261916
 20
8.871687769
 30
0.0
 10
11.1904185926
 20
8.8754370136
 30
0.0
 10
11.1897337029
 20
8.8825814858
 30
0.0
 10
11.1878947709
 20
8.8925770946
 30
0.0
 10
11.1854493749
 20
8.901189859
 30
0.0
 10
11.1833680229
 20
8.9063270252
 30
0.0
 10
11.1822505385
 20
8.9086131636
 30
0.0
  0
SPLINE
  5
2D4
100
AcDbEntity
  8
0
100
AcDbSpline
 62
7
  6
CONTINUOUS
 70
0
 71
3
 72
11
 73
7
 74
0
 42
0.0000001
 43
0.0000001
 44
0.0000000001
 40
0.0
 40
0.0
 40
0.0
 40
0.0
 40
0.291413231
 40
0.5582054271
 40
0.7944293598
 40
1.0
 40
1.0
 40
1.0
 40
1.0
 10
11.2125640488
 20
8.8716878933
 30
0.0
 10
11.2122995169
 20
8.8754444747
 30
0.0
 10
11.211422768
 20
8.8826209095
 30
0.0
 10
11.2090735527
 20
8.8926366875
 30
0.0
 10
11.205948334
 20
8.9012666881
 30
0.0
 10
11.2033149761
 20
8.906357003
 30
0.0
 10
11.2019124705
 20
8.9086131636
 30
0.0
  0
SPLINE
  5
2D5
100
AcDbEntity
  8
0
100
AcDbSpline
 62
7
  6
CONTINUOUS
 70
0
 71
3
 72
10
 73
6
 74
0
 42
0.0000001
 43
0.0000001
 44
0.0000000001
 40
0.0
 40
0.0
 40
0.0
 40
0.0
 40
0.2869257496
 40
0.5518769119
 40
1.0
 40
1.0
 40
1.0
 40
1.0
 10
11.2304552051
 20
8.8716878933
 30
0.0
 10
11.2301355436
 20
8.875453153
 30
0.0
 10
11.2290685237
 20
8.8826711042
 30
0.0
 10
11.2254746159
 20
8.8953551348
 30
0.0
 10
11.2211528692
 20
8.9038905095
 30
0.0
 10
11.2176134597
 20
8.9086131636
 30
0.0
  0
SPLINE
  5
2D6
100
AcDbEntity
  8
0
100
AcDbSpline
 62
7
  6
CONTINUOUS
 70
0
 71
3
 72
11
 73
7
 74
0
 42
0.0000001
 43
0.0000001
 44
0.0000000001
 40
0.0
 40
0.0
 40
0.0
 40
0.0
 40
0.2815588718
 40
0.5440017792
 40
0.7832427103
 40
1.0
 40
1.0
 40
1.0
 40
1.0
 10
11.2441555965
 20
8.8716878933
 30
0.0
 10
11.2437830327
 20
8.8754628569
 30
0.0
 10
11.2425342845
 20
8.8827170253
 30
0.0
 10
11.2392090434
 20
8.8927726613
 30
0.0
 10
11.2347883613
 20
8.9014255639
 30
0.0
 10
11.2311453964
 20
8.9064113417
 30
0.0
 10
11.2292270839
 20
8.9086131636
 30
0.0
  0
SPLINE
  5
2D7
100
AcDbEntity
  8
0
100
AcDbSpline
 62
7
  6
CONTINUOUS
 70
0
 71
3
 72
11
 73
7
 74
0
 42
0.0000001
 43
0.0000001
 44
0.0000000001
 40
0.0
 40
0.0
 40
0.0
 40
0.0
 40
0.2765735729
 40
0.5369009119
 40
0.7777393387
 40
1.0
 40
1.0
 40
1.0
 40
1.0
 10
11.2535549094
 20
8.8716878932
 30
0.0
 10
11.2531321056
 20
8.8754732543
 30
0.0
 10
11.251706268
 20
8.882769943
 30
0.0
 10
11.2479247475
 20
8.8928422216
 30
0.0
 10
11.242903275
 20
8.9014987814
 30
0.0
 10
11.2388089258
 20
8.9064335748
 30
0.0
 10
11.2366598319
 20
8.9086131636
 30
0.0
  0
SPLINE
  5
2D8
100
AcDbEntity
  8
0
100
AcDbSpline
 62
7
  6
CONTINUOUS
 70
0
 71
3
 72
11
 73
7
 74
0
 42
0.0000001
 43
0.0000001
 44
0.0000000001
 40
0.0
 40
0.0
 40
0.0
 40
0.0
 40
0.2655168654
 40
0.5219063961
 40
0.766876625
 40
1.0
 40
1.0
 40
1.0
 40
1.0
 10
11.2585774619
 20
8.8716878933
 30
0.0
 10
11.2582181871
 20
8.8745900402
 30
0.0
 10
11.2571136849
 20
8.880253625
 30
0.0
 10
11.2543575219
 20
8.8882646411
 30
0.0
 10
11.2506981925
 20
8.8955058327
 30
0.0
 10
11.2477067868
 20
8.8998609434
 30
0.0
 10
11.2461151693
 20
8.9018756321
 30
0.0
  0
SPLINE
  5
2D9
100
AcDbEntity
  8
0
100
AcDbSpline
 62
7
  6
CONTINUOUS
 70
0
 71
3
 72
9
 73
5
 74
0
 42
0.0000001
 43
0.0000001
 44
0.0000000001
 40
0.0
 40
0.0
 40
0.0
 40
0.0
 40
0.5241506519
 40
1.0
 40
1.0
 40
1.0
 40
1.0
 10
10.1633625596
 20
8.8560957452
 30
0.0
 10
10.1640314981
 20
8.8504187963
 30
0.0
 10
10.1667213713
 20
8.8396985093
 30
0.0
 10
10.172105825
 20
8.8300556413
 30
0.0
 10
10.1752247115
 20
8.825907979
 30
0.0
  0
SPLINE
  5
2DA
100
AcDbEntity
  8
0
100
AcDbSpline
 62
7
  6
CONTINUOUS
 70
0
 71
3
 72
11
 73
7
 74
0
 42
0.0000001
 43
0.0000001
 44
0.0000000001
 40
0.0
 40
0.0
 40
0.0
 40
0.0
 40
0.2790622875
 40
0.540438707
 40
0.7804740512
 40
1.0
 40
1.0
 40
1.0
 40
1.0
 10
10.1705913564
 20
8.8560961819
 30
0.0
 10
10.1709892593
 20
8.8523160629
 30
0.0
 10
10.1723270207
 20
8.8450407788
 30
0.0
 10
10.1758824516
 20
8.834976344
 30
0.0
 10
10.1806067563
 20
8.8263208678
 30
0.0
 10
10.18447902
 20
8.8213607816
 30
0.0
 10
10.1865144581
 20
8.8191704445
 30
0.0
  0
SPLINE
  5
2DB
100
AcDbEntity
  8
0
100
AcDbSpline
 62
7
  6
CONTINUOUS
 70
0
 71
3
 72
10
 73
6
 74
0
 42
0.0000001
 43
0.0000001
 44
0.0000000001
 40
0.0
 40
0.0
 40
0.0
 40
0.0
 40
0.2844662772
 40
0.5483545165
 40
1.0
 40
1.0
 40
1.0
 40
1.0
 10
10.1821633542
 20
8.8560957452
 30
0.0
 10
10.1825096428
 20
8.8523257621
 30
0.0
 10
10.1836692383
 20
8.8450880186
 30
0.0
 10
10.1875788313
 20
8.8323472143
 30
0.0
 10
10.1922716506
 20
8.8238392232
 30
0.0
 10
10.1960574084
 20
8.8191704445
 30
0.0
  0
SPLINE
  5
2DC
100
AcDbEntity
  8
0
100
AcDbSpline
 62
7
  6
CONTINUOUS
 70
0
 71
3
 72
11
 73
7
 74
0
 42
0.0000001
 43
0.0000001
 44
0.0000000001
 40
0.0
 40
0.0
 40
0.0
 40
0.0
 40
0.2890465089
 40
0.5547739037
 40
0.7917042345
 40
1.0
 40
1.0
 40
1.0
 40
1.0
 10
10.1979852394
 20
8.8560957452
 30
0.0
 10
10.1982774527
 20
8.8523349906
 30
0.0
 10
10.1992484619
 20
8.8451406294
 30
0.0
 10
10.2018468913
 20
8.8351145239
 30
0.0
 10
10.2053037904
 20
8.8264770322
 30
0.0
 10
10.208200833
 20
8.8214120723
 30
0.0
 10
10.209738419
 20
8.8191704445
 30
0.0
  0
SPLINE
  5
2DD
100
AcDbEntity
  8
0
100
AcDbSpline
 62
7
  6
CONTINUOUS
 70
0
 71
3
 72
11
 73
7
 74
0
 42
0.0000001
 43
0.0000001
 44
0.0000000001
 40
0.0
 40
0.0
 40
0.0
 40
0.0
 40
0.2936906956
 40
0.5615196125
 40
0.7970753476
 40
1.0
 40
1.0
 40
1.0
 40
1.0
 10
10.2179296622
 20
8.8560957452
 30
0.0
 10
10.218165789
 20
8.8523430369
 30
0.0
 10
10.2189464953
 20
8.8451834028
 30
0.0
 10
10.2210407257
 20
8.8351779401
 30
0.0
 10
10.223826292
 20
8.8265563464
 30
0.0
 10
10.2261857774
 20
8.8214416426
 30
0.0
 10
10.2274473324
 20
8.8191704445
 30
0.0
  0
SPLINE
  5
2DE
100
AcDbEntity
  8
0
100
AcDbSpline
 62
7
  6
CONTINUOUS
 70
0
 71
3
 72
11
 73
7
 74
0
 42
0.0000001
 43
0.0000001
 44
0.0000000001
 40
0.0
 40
0.0
 40
0.0
 40
0.0
 40
0.297742502
 40
0.5674450181
 40
0.8018412665
 40
1.0
 40
1.0
 40
1.0
 40
1.0
 10
10.2418360331
 20
8.8560957452
 30
0.0
 10
10.2420144837
 20
8.8523496172
 30
0.0
 10
10.2426020455
 20
8.8452188373
 30
0.0
 10
10.2441808722
 20
8.8352326229
 30
0.0
 10
10.2462797452
 20
8.8266289362
 30
0.0
 10
10.2480740047
 20
8.8214712986
 30
0.0
 10
10.2490415589
 20
8.8191704445
 30
0.0
  0
SPLINE
  5
2DF
100
AcDbEntity
  8
0
100
AcDbSpline
 62
7
  6
CONTINUOUS
 70
0
 71
3
 72
11
 73
7
 74
0
 42
0.0000001
 43
0.0000001
 44
0.0000000001
 40
0.0
 40
0.0
 40
0.0
 40
0.0
 40
0.3009114443
 40
0.5721053477
 40
0.8056221846
 40
1.0
 40
1.0
 40
1.0
 40
1.0
 10
10.2695118613
 20
8.8560957452
 30
0.0
 10
10.269631457
 20
8.8523544956
 30
0.0
 10
10.2700240156
 20
8.8452453591
 30
0.0
 10
10.2710799818
 20
8.8352749318
 30
0.0
 10
10.2724828957
 20
8.826687814
 30
0.0
 10
10.2736905388
 20
8.8214975075
 30
0.0
 10
10.2743472249
 20
8.8191704445
 30
0.0
  0
SPLINE
  5
2E0
100
AcDbEntity
  8
0
100
AcDbSpline
 62
7
  6
CONTINUOUS
 70
0
 71
3
 72
11
 73
7
 74
0
 42
0.0000001
 43
0.0000001
 44
0.0000000001
 40
0.0
 40
0.0
 40
0.0
 40
0.0
 40
0.3018984942
 40
0.5776608522
 40
0.811815522
 40
1.0
 40
1.0
 40
1.0
 40
1.0
 10
10.3006720441
 20
8.863891804
 30
0.0
 10
10.3006720441
 20
8.8593813844
 30
0.0
 10
10.3007895244
 20
8.8507505262
 30
0.0
 10
10.3012969567
 20
8.8386306433
 30
0.0
 10
10.3020629458
 20
8.8282273232
 30
0.0
 10
10.3027663983
 20
8.8219541868
 30
0.0
 10
10.3031605726
 20
8.8191704445
 30
0.0
  0
SPLINE
  5
2E1
100
AcDbEntity
  8
0
100
AcDbSpline
 62
7
  6
CONTINUOUS
 70
0
 71
3
 72
13
 73
9
 74
0
 42
0.0000001
 43
0.0000001
 44
0.0000000001
 40
0.0
 40
0.0
 40
0.0
 40
0.0
 40
0.1305780795
 40
0.2603711224
 40
0.3886831768
 40
0.5151196376
 40
0.7613536117
 40
1.0
 40
1.0
 40
1.0
 40
1.0
 10
10.55668271
 20
8.863891804
 30
0.0
 10
10.55668271
 20
8.8616047092
 30
0.0
 10
10.5569899351
 20
8.857038366
 30
0.0
 10
10.5583485523
 20
8.8503483922
 30
0.0
 10
10.5605394817
 20
8.8439592355
 30
0.0
 10
10.5644042052
 20
8.836060051
 30
0.0
 10
10.5707844451
 20
8.8273410726
 30
0.0
 10
10.5771704491
 20
8.8216498541
 30
0.0
 10
10.5805356123
 20
8.8191704445
 30
0.0
  0
SPLINE
  5
2E2
100
AcDbEntity
  8
0
100
AcDbSpline
 62
7
  6
CONTINUOUS
 70
0
 71
3
 72
12
 73
8
 74
0
 42
0.0000001
 43
0.0000001
 44
0.0000000001
 40
0.0
 40
0.0
 40
0.0
 40
0.0
 40
0.2840980014
 40
0.4203781181
 40
0.5505366135
 40
0.7893550622
 40
1.0
 40
1.0
 40
1.0
 40
1.0
 10
10.5947903674
 20
8.863891804
 30
0.0
 10
10.5947903674
 20
8.8684162505
 30
0.0
 10
10.59426123
 20
8.8751285575
 30
0.0
 10
10.5925092851
 20
8.8837268463
 30
0.0
 10
10.5902594673
 20
8.8914606818
 30
0.0
 10
10.5866066869
 20
8.8999876787
 30
0.0
 10
10.5826488431
 20
8.9060077868
 30
0.0
 10
10.5805356123
 20
8.9086131636
 30
0.0
  0
SPLINE
  5
2E3
100
AcDbEntity
  8
0
100
AcDbSpline
 62
7
  6
CONTINUOUS
 70
0
 71
3
 72
13
 73
9
 74
0
 42
0.0000001
 43
0.0000001
 44
0.0000000001
 40
0.0
 40
0.0
 40
0.0
 40
0.0
 40
0.1325014327
 40
0.2639481629
 40
0.3934168907
 40
0.5203571526
 40
0.7653985681
 40
1.0
 40
1.0
 40
1.0
 40
1.0
 10
10.6046489947
 20
8.863891804
 30
0.0
 10
10.6046489947
 20
8.8616052837
 30
0.0
 10
10.6049378484
 20
8.8570451832
 30
0.0
 10
10.6062158981
 20
8.8503605769
 30
0.0
 10
10.608277632
 20
8.8439748197
 30
0.0
 10
10.6119055375
 20
8.8360997463
 30
0.0
 10
10.6178874856
 20
8.8274000065
 30
0.0
 10
10.6239386689
 20
8.8216639517
 30
0.0
 10
10.6271280413
 20
8.8191704445
 30
0.0
  0
SPLINE
  5
2E4
100
AcDbEntity
  8
0
100
AcDbSpline
 62
7
  6
CONTINUOUS
 70
0
 71
3
 72
11
 73
7
 74
0
 42
0.0000001
 43
0.0000001
 44
0.0000000001
 40
0.0
 40
0.0
 40
0.0
 40
0.0
 40
0.2792974051
 40
0.543091214
 40
0.7834030944
 40
1.0
 40
1.0
 40
1.0
 40
1.0
 10
10.6434636251
 20
8.863891804
 30
0.0
 10
10.6434636251
 20
8.8684207722
 30
0.0
 10
10.6426631262
 20
8.877249457
 30
0.0
 10
10.6392205619
 20
8.8895498166
 30
0.0
 10
10.634023261
 20
8.9000909368
 30
0.0
 10
10.6295192392
 20
8.9060406111
 30
0.0
 10
10.6271280413
 20
8.9086131636
 30
0.0
  0
SPLINE
  5
2E5
100
AcDbEntity
  8
0
100
AcDbSpline
 62
7
  6
CONTINUOUS
 70
0
 71
3
 72
11
 73
7
 74
0
 42
0.0000001
 43
0.0000001
 44
0.0000000001
 40
0.0
 40
0.0
 40
0.0
 40
0.0
 40
0.2677451513
 40
0.5258671486
 40
0.7698091381
 40
1.0
 40
1.0
 40
1.0
 40
1.0
 10
10.6534634101
 20
8.863891804
 30
0.0
 10
10.6534634101
 20
8.8593507125
 30
0.0
 10
10.6545142487
 20
8.8503961205
 30
0.0
 10
10.6589994844
 20
8.8380195037
 30
0.0
 10
10.6657296914
 20
8.8274714632
 30
0.0
 10
10.6713980548
 20
8.8216814123
 30
0.0
 10
10.6743876106
 20
8.8191704445
 30
0.0
  0
SPLINE
  5
2E6
100
AcDbEntity
  8
0
100
AcDbSpline
 62
7
  6
CONTINUOUS
 70
0
 71
3
 72
13
 73
9
 74
0
 42
0.0000001
 43
0.0000001
 44
0.0000000001
 40
0.0
 40
0.0
 40
0.0
 40
0.0
 40
0.1252157553
 40
0.2504289768
 40
0.3755877089
 40
0.5007137205
 40
0.7503775159
 40
1.0
 40
1.0
 40
1.0
 40
1.0
 10
10.3426802742
 20
8.863891804
 30
0.0
 10
10.3426802742
 20
8.8661806743
 30
0.0
 10
10.3430392963
 20
8.870766241
 30
0.0
 10
10.3446242275
 20
8.8774718397
 30
0.0
 10
10.3471765921
 20
8.8838695751
 30
0.0
 10
10.3517088294
 20
8.8918334481
 30
0.0
 10
10.3592025662
 20
8.9005911692
 30
0.0
 10
10.3665039995
 20
8.9061671196
 30
0.0
 10
10.370355934
 20
8.9086131636
 30
0.0
  0
SPLINE
  5
2E7
100
AcDbEntity
  8
0
100
AcDbSpline
 62
7
  6
CONTINUOUS
 70
0
 71
3
 72
11
 73
7
 74
0
 42
0.0000001
 43
0.0000001
 44
0.0000000001
 40
0.0
 40
0.0
 40
0.0
 40
0.0
 40
0.3018960188
 40
0.5776570036
 40
0.8118122669
 40
1.0
 40
1.0
 40
1.0
 40
1.0
 10
10.3728492928
 20
8.863891804
 30
0.0
 10
10.3728492928
 20
8.8593813826
 30
0.0
 10
10.3727315842
 20
8.850750506
 30
0.0
 10
10.3722231651
 20
8.8386306019
 30
0.0
 10
10.3714556859
 20
8.8282272581
 30
0.0
 10
10.3707508685
 20
8.8219541526
 30
0.0
 10
10.370355934
 20
8.8191704445
 30
0.0
  0
SPLINE
  5
2E8
100
AcDbEntity
  8
0
100
AcDbSpline
 62
7
  6
CONTINUOUS
 70
0
 71
3
 72
13
 73
9
 74
0
 42
0.0000001
 43
0.0000001
 44
0.0000000001
 40
0.0
 40
0.0
 40
0.0
 40
0.0
 40
0.1256838253
 40
0.251294954
 40
0.3767246773
 40
0.5019595995
 40
0.751318366
 40
1.0
 40
1.0
 40
1.0
 40
1.0
 10
10.3808561698
 20
8.863891804
 30
0.0
 10
10.3808561698
 20
8.8661805081
 30
0.0
 10
10.3812106099
 20
8.8707642822
 30
0.0
 10
10.3827755837
 20
8.8774684806
 30
0.0
 10
10.385296173
 20
8.8838655283
 30
0.0
 10
10.3897694647
 20
8.8918239211
 30
0.0
 10
10.3971654768
 20
8.900579067
 30
0.0
 10
10.4043875212
 20
8.9061645096
 30
0.0
 10
10.4081969001
 20
8.9086131636
 30
0.0
  0
SPLINE
  5
2E9
100
AcDbEntity
  8
0
100
AcDbSpline
 62
7
  6
CONTINUOUS
 70
0
 71
3
 72
11
 73
7
 74
0
 42
0.0000001
 43
0.0000001
 44
0.0000000001
 40
0.0
 40
0.0
 40
0.0
 40
0.0
 40
0.3000265878
 40
0.574754331
 40
0.8093634673
 40
1.0
 40
1.0
 40
1.0
 40
1.0
 10
10.4131611167
 20
8.863891804
 30
0.0
 10
10.4131611167
 20
8.8593800691
 30
0.0
 10
10.4129261727
 20
8.8507350355
 30
0.0
 10
10.4119111335
 20
8.8385992222
 30
0.0
 10
10.4103783083
 20
8.8281784031
 30
0.0
 10
10.4089761705
 20
8.8219292483
 30
0.0
 10
10.4081969001
 20
8.8191704445
 30
0.0
  0
SPLINE
  5
2EA
100
AcDbEntity
  8
0
100
AcDbSpline
 62
7
  6
CONTINUOUS
 70
0
 71
3
 72
13
 73
9
 74
0
 42
0.0000001
 43
0.0000001
 44
0.0000000001
 40
0.0
 40
0.0
 40
0.0
 40
0.0
 40
0.1264608216
 40
0.2527332782
 40
0.3786146658
 40
0.5040326839
 40
0.7528873658
 40
1.0
 40
1.0
 40
1.0
 40
1.0
 10
10.421682152
 20
8.863891804
 30
0.0
 10
10.421682152
 20
8.8661802371
 30
0.0
 10
10.4220290179
 20
8.8707610858
 30
0.0
 10
10.4235609719
 20
8.8774629742
 30
0.0
 10
10.4260289443
 20
8.8838588522
 30
0.0
 10
10.4304047304
 20
8.8918080733
 30
0.0
 10
10.4376388229
 20
8.9005586209
 30
0.0
 10
10.4447289864
 20
8.9061600596
 30
0.0
 10
10.4484678093
 20
8.9086131636
 30
0.0
  0
SPLINE
  5
2EB
100
AcDbEntity
  8
0
100
AcDbSpline
 62
7
  6
CONTINUOUS
 70
0
 71
3
 72
11
 73
7
 74
0
 42
0.0000001
 43
0.0000001
 44
0.0000000001
 40
0.0
 40
0.0
 40
0.0
 40
0.0
 40
0.2970846889
 40
0.5702021761
 40
0.8055475711
 40
1.0
 40
1.0
 40
1.0
 40
1.0
 10
10.4558629124
 20
8.863891804
 30
0.0
 10
10.4558629124
 20
8.8593779283
 30
0.0
 10
10.4555114472
 20
8.8507098341
 30
0.0
 10
10.4539928737
 20
8.8385493137
 30
0.0
 10
10.451698288
 20
8.8281029244
 30
0.0
 10
10.4496137026
 20
8.8218936682
 30
0.0
 10
10.4484678093
 20
8.8191704445
 30
0.0
  0
SPLINE
  5
2EC
100
AcDbEntity
  8
0
100
AcDbSpline
 62
7
  6
CONTINUOUS
 70
0
 71
3
 72
13
 73
9
 74
0
 42
0.0000001
 43
0.0000001
 44
0.0000000001
 40
0.0
 40
0.0
 40
0.0
 40
0.0
 40
0.1275417594
 40
0.2547358839
 40
0.3812493693
 40
0.5069269013
 40
0.7550851542
 40
1.0
 40
1.0
 40
1.0
 40
1.0
 10
10.4648294961
 20
8.863891804
 30
0.0
 10
10.4648294961
 20
8.86617987
 30
0.0
 10
10.4651658833
 20
8.8707567509
 30
0.0
 10
10.4666521013
 20
8.8774554566
 30
0.0
 10
10.4690471054
 20
8.8838496517
 30
0.0
 10
10.4732878942
 20
8.8917859638
 30
0.0
 10
10.4802972671
 20
8.9005294228
 30
0.0
 10
10.4872036244
 20
8.9061536137
 30
0.0
 10
10.4908444059
 20
8.9086131636
 30
0.0
  0
SPLINE
  5
2ED
100
AcDbEntity
  8
0
100
AcDbSpline
 62
7
  6
CONTINUOUS
 70
0
 71
3
 72
11
 73
7
 74
0
 42
0.0000001
 43
0.0000001
 44
0.0000000001
 40
0.0
 40
0.0
 40
0.0
 40
0.0
 40
0.2932924151
 40
0.5643626395
 40
0.8006952146
 40
1.0
 40
1.0
 40
1.0
 40
1.0
 10
10.5006108512
 20
8.863891804
 30
0.0
 10
10.5006108512
 20
8.85937503
 30
0.0
 10
10.5001439792
 20
8.850675794
 30
0.0
 10
10.49812742
 20
8.8384839818
 30
0.0
 10
10.495078572
 20
8.8280085367
 30
0.0
 10
10.4923353396
 20
8.8218533489
 30
0.0
 10
10.4908444059
 20
8.8191704445
 30
0.0
  0
SPLINE
  5
2EE
100
AcDbEntity
  8
0
100
AcDbSpline
 62
7
  6
CONTINUOUS
 70
0
 71
3
 72
13
 73
9
 74
0
 42
0.0000001
 43
0.0000001
 44
0.0000000001
 40
0.0
 40
0.0
 40
0.0
 40
0.0
 40
0.1289184099
 40
0.25728907
 40
0.3846138479
 40
0.5106299954
 40
0.7579097916
 40
1.0
 40
1.0
 40
1.0
 40
1.0
 10
10.5099507855
 20
8.863891804
 30
0.0
 10
10.5099507855
 20
8.8661794185
 30
0.0
 10
10.5102739095
 20
8.8707514124
 30
0.0
 10
10.5117021503
 20
8.8774461191
 30
0.0
 10
10.5140045165
 20
8.8838380834
 30
0.0
 10
10.518074312
 20
8.8917577144
 30
0.0
 10
10.5247981732
 20
8.9004909342
 30
0.0
 10
10.5314695316
 20
8.9061449457
 30
0.0
 10
10.5349854795
 20
8.9086131636
 30
0.0
  0
SPLINE
  5
2EF
100
AcDbEntity
  8
0
100
AcDbSpline
 62
7
  6
CONTINUOUS
 70
0
 71
3
 72
11
 73
7
 74
0
 42
0.0000001
 43
0.0000001
 44
0.0000000001
 40
0.0
 40
0.0
 40
0.0
 40
0.0
 40
0.2889017715
 40
0.5576418313
 40
0.795168157
 40
1.0
 40
1.0
 40
1.0
 40
1.0
 10
10.5470446289
 20
8.863891804
 30
0.0
 10
10.5470446289
 20
8.8593714688
 30
0.0
 10
10.5464639787
 20
8.8506341438
 30
0.0
 10
10.5439581293
 20
8.8384069476
 30
0.0
 10
10.5401686303
 20
8.8279037829
 30
0.0
 10
10.5367987791
 20
8.8218130739
 30
0.0
 10
10.5349854795
 20
8.8191704445
 30
0.0
  0
SPLINE
  5
2F0
100
AcDbEntity
  8
0
100
AcDbSpline
 62
7
  6
CONTINUOUS
 70
0
 71
3
 72
13
 73
9
 74
0
 42
0.0000001
 43
0.0000001
 44
0.0000000001
 40
0.0
 40
0.0
 40
0.0
 40
0.0
 40
0.130577979
 40
0.2603709465
 40
0.3886829915
 40
0.5151194685
 40
0.7613535855
 40
1.0
 40
1.0
 40
1.0
 40
1.0
 10
10.55668271
 20
8.863891804
 30
0.0
 10
10.55668271
 20
8.8661788972
 30
0.0
 10
10.5569899336
 20
8.8707452373
 30
0.0
 10
10.5583485507
 20
8.8774352078
 30
0.0
 10
10.5605394773
 20
8.8838243642
 30
0.0
 10
10.5644042026
 20
8.8917235507
 30
0.0
 10
10.570784442
 20
8.9004425336
 30
0.0
 10
10.5771704487
 20
8.9061337538
 30
0.0
 10
10.5805356123
 20
8.9086131636
 30
0.0
  0
SPLINE
  5
2F1
100
AcDbEntity
  8
0
100
AcDbSpline
 62
7
  6
CONTINUOUS
 70
0
 71
3
 72
12
 73
8
 74
0
 42
0.0000001
 43
0.0000001
 44
0.0000000001
 40
0.0
 40
0.0
 40
0.0
 40
0.0
 40
0.2840978091
 40
0.4203779229
 40
0.550536437
 40
0.7893550388
 40
1.0
 40
1.0
 40
1.0
 40
1.0
 10
10.5947903674
 20
8.863891804
 30
0.0
 10
10.5947903674
 20
8.8593673607
 30
0.0
 10
10.5942612303
 20
8.8526550569
 30
0.0
 10
10.5925092877
 20
8.8440567704
 30
0.0
 10
10.5902594688
 20
8.8363229325
 30
0.0
 10
10.586606689
 20
8.8277959319
 30
0.0
 10
10.5826488434
 20
8.8217758216
 30
0.0
 10
10.5805356123
 20
8.8191704445
 30
0.0
  0
SPLINE
  5
2F2
100
AcDbEntity
  8
0
100
AcDbSpline
 62
7
  6
CONTINUOUS
 70
0
 71
3
 72
13
 73
9
 74
0
 42
0.0000001
 43
0.0000001
 44
0.0000000001
 40
0.0
 40
0.0
 40
0.0
 40
0.0
 40
0.1325013252
 40
0.263947978
 40
0.3934167065
 40
0.5203569906
 40
0.765398542
 40
1.0
 40
1.0
 40
1.0
 40
1.0
 10
10.6046489947
 20
8.863891804
 30
0.0
 10
10.6046489947
 20
8.8661783226
 30
0.0
 10
10.6049378469
 20
8.87073842
 30
0.0
 10
10.6062158966
 20
8.877423023
 30
0.0
 10
10.6082776279
 20
8.88380878
 30
0.0
 10
10.6119055351
 20
8.8916838557
 30
0.0
 10
10.6178874827
 20
8.9003835997
 30
0.0
 10
10.6239386686
 20
8.9061196561
 30
0.0
 10
10.6271280413
 20
8.9086131636
 30
0.0
  0
SPLINE
  5
2F3
100
AcDbEntity
  8
0
100
AcDbSpline
 62
7
  6
CONTINUOUS
 70
0
 71
3
 72
11
 73
7
 74
0
 42
0.0000001
 43
0.0000001
 44
0.0000000001
 40
0.0
 40
0.0
 40
0.0
 40
0.0
 40
0.2792972018
 40
0.5430910472
 40
0.7834030693
 40
1.0
 40
1.0
 40
1.0
 40
1.0
 10
10.6434636251
 20
8.863891804
 30
0.0
 10
10.6434636251
 20
8.8593628392
 30
0.0
 10
10.6426631272
 20
8.8505341571
 30
0.0
 10
10.6392205637
 20
8.8382337977
 30
0.0
 10
10.6340232631
 20
8.8276926737
 30
0.0
 10
10.6295192395
 20
8.8217429973
 30
0.0
 10
10.6271280413
 20
8.8191704445
 30
0.0
  0
SPLINE
  5
2F4
100
AcDbEntity
  8
0
100
AcDbSpline
 62
7
  6
CONTINUOUS
 70
0
 71
3
 72
11
 73
7
 74
0
 42
0.0000001
 43
0.0000001
 44
0.0000000001
 40
0.0
 40
0.0
 40
0.0
 40
0.0
 40
0.2677449709
 40
0.5258669767
 40
0.7698091125
 40
1.0
 40
1.0
 40
1.0
 40
1.0
 10
10.6534634101
 20
8.863891804
 30
0.0
 10
10.6534634101
 20
8.8684328925
 30
0.0
 10
10.6545142474
 20
8.8773874816
 30
0.0
 10
10.6589994821
 20
8.8897640982
 30
0.0
 10
10.6657296887
 20
8.9003121427
 30
0.0
 10
10.6713980545
 20
8.9061021955
 30
0.0
 10
10.6743876106
 20
8.9086131636
 30
0.0
  0
SPLINE
  5
2F5
100
AcDbEntity
  8
0
100
AcDbSpline
 62
7
  6
CONTINUOUS
 70
0
 71
3
 72
12
 73
8
 74
0
 42
0.0000001
 43
0.0000001
 44
0.0000000001
 40
0.0
 40
0.0
 40
0.0
 40
0.0
 40
0.2744130908
 40
0.5357334563
 40
0.6593137114
 40
0.7777497906
 40
1.0
 40
1.0
 40
1.0
 40
1.0
 10
10.6926724905
 20
8.863891804
 30
0.0
 10
10.6926724905
 20
8.8593580497
 30
0.0
 10
10.6917684374
 20
8.8504806888
 30
0.0
 10
10.6884748013
 20
8.8400158518
 30
0.0
 10
10.6847847722
 20
8.8325484712
 30
0.0
 10
10.680712559
 20
8.8260378234
 30
0.0
 10
10.6770349784
 20
8.8217149626
 30
0.0
 10
10.6743876106
 20
8.8191704445
 30
0.0
  0
SPLINE
  5
2F6
100
AcDbEntity
  8
0
100
AcDbSpline
 62
7
  6
CONTINUOUS
 70
0
 71
3
 72
11
 73
7
 74
0
 42
0.0000001
 43
0.0000001
 44
0.0000000001
 40
0.0
 40
0.0
 40
0.0
 40
0.0
 40
0.2721796125
 40
0.5324427668
 40
0.7749582855
 40
1.0
 40
1.0
 40
1.0
 40
1.0
 10
10.7027329212
 20
8.863891804
 30
0.0
 10
10.7027329212
 20
8.8684279932
 30
0.0
 10
10.7036877135
 20
8.8773320538
 30
0.0
 10
10.7077768144
 20
8.8896812901
 30
0.0
 10
10.7139300405
 20
8.9002313355
 30
0.0
 10
10.7191671506
 20
8.906080862
 30
0.0
 10
10.7219337929
 20
8.9086131636
 30
0.0
  0
SPLINE
  5
2F7
100
AcDbEntity
  8
0
100
AcDbSpline
 62
7
  6
CONTINUOUS
 70
0
 71
3
 72
11
 73
7
 74
0
 42
0.0000001
 43
0.0000001
 44
0.0000000001
 40
0.0
 40
0.0
 40
0.0
 40
0.0
 40
0.2699100793
 40
0.5290718006
 40
0.7723125173
 40
1.0
 40
1.0
 40
1.0
 40
1.0
 10
10.742020742
 20
8.863891804
 30
0.0
 10
10.742020742
 20
8.8593531478
 30
0.0
 10
10.7410168922
 20
8.8504235811
 30
0.0
 10
10.7367247783
 20
8.8380600034
 30
0.0
 10
10.730274967
 20
8.827510293
 30
0.0
 10
10.724815268
 20
8.8216915108
 30
0.0
 10
10.7219337929
 20
8.8191704445
 30
0.0
  0
SPLINE
  5
2F8
100
AcDbEntity
  8
0
100
AcDbSpline
 62
7
  6
CONTINUOUS
 70
0
 71
3
 72
11
 73
7
 74
0
 42
0.0000001
 43
0.0000001
 44
0.0000000001
 40
0.0
 40
0.0
 40
0.0
 40
0.0
 40
0.2768902225
 40
0.5394771332
 40
0.7805218751
 40
1.0
 40
1.0
 40
1.0
 40
1.0
 10
10.7520608127
 20
8.863891804
 30
0.0
 10
10.7520608127
 20
8.8684231283
 30
0.0
 10
10.7529137702
 20
8.8772765379
 30
0.0
 10
10.7565773919
 20
8.8895940301
 30
0.0
 10
10.7621033428
 20
8.9001399217
 30
0.0
 10
10.7668623614
 20
8.9060551546
 30
0.0
 10
10.769383753
 20
8.9086131636
 30
0.0
  0
SPLINE
  5
2F9
100
AcDbEntity
  8
0
100
AcDbSpline
 62
7
  6
CONTINUOUS
 70
0
 71
3
 72
11
 73
7
 74
0
 42
0.0000001
 43
0.0000001
 44
0.0000000001
 40
0.0
 40
0.0
 40
0.0
 40
0.0
 40
0.2656534895
 40
0.5227814161
 40
0.7674097096
 40
1.0
 40
1.0
 40
1.0
 40
1.0
 10
10.7911110341
 20
8.863891804
 30
0.0
 10
10.7911110341
 20
8.8593482907
 30
0.0
 10
10.7900145204
 20
8.8503688769
 30
0.0
 10
10.7853428984
 20
8.8379803036
 30
0.0
 10
10.7783437264
 20
8.8274350681
 30
0.0
 10
10.7724766459
 20
8.8216721884
 30
0.0
 10
10.769383753
 20
8.8191704445
 30
0.0
  0
SPLINE
  5
2FA
100
AcDbEntity
  8
0
100
AcDbSpline
 62
7
  6
CONTINUOUS
 70
0
 71
3
 72
11
 73
7
 74
0
 42
0.0000001
 43
0.0000001
 44
0.0000000001
 40
0.0
 40
0.0
 40
0.0
 40
0.0
 40
0.2817443296
 40
0.5467786123
 40
0.7863594351
 40
1.0
 40
1.0
 40
1.0
 40
1.0
 10
10.8010499037
 20
8.863891804
 30
0.0
 10
10.8010499037
 20
8.8684184545
 30
0.0
 10
10.8017964021
 20
8.8772227697
 30
0.0
 10
10.8050102951
 20
8.8895051594
 30
0.0
 10
10.8098659165
 20
8.900039527
 30
0.0
 10
10.8141011666
 20
8.9060247131
 30
0.0
 10
10.8163554306
 20
8.9086131636
 30
0.0
  0
SPLINE
  5
2FB
100
AcDbEntity
  8
0
100
AcDbSpline
 62
7
  6
CONTINUOUS
 70
0
 71
3
 72
13
 73
9
 74
0
 42
0.0000001
 43
0.0000001
 44
0.0000000001
 40
0.0
 40
0.0
 40
0.0
 40
0.0
 40
0.1315035052
 40
0.2620915345
 40
0.3909585166
 40
0.517635189
 40
0.7632927696
 40
1.0
 40
1.0
 40
1.0
 40
1.0
 10
10.8395480987
 20
8.863891804
 30
0.0
 10
10.8395480987
 20
8.8616049913
 30
0.0
 10
10.8392497164
 20
8.8570416958
 30
0.0
 10
10.8379298671
 20
8.8503543249
 30
0.0
 10
10.8358010769
 20
8.8439667858
 30
0.0
 10
10.8320503772
 20
8.8360791489
 30
0.0
 10
10.8258617291
 20
8.8273690462
 30
0.0
 10
10.8196361906
 20
8.8216564788
 30
0.0
 10
10.8163554306
 20
8.8191704445
 30
0.0
  0
SPLINE
  5
2FC
100
AcDbEntity
  8
0
100
AcDbSpline
 62
7
  6
CONTINUOUS
 70
0
 71
3
 72
11
 73
7
 74
0
 42
0.0000001
 43
0.0000001
 44
0.0000000001
 40
0.0
 40
0.0
 40
0.0
 40
0.0
 40
0.2865722604
 40
0.5540935584
 40
0.7922742765
 40
1.0
 40
1.0
 40
1.0
 40
1.0
 10
10.8493057406
 20
8.863891804
 30
0.0
 10
10.8493057406
 20
8.868414123
 30
0.0
 10
10.8499421956
 20
8.8771725692
 30
0.0
 10
10.8526871083
 20
8.8894181085
 30
0.0
 10
10.856837642
 20
8.8999333283
 30
0.0
 10
10.8605053085
 20
8.9059895662
 30
0.0
 10
10.8624706164
 20
8.9086131636
 30
0.0
  0
SPLINE
  5
2FD
100
AcDbEntity
  8
0
100
AcDbSpline
 62
7
  6
CONTINUOUS
 70
0
 71
3
 72
13
 73
9
 74
0
 42
0.0000001
 43
0.0000001
 44
0.0000000001
 40
0.0
 40
0.0
 40
0.0
 40
0.0
 40
0.1297098169
 40
0.2587582039
 40
0.3865525323
 40
0.5127674685
 40
0.7595467429
 40
1.0
 40
1.0
 40
1.0
 40
1.0
 10
10.8869419273
 20
8.863891804
 30
0.0
 10
10.8869419273
 20
8.8616044412
 30
0.0
 10
10.8866263947
 20
8.8570351753
 30
0.0
 10
10.8852313823
 20
8.850342739
 30
0.0
 10
10.8829821761
 20
8.8439520982
 30
0.0
 10
10.8790102937
 20
8.8360421728
 30
0.0
 10
10.8724503405
 20
8.8273154775
 30
0.0
 10
10.8659147252
 20
8.8216438937
 30
0.0
 10
10.8624706164
 20
8.8191704445
 30
0.0
  0
SPLINE
  5
2FE
100
AcDbEntity
  8
0
100
AcDbSpline
 62
7
  6
CONTINUOUS
 70
0
 71
3
 72
11
 73
7
 74
0
 42
0.0000001
 43
0.0000001
 44
0.0000000001
 40
0.0
 40
0.0
 40
0.0
 40
0.0
 40
0.291166633
 40
0.5611032914
 40
0.7980072205
 40
1.0
 40
1.0
 40
1.0
 40
1.0
 10
10.8964397745
 20
8.863891804
 30
0.0
 10
10.8964397745
 20
8.868410274
 30
0.0
 10
10.8969635001
 20
8.8771276746
 30
0.0
 10
10.8992248242
 20
8.8893367407
 30
0.0
 10
10.9026443618
 20
8.8998264174
 30
0.0
 10
10.9057038293
 20
8.9059505325
 30
0.0
 10
10.9073579972
 20
8.9086131636
 30
0.0
  0
SPLINE
  5
2FF
100
AcDbEntity
  8
0
100
AcDbSpline
 62
7
  6
CONTINUOUS
 70
0
 71
3
 72
13
 73
9
 74
0
 42
0.0000001
 43
0.0000001
 44
0.0000000001
 40
0.0
 40
0.0
 40
0.0
 40
0.0
 40
0.128190447
 40
0.2559385871
 40
0.3828334888
 40
0.5086694465
 40
0.7564125525
 40
1.0
 40
1.0
 40
1.0
 40
1.0
 10
10.9329109114
 20
8.863891804
 30
0.0
 10
10.9329109114
 20
8.861603953
 30
0.0
 10
10.9325807834
 20
8.8570293978
 30
0.0
 10
10.9311219175
 20
8.8503325843
 30
0.0
 10
10.9287705985
 20
8.8439394285
 30
0.0
 10
10.9246105012
 20
8.8360109441
 30
0.0
 10
10.9177357421
 20
8.8272721372
 30
0.0
 10
10.9109399647
 20
8.8216340126
 30
0.0
 10
10.9073579972
 20
8.8191704445
 30
0.0
  0
SPLINE
  5
300
100
AcDbEntity
  8
0
100
AcDbSpline
 62
7
  6
CONTINUOUS
 70
0
 71
3
 72
11
 73
7
 74
0
 42
0.0000001
 43
0.0000001
 44
0.0000000001
 40
0.0
 40
0.0
 40
0.0
 40
0.0
 40
0.2952886137
 40
0.5674324962
 40
0.8032401977
 40
1.0
 40
1.0
 40
1.0
 40
1.0
 10
10.9420724901
 20
8.863891804
 30
0.0
 10
10.9420724901
 20
8.8684070326
 30
0.0
 10
10.9424815436
 20
8.8770896764
 30
0.0
 10
10.9442487751
 20
8.8892650956
 30
0.0
 10
10.9469199257
 20
8.8997258186
 30
0.0
 10
10.9493357577
 20
8.9059097482
 30
0.0
 10
10.9506561464
 20
8.9086131636
 30
0.0
  0
SPLINE
  5
301
100
AcDbEntity
  8
0
100
AcDbSpline
 62
7
  6
CONTINUOUS
 70
0
 71
3
 72
13
 73
9
 74
0
 42
0.0000001
 43
0.0000001
 44
0.0000000001
 40
0.0
 40
0.0
 40
0.0
 40
0.0
 40
0.126961079
 40
0.2536598561
 40
0.3798332668
 40
0.5053707112
 40
0.7539023496
 40
1.0
 40
1.0
 40
1.0
 40
1.0
 10
10.9770849162
 20
8.863891804
 30
0.0
 10
10.9770849162
 20
8.8616035426
 30
0.0
 10
10.9767429066
 20
8.8570245452
 30
0.0
 10
10.9752321468
 20
8.8503241344
 30
0.0
 10
10.9727979753
 20
8.843929027
 30
0.0
 10
10.9684847567
 20
8.8359857586
 30
0.0
 10
10.9613547381
 20
8.8272383903
 30
0.0
 10
10.9543495832
 20
8.8216264939
 30
0.0
 10
10.9506561464
 20
8.8191704445
 30
0.0
  0
SPLINE
  5
302
100
AcDbEntity
  8
0
100
AcDbSpline
 62
7
  6
CONTINUOUS
 70
0
 71
3
 72
11
 73
7
 74
0
 42
0.0000001
 43
0.0000001
 44
0.0000000001
 40
0.0
 40
0.0
 40
0.0
 40
0.0
 40
0.2986841314
 40
0.572674685
 40
0.8076165061
 40
1.0
 40
1.0
 40
1.0
 40
1.0
 10
10.9858364548
 20
8.863891804
 30
0.0
 10
10.9858364548
 20
8.8684045046
 30
0.0
 10
10.9861294883
 20
8.8770599428
 30
0.0
 10
10.9873955938
 20
8.8892070782
 30
0.0
 10
10.9893080905
 20
8.8996398747
 30
0.0
 10
10.9910522057
 20
8.9058711101
 30
0.0
 10
10.9920164333
 20
8.9086131636
 30
0.0
  0
SPLINE
  5
303
100
AcDbEntity
  8
0
100
AcDbSpline
 62
7
  6
CONTINUOUS
 70
0
 71
3
 72
13
 73
9
 74
0
 42
0.0000001
 43
0.0000001
 44
0.0000000001
 40
0.0
 40
0.0
 40
0.0
 40
0.0
 40
0.1260320664
 40
0.2519394725
 40
0.3775713474
 40
0.5028879762
 40
0.7520204642
 40
1.0
 40
1.0
 40
1.0
 40
1.0
 10
11.0191082564
 20
8.863891804
 30
0.0
 10
11.0191082564
 20
8.8616032222
 30
0.0
 10
11.018757215
 20
8.857020767
 30
0.0
 10
11.0172070566
 20
8.8503176062
 30
0.0
 10
11.0147100689
 20
8.8439210785
 30
0.0
 10
11.0102805297
 20
8.835966785
 30
0.0
 10
11.0029571329
 20
8.8272136495
 30
0.0
 10
10.995794178
 20
8.8216210745
 30
0.0
 10
10.9920164333
 20
8.8191704445
 30
0.0
  0
SPLINE
  5
304
100
AcDbEntity
  8
0
100
AcDbSpline
 62
7
  6
CONTINUOUS
 70
0
 71
3
 72
11
 73
7
 74
0
 42
0.0000001
 43
0.0000001
 44
0.0000000001
 40
0.0
 40
0.0
 40
0.0
 40
0.0
 40
0.3011115903
 40
0.576438069
 40
0.8107824323
 40
1.0
 40
1.0
 40
1.0
 40
1.0
 10
11.0273792919
 20
8.863891804
 30
0.0
 10
11.0273792919
 20
8.8684027723
 30
0.0
 10
11.0275554
 20
8.8770395422
 30
0.0
 10
11.0283161569
 20
8.8891661432
 30
0.0
 10
11.0294647297
 20
8.8995769269
 30
0.0
 10
11.0305178327
 20
8.9058401402
 30
0.0
 10
11.0311058306
 20
8.9086131636
 30
0.0
  0
SPLINE
  5
305
100
AcDbEntity
  8
0
100
AcDbSpline
 62
7
  6
CONTINUOUS
 70
0
 71
3
 72
13
 73
9
 74
0
 42
0.0000001
 43
0.0000001
 44
0.0000000001
 40
0.0
 40
0.0
 40
0.0
 40
0.0
 40
0.1254098242
 40
0.2507879804
 40
0.3760589701
 40
0.5012300123
 40
0.7507672149
 40
1.0
 40
1.0
 40
1.0
 40
1.0
 10
11.0586425684
 20
8.863891804
 30
0.0
 10
11.0586425684
 20
8.861603003
 30
0.0
 10
11.0582854471
 20
8.8570181824
 30
0.0
 10
11.0567087971
 20
8.8503131651
 30
0.0
 10
11.0541696147
 20
8.8439157132
 30
0.0
 10
11.049661837
 20
8.8359541083
 30
0.0
 10
11.0422086363
 20
8.8271974373
 30
0.0
 10
11.0349401153
 20
8.8216175643
 30
0.0
 10
11.0311058306
 20
8.8191704445
 30
0.0
  0
SPLINE
  5
306
100
AcDbEntity
  8
0
100
AcDbSpline
 62
7
  6
CONTINUOUS
 70
0
 71
3
 72
11
 73
7
 74
0
 42
0.0000001
 43
0.0000001
 44
0.0000000001
 40
0.0
 40
0.0
 40
0.0
 40
0.0
 40
0.3023782599
 40
0.5784070382
 40
0.8124470277
 40
1.0
 40
1.0
 40
1.0
 40
1.0
 10
11.0663665026
 20
8.863891804
 30
0.0
 10
11.0663665026
 20
8.8684018924
 30
0.0
 10
11.066425151
 20
8.8770291802
 30
0.0
 10
11.066678448
 20
8.8891449511
 30
0.0
 10
11.0670607748
 20
8.8995436486
 30
0.0
 10
11.0674122198
 20
8.9058227105
 30
0.0
 10
11.0676095961
 20
8.9086131636
 30
0.0
  0
SPLINE
  5
307
100
AcDbEntity
  8
0
100
AcDbSpline
 62
7
  6
CONTINUOUS
 70
0
 71
3
 72
13
 73
9
 74
0
 42
0.0000001
 43
0.0000001
 44
0.0000000001
 40
0.0
 40
0.0
 40
0.0
 40
0.0
 40
0.1250980876
 40
0.2502113378
 40
0.3753020766
 40
0.5004008743
 40
0.7501415085
 40
1.0
 40
1.0
 40
1.0
 40
1.0
 10
11.0953695265
 20
8.863891804
 30
0.0
 10
11.0953695265
 20
8.8616028917
 30
0.0
 10
11.0950093495
 20
8.8570168708
 30
0.0
 10
11.0934193931
 20
8.8503109192
 30
0.0
 10
11.0908590306
 20
8.8439130128
 30
0.0
 10
11.0863119494
 20
8.8359477676
 30
0.0
 10
11.0787936224
 20
8.8271894217
 30
0.0
 10
11.071472236
 20
8.8216158406
 30
0.0
 10
11.0676095961
 20
8.8191704445
 30
0.0
  0
SPLINE
  5
308
100
AcDbEntity
  8
0
100
AcDbSpline
 62
7
  6
CONTINUOUS
 70
0
 71
3
 72
12
 73
8
 74
0
 42
0.0000001
 43
0.0000001
 44
0.0000000001
 40
0.0
 40
0.0
 40
0.0
 40
0.0
 40
0.2744132774
 40
0.5357336313
 40
0.6593137681
 40
0.7777498153
 40
1.0
 40
1.0
 40
1.0
 40
1.0
 10
10.6926724905
 20
8.863891804
 30
0.0
 10
10.6926724905
 20
8.8684255615
 30
0.0
 10
10.6917684361
 20
8.8773029252
 30
0.0
 10
10.6884747995
 20
8.8877677631
 30
0.0
 10
10.6847847698
 20
8.8952351404
 30
0.0
 10
10.6807125582
 20
8.9017457857
 30
0.0
 10
10.6770349781
 20
8.9060686458
 30
0.0
 10
10.6743876106
 20
8.9086131636
 30
0.0
  0
SPLINE
  5
309
100
AcDbEntity
  8
0
100
AcDbSpline
 62
7
  6
CONTINUOUS
 70
0
 71
3
 72
13
 73
9
 74
0
 42
0.0000001
 43
0.0000001
 44
0.0000000001
 40
0.0
 40
0.0
 40
0.0
 40
0.0
 40
0.1250985432
 40
0.2502121806
 40
0.3753031825
 40
0.5004020855
 40
0.7501424221
 40
1.0
 40
1.0
 40
1.0
 40
1.0
 10
11.1289934107
 20
8.863891804
 30
0.0
 10
11.1289934107
 20
8.8616028918
 30
0.0
 10
11.1286332381
 20
8.8570168727
 30
0.0
 10
11.1270433012
 20
8.8503109225
 30
0.0
 10
11.1244829697
 20
8.8439130168
 30
0.0
 10
11.1199359459
 20
8.8359477768
 30
0.0
 10
11.1124177142
 20
8.8271894334
 30
0.0
 10
11.1050964051
 20
8.8216158431
 30
0.0
 10
11.1012338067
 20
8.8191704445
 30
0.0
  0
SPLINE
  5
30A
100
AcDbEntity
  8
0
100
AcDbSpline
 62
7
  6
CONTINUOUS
 70
0
 71
3
 72
11
 73
7
 74
0
 42
0.0000001
 43
0.0000001
 44
0.0000000001
 40
0.0
 40
0.0
 40
0.0
 40
0.0
 40
0.2721797956
 40
0.5324429397
 40
0.7749583105
 40
1.0
 40
1.0
 40
1.0
 40
1.0
 10
10.7027329212
 20
8.863891804
 30
0.0
 10
10.7027329212
 20
8.8593556118
 30
0.0
 10
10.7036877146
 20
8.8504515483
 30
0.0
 10
10.7077768165
 20
8.8381023118
 30
0.0
 10
10.713930043
 20
8.8275522703
 30
0.0
 10
10.7191671509
 20
8.8217027458
 30
0.0
 10
10.7219337929
 20
8.8191704445
 30
0.0
  0
SPLINE
  5
30B
100
AcDbEntity
  8
0
100
AcDbSpline
 62
7
  6
CONTINUOUS
 70
0
 71
3
 72
13
 73
9
 74
0
 42
0.0000001
 43
0.0000001
 44
0.0000000001
 40
0.0
 40
0.0
 40
0.0
 40
0.0
 40
0.1254064491
 40
0.2507188291
 40
0.3759513202
 40
0.5010682376
 40
0.7506875709
 40
1.0
 40
1.0
 40
1.0
 40
1.0
 10
11.1585545649
 20
8.8560957452
 30
0.0
 10
11.1582116208
 20
8.8541635083
 30
0.0
 10
11.1572717095
 20
8.8503410856
 30
0.0
 10
11.155155837
 20
8.8448367605
 30
0.0
 10
11.1524034755
 20
8.8396269928
 30
0.0
 10
11.1479938598
 20
8.8331477892
 30
0.0
 10
11.1412768358
 20
8.8259705386
 30
0.0
 10
11.1349963739
 20
8.8212694028
 30
0.0
 10
11.1317077248
 20
8.8191704445
 30
0.0
  0
SPLINE
  5
30C
100
AcDbEntity
  8
0
100
AcDbSpline
 62
7
  6
CONTINUOUS
 70
0
 71
3
 72
11
 73
7
 74
0
 42
0.0000001
 43
0.0000001
 44
0.0000000001
 40
0.0
 40
0.0
 40
0.0
 40
0.0
 40
0.2699102628
 40
0.529071974
 40
0.7723125428
 40
1.0
 40
1.0
 40
1.0
 40
1.0
 10
10.742020742
 20
8.863891804
 30
0.0
 10
10.742020742
 20
8.8684304634
 30
0.0
 10
10.7410168909
 20
8.877360033
 30
0.0
 10
10.7367247761
 20
8.8897236109
 30
0.0
 10
10.7302749644
 20
8.9002733173
 30
0.0
 10
10.7248152677
 20
8.9060920976
 30
0.0
 10
10.7219337929
 20
8.9086131636
 30
0.0
  0
SPLINE
  5
30D
100
AcDbEntity
  8
0
100
AcDbSpline
 62
7
  6
CONTINUOUS
 70
0
 71
3
 72
11
 73
7
 74
0
 42
0.0000001
 43
0.0000001
 44
0.0000000001
 40
0.0
 40
0.0
 40
0.0
 40
0.0
 40
0.2768904084
 40
0.5394773072
 40
0.7805218995
 40
1.0
 40
1.0
 40
1.0
 40
1.0
 10
10.7520608127
 20
8.863891804
 30
0.0
 10
10.7520608127
 20
8.8593604767
 30
0.0
 10
10.7529137713
 20
8.8505070643
 30
0.0
 10
10.7565773938
 20
8.8381895719
 30
0.0
 10
10.7621033451
 20
8.8276436841
 30
0.0
 10
10.7668623616
 20
8.8217284532
 30
0.0
 10
10.769383753
 20
8.8191704445
 30
0.0
  0
SPLINE
  5
30E
100
AcDbEntity
  8
0
100
AcDbSpline
 62
7
  6
CONTINUOUS
 70
0
 71
3
 72
11
 73
7
 74
0
 42
0.0000001
 43
0.0000001
 44
0.0000000001
 40
0.0
 40
0.0
 40
0.0
 40
0.0
 40
0.2508545862
 40
0.5011898583
 40
0.750932655
 40
1.0
 40
1.0
 40
1.0
 40
1.0
 10
11.1851984095
 20
8.8560957452
 30
0.0
 10
11.1848303783
 20
8.8539880561
 30
0.0
 10
11.183797241
 20
8.8498234106
 30
0.0
 10
11.1814256178
 20
8.8438549281
 30
0.0
 10
11.1783246608
 20
8.838250238
 30
0.0
 10
11.175832817
 20
8.8347887394
 30
0.0
 10
11.1744994542
 20
8.833134972
 30
0.0
  0
SPLINE
  5
30F
100
AcDbEntity
  8
0
100
AcDbSpline
 62
7
  6
CONTINUOUS
 70
0
 71
3
 72
9
 73
5
 74
0
 42
0.0000001
 43
0.0000001
 44
0.0000000001
 40
0.0
 40
0.0
 40
0.0
 40
0.0
 40
0.5009395067
 40
1.0
 40
1.0
 40
1.0
 40
1.0
 10
11.1744994542
 20
8.833134972
 30
0.0
 10
11.172289313
 20
8.8303937381
 30
0.0
 10
11.1673726328
 20
8.825315065
 30
0.0
 10
11.1617289531
 20
8.8210796714
 30
0.0
 10
11.1587859789
 20
8.8191704445
 30
0.0
  0
SPLINE
  5
310
100
AcDbEntity
  8
0
100
AcDbSpline
 62
7
  6
CONTINUOUS
 70
0
 71
3
 72
11
 73
7
 74
0
 42
0.0000001
 43
0.0000001
 44
0.0000000001
 40
0.0
 40
0.0
 40
0.0
 40
0.0
 40
0.2656536705
 40
0.5227815886
 40
0.7674097357
 40
1.0
 40
1.0
 40
1.0
 40
1.0
 10
10.7911110341
 20
8.863891804
 30
0.0
 10
10.7911110341
 20
8.8684353205
 30
0.0
 10
10.790014519
 20
8.8774147372
 30
0.0
 10
10.785342896
 20
8.8898033107
 30
0.0
 10
10.7783437236
 20
8.9003485421
 30
0.0
 10
10.7724766455
 20
8.9061114199
 30
0.0
 10
10.769383753
 20
8.9086131636
 30
0.0
  0
SPLINE
  5
311
100
AcDbEntity
  8
0
100
AcDbSpline
 62
7
  6
CONTINUOUS
 70
0
 71
3
 72
11
 73
7
 74
0
 42
0.0000001
 43
0.0000001
 44
0.0000000001
 40
0.0
 40
0.0
 40
0.0
 40
0.0
 40
0.2817445184
 40
0.5467787875
 40
0.7863594588
 40
1.0
 40
1.0
 40
1.0
 40
1.0
 10
10.8010499037
 20
8.863891804
 30
0.0
 10
10.8010499037
 20
8.8593651505
 30
0.0
 10
10.801796403
 20
8.8505608326
 30
0.0
 10
10.8050102967
 20
8.8382784426
 30
0.0
 10
10.8098659186
 20
8.8277440786
 30
0.0
 10
10.8141011668
 20
8.8217588947
 30
0.0
 10
10.8163554306
 20
8.8191704445
 30
0.0
  0
SPLINE
  5
312
100
AcDbEntity
  8
0
100
AcDbSpline
 62
7
  6
CONTINUOUS
 70
0
 71
3
 72
11
 73
7
 74
0
 42
0.0000001
 43
0.0000001
 44
0.0000000001
 40
0.0
 40
0.0
 40
0.0
 40
0.0
 40
0.2516732178
 40
0.5023501465
 40
0.7518376677
 40
1.0
 40
1.0
 40
1.0
 40
1.0
 10
11.2080159649
 20
8.8560961813
 30
0.0
 10
11.207657206
 20
8.8539898757
 30
0.0
 10
11.2066509361
 20
8.8498296112
 30
0.0
 10
11.2043388042
 20
8.843862059
 30
0.0
 10
11.2013149707
 20
8.8382573912
 30
0.0
 10
11.1988814651
 20
8.8347909211
 30
0.0
 10
11.1975790061
 20
8.8331349172
 30
0.0
  0
SPLINE
  5
313
100
AcDbEntity
  8
0
100
AcDbSpline
 62
7
  6
CONTINUOUS
 70
0
 71
3
 72
9
 73
5
 74
0
 42
0.0000001
 43
0.0000001
 44
0.0000000001
 40
0.0
 40
0.0
 40
0.0
 40
0.0
 40
0.5019116084
 40
1.0
 40
1.0
 40
1.0
 40
1.0
 10
11.1975790061
 20
8.8331349172
 30
0.0
 10
11.1954275945
 20
8.8303995176
 30
0.0
 10
11.1906421182
 20
8.8253286334
 30
0.0
 10
11.1851262526
 20
8.8210828901
 30
0.0
 10
11.1822505385
 20
8.8191704445
 30
0.0
  0
SPLINE
  5
314
100
AcDbEntity
  8
0
100
AcDbSpline
 62
7
  6
CONTINUOUS
 70
0
 71
3
 72
13
 73
9
 74
0
 42
0.0000001
 43
0.0000001
 44
0.0000000001
 40
0.0
 40
0.0
 40
0.0
 40
0.0
 40
0.1315036075
 40
0.2620917132
 40
0.390958704
 40
0.5176353596
 40
0.7632927958
 40
1.0
 40
1.0
 40
1.0
 40
1.0
 10
10.8395480987
 20
8.863891804
 30
0.0
 10
10.8395480987
 20
8.8661786186
 30
0.0
 10
10.8392497149
 20
8.8707419171
 30
0.0
 10
10.8379298656
 20
8.8774292913
 30
0.0
 10
10.8358010726
 20
8.8838168307
 30
0.0
 10
10.8320503747
 20
8.8917044656
 30
0.0
 10
10.825861726
 20
8.9004145639
 30
0.0
 10
10.8196361902
 20
8.9061271296
 30
0.0
 10
10.8163554306
 20
8.9086131636
 30
0.0
  0
SPLINE
  5
315
100
AcDbEntity
  8
0
100
AcDbSpline
 62
7
  6
CONTINUOUS
 70
0
 71
3
 72
11
 73
7
 74
0
 42
0.0000001
 43
0.0000001
 44
0.0000000001
 40
0.0
 40
0.0
 40
0.0
 40
0.0
 40
0.2527444003
 40
0.5038707491
 40
0.7530258813
 40
1.0
 40
1.0
 40
1.0
 40
1.0
 10
11.226823285
 20
8.8560957452
 30
0.0
 10
11.2264767158
 20
8.8539913258
 30
0.0
 10
11.225505739
 20
8.8498369581
 30
0.0
 10
11.2232721092
 20
8.8438710103
 30
0.0
 10
11.2203501969
 20
8.8382667602
 30
0.0
 10
11.2179940733
 20
8.8347938973
 30
0.0
 10
11.2167325935
 20
8.833134972
 30
0.0
  0
SPLINE
  5
316
100
AcDbEntity
  8
0
100
AcDbSpline
 62
7
  6
CONTINUOUS
 70
0
 71
3
 72
9
 73
5
 74
0
 42
0.0000001
 43
0.0000001
 44
0.0000000001
 40
0.0
 40
0.0
 40
0.0
 40
0.0
 40
0.5032404187
 40
1.0
 40
1.0
 40
1.0
 40
1.0
 10
11.2167325935
 20
8.833134972
 30
0.0
 10
11.2146584841
 20
8.8304073877
 30
0.0
 10
11.2100460058
 20
8.8253472745
 30
0.0
 10
11.2046993249
 20
8.8210873725
 30
0.0
 10
11.2019124705
 20
8.8191704445
 30
0.0
  0
SPLINE
  5
317
100
AcDbEntity
  8
0
100
AcDbSpline
 62
7
  6
CONTINUOUS
 70
0
 71
3
 72
11
 73
7
 74
0
 42
0.0000001
 43
0.0000001
 44
0.0000000001
 40
0.0
 40
0.0
 40
0.0
 40
0.0
 40
0.2865724521
 40
0.5540937348
 40
0.7922742996
 40
1.0
 40
1.0
 40
1.0
 40
1.0
 10
10.8493057406
 20
8.863891804
 30
0.0
 10
10.8493057406
 20
8.8593694821
 30
0.0
 10
10.8499421964
 20
8.8506110331
 30
0.0
 10
10.8526871097
 20
8.8383654935
 30
0.0
 10
10.8568376438
 20
8.8278502772
 30
0.0
 10
10.8605053087
 20
8.8217940416
 30
0.0
 10
10.8624706164
 20
8.8191704445
 30
0.0
  0
SPLINE
  5
318
100
AcDbEntity
  8
0
100
AcDbSpline
 62
7
  6
CONTINUOUS
 70
0
 71
3
 72
13
 73
9
 74
0
 42
0.0000001
 43
0.0000001
 44
0.0000000001
 40
0.0
 40
0.0
 40
0.0
 40
0.0
 40
0.129709918
 40
0.2587583806
 40
0.3865527185
 40
0.5127676384
 40
0.7595467695
 40
1.0
 40
1.0
 40
1.0
 40
1.0
 10
10.8869419273
 20
8.863891804
 30
0.0
 10
10.8869419273
 20
8.8661791686
 30
0.0
 10
10.8866263931
 20
8.8707484376
 30
0.0
 10
10.8852313806
 20
8.8774408772
 30
0.0
 10
10.8829821716
 20
8.8838315183
 30
0.0
 10
10.879010291
 20
8.8917414417
 30
0.0
 10
10.8724503372
 20
8.9004681325
 30
0.0
 10
10.8659147248
 20
8.9061397146
 30
0.0
 10
10.8624706164
 20
8.9086131636
 30
0.0
  0
SPLINE
  5
319
100
AcDbEntity
  8
0
100
AcDbSpline
 62
7
  6
CONTINUOUS
 70
0
 71
3
 72
11
 73
7
 74
0
 42
0.0000001
 43
0.0000001
 44
0.0000000001
 40
0.0
 40
0.0
 40
0.0
 40
0.0
 40
0.2540493833
 40
0.5057270325
 40
0.7544798555
 40
1.0
 40
1.0
 40
1.0
 40
1.0
 10
11.2414691583
 20
8.8560957452
 30
0.0
 10
11.2411376149
 20
8.8539935237
 30
0.0
 10
11.2402099865
 20
8.8498461511
 30
0.0
 10
11.2380730955
 20
8.8438821182
 30
0.0
 10
11.2352768913
 20
8.8382784055
 30
0.0
 10
11.233016611
 20
8.8347976006
 30
0.0
 10
11.2318058654
 20
8.833134972
 30
0.0
  0
SPLINE
  5
31A
100
AcDbEntity
  8
0
100
AcDbSpline
 62
7
  6
CONTINUOUS
 70
0
 71
3
 72
9
 73
5
 74
0
 42
0.0000001
 43
0.0000001
 44
0.0000000001
 40
0.0
 40
0.0
 40
0.0
 40
0.0
 40
0.504952837
 40
1.0
 40
1.0
 40
1.0
 40
1.0
 10
11.2318058654
 20
8.833134972
 30
0.0
 10
11.229826793
 20
8.8304172565
 30
0.0
 10
11.2254274772
 20
8.8253713349
 30
0.0
 10
11.2202904705
 20
8.8210932593
 30
0.0
 10
11.2176134597
 20
8.8191704445
 30
0.0
  0
SPLINE
  5
31B
100
AcDbEntity
  8
0
100
AcDbSpline
 62
7
  6
CONTINUOUS
 70
0
 71
3
 72
11
 73
7
 74
0
 42
0.0000001
 43
0.0000001
 44
0.0000000001
 40
0.0
 40
0.0
 40
0.0
 40
0.0
 40
0.2911668275
 40
0.5611034691
 40
0.7980072429
 40
1.0
 40
1.0
 40
1.0
 40
1.0
 10
10.8964397745
 20
8.863891804
 30
0.0
 10
10.8964397745
 20
8.8593733311
 30
0.0
 10
10.8969635008
 20
8.8506559277
 30
0.0
 10
10.8992248254
 20
8.8384468613
 30
0.0
 10
10.9026443634
 20
8.827957188
 30
0.0
 10
10.9057038295
 20
8.8218330753
 30
0.0
 10
10.9073579972
 20
8.8191704445
 30
0.0
  0
SPLINE
  5
31C
100
AcDbEntity
  8
0
100
AcDbSpline
 62
7
  6
CONTINUOUS
 70
0
 71
3
 72
9
 73
5
 74
0
 42
0.0000001
 43
0.0000001
 44
0.0000000001
 40
0.0
 40
0.0
 40
0.0
 40
0.0
 40
0.5078245178
 40
1.0
 40
1.0
 40
1.0
 40
1.0
 10
11.2518355838
 20
8.8560957452
 30
0.0
 10
11.2512129773
 20
8.8519301973
 30
0.0
 10
11.2489915854
 20
8.8438464646
 30
0.0
 10
11.2449961037
 20
8.836494589
 30
0.0
 10
11.2426774971
 20
8.833134972
 30
0.0
  0
SPLINE
  5
31D
100
AcDbEntity
  8
0
100
AcDbSpline
 62
7
  6
CONTINUOUS
 70
0
 71
3
 72
9
 73
5
 74
0
 42
0.0000001
 43
0.0000001
 44
0.0000000001
 40
0.0
 40
0.0
 40
0.0
 40
0.0
 40
0.5070802261
 40
1.0
 40
1.0
 40
1.0
 40
1.0
 10
11.2426774971
 20
8.833134972
 30
0.0
 10
11.2408101258
 20
8.8304291865
 30
0.0
 10
11.2366619791
 20
8.8254013163
 30
0.0
 10
11.2317740406
 20
8.8211007643
 30
0.0
 10
11.2292270839
 20
8.8191704445
 30
0.0
  0
SPLINE
  5
31E
100
AcDbEntity
  8
0
100
AcDbSpline
 62
7
  6
CONTINUOUS
 70
0
 71
3
 72
13
 73
9
 74
0
 42
0.0000001
 43
0.0000001
 44
0.0000000001
 40
0.0
 40
0.0
 40
0.0
 40
0.0
 40
0.128190547
 40
0.2559387621
 40
0.3828336742
 40
0.5086696156
 40
0.7564125794
 40
1.0
 40
1.0
 40
1.0
 40
1.0
 10
10.9329109114
 20
8.863891804
 30
0.0
 10
10.9329109114
 20
8.8661796568
 30
0.0
 10
10.9325807818
 20
8.8707542151
 30
0.0
 10
10.9311219158
 20
8.877451032
 30
0.0
 10
10.9287705938
 20
8.883844188
 30
0.0
 10
10.9246104984
 20
8.8917726704
 30
0.0
 10
10.9177357388
 20
8.9005114727
 30
0.0
 10
10.9109399643
 20
8.9061495958
 30
0.0
 10
10.9073579972
 20
8.9086131636
 30
0.0
  0
SPLINE
  5
31F
100
AcDbEntity
  8
0
100
AcDbSpline
 62
7
  6
CONTINUOUS
 70
0
 71
3
 72
11
 73
7
 74
0
 42
0.0000001
 43
0.0000001
 44
0.0000000001
 40
0.0
 40
0.0
 40
0.0
 40
0.0
 40
0.2952888184
 40
0.5674326665
 40
0.80324022
 40
1.0
 40
1.0
 40
1.0
 40
1.0
 10
10.9420724901
 20
8.863891804
 30
0.0
 10
10.9420724901
 20
8.8593765723
 30
0.0
 10
10.9424815441
 20
8.850693926
 30
0.0
 10
10.944248776
 20
8.8385185065
 30
0.0
 10
10.9469199269
 20
8.8280577868
 30
0.0
 10
10.9493357578
 20
8.8218738596
 30
0.0
 10
10.9506561464
 20
8.8191704445
 30
0.0
  0
SPLINE
  5
320
100
AcDbEntity
  8
0
100
AcDbSpline
 62
7
  6
CONTINUOUS
 70
0
 71
3
 72
11
 73
7
 74
0
 42
0.0000001
 43
0.0000001
 44
0.0000000001
 40
0.0
 40
0.0
 40
0.0
 40
0.0
 40
0.2574187732
 40
0.5114019366
 40
0.759389442
 40
1.0
 40
1.0
 40
1.0
 40
1.0
 10
11.2583825771
 20
8.863891804
 30
0.0
 10
11.2583825771
 20
8.8611031896
 30
0.0
 10
11.2579685212
 20
8.8555543295
 30
0.0
 10
11.2561468014
 20
8.8475029813
 30
0.0
 10
11.2532517378
 20
8.839969307
 30
0.0
 10
11.2506751088
 20
8.835323884
 30
0.0
 10
11.2492599518
 20
8.833134972
 30
0.0
  0
SPLINE
  5
321
100
AcDbEntity
  8
0
100
AcDbSpline
 62
7
  6
CONTINUOUS
 70
0
 71
3
 72
9
 73
5
 74
0
 42
0.0000001
 43
0.0000001
 44
0.0000000001
 40
0.0
 40
0.0
 40
0.0
 40
0.0
 40
0.5096552577
 40
1.0
 40
1.0
 40
1.0
 40
1.0
 10
11.2492599518
 20
8.833134972
 30
0.0
 10
11.2475196623
 20
8.8304431574
 30
0.0
 10
11.243658016
 20
8.8254377178
 30
0.0
 10
11.2390573723
 20
8.8211101446
 30
0.0
 10
11.2366598319
 20
8.8191704445
 30
0.0
  0
SPLINE
  5
322
100
AcDbEntity
  8
0
100
AcDbSpline
 62
7
  6
CONTINUOUS
 70
0
 71
3
 72
13
 73
9
 74
0
 42
0.0000001
 43
0.0000001
 44
0.0000000001
 40
0.0
 40
0.0
 40
0.0
 40
0.0
 40
0.1269611881
 40
0.2536600428
 40
0.3798334514
 40
0.5053708715
 40
0.7539023775
 40
1.0
 40
1.0
 40
1.0
 40
1.0
 10
10.9770849162
 20
8.863891804
 30
0.0
 10
10.9770849162
 20
8.8661800675
 30
0.0
 10
10.9767429047
 20
8.870759068
 30
0.0
 10
10.9752321449
 20
8.8774594823
 30
0.0
 10
10.9727979705
 20
8.8838545896
 30
0.0
 10
10.9684847538
 20
8.8917978557
 30
0.0
 10
10.9613547349
 20
8.9005452195
 30
0.0
 10
10.9543495827
 20
8.9061571145
 30
0.0
 10
10.9506561464
 20
8.9086131636
 30
0.0
  0
SPLINE
  5
323
100
AcDbEntity
  8
0
100
AcDbSpline
 62
7
  6
CONTINUOUS
 70
0
 71
3
 72
11
 73
7
 74
0
 42
0.0000001
 43
0.0000001
 44
0.0000000001
 40
0.0
 40
0.0
 40
0.0
 40
0.0
 40
0.2986843306
 40
0.5726748648
 40
0.8076165275
 40
1.0
 40
1.0
 40
1.0
 40
1.0
 10
10.9858364548
 20
8.863891804
 30
0.0
 10
10.9858364548
 20
8.8593791005
 30
0.0
 10
10.9861294887
 20
8.8507236596
 30
0.0
 10
10.9873955945
 20
8.8385765238
 30
0.0
 10
10.9893080915
 20
8.8281437305
 30
0.0
 10
10.9910522058
 20
8.8219124977
 30
0.0
 10
10.9920164333
 20
8.8191704445
 30
0.0
  0
SPLINE
  5
324
100
AcDbEntity
  8
0
100
AcDbSpline
 62
7
  6
CONTINUOUS
 70
0
 71
3
 72
13
 73
9
 74
0
 42
0.0000001
 43
0.0000001
 44
0.0000000001
 40
0.0
 40
0.0
 40
0.0
 40
0.0
 40
0.1260321649
 40
0.2519396451
 40
0.3775715315
 40
0.5028881445
 40
0.7520204915
 40
1.0
 40
1.0
 40
1.0
 40
1.0
 10
11.0191082564
 20
8.863891804
 30
0.0
 10
11.0191082564
 20
8.8661803877
 30
0.0
 10
11.0187572132
 20
8.8707628459
 30
0.0
 10
11.0172070548
 20
8.8774660101
 30
0.0
 10
11.0147100639
 20
8.883862538
 30
0.0
 10
11.0102805268
 20
8.8918168295
 30
0.0
 10
11.0029571295
 20
8.9005699603
 30
0.0
 10
10.9957941776
 20
8.9061625339
 30
0.0
 10
10.9920164333
 20
8.9086131636
 30
0.0
  0
SPLINE
  5
325
100
AcDbEntity
  8
0
100
AcDbSpline
 62
7
  6
CONTINUOUS
 70
0
 71
3
 72
11
 73
7
 74
0
 42
0.0000001
 43
0.0000001
 44
0.0000000001
 40
0.0
 40
0.0
 40
0.0
 40
0.0
 40
0.3011117909
 40
0.5764382495
 40
0.8107824532
 40
1.0
 40
1.0
 40
1.0
 40
1.0
 10
11.0273792919
 20
8.863891804
 30
0.0
 10
11.0273792919
 20
8.8593808328
 30
0.0
 10
11.0275554002
 20
8.8507440602
 30
0.0
 10
11.0283161573
 20
8.8386174589
 30
0.0
 10
11.0294647302
 20
8.8282066782
 30
0.0
 10
11.0305178327
 20
8.8219434676
 30
0.0
 10
11.0311058306
 20
8.8191704445
 30
0.0
  0
SPLINE
  5
326
100
AcDbEntity
  8
0
100
AcDbSpline
 62
7
  6
CONTINUOUS
 70
0
 71
3
 72
13
 73
9
 74
0
 42
0.0000001
 43
0.0000001
 44
0.0000000001
 40
0.0
 40
0.0
 40
0.0
 40
0.0
 40
0.1254099222
 40
0.2507881524
 40
0.3760591539
 40
0.5012301803
 40
0.7507672424
 40
1.0
 40
1.0
 40
1.0
 40
1.0
 10
11.0586425684
 20
8.863891804
 30
0.0
 10
11.0586425684
 20
8.8661806069
 30
0.0
 10
11.0582854453
 20
8.8707654305
 30
0.0
 10
11.0567087952
 20
8.8774704512
 30
0.0
 10
11.0541696097
 20
8.8838679033
 30
0.0
 10
11.049661834
 20
8.8918295063
 30
0.0
 10
11.0422086328
 20
8.9005861725
 30
0.0
 10
11.0349401149
 20
8.906166044
 30
0.0
 10
11.0311058306
 20
8.9086131636
 30
0.0
  0
SPLINE
  5
327
100
AcDbEntity
  8
0
100
AcDbSpline
 62
7
  6
CONTINUOUS
 70
0
 71
3
 72
11
 73
7
 74
0
 42
0.0000001
 43
0.0000001
 44
0.0000000001
 40
0.0
 40
0.0
 40
0.0
 40
0.0
 40
0.3023784613
 40
0.5784072191
 40
0.8124470485
 40
1.0
 40
1.0
 40
1.0
 40
1.0
 10
11.0663665026
 20
8.863891804
 30
0.0
 10
11.0663665026
 20
8.8593817127
 30
0.0
 10
11.0664251511
 20
8.8507544222
 30
0.0
 10
11.0666784481
 20
8.838638651
 30
0.0
 10
11.067060775
 20
8.8282399565
 30
0.0
 10
11.0674122198
 20
8.8219608973
 30
0.0
 10
11.0676095961
 20
8.8191704445
 30
0.0
  0
SPLINE
  5
328
100
AcDbEntity
  8
0
100
AcDbSpline
 62
7
  6
CONTINUOUS
 70
0
 71
3
 72
13
 73
9
 74
0
 42
0.0000001
 43
0.0000001
 44
0.0000000001
 40
0.0
 40
0.0
 40
0.0
 40
0.0
 40
0.1250981854
 40
0.2502115094
 40
0.3753022601
 40
0.5004010422
 40
0.750141536
 40
1.0
 40
1.0
 40
1.0
 40
1.0
 10
11.0953695265
 20
8.863891804
 30
0.0
 10
11.0953695265
 20
8.8661807182
 30
0.0
 10
11.0950093477
 20
8.8707667421
 30
0.0
 10
11.0934193912
 20
8.8774726972
 30
0.0
 10
11.0908590255
 20
8.8838706037
 30
0.0
 10
11.0863119463
 20
8.8918358469
 30
0.0
 10
11.0787936189
 20
8.9005941881
 30
0.0
 10
11.0714722356
 20
8.9061677678
 30
0.0
 10
11.0676095961
 20
8.9086131636
 30
0.0
  0
SPLINE
  5
329
100
AcDbEntity
  8
0
100
AcDbSpline
 62
7
  6
CONTINUOUS
 70
0
 71
3
 72
13
 73
9
 74
0
 42
0.0000001
 43
0.0000001
 44
0.0000000001
 40
0.0
 40
0.0
 40
0.0
 40
0.0
 40
0.125098641
 40
0.2502123522
 40
0.3753033661
 40
0.5004022534
 40
0.7501424496
 40
1.0
 40
1.0
 40
1.0
 40
1.0
 10
11.1289934107
 20
8.863891804
 30
0.0
 10
11.1289934107
 20
8.866180718
 30
0.0
 10
11.1286332363
 20
8.8707667402
 30
0.0
 10
11.1270432993
 20
8.8774726939
 30
0.0
 10
11.1244829646
 20
8.8838705997
 30
0.0
 10
11.1199359429
 20
8.8918358377
 30
0.0
 10
11.1124177107
 20
8.9005941764
 30
0.0
 10
11.1050964046
 20
8.9061677653
 30
0.0
 10
11.1012338067
 20
8.9086131636
 30
0.0
  0
SPLINE
  5
32A
100
AcDbEntity
  8
0
100
AcDbSpline
 62
7
  6
CONTINUOUS
 70
0
 71
3
 72
13
 73
9
 74
0
 42
0.0000001
 43
0.0000001
 44
0.0000000001
 40
0.0
 40
0.0
 40
0.0
 40
0.0
 40
0.1254064938
 40
0.2507188918
 40
0.3759513883
 40
0.5010682035
 40
0.750687524
 40
1.0
 40
1.0
 40
1.0
 40
1.0
 10
11.1585540578
 20
8.8716907185
 30
0.0
 10
11.158211011
 20
8.8736228151
 30
0.0
 10
11.1572709308
 20
8.8774449457
 30
0.0
 10
11.1551549184
 20
8.8829488265
 30
0.0
 10
11.1524025254
 20
8.8881581633
 30
0.0
 10
11.1479929912
 20
8.8946368337
 30
0.0
 10
11.1412762649
 20
8.9018135186
 30
0.0
 10
11.134996172
 20
8.9065143341
 30
0.0
 10
11.1317077248
 20
8.9086131636
 30
0.0
  0
SPLINE
  5
32B
100
AcDbEntity
  8
0
100
AcDbSpline
 62
7
  6
CONTINUOUS
 70
0
 71
3
 72
11
 73
7
 74
0
 42
0.0000001
 43
0.0000001
 44
0.0000000001
 40
0.0
 40
0.0
 40
0.0
 40
0.0
 40
0.2508547216
 40
0.5011900542
 40
0.7509328416
 40
1.0
 40
1.0
 40
1.0
 40
1.0
 10
11.1851979106
 20
8.8716907185
 30
0.0
 10
11.1848297649
 20
8.8737982787
 30
0.0
 10
11.1837964349
 20
8.8779626518
 30
0.0
 10
11.1814246366
 20
8.8839307133
 30
0.0
 10
11.1783236153
 20
8.8895349928
 30
0.0
 10
11.1758317907
 20
8.8929962349
 30
0.0
 10
11.1744984509
 20
8.8946498804
 30
0.0
  0
SPLINE
  5
32C
100
AcDbEntity
  8
0
100
AcDbSpline
 62
7
  6
CONTINUOUS
 70
0
 71
3
 72
9
 73
5
 74
0
 42
0.0000001
 43
0.0000001
 44
0.0000000001
 40
0.0
 40
0.0
 40
0.0
 40
0.0
 40
0.5009394205
 40
1.0
 40
1.0
 40
1.0
 40
1.0
 10
11.1744984509
 20
8.8946498804
 30
0.0
 10
11.1722884014
 20
8.8973908459
 30
0.0
 10
11.1673720031
 20
8.9024690385
 30
0.0
 10
11.1617287313
 20
8.9067040806
 30
0.0
 10
11.1587859789
 20
8.9086131636
 30
0.0
  0
SPLINE
  5
32D
100
AcDbEntity
  8
0
100
AcDbSpline
 62
7
  6
CONTINUOUS
 70
0
 71
3
 72
11
 73
7
 74
0
 42
0.0000001
 43
0.0000001
 44
0.0000000001
 40
0.0
 40
0.0
 40
0.0
 40
0.0
 40
0.251673372
 40
0.5023503183
 40
0.7518378063
 40
1.0
 40
1.0
 40
1.0
 40
1.0
 10
11.208015429
 20
8.8716905711
 30
0.0
 10
11.2076565502
 20
8.8737967176
 30
0.0
 10
11.2066500839
 20
8.8779566492
 30
0.0
 10
11.204337792
 20
8.883923694
 30
0.0
 10
11.2013139267
 20
8.8895278727
 30
0.0
 10
11.1988804721
 20
8.8929940403
 30
0.0
 10
11.1975780538
 20
8.8946499016
 30
0.0
  0
SPLINE
  5
32E
100
AcDbEntity
  8
0
100
AcDbSpline
 62
7
  6
CONTINUOUS
 70
0
 71
3
 72
9
 73
5
 74
0
 42
0.0000001
 43
0.0000001
 44
0.0000000001
 40
0.0
 40
0.0
 40
0.0
 40
0.0
 40
0.5019114449
 40
1.0
 40
1.0
 40
1.0
 40
1.0
 10
11.1975780538
 20
8.8946499016
 30
0.0
 10
11.1954267287
 20
8.8973850411
 30
0.0
 10
11.1906415182
 20
8.902455459
 30
0.0
 10
11.1851260414
 20
8.9067008585
 30
0.0
 10
11.1822505385
 20
8.9086131636
 30
0.0
  0
SPLINE
  5
32F
100
AcDbEntity
  8
0
100
AcDbSpline
 62
7
  6
CONTINUOUS
 70
0
 71
3
 72
14
 73
10
 74
0
 42
0.0000001
 43
0.0000001
 44
0.0000000001
 40
0.0
 40
0.0
 40
0.0
 40
0.0
 40
0.1250066259
 40
0.2500344303
 40
0.3750493576
 40
0.5000880923
 40
0.6251286941
 40
0.7501658856
 40
1.0
 40
1.0
 40
1.0
 40
1.0
 10
10.3074618523
 20
8.863891804
 30
0.0
 10
10.3074618523
 20
8.8616034239
 30
0.0
 10
10.3078222346
 20
8.8570183685
 30
0.0
 10
10.3094131213
 20
8.8503137401
 30
0.0
 10
10.3119747986
 20
8.8439174019
 30
0.0
 10
10.3153910909
 20
8.8379381787
 30
0.0
 10
10.3195381588
 20
8.8324425147
 30
0.0
 10
10.3258715948
 20
8.8258168182
 30
0.0
 10
10.3313680234
 20
8.8216152125
 30
0.0
 10
10.3352332474
 20
8.8191704687
 30
0.0
  0
SPLINE
  5
330
100
AcDbEntity
  8
0
100
AcDbSpline
 62
7
  6
CONTINUOUS
 70
0
 71
3
 72
11
 73
7
 74
0
 42
0.0000001
 43
0.0000001
 44
0.0000000001
 40
0.0
 40
0.0
 40
0.0
 40
0.0
 40
0.2527445976
 40
0.5038709722
 40
0.7530260555
 40
1.0
 40
1.0
 40
1.0
 40
1.0
 10
11.2268228145
 20
8.8716907185
 30
0.0
 10
11.2264761376
 20
8.8737950084
 30
0.0
 10
11.2255049796
 20
8.8779491041
 30
0.0
 10
11.2232711842
 20
8.8839146323
 30
0.0
 10
11.2203492106
 20
8.8895184724
 30
0.0
 10
11.217993105
 20
8.8929910776
 30
0.0
 10
11.2167316471
 20
8.8946498804
 30
0.0
  0
SPLINE
  5
331
100
AcDbEntity
  8
0
100
AcDbSpline
 62
7
  6
CONTINUOUS
 70
0
 71
3
 72
9
 73
5
 74
0
 42
0.0000001
 43
0.0000001
 44
0.0000000001
 40
0.0
 40
0.0
 40
0.0
 40
0.0
 40
0.5032401319
 40
1.0
 40
1.0
 40
1.0
 40
1.0
 10
11.2167316471
 20
8.8946498804
 30
0.0
 10
11.2146576229
 20
8.8973771987
 30
0.0
 10
11.2100454065
 20
8.9024368346
 30
0.0
 10
11.204699114
 20
8.9066963807
 30
0.0
 10
11.2019124705
 20
8.9086131636
 30
0.0
  0
SPLINE
  5
332
100
AcDbEntity
  8
0
100
AcDbSpline
 62
7
  6
CONTINUOUS
 70
0
 71
3
 72
11
 73
7
 74
0
 42
0.0000001
 43
0.0000001
 44
0.0000000001
 40
0.0
 40
0.0
 40
0.0
 40
0.0
 40
0.2540496307
 40
0.5057272854
 40
0.7544800295
 40
1.0
 40
1.0
 40
1.0
 40
1.0
 10
11.2414687076
 20
8.8716907185
 30
0.0
 10
11.2411370613
 20
8.8737928102
 30
0.0
 10
11.2402092599
 20
8.8779399109
 30
0.0
 10
11.2380722099
 20
8.883903525
 30
0.0
 10
11.2352759467
 20
8.8895068282
 30
0.0
 10
11.2330156836
 20
8.8929873748
 30
0.0
 10
11.2318049591
 20
8.8946498804
 30
0.0
  0
SPLINE
  5
333
100
AcDbEntity
  8
0
100
AcDbSpline
 62
7
  6
CONTINUOUS
 70
0
 71
3
 72
9
 73
5
 74
0
 42
0.0000001
 43
0.0000001
 44
0.0000000001
 40
0.0
 40
0.0
 40
0.0
 40
0.0
 40
0.5049524051
 40
1.0
 40
1.0
 40
1.0
 40
1.0
 10
11.2318049591
 20
8.8946498804
 30
0.0
 10
11.2298259675
 20
8.8973673317
 30
0.0
 10
11.2254268994
 20
8.9024127785
 30
0.0
 10
11.2202902672
 20
8.9066904948
 30
0.0
 10
11.2176134597
 20
8.9086131636
 30
0.0
  0
SPLINE
  5
334
100
AcDbEntity
  8
0
100
AcDbSpline
 62
7
  6
CONTINUOUS
 70
0
 71
3
 72
9
 73
5
 74
0
 42
0.0000001
 43
0.0000001
 44
0.0000000001
 40
0.0
 40
0.0
 40
0.0
 40
0.0
 40
0.5078248221
 40
1.0
 40
1.0
 40
1.0
 40
1.0
 10
11.2518351567
 20
8.8716907185
 30
0.0
 10
11.2512123574
 20
8.8758560063
 30
0.0
 10
11.2489907037
 20
8.8839391787
 30
0.0
 10
11.2449952048
 20
8.891290511
 30
0.0
 10
11.2426766382
 20
8.8946498804
 30
0.0
  0
SPLINE
  5
335
100
AcDbEntity
  8
0
100
AcDbSpline
 62
7
  6
CONTINUOUS
 70
0
 71
3
 72
9
 73
5
 74
0
 42
0.0000001
 43
0.0000001
 44
0.0000000001
 40
0.0
 40
0.0
 40
0.0
 40
0.0
 40
0.5070796193
 40
1.0
 40
1.0
 40
1.0
 40
1.0
 10
11.2426766382
 20
8.8946498804
 30
0.0
 10
11.2408093425
 20
8.8973554038
 30
0.0
 10
11.2366614271
 20
8.9023828023
 30
0.0
 10
11.2317738464
 20
8.9066829909
 30
0.0
 10
11.2292270839
 20
8.9086131636
 30
0.0
  0
SPLINE
  5
336
100
AcDbEntity
  8
0
100
AcDbSpline
 62
7
  6
CONTINUOUS
 70
0
 71
3
 72
11
 73
7
 74
0
 42
0.0000001
 43
0.0000001
 44
0.0000000001
 40
0.0
 40
0.0
 40
0.0
 40
0.0
 40
0.2574195716
 40
0.5114030599
 40
0.7593903484
 40
1.0
 40
1.0
 40
1.0
 40
1.0
 10
11.2583825771
 20
8.863891804
 30
0.0
 10
11.2583825771
 20
8.8666805539
 30
0.0
 10
11.2579684813
 20
8.8722296795
 30
0.0
 10
11.2561465898
 20
8.8802813866
 30
0.0
 10
11.2532512672
 20
8.8878153478
 30
0.0
 10
11.2506744196
 20
8.8924609136
 30
0.0
 10
11.2492591472
 20
8.8946498804
 30
0.0
  0
SPLINE
  5
337
100
AcDbEntity
  8
0
100
AcDbSpline
 62
7
  6
CONTINUOUS
 70
0
 71
3
 72
9
 73
5
 74
0
 42
0.0000001
 43
0.0000001
 44
0.0000000001
 40
0.0
 40
0.0
 40
0.0
 40
0.0
 40
0.5096544466
 40
1.0
 40
1.0
 40
1.0
 40
1.0
 10
11.2492591472
 20
8.8946498804
 30
0.0
 10
11.2475189275
 20
8.8973414352
 30
0.0
 10
11.2436574941
 20
8.902346407
 30
0.0
 10
11.2390571886
 20
8.9066736121
 30
0.0
 10
11.2366598319
 20
8.9086131636
 30
0.0
  0
SPLINE
  5
338
100
AcDbEntity
  8
0
100
AcDbSpline
 62
7
  6
CONTINUOUS
 70
0
 71
3
 72
9
 73
5
 74
0
 42
0.0000001
 43
0.0000001
 44
0.0000000001
 40
0.0
 40
0.0
 40
0.0
 40
0.0
 40
0.5090077323
 40
1.0
 40
1.0
 40
1.0
 40
1.0
 10
10.1645954534
 20
8.8560928543
 30
0.0
 10
10.1651984008
 20
8.8519335732
 30
0.0
 10
10.1673427384
 20
8.8438728873
 30
0.0
 10
10.1712202855
 20
8.8365030262
 30
0.0
 10
10.173474817
 20
8.8331337437
 30
0.0
  0
SPLINE
  5
339
100
AcDbEntity
  8
0
100
AcDbSpline
 62
7
  6
CONTINUOUS
 70
0
 71
3
 72
9
 73
5
 74
0
 42
0.0000001
 43
0.0000001
 44
0.0000000001
 40
0.0
 40
0.0
 40
0.0
 40
0.0
 40
0.5083028739
 40
1.0
 40
1.0
 40
1.0
 40
1.0
 10
10.173474817
 20
8.8331337437
 30
0.0
 10
10.1752807186
 20
8.8304349158
 30
0.0
 10
10.1792903191
 20
8.8254180895
 30
0.0
 10
10.184039668
 20
8.8211050335
 30
0.0
 10
10.1865144581
 20
8.8191704445
 30
0.0
  0
SPLINE
  5
33A
100
AcDbEntity
  8
0
100
AcDbSpline
 62
7
  6
CONTINUOUS
 70
0
 71
3
 72
9
 73
5
 74
0
 42
0.0000001
 43
0.0000001
 44
0.0000000001
 40
0.0
 40
0.0
 40
0.0
 40
0.0
 40
0.5066951962
 40
1.0
 40
1.0
 40
1.0
 40
1.0
 10
10.1727992987
 20
8.8560928896
 30
0.0
 10
10.1734408975
 20
8.8519217977
 30
0.0
 10
10.1757362213
 20
8.8438171821
 30
0.0
 10
10.1798425211
 20
8.8364837945
 30
0.0
 10
10.1822211453
 20
8.8331337298
 30
0.0
  0
SPLINE
  5
33B
100
AcDbEntity
  8
0
100
AcDbSpline
 62
7
  6
CONTINUOUS
 70
0
 71
3
 72
9
 73
5
 74
0
 42
0.0000001
 43
0.0000001
 44
0.0000000001
 40
0.0
 40
0.0
 40
0.0
 40
0.0
 40
0.5059569187
 40
1.0
 40
1.0
 40
1.0
 40
1.0
 10
10.1822211453
 20
8.8331337298
 30
0.0
 10
10.1841465684
 20
8.8304219555
 30
0.0
 10
10.1884252676
 20
8.8253849742
 30
0.0
 10
10.1934428323
 20
8.8210966301
 30
0.0
 10
10.1960574084
 20
8.8191704445
 30
0.0
  0
SPLINE
  5
33C
100
AcDbEntity
  8
0
100
AcDbSpline
 62
7
  6
CONTINUOUS
 70
0
 71
3
 72
11
 73
7
 74
0
 42
0.0000001
 43
0.0000001
 44
0.0000000001
 40
0.0
 40
0.0
 40
0.0
 40
0.0
 40
0.2533661285
 40
0.5047545417
 40
0.7537176469
 40
1.0
 40
1.0
 40
1.0
 40
1.0
 10
10.1853284805
 20
8.8560928895
 30
0.0
 10
10.185668023
 20
8.8539896527
 30
0.0
 10
10.1866185847
 20
8.8498388993
 30
0.0
 10
10.1888064723
 20
8.8438742669
 30
0.0
 10
10.1916688126
 20
8.8382706588
 30
0.0
 10
10.193979512
 20
8.8347942812
 30
0.0
 10
10.1952169322
 20
8.8331337298
 30
0.0
  0
SPLINE
  5
33D
100
AcDbEntity
  8
0
100
AcDbSpline
 62
7
  6
CONTINUOUS
 70
0
 71
3
 72
9
 73
5
 74
0
 42
0.0000001
 43
0.0000001
 44
0.0000000001
 40
0.0
 40
0.0
 40
0.0
 40
0.0
 40
0.5040422802
 40
1.0
 40
1.0
 40
1.0
 40
1.0
 10
10.1952169322
 20
8.8331337298
 30
0.0
 10
10.197245826
 20
8.8304110636
 30
0.0
 10
10.2017568832
 20
8.8253580351
 30
0.0
 10
10.2070038499
 20
8.8210899682
 30
0.0
 10
10.209738419
 20
8.8191704445
 30
0.0
  0
SPLINE
  5
33E
100
AcDbEntity
  8
0
100
AcDbSpline
 62
7
  6
CONTINUOUS
 70
0
 71
3
 72
11
 73
7
 74
0
 42
0.0000001
 43
0.0000001
 44
0.0000000001
 40
0.0
 40
0.0
 40
0.0
 40
0.0
 40
0.2521758385
 40
0.5030632407
 40
0.7523945697
 40
1.0
 40
1.0
 40
1.0
 40
1.0
 10
10.2020821103
 20
8.8560928896
 30
0.0
 10
10.2024352808
 20
8.8539876266
 30
0.0
 10
10.2034252141
 20
8.8498304568
 30
0.0
 10
10.2057007762
 20
8.8438641368
 30
0.0
 10
10.2086769729
 20
8.8382601233
 30
0.0
 10
10.2110742754
 20
8.8347909555
 30
0.0
 10
10.2123575469
 20
8.8331337298
 30
0.0
  0
SPLINE
  5
33F
100
AcDbEntity
  8
0
100
AcDbSpline
 62
7
  6
CONTINUOUS
 70
0
 71
3
 72
9
 73
5
 74
0
 42
0.0000001
 43
0.0000001
 44
0.0000000001
 40
0.0
 40
0.0
 40
0.0
 40
0.0
 40
0.5025264279
 40
1.0
 40
1.0
 40
1.0
 40
1.0
 10
10.2123575469
 20
8.8331337298
 30
0.0
 10
10.2144726848
 20
8.8304022261
 30
0.0
 10
10.2191769551
 20
8.8253367689
 30
0.0
 10
10.2246133761
 20
8.8210848139
 30
0.0
 10
10.2274473324
 20
8.8191704445
 30
0.0
  0
SPLINE
  5
340
100
AcDbEntity
  8
0
100
AcDbSpline
 62
7
  6
CONTINUOUS
 70
0
 71
3
 72
11
 73
7
 74
0
 42
0.0000001
 43
0.0000001
 44
0.0000000001
 40
0.0
 40
0.0
 40
0.0
 40
0.0
 40
0.2512295345
 40
0.5017210655
 40
0.7513468259
 40
1.0
 40
1.0
 40
1.0
 40
1.0
 10
10.2229252905
 20
8.8560928896
 30
0.0
 10
10.2232892014
 20
8.8539859865
 30
0.0
 10
10.2243102457
 20
8.849823666
 30
0.0
 10
10.2266548424
 20
8.8438560847
 30
0.0
 10
10.2297205977
 20
8.8382518616
 30
0.0
 10
10.2321857611
 20
8.8347883794
 30
0.0
 10
10.2335049755
 20
8.8331337298
 30
0.0
  0
SPLINE
  5
341
100
AcDbEntity
  8
0
100
AcDbSpline
 62
7
  6
CONTINUOUS
 70
0
 71
3
 72
9
 73
5
 74
0
 42
0.0000001
 43
0.0000001
 44
0.0000000001
 40
0.0
 40
0.0
 40
0.0
 40
0.0
 40
0.5013799554
 40
1.0
 40
1.0
 40
1.0
 40
1.0
 10
10.2335049755
 20
8.8331337298
 30
0.0
 10
10.2356881735
 20
8.8303954124
 30
0.0
 10
10.2405446129
 20
8.8253207253
 30
0.0
 10
10.2461295286
 20
8.821080984
 30
0.0
 10
10.2490415589
 20
8.8191704445
 30
0.0
  0
SPLINE
  5
342
100
AcDbEntity
  8
0
100
AcDbSpline
 62
7
  6
CONTINUOUS
 70
0
 71
3
 72
11
 73
7
 74
0
 42
0.0000001
 43
0.0000001
 44
0.0000000001
 40
0.0
 40
0.0
 40
0.0
 40
0.0
 40
0.2505430993
 40
0.5007488267
 40
0.7505890844
 40
1.0
 40
1.0
 40
1.0
 40
1.0
 10
10.2476901947
 20
8.8560928896
 30
0.0
 10
10.2480618534
 20
8.8539847803
 30
0.0
 10
10.2491053846
 20
8.8498186962
 30
0.0
 10
10.251499742
 20
8.8438502453
 30
0.0
 10
10.2546300004
 20
8.8382459315
 30
0.0
 10
10.257143903
 20
8.8347865473
 30
0.0
 10
10.2584889419
 20
8.8331337298
 30
0.0
  0
SPLINE
  5
343
100
AcDbEntity
  8
0
100
AcDbSpline
 62
7
  6
CONTINUOUS
 70
0
 71
3
 72
9
 73
5
 74
0
 42
0.0000001
 43
0.0000001
 44
0.0000000001
 40
0.0
 40
0.0
 40
0.0
 40
0.0
 40
0.5005788043
 40
1.0
 40
1.0
 40
1.0
 40
1.0
 10
10.2584889419
 20
8.8331337298
 30
0.0
 10
10.2607212751
 20
8.8303905832
 30
0.0
 10
10.2656874002
 20
8.8253095365
 30
0.0
 10
10.2713790086
 20
8.821078342
 30
0.0
 10
10.2743472249
 20
8.8191704445
 30
0.0
  0
SPLINE
  5
344
100
AcDbEntity
  8
0
100
AcDbSpline
 62
7
  6
CONTINUOUS
 70
0
 71
3
 72
13
 73
9
 74
0
 42
0.0000001
 43
0.0000001
 44
0.0000000001
 40
0.0
 40
0.0
 40
0.0
 40
0.0
 40
0.1252152449
 40
0.2504280238
 40
0.3755864171
 40
0.5007122729
 40
0.7503763249
 40
1.0
 40
1.0
 40
1.0
 40
1.0
 10
10.2754844781
 20
8.863891804
 30
0.0
 10
10.2754844781
 20
8.8616029318
 30
0.0
 10
10.2758435079
 20
8.8570173598
 30
0.0
 10
10.277428465
 20
8.8503117559
 30
0.0
 10
10.2799808741
 20
8.8439140194
 30
0.0
 10
10.2845131859
 20
8.8359501413
 30
0.0
 10
10.2920070501
 20
8.8271924216
 30
0.0
 10
10.2993085833
 20
8.8216164849
 30
0.0
 10
10.3031605726
 20
8.8191704445
 30
0.0
  0
SPLINE
  5
345
100
AcDbEntity
  8
0
100
AcDbSpline
 62
7
  6
CONTINUOUS
 70
0
 71
3
 72
9
 73
5
 74
0
 42
0.0000001
 43
0.0000001
 44
0.0000000001
 40
0.0
 40
0.0
 40
0.0
 40
0.0
 40
0.509007462
 40
1.0
 40
1.0
 40
1.0
 40
1.0
 10
10.1645950206
 20
8.8716877684
 30
0.0
 10
10.1651977759
 20
8.8758473427
 30
0.0
 10
10.167341864
 20
8.8839086502
 30
0.0
 10
10.1712194229
 20
8.8912791093
 30
0.0
 10
10.1734740128
 20
8.8946486626
 30
0.0
  0
SPLINE
  5
346
100
AcDbEntity
  8
0
100
AcDbSpline
 62
7
  6
CONTINUOUS
 70
0
 71
3
 72
9
 73
5
 74
0
 42
0.0000001
 43
0.0000001
 44
0.0000000001
 40
0.0
 40
0.0
 40
0.0
 40
0.0
 40
0.5083035523
 40
1.0
 40
1.0
 40
1.0
 40
1.0
 10
10.1734740128
 20
8.8946486626
 30
0.0
 10
10.1752799846
 20
8.8973477426
 30
0.0
 10
10.1792897999
 20
8.9023650227
 30
0.0
 10
10.1840394853
 20
8.9066784318
 30
0.0
 10
10.1865144581
 20
8.9086131636
 30
0.0
  0
SPLINE
  5
347
100
AcDbEntity
  8
0
100
AcDbSpline
 62
7
  6
CONTINUOUS
 70
0
 71
3
 72
9
 73
5
 74
0
 42
0.0000001
 43
0.0000001
 44
0.0000000001
 40
0.0
 40
0.0
 40
0.0
 40
0.0
 40
0.5066949154
 40
1.0
 40
1.0
 40
1.0
 40
1.0
 10
10.172798864
 20
8.8716878932
 30
0.0
 10
10.1734402659
 20
8.8758592404
 30
0.0
 10
10.1757353217
 20
8.8839644101
 30
0.0
 10
10.1798416031
 20
8.8912983327
 30
0.0
 10
10.1822202665
 20
8.8946486406
 30
0.0
  0
SPLINE
  5
348
100
AcDbEntity
  8
0
100
AcDbSpline
 62
7
  6
CONTINUOUS
 70
0
 71
3
 72
9
 73
5
 74
0
 42
0.0000001
 43
0.0000001
 44
0.0000000001
 40
0.0
 40
0.0
 40
0.0
 40
0.0
 40
0.5059574312
 40
1.0
 40
1.0
 40
1.0
 40
1.0
 10
10.1822202665
 20
8.8946486406
 30
0.0
 10
10.1841457674
 20
8.8973606768
 30
0.0
 10
10.1884247052
 20
8.9023981288
 30
0.0
 10
10.1934426344
 20
8.9066868323
 30
0.0
 10
10.1960574084
 20
8.9086131636
 30
0.0
  0
SPLINE
  5
349
100
AcDbEntity
  8
0
100
AcDbSpline
 62
7
  6
CONTINUOUS
 70
0
 71
3
 72
11
 73
7
 74
0
 42
0.0000001
 43
0.0000001
 44
0.0000000001
 40
0.0
 40
0.0
 40
0.0
 40
0.0
 40
0.2533659088
 40
0.5047543053
 40
0.7537174729
 40
1.0
 40
1.0
 40
1.0
 40
1.0
 10
10.1853280242
 20
8.8716878932
 30
0.0
 10
10.1856674624
 20
8.8737912575
 30
0.0
 10
10.1866178482
 20
8.8779422786
 30
0.0
 10
10.1888055739
 20
8.8839073241
 30
0.0
 10
10.1916678532
 20
8.8895113361
 30
0.0
 10
10.1939785689
 20
8.8929879682
 30
0.0
 10
10.1952160099
 20
8.8946486406
 30
0.0
  0
SPLINE
  5
34A
100
AcDbEntity
  8
0
100
AcDbSpline
 62
7
  6
CONTINUOUS
 70
0
 71
3
 72
9
 73
5
 74
0
 42
0.0000001
 43
0.0000001
 44
0.0000000001
 40
0.0
 40
0.0
 40
0.0
 40
0.0
 40
0.5040426336
 40
1.0
 40
1.0
 40
1.0
 40
1.0
 10
10.1952160099
 20
8.8946486406
 30
0.0
 10
10.1972449863
 20
8.8973715706
 30
0.0
 10
10.2017562973
 20
8.9024250726
 30
0.0
 10
10.2070036437
 20
8.9066934952
 30
0.0
 10
10.209738419
 20
8.9086131636
 30
0.0
  0
SPLINE
  5
34B
100
AcDbEntity
  8
0
100
AcDbSpline
 62
7
  6
CONTINUOUS
 70
0
 71
3
 72
14
 73
10
 74
0
 42
0.0000001
 43
0.0000001
 44
0.0000000001
 40
0.0
 40
0.0
 40
0.0
 40
0.0
 40
0.1250064575
 40
0.250034071
 40
0.3750490786
 40
0.5000873497
 40
0.6251284233
 40
0.7501663429
 40
1.0
 40
1.0
 40
1.0
 40
1.0
 10
10.3074618523
 20
8.863891804
 30
0.0
 10
10.3074618523
 20
8.8661801824
 30
0.0
 10
10.3078222292
 20
8.8707652349
 30
0.0
 10
10.3094131301
 20
8.877469858
 30
0.0
 10
10.3119747666
 20
8.8838662018
 30
0.0
 10
10.3153911201
 20
8.889845419
 30
0.0
 10
10.3195382224
 20
8.8953410032
 30
0.0
 10
10.3258710657
 20
8.9019675274
 30
0.0
 10
10.3313693209
 20
8.9061663561
 30
0.0
 10
10.3352332474
 20
8.9086131394
 30
0.0
  0
SPLINE
  5
34C
100
AcDbEntity
  8
0
100
AcDbSpline
 62
7
  6
CONTINUOUS
 70
0
 71
3
 72
11
 73
7
 74
0
 42
0.0000001
 43
0.0000001
 44
0.0000000001
 40
0.0
 40
0.0
 40
0.0
 40
0.0
 40
0.252175662
 40
0.503063028
 40
0.7523943931
 40
1.0
 40
1.0
 40
1.0
 40
1.0
 10
10.2020816363
 20
8.8716878933
 30
0.0
 10
10.2024346981
 20
8.8737932834
 30
0.0
 10
10.2034244482
 20
8.8779507212
 30
0.0
 10
10.2056998424
 20
8.883917455
 30
0.0
 10
10.2086759762
 20
8.8895218728
 30
0.0
 10
10.2110732957
 20
8.8929912944
 30
0.0
 10
10.2123565885
 20
8.8946486407
 30
0.0
  0
SPLINE
  5
34D
100
AcDbEntity
  8
0
100
AcDbSpline
 62
7
  6
CONTINUOUS
 70
0
 71
3
 72
9
 73
5
 74
0
 42
0.0000001
 43
0.0000001
 44
0.0000000001
 40
0.0
 40
0.0
 40
0.0
 40
0.0
 40
0.5025266521
 40
1.0
 40
1.0
 40
1.0
 40
1.0
 10
10.2123565885
 20
8.8946486407
 30
0.0
 10
10.2144718131
 20
8.8973804097
 30
0.0
 10
10.2191763499
 20
8.9024463426
 30
0.0
 10
10.224613163
 20
8.9066986503
 30
0.0
 10
10.2274473324
 20
8.9086131636
 30
0.0
  0
SPLINE
  5
34E
100
AcDbEntity
  8
0
100
AcDbSpline
 62
7
  6
CONTINUOUS
 70
0
 71
3
 72
11
 73
7
 74
0
 42
0.0000001
 43
0.0000001
 44
0.0000000001
 40
0.0
 40
0.0
 40
0.0
 40
0.0
 40
0.2512293887
 40
0.5017208664
 40
0.7513466432
 40
1.0
 40
1.0
 40
1.0
 40
1.0
 10
10.2229248024
 20
8.8716878933
 30
0.0
 10
10.2232886013
 20
8.8737949233
 30
0.0
 10
10.2243094567
 20
8.8779575118
 30
0.0
 10
10.2266538808
 20
8.8839255076
 30
0.0
 10
10.2297195715
 20
8.8895301353
 30
0.0
 10
10.2321847525
 20
8.8929938708
 30
0.0
 10
10.2335039887
 20
8.8946486407
 30
0.0
  0
SPLINE
  5
34F
100
AcDbEntity
  8
0
100
AcDbSpline
 62
7
  6
CONTINUOUS
 70
0
 71
3
 72
9
 73
5
 74
0
 42
0.0000001
 43
0.0000001
 44
0.0000000001
 40
0.0
 40
0.0
 40
0.0
 40
0.0
 40
0.50138008
 40
1.0
 40
1.0
 40
1.0
 40
1.0
 10
10.2335039887
 20
8.8946486407
 30
0.0
 10
10.2356872767
 20
8.8973872246
 30
0.0
 10
10.2405439926
 20
8.902462389
 30
0.0
 10
10.2461293101
 20
8.9067024807
 30
0.0
 10
10.2490415589
 20
8.9086131636
 30
0.0
  0
SPLINE
  5
350
100
AcDbEntity
  8
0
100
AcDbSpline
 62
7
  6
CONTINUOUS
 70
0
 71
3
 72
11
 73
7
 74
0
 42
0.0000001
 43
0.0000001
 44
0.0000000001
 40
0.0
 40
0.0
 40
0.0
 40
0.0
 40
0.2505429738
 40
0.5007486345
 40
0.7505888951
 40
1.0
 40
1.0
 40
1.0
 40
1.0
 10
10.2476896965
 20
8.8716878933
 30
0.0
 10
10.2480612407
 20
8.8737961294
 30
0.0
 10
10.2491045789
 20
8.8779624816
 30
0.0
 10
10.2514987604
 20
8.8839313474
 30
0.0
 10
10.2546289531
 20
8.8895360661
 30
0.0
 10
10.2571428735
 20
8.8929957032
 30
0.0
 10
10.2584879347
 20
8.8946486407
 30
0.0
  0
SPLINE
  5
351
100
AcDbEntity
  8
0
100
AcDbSpline
 62
7
  6
CONTINUOUS
 70
0
 71
3
 72
9
 73
5
 74
0
 42
0.0000001
 43
0.0000001
 44
0.0000000001
 40
0.0
 40
0.0
 40
0.0
 40
0.0
 40
0.5005788583
 40
1.0
 40
1.0
 40
1.0
 40
1.0
 10
10.2584879347
 20
8.8946486407
 30
0.0
 10
10.2607203602
 20
8.8973920548
 30
0.0
 10
10.2656867691
 20
8.9024735798
 30
0.0
 10
10.2713787862
 20
8.9067051232
 30
0.0
 10
10.2743472249
 20
8.9086131636
 30
0.0
  0
SPLINE
  5
352
100
AcDbEntity
  8
0
100
AcDbSpline
 62
7
  6
CONTINUOUS
 70
0
 71
3
 72
13
 73
9
 74
0
 42
0.0000001
 43
0.0000001
 44
0.0000000001
 40
0.0
 40
0.0
 40
0.0
 40
0.0
 40
0.1252151481
 40
0.2504278537
 40
0.3755862348
 40
0.5007121059
 40
0.7503762976
 40
1.0
 40
1.0
 40
1.0
 40
1.0
 10
10.2754844781
 20
8.863891804
 30
0.0
 10
10.2754844781
 20
8.8661806745
 30
0.0
 10
10.2758435061
 20
8.8707662436
 30
0.0
 10
10.2774284632
 20
8.877471844
 30
0.0
 10
10.2799808691
 20
8.8838695804
 30
0.0
 10
10.2845131829
 20
8.8918334604
 30
0.0
 10
10.2920070466
 20
8.9005911848
 30
0.0
 10
10.2993085829
 20
8.9061671229
 30
0.0
 10
10.3031605726
 20
8.9086131636
 30
0.0
  0
SPLINE
  5
353
100
AcDbEntity
  8
0
100
AcDbSpline
 62
7
  6
CONTINUOUS
 70
0
 71
3
 72
24
 73
20
 74
0
 42
0.0000001
 43
0.0000001
 44
0.0000000001
 40
0.0
 40
0.0
 40
0.0
 40
0.0
 40
0.0835902023
 40
0.1583137997
 40
0.2220502998
 40
0.2763661667
 40
0.3645379264
 40
0.4349260564
 40
0.4945603686
 40
0.547656909
 40
0.596831994
 40
0.643711573
 40
0.6892865041
 40
0.7341438722
 40
0.7786215946
 40
0.822910542
 40
0.8671200693
 40
0.9113238282
 40
1.0
 40
1.0
 40
1.0
 40
1.0
 10
10.1201905781
 20
7.8598918041
 30
0.0
 10
10.1201905781
 20
7.8638138149
 30
0.0
 10
10.1198251164
 20
7.8712476307
 30
0.0
 10
10.1183102403
 20
7.8815701504
 30
0.0
 10
10.1161670681
 20
7.8903716448
 30
0.0
 10
10.113038929
 20
7.8995375185
 30
0.0
 10
10.1086457826
 20
7.9085683216
 30
0.0
 10
10.1025956292
 20
7.9168891714
 30
0.0
 10
10.0964025957
 20
7.9229015842
 30
0.0
 10
10.090154502
 20
7.9272728432
 30
0.0
 10
10.0838936348
 20
7.9304433622
 30
0.0
 10
10.0776377966
 20
7.9327221802
 30
0.0
 10
10.0713914776
 20
7.9343325022
 30
0.0
 10
10.0651536981
 20
7.9354368541
 30
0.0
 10
10.0589219263
 20
7.9361518168
 30
0.0
 10
10.0526940147
 20
7.9365581958
 30
0.0
 10
10.0464673995
 20
7.9367030318
 30
0.0
 10
10.038158951
 20
7.936567508
 30
0.0
 10
10.0319298838
 20
7.9360874396
 30
0.0
 10
10.0278064674
 20
7.9355321212
 30
0.0
  0
SPLINE
  5
354
100
AcDbEntity
  8
0
100
AcDbSpline
 62
7
  6
CONTINUOUS
 70
0
 71
3
 72
11
 73
7
 74
0
 42
0.0000001
 43
0.0000001
 44
0.0000000001
 40
0.0
 40
0.0
 40
0.0
 40
0.0
 40
0.2372802712
 40
0.4791834763
 40
0.7304779137
 40
1.0
 40
1.0
 40
1.0
 40
1.0
 10
10.0278064674
 20
7.9355321212
 30
0.0
 10
10.025316625
 20
7.9351968033
 30
0.0
 10
10.0203092806
 20
7.9343429441
 30
0.0
 10
10.0128236838
 20
7.9323409433
 30
0.0
 10
10.0053108465
 20
7.9293156157
 30
0.0
 10
10.0005467681
 20
7.9264767153
 30
0.0
 10
9.9982311053
 20
7.9248089961
 30
0.0
  0
SPLINE
  5
355
100
AcDbEntity
  8
0
100
AcDbSpline
 62
7
  6
CONTINUOUS
 70
0
 71
3
 72
34
 73
30
 74
0
 42
0.0000001
 43
0.0000001
 44
0.0000000001
 40
0.0
 40
0.0
 40
0.0
 40
0.0
 40
0.0624198158
 40
0.0936107629
 40
0.124788838
 40
0.1871220837
 40
0.2182860845
 40
0.2494465455
 40
0.3117629827
 40
0.3740767961
 40
0.4363899405
 40
0.4987034515
 40
0.561018737
 40
0.6233385043
 40
0.6856687545
 40
0.716844803
 40
0.7480309001
 40
0.7792319161
 40
0.810455552
 40
0.8417139059
 40
0.8730264352
 40
0.8887190691
 40
0.9044420749
 40
0.9202050402
 40
0.9360195918
 40
0.9519000868
 40
0.9678607369
 40
0.9839016053
 40
1.0
 40
1.0
 40
1.0
 40
1.0
 10
10.3258705936
 20
7.801676495
 30
0.0
 10
10.3361224738
 20
7.7987102118
 30
0.0
 10
10.3517702535
 20
7.7951878049
 30
0.0
 10
10.3728205628
 20
7.7917064678
 30
0.0
 10
10.3939612965
 20
7.7889085266
 30
0.0
 10
10.4151936635
 20
7.786930007
 30
0.0
 10
10.436461266
 20
7.7855238977
 30
0.0
 10
10.4577447852
 20
7.7844311335
 30
0.0
 10
10.484369702
 20
7.7835666406
 30
0.0
 10
10.516330592
 20
7.783099022
 30
0.0
 10
10.5482943447
 20
7.7831026353
 30
0.0
 10
10.5802549641
 20
7.7835780828
 30
0.0
 10
10.6122040829
 20
7.7846305387
 30
0.0
 10
10.6441215219
 20
7.7864773051
 30
0.0
 10
10.6706576888
 20
7.7889648534
 30
0.0
 10
10.6917925997
 20
7.7917863434
 30
0.0
 10
10.7075763995
 20
7.794411215
 30
0.0
 10
10.7232544328
 20
7.7976558785
 30
0.0
 10
10.7387708307
 20
7.8016646586
 30
0.0
 10
10.7540320609
 20
7.8066290184
 30
0.0
 10
10.7664062055
 20
7.8117805895
 30
0.0
 10
10.7759433464
 20
7.8166996415
 30
0.0
 10
10.7828623795
 20
7.8208597086
 30
0.0
 10
10.7894522233
 20
7.8255653081
 30
0.0
 10
10.7955780966
 20
7.8309106786
 30
0.0
 10
10.8010338847
 20
7.8369966828
 30
0.0
 10
10.805503819
 20
7.8439072059
 30
0.0
 10
10.8085363891
 20
7.8516206973
 30
0.0
 10
10.8092666979
 20
7.8571393394
 30
0.0
 10
10.8092666979
 20
7.8598918039
 30
0.0
  0
SPLINE
  5
356
100
AcDbEntity
  8
0
100
AcDbSpline
 62
7
  6
CONTINUOUS
 70
0
 71
3
 72
23
 73
19
 74
0
 42
0.0000001
 43
0.0000001
 44
0.0000000001
 40
0.0
 40
0.0
 40
0.0
 40
0.0
 40
0.0321129341
 40
0.0641225845
 40
0.0959849344
 40
0.1276938144
 40
0.1592715532
 40
0.190742156
 40
0.253418276
 40
0.31590629
 40
0.3782741977
 40
0.4405633917
 40
0.5027999623
 40
0.5650005674
 40
0.6271765279
 40
0.7514749354
 40
0.8757442575
 40
1.0
 40
1.0
 40
1.0
 40
1.0
 10
10.8092666979
 20
7.8598918039
 30
0.0
 10
10.8092666979
 20
7.8624337567
 30
0.0
 10
10.8086457651
 20
7.8675284212
 30
0.0
 10
10.8060386888
 20
7.8747211951
 30
0.0
 10
10.8021393699
 20
7.8812487472
 30
0.0
 10
10.7973202261
 20
7.8870666321
 30
0.0
 10
10.7918575758
 20
7.892228353
 30
0.0
 10
10.7839799231
 20
7.8983295175
 30
0.0
 10
10.7733088865
 20
7.9047253541
 30
0.0
 10
10.7597909819
 20
7.9109059164
 30
0.0
 10
10.7458428536
 20
7.9159353583
 30
0.0
 10
10.7316260313
 20
7.9200546934
 30
0.0
 10
10.7172331488
 20
7.9234405994
 30
0.0
 10
10.7027230634
 20
7.9262265487
 30
0.0
 10
10.6832737662
 20
7.9292781273
 30
0.0
 10
10.6588238958
 20
7.9320636179
 30
0.0
 10
10.6293892786
 20
7.9342529046
 30
0.0
 10
10.6097358027
 20
7.9351645354
 30
0.0
 10
10.599906604
 20
7.9355212704
 30
0.0
  0
SPLINE
  5
357
100
AcDbEntity
  8
0
100
AcDbSpline
 62
7
  6
CONTINUOUS
 70
0
 71
3
 72
28
 73
24
 74
0
 42
0.0000001
 43
0.0000001
 44
0.0000000001
 40
0.0
 40
0.0
 40
0.0
 40
0.0
 40
0.1245214423
 40
0.1867818688
 40
0.2490420798
 40
0.3113029791
 40
0.373565317
 40
0.4358304783
 40
0.4981008737
 40
0.560380854
 40
0.6226781194
 40
0.6850061851
 40
0.7473897558
 40
0.7786257991
 40
0.8099009103
 40
0.8412309515
 40
0.8726399476
 40
0.9041635781
 40
0.935851308
 40
0.9518022994
 40
0.9678179046
 40
0.9838917238
 40
1.0
 40
1.0
 40
1.0
 40
1.0
 10
10.599906604
 20
7.9355212704
 30
0.0
 10
10.5844254655
 20
7.9360831335
 30
0.0
 10
10.5611899624
 20
7.9365641155
 30
0.0
 10
10.5302075712
 20
7.9367033281
 30
0.0
 10
10.5069705536
 20
7.9365610337
 30
0.0
 10
10.4837363671
 20
7.936157795
 30
0.0
 10
10.4605086148
 20
7.935447592
 30
0.0
 10
10.4372941614
 20
7.9343520629
 30
0.0
 10
10.4141053153
 20
7.9327598123
 30
0.0
 10
10.3909646233
 20
7.9305188046
 30
0.0
 10
10.3679117274
 20
7.9274253944
 30
0.0
 10
10.3450219242
 20
7.9232026124
 30
0.0
 10
10.3261953136
 20
7.9184214318
 30
0.0
 10
10.3114346549
 20
7.9135485171
 30
0.0
 10
10.3005684515
 20
7.9092586607
 30
0.0
 10
10.2900090731
 20
7.9042017777
 30
0.0
 10
10.2799116816
 20
7.8981967716
 30
0.0
 10
10.2705485968
 20
7.8910092539
 30
0.0
 10
10.2637612375
 20
7.8837739893
 30
0.0
 10
10.2594135335
 20
7.8771312017
 30
0.0
 10
10.2568561185
 20
7.8717032741
 30
0.0
 10
10.255209648
 20
7.8659084894
 30
0.0
 10
10.2548196273
 20
7.8618957866
 30
0.0
 10
10.2548196273
 20
7.8598918053
 30
0.0
  0
SPLINE
  5
358
100
AcDbEntity
  8
0
100
AcDbSpline
 62
7
  6
CONTINUOUS
 70
0
 71
3
 72
17
 73
13
 74
0
 42
0.0000001
 43
0.0000001
 44
0.0000000001
 40
0.0
 40
0.0
 40
0.0
 40
0.0
 40
0.0637887856
 40
0.1274304251
 40
0.19083332
 40
0.2539701905
 40
0.379384969
 40
0.5041559065
 40
0.6284843028
 40
0.7525097111
 40
0.8763300007
 40
1.0
 40
1.0
 40
1.0
 40
1.0
 10
10.2548196273
 20
7.8598918053
 30
0.0
 10
10.2548196273
 20
7.8578133715
 30
0.0
 10
10.2552391184
 20
7.8536512524
 30
0.0
 10
10.2570061423
 20
7.8476574468
 30
0.0
 10
10.2597380928
 20
7.8420669528
 30
0.0
 10
10.2643597431
 20
7.8352561802
 30
0.0
 10
10.2715316957
 20
7.8278850051
 30
0.0
 10
10.281369195
 20
7.820609316
 30
0.0
 10
10.2919412825
 20
7.8145627451
 30
0.0
 10
10.3029715255
 20
7.8094953884
 30
0.0
 10
10.3143036603
 20
7.8052174486
 30
0.0
 10
10.3219998171
 20
7.802796467
 30
0.0
 10
10.3258705936
 20
7.801676495
 30
0.0
  0
SPLINE
  5
359
100
AcDbEntity
  8
0
100
AcDbSpline
 62
7
  6
CONTINUOUS
 70
0
 71
3
 72
30
 73
26
 74
0
 42
0.0000001
 43
0.0000001
 44
0.0000000001
 40
0.0
 40
0.0
 40
0.0
 40
0.0
 40
0.0616505807
 40
0.1224871047
 40
0.182962957
 40
0.2131375268
 40
0.2432858041
 40
0.3035380934
 40
0.3637642801
 40
0.4239838405
 40
0.4842099581
 40
0.5444618278
 40
0.6047802373
 40
0.6652567052
 40
0.7260945201
 40
0.7567868803
 40
0.7877815383
 40
0.8192390816
 40
0.8514190641
 40
0.884755504
 40
0.9199859916
 40
0.9386878966
 40
0.9582964728
 40
0.9788289833
 40
1.0
 40
1.0
 40
1.0
 40
1.0
 10
11.0451889709
 20
7.801676495
 30
0.0
 10
11.0526147071
 20
7.7987414999
 30
0.0
 10
11.0678236439
 20
7.7940448422
 30
0.0
 10
11.0910849143
 20
7.7894119198
 30
0.0
 10
11.1105600808
 20
7.7869317616
 30
0.0
 10
11.1261425362
 20
7.7855242311
 30
0.0
 10
11.1417216485
 20
7.7844315118
 30
0.0
 10
11.1612140562
 20
7.7835667164
 30
0.0
 10
11.1846142424
 20
7.7830990447
 30
0.0
 10
11.2080156026
 20
7.7831026399
 30
0.0
 10
11.2314157817
 20
7.7835781845
 30
0.0
 10
11.2548110553
 20
7.7846312397
 30
0.0
 10
11.278193167
 20
7.7864795574
 30
0.0
 10
11.3015375672
 20
7.7894729067
 30
0.0
 10
11.320867966
 20
7.7933500235
 30
0.0
 10
11.3361456643
 20
7.7976716388
 30
0.0
 10
11.3475296374
 20
7.8016944353
 30
0.0
 10
11.3587408376
 20
7.8066852832
 30
0.0
 10
11.3696723926
 20
7.8129243909
 30
0.0
 10
11.3801156655
 20
7.8208181455
 30
0.0
 10
11.3878934223
 20
7.8291379282
 30
0.0
 10
11.3931109764
 20
7.8371349488
 30
0.0
 10
11.3963626026
 20
7.8440604249
 30
0.0
 10
11.3985425442
 20
7.8517351588
 30
0.0
 10
11.3990598721
 20
7.8571498245
 30
0.0
 10
11.3990598721
 20
7.8598918042
 30
0.0
  0
SPLINE
  5
35A
100
AcDbEntity
  8
0
100
AcDbSpline
 62
7
  6
CONTINUOUS
 70
0
 71
3
 72
30
 73
26
 74
0
 42
0.0000001
 43
0.0000001
 44
0.0000000001
 40
0.0
 40
0.0
 40
0.0
 40
0.0
 40
0.0211693756
 40
0.0416919575
 40
0.0612824989
 40
0.0799620639
 40
0.1151469304
 40
0.1484444422
 40
0.1805935954
 40
0.2120273434
 40
0.243003867
 40
0.2736825494
 40
0.3345027761
 40
0.3949701335
 40
0.4552842252
 40
0.5155344221
 40
0.5757602713
 40
0.6359804561
 40
0.6962085935
 40
0.7263321536
 40
0.756467135
 40
0.8167972477
 40
0.8772993991
 40
0.9381973839
 40
1.0
 40
1.0
 40
1.0
 40
1.0
 10
11.3990598721
 20
7.8598918042
 30
0.0
 10
11.3990598721
 20
7.8626548491
 30
0.0
 10
11.3985346183
 20
7.8681102279
 30
0.0
 10
11.396322909
 20
7.8758367566
 30
0.0
 10
11.3930282113
 20
7.8828005923
 30
0.0
 10
11.387748036
 20
7.8908319347
 30
0.0
 10
11.3798862262
 20
7.8991751674
 30
0.0
 10
11.3693418948
 20
7.9070783765
 30
0.0
 10
11.3583113525
 20
7.9133161066
 30
0.0
 10
11.3470028835
 20
7.9182988533
 30
0.0
 10
11.3355229926
 20
7.9223092162
 30
0.0
 10
11.3201184236
 20
7.9266107274
 30
0.0
 10
11.3006318621
 20
7.9304584043
 30
0.0
 10
11.2771030061
 20
7.9334152477
 30
0.0
 10
11.2535377844
 20
7.9352296414
 30
0.0
 10
11.2299601138
 20
7.9362515875
 30
0.0
 10
11.2063778202
 20
7.9366972251
 30
0.0
 10
11.182794713
 20
7.9366660333
 30
0.0
 10
11.1631446404
 20
7.9362419344
 30
0.0
 10
11.1474312743
 20
7.9355986343
 30
0.0
 10
11.1317157855
 20
7.9347243649
 30
0.0
 10
11.1120725777
 20
7.9331042084
 30
0.0
 10
11.0885459906
 20
7.9299642274
 30
0.0
 10
11.0651172502
 20
7.925062477
 30
0.0
 10
11.0498316178
 20
7.9200846194
 30
0.0
 10
11.042391149
 20
7.9169688002
 30
0.0
  0
SPLINE
  5
35B
100
AcDbEntity
  8
0
100
AcDbSpline
 62
7
  6
CONTINUOUS
 70
0
 71
3
 72
13
 73
9
 74
0
 42
0.0000001
 43
0.0000001
 44
0.0000000001
 40
0.0
 40
0.0
 40
0.0
 40
0.0
 40
0.223492757
 40
0.4571093688
 40
0.5809190428
 40
0.7119033882
 40
0.852026431
 40
1.0
 40
1.0
 40
1.0
 40
1.0
 10
11.042391149
 20
7.9169688002
 30
0.0
 10
11.036909152
 20
7.9146731234
 30
0.0
 10
11.0259652203
 20
7.9092934973
 30
0.0
 10
11.0133526413
 20
7.9001560631
 30
0.0
 10
11.0044168212
 20
7.8906732237
 30
0.0
 10
10.9985055433
 20
7.8819217039
 30
0.0
 10
10.9942424634
 20
7.8715256521
 30
0.0
 10
10.9931775678
 20
7.8638268152
 30
0.0
 10
10.9931775678
 20
7.8598918043
 30
0.0
  0
SPLINE
  5
35C
100
AcDbEntity
  8
0
100
AcDbSpline
 62
7
  6
CONTINUOUS
 70
0
 71
3
 72
16
 73
12
 74
0
 42
0.0000001
 43
0.0000001
 44
0.0000000001
 40
0.0
 40
0.0
 40
0.0
 40
0.0
 40
0.0750802834
 40
0.14877649
 40
0.2202054571
 40
0.2890870697
 40
0.4197247249
 40
0.543158671
 40
0.6615975841
 40
0.776601615
 40
1.0
 40
1.0
 40
1.0
 40
1.0
 10
10.9931775678
 20
7.8598918043
 30
0.0
 10
10.9931775678
 20
7.8578179706
 30
0.0
 10
10.99347642
 20
7.8537028106
 30
0.0
 10
10.9947543354
 20
7.8477382737
 30
0.0
 10
10.9967398497
 20
7.8421536784
 30
0.0
 10
11.0000623946
 20
7.8354322622
 30
0.0
 10
11.0052308947
 20
7.8280913166
 30
0.0
 10
11.0124694852
 20
7.8207323501
 30
0.0
 10
11.0202442743
 20
7.8146359204
 30
0.0
 10
11.0309388999
 20
7.8079094005
 30
0.0
 10
11.0394503453
 20
7.8039446658
 30
0.0
 10
11.0451889709
 20
7.801676495
 30
0.0
  0
SPLINE
  5
35D
100
AcDbEntity
  8
0
100
AcDbSpline
 62
7
  6
CONTINUOUS
 70
0
 71
3
 72
13
 73
9
 74
0
 42
0.0000001
 43
0.0000001
 44
0.0000000001
 40
0.0
 40
0.0
 40
0.0
 40
0.0
 40
0.1252158521
 40
0.2504291469
 40
0.3755878911
 40
0.5007138875
 40
0.7503775432
 40
1.0
 40
1.0
 40
1.0
 40
1.0
 10
10.3426802742
 20
8.863891804
 30
0.0
 10
10.3426802742
 20
8.861602932
 30
0.0
 10
10.3430392981
 20
8.8570173623
 30
0.0
 10
10.3446242293
 20
8.8503117603
 30
0.0
 10
10.3471765972
 20
8.8439140247
 30
0.0
 10
10.3517088324
 20
8.8359501536
 30
0.0
 10
10.3592025697
 20
8.8271924372
 30
0.0
 10
10.3665039999
 20
8.8216164883
 30
0.0
 10
10.370355934
 20
8.8191704445
 30
0.0
  0
SPLINE
  5
35E
100
AcDbEntity
  8
0
100
AcDbSpline
 62
7
  6
CONTINUOUS
 70
0
 71
3
 72
11
 73
7
 74
0
 42
0.0000001
 43
0.0000001
 44
0.0000000001
 40
0.0
 40
0.0
 40
0.0
 40
0.0
 40
0.3018962219
 40
0.5776571854
 40
0.8118122879
 40
1.0
 40
1.0
 40
1.0
 40
1.0
 10
10.3728492928
 20
8.863891804
 30
0.0
 10
10.3728492928
 20
8.8684022285
 30
0.0
 10
10.372731584
 20
8.8770331079
 30
0.0
 10
10.3722231648
 20
8.8891530122
 30
0.0
 10
10.3714556855
 20
8.899556353
 30
0.0
 10
10.3707508685
 20
8.9058294558
 30
0.0
 10
10.370355934
 20
8.9086131636
 30
0.0
  0
SPLINE
  5
35F
100
AcDbEntity
  8
0
100
AcDbSpline
 62
7
  6
CONTINUOUS
 70
0
 71
3
 72
13
 73
9
 74
0
 42
0.0000001
 43
0.0000001
 44
0.0000000001
 40
0.0
 40
0.0
 40
0.0
 40
0.0
 40
0.1256839225
 40
0.2512951246
 40
0.3767248598
 40
0.5019597666
 40
0.7513183932
 40
1.0
 40
1.0
 40
1.0
 40
1.0
 10
10.3808561698
 20
8.863891804
 30
0.0
 10
10.3808561698
 20
8.8616030982
 30
0.0
 10
10.3812106117
 20
8.8570193211
 30
0.0
 10
10.3827755855
 20
8.8503151193
 30
0.0
 10
10.385296178
 20
8.8439180715
 30
0.0
 10
10.3897694676
 20
8.8359596806
 30
0.0
 10
10.3971654802
 20
8.8272045394
 30
0.0
 10
10.4043875217
 20
8.8216190982
 30
0.0
 10
10.4081969001
 20
8.8191704445
 30
0.0
  0
SPLINE
  5
360
100
AcDbEntity
  8
0
100
AcDbSpline
 62
7
  6
CONTINUOUS
 70
0
 71
3
 72
11
 73
7
 74
0
 42
0.0000001
 43
0.0000001
 44
0.0000000001
 40
0.0
 40
0.0
 40
0.0
 40
0.0
 40
0.3000267898
 40
0.5747545122
 40
0.8093634885
 40
1.0
 40
1.0
 40
1.0
 40
1.0
 10
10.4131611167
 20
8.863891804
 30
0.0
 10
10.4131611167
 20
8.868403542
 30
0.0
 10
10.4129261724
 20
8.8770485783
 30
0.0
 10
10.411911133
 20
8.889184392
 30
0.0
 10
10.4103783076
 20
8.899605208
 30
0.0
 10
10.4089761704
 20
8.9058543601
 30
0.0
 10
10.4081969001
 20
8.9086131636
 30
0.0
  0
SPLINE
  5
361
100
AcDbEntity
  8
0
100
AcDbSpline
 62
7
  6
CONTINUOUS
 70
0
 71
3
 72
13
 73
9
 74
0
 42
0.0000001
 43
0.0000001
 44
0.0000000001
 40
0.0
 40
0.0
 40
0.0
 40
0.0
 40
0.1264609193
 40
0.2527334496
 40
0.3786148488
 40
0.5040328513
 40
0.7528873928
 40
1.0
 40
1.0
 40
1.0
 40
1.0
 10
10.421682152
 20
8.863891804
 30
0.0
 10
10.421682152
 20
8.8616033692
 30
0.0
 10
10.4220290196
 20
8.8570225175
 30
0.0
 10
10.4235609737
 20
8.8503206257
 30
0.0
 10
10.4260289492
 20
8.8439247476
 30
0.0
 10
10.4304047333
 20
8.8359755284
 30
0.0
 10
10.4376388263
 20
8.8272249855
 30
0.0
 10
10.4447289868
 20
8.8216235482
 30
0.0
 10
10.4484678093
 20
8.8191704445
 30
0.0
  0
SPLINE
  5
362
100
AcDbEntity
  8
0
100
AcDbSpline
 62
7
  6
CONTINUOUS
 70
0
 71
3
 72
11
 73
7
 74
0
 42
0.0000001
 43
0.0000001
 44
0.0000000001
 40
0.0
 40
0.0
 40
0.0
 40
0.0
 40
0.297084889
 40
0.5702023565
 40
0.8055475928
 40
1.0
 40
1.0
 40
1.0
 40
1.0
 10
10.4558629124
 20
8.863891804
 30
0.0
 10
10.4558629124
 20
8.8684056829
 30
0.0
 10
10.4555114468
 20
8.8770737797
 30
0.0
 10
10.4539928729
 20
8.8892343005
 30
0.0
 10
10.4516982868
 20
8.8996806866
 30
0.0
 10
10.4496137025
 20
8.9058899402
 30
0.0
 10
10.4484678093
 20
8.9086131636
 30
0.0
  0
SPLINE
  5
363
100
AcDbEntity
  8
0
100
AcDbSpline
 62
7
  6
CONTINUOUS
 70
0
 71
3
 72
13
 73
9
 74
0
 42
0.0000001
 43
0.0000001
 44
0.0000000001
 40
0.0
 40
0.0
 40
0.0
 40
0.0
 40
0.1391500591
 40
0.2701555837
 40
0.3961951492
 40
0.5192405706
 40
0.7607555294
 40
1.0
 40
1.0
 40
1.0
 40
1.0
 10
9.9982311022
 20
7.7949745346
 30
0.0
 10
9.9999908439
 20
7.7937082928
 30
0.0
 10
10.003570237
 20
7.7914673403
 30
0.0
 10
10.0091743421
 20
7.7888509218
 30
0.0
 10
10.0147754692
 20
7.786901629
 30
0.0
 10
10.0221908067
 20
7.7850180079
 30
0.0
 10
10.0315196561
 20
7.7836432889
 30
0.0
 10
10.0390058163
 20
7.7832287624
 30
0.0
 10
10.0427324869
 20
7.78315324
 30
0.0
  0
LINE
  5
364
100
AcDbEntity
  8
0
100
AcDbLine
 62
7
  6
CONTINUOUS
 10
10.0530949794
 20
7.7832874874
 11
10.0622521342
 21
7.7840289961
  0
SPLINE
  5
365
100
AcDbEntity
  8
0
100
AcDbSpline
 62
7
  6
CONTINUOUS
 70
0
 71
3
 72
20
 73
16
 74
0
 42
0.0000001
 43
0.0000001
 44
0.0000000001
 40
0.0
 40
0.0
 40
0.0
 40
0.0
 40
0.0774726558
 40
0.1564450044
 40
0.2386902217
 40
0.2820746811
 40
0.3277941346
 40
0.3767777845
 40
0.4302896105
 40
0.4900608729
 40
0.5585070984
 40
0.6390793316
 40
0.7367080303
 40
0.8572710873
 40
1.0
 40
1.0
 40
1.0
 40
1.0
 10
10.0622521342
 20
7.7840289961
 30
0.0
 10
10.0649768769
 20
7.7843513173
 30
0.0
 10
10.0704594351
 20
7.7852006808
 30
0.0
 10
10.0786643174
 20
7.7873017494
 30
0.0
 10
10.0854151429
 20
7.7900179487
 30
0.0
 10
10.0907244045
 20
7.7929718525
 30
0.0
 10
10.0947644977
 20
7.7957415565
 30
0.0
 10
10.098778753
 20
7.799138436
 30
0.0
 10
10.1027506326
 20
7.8033075495
 30
0.0
 10
10.1066531039
 20
7.8084424916
 30
0.0
 10
10.1104402627
 20
7.8148119914
 30
0.0
 10
10.11402522
 20
7.8227984437
 30
0.0
 10
10.1172206995
 20
7.8329108172
 30
0.0
 10
10.1196013719
 20
7.8454996586
 30
0.0
 10
10.1201905781
 20
7.8548369736
 30
0.0
 10
10.1201905781
 20
7.8598918041
 30
0.0
  0
SPLINE
  5
366
100
AcDbEntity
  8
0
100
AcDbSpline
 62
7
  6
CONTINUOUS
 70
0
 71
3
 72
13
 73
9
 74
0
 42
0.0000001
 43
0.0000001
 44
0.0000000001
 40
0.0
 40
0.0
 40
0.0
 40
0.0
 40
0.1275418578
 40
0.2547360565
 40
0.3812495529
 40
0.5069270692
 40
0.7550851811
 40
1.0
 40
1.0
 40
1.0
 40
1.0
 10
10.4648294961
 20
8.863891804
 30
0.0
 10
10.4648294961
 20
8.8616037363
 30
0.0
 10
10.465165885
 20
8.8570268524
 30
0.0
 10
10.4666521031
 20
8.8503281433
 30
0.0
 10
10.4690471102
 20
8.8439339481
 30
0.0
 10
10.473287897
 20
8.835997638
 30
0.0
 10
10.4802972705
 20
8.8272541836
 30
0.0
 10
10.4872036248
 20
8.8216299942
 30
0.0
 10
10.4908444059
 20
8.8191704445
 30
0.0
  0
SPLINE
  5
367
100
AcDbEntity
  8
0
100
AcDbSpline
 62
7
  6
CONTINUOUS
 70
0
 71
3
 72
11
 73
7
 74
0
 42
0.0000001
 43
0.0000001
 44
0.0000000001
 40
0.0
 40
0.0
 40
0.0
 40
0.0
 40
0.2932926129
 40
0.5643628189
 40
0.8006952369
 40
1.0
 40
1.0
 40
1.0
 40
1.0
 10
10.5006108512
 20
8.863891804
 30
0.0
 10
10.5006108512
 20
8.8684085811
 30
0.0
 10
10.5001439786
 20
8.8771078199
 30
0.0
 10
10.498127419
 20
8.8892996324
 30
0.0
 10
10.4950785705
 20
8.8997750742
 30
0.0
 10
10.4923353395
 20
8.9059302595
 30
0.0
 10
10.4908444059
 20
8.9086131636
 30
0.0
  0
SPLINE
  5
368
100
AcDbEntity
  8
0
100
AcDbSpline
 62
7
  6
CONTINUOUS
 70
0
 71
3
 72
13
 73
9
 74
0
 42
0.0000001
 43
0.0000001
 44
0.0000000001
 40
0.0
 40
0.0
 40
0.0
 40
0.0
 40
0.1289185093
 40
0.2572892441
 40
0.3846140323
 40
0.5106301638
 40
0.7579098182
 40
1.0
 40
1.0
 40
1.0
 40
1.0
 10
10.5099507855
 20
8.863891804
 30
0.0
 10
10.5099507855
 20
8.8616041878
 30
0.0
 10
10.5102739111
 20
8.8570321909
 30
0.0
 10
10.511702152
 20
8.8503374809
 30
0.0
 10
10.5140045211
 20
8.8439455163
 30
0.0
 10
10.5180743147
 20
8.8360258874
 30
0.0
 10
10.5247981764
 20
8.827292672
 30
0.0
 10
10.531469532
 20
8.8216386621
 30
0.0
 10
10.5349854795
 20
8.8191704445
 30
0.0
  0
SPLINE
  5
369
100
AcDbEntity
  8
0
100
AcDbSpline
 62
7
  6
CONTINUOUS
 70
0
 71
3
 72
11
 73
7
 74
0
 42
0.0000001
 43
0.0000001
 44
0.0000000001
 40
0.0
 40
0.0
 40
0.0
 40
0.0
 40
0.2889019665
 40
0.5576420094
 40
0.7951681799
 40
1.0
 40
1.0
 40
1.0
 40
1.0
 10
10.5470446289
 20
8.863891804
 30
0.0
 10
10.5470446289
 20
8.8684121423
 30
0.0
 10
10.5464639779
 20
8.8771494701
 30
0.0
 10
10.5439581281
 20
8.8893766666
 30
0.0
 10
10.5401686286
 20
8.8998798278
 30
0.0
 10
10.5367987789
 20
8.9059705344
 30
0.0
 10
10.5349854795
 20
8.9086131636
 30
0.0
  0
ENDSEC
  0
SECTION
  2
OBJECTS
  0
DICTIONARY
  5
C
100
AcDbDictionary
280
0
281
1
  3
ACAD_GROUP
350
D
  3
ACAD_MLINESTYLE
350
17
  3
ACAD_LAYOUT
350
1A
  3
ACAD_PLOTSETTINGS
350
19
  3
ACAD_PLOTSTYLENAME
350
E
  0
DICTIONARY
  5
D
102
{ACAD_REACTORS
330
C
102
}
100
AcDbDictionary
280
0
281
1
  0
ACDBDICTIONARYWDFLT
  5
E
102
{ACAD_REACTORS
330
C
102
}
100
AcDbDictionary
281
1
  3
Normal
350
F
100
AcDbDictionaryWithDefault
340
F
  0
DICTIONARY
  5
17
102
{ACAD_REACTORS
330
C
102
}
100
AcDbDictionary
280
0
281
1
  3
Standard
350
18
  0
DICTIONARY
  5
19
102
{ACAD_REACTORS
330
C
102
}
100
AcDbDictionary
281
1
  0
DICTIONARY
  5
1A
102
{ACAD_REACTORS
330
C
102
}
100
AcDbDictionary
281
1
  3
Model
350
36A
  3
Layout1
350
36B
  0
ACDBPLACEHOLDER
  5
F
102
{ACAD_REACTORS
330
E
102
}
  0
MLINESTYLE
  5
18
102
{ACAD_REACTORS
330
17
102
}
100
AcDbMlineStyle
  2
STANDARD
 70
0
  3

 62
256
 51
90.0
 52
90.0
 71
2
 49
0.5
 62
256
  6
BYLAYER
 49
-0.5
 62
256
  6
BYLAYER
  0
LAYOUT
  5
36A
102
{ACAD_REACTORS
330
1A
102
}
100
AcDbPlotSettings
  1

  2
none_device
  4
ANSI_C_(22.00_x_17.00_Inches)
  6

 40
0.0
 41
0.0
 42
0.0
 43
0.0
 44
558.8
 45
431.8
 46
0.0
 47
0.0
 48
0.0
 49
0.0
140
0.0
141
0.0
142
1.0
143
1.0
 70
1024
 72
0
 73
0
 74
0
  7

 75
0
147
1.0
148
0.0
149
0.0
100
AcDbLayout
  1
Model
 70
0
 71
0
 10
0.0
 20
0.0
 11
22.0
 21
17.0
 12
0.0
 22
0.0
 32
0.0
 14
0.0
 24
0.0
 34
0.0
 15
0.0
 25
0.0
 35
0.0
146
0.0
 13
0.0
 23
0.0
 33
0.0
 16
1.0
 26
0.0
 36
0.0
 17
0.0
 27
1.0
 37
0.0
 76
0
330
202
345
0
346
0
  0
LAYOUT
  5
36B
102
{ACAD_REACTORS
330
1A
102
}
100
AcDbPlotSettings
  1

  2
none_device
  4
ANSI_C_(22.00_x_17.00_Inches)
  6

 40
0.0
 41
0.0
 42
0.0
 43
0.0
 44
558.8
 45
431.8
 46
0.0
 47
0.0
 48
0.0
 49
0.0
140
0.0
141
0.0
142
1.0
143
1.0
 70
0
 72
0
 73
0
 74
0
  7

 75
0
147
1.0
148
0.0
149
0.0
100
AcDbLayout
  1
Layout1
 70
0
 71
1
 10
0.0
 20
0.0
 11
22.0
 21
17.0
 12
0.0
 22
0.0
 32
0.0
 14
0.0
 24
0.0
 34
0.0
 15
0.0
 25
0.0
 35
0.0
146
0.0
 13
0.0
 23
0.0
 33
0.0
 16
1.0
 26
0.0
 36
0.0
 17
0.0
 27
1.0
 37
0.0
 76
0
330
203
345
0
346
0
  0
ENDSEC
  0
EOF
