999
DXF file: E:\BT Custom\CADOUTPUT\_FRONT.dxf
999
Pro/ENGINEER 2018400 by Parametric Technology Corporation
  0
SECTION
  2
HEADER
  9
$ACADVER
  1
AC1018
  9
$DWGCODEPAGE
  3
ANSI_1252
  9
$EXTMAX
 10
22.0
 20
17.0
 30
0.0
  9
$EXTMIN
 10
0.0
 20
0.0
 30
0.0
  9
$LIMMIN
 10
0.0
 20
0.0
  9
$LIMMAX
 10
22.0
 20
17.0
  9
$VIEWCTR
 10
11.0
 20
8.5
  9
$VIEWSIZE
 40
17.0
  9
$CLAYER
  8
0
  9
$LTSCALE
 40
1.21
  9
$CELTYPE
  6
BYLAYER
  9
$DIMSCALE
 40
1.0
  9
$DIMASZ
 40
0.1
  9
$DIMEXO
 40
0.0625
  9
$DIMDLI
 40
0.836
  9
$DIMEXE
 40
0.125
  9
$DIMCEN
 40
0.198
  9
$DIMLFAC
 40
1.0
  9
$DIMBLK
  1
_FILLED
  9
$DIMALT
 70
1
  9
$DIMALTD
 70
2
  9
$DIMALTTD
 70
2
  9
$DIMALTF
 40
25.4
  9
$DIMTXT
 40
0.08
  9
$DIMTOL
 70
1
  9
$DIMLIM
 70
0
  9
$DIMTFAC
 40
1.0
  9
$DIMTP
 40
0.001
  9
$DIMTM
 40
0.001
  9
$DIMGAP
 40
0.09
  9
$DIMDSEP
 70
46
  9
$AUNITS
 70
0
  9
$PDMODE
 70
3
  9
$PDSIZE
 40
0.06
  9
$HANDSEED
  5
35B
  9
$TILEMODE
 70
1
  9
$MEASUREMENT
 70
0
  9
$INSUNITS
 70
1
  0
ENDSEC
  0
SECTION
  2
CLASSES
  0
CLASS
  1
ACDBDICTIONARYWDFLT
  2
AcDbDictionaryWithDefault
  3
AutoCAD 2000
 90
0
 91
1
280
0
281
0
  0
CLASS
  1
ACDBPLACEHOLDER
  2
AcDbPlaceHolder
  3
AutoCAD 2000
 90
0
 91
1
280
0
281
0
  0
CLASS
  1
LAYOUT
  2
AcDbLayout
  3
AutoCAD 2000
 90
0
 91
0
280
0
281
0
  0
ENDSEC
  0
SECTION
  2
TABLES
  0
TABLE
  2
VPORT
  5
8
100
AcDbSymbolTable
 70
2
  0
VPORT
  5
1F4
100
AcDbSymbolTableRecord
100
AcDbViewportTableRecord
  2
*ACTIVE
 70
0
 10
0.0
 20
0.0
 11
1.0
 21
1.0
 12
11.0
 22
8.5
 13
0.0
 23
0.0
 14
1.0
 24
1.0
 15
0.0
 25
0.0
 16
0.0
 26
0.0
 36
1.0
 17
0.0
 27
0.0
 37
0.0
 40
17.0
 41
1.2941176471
 42
50.0
 43
0.0
 44
0.0
 50
0.0
 51
0.0
 71
0
 72
100
 73
1
 74
1
 75
0
 76
0
 77
0
 78
0
  0
ENDTAB
  0
TABLE
  2
LTYPE
  5
5
100
AcDbSymbolTable
 70
6
  0
LTYPE
  5
14
100
AcDbSymbolTableRecord
100
AcDbLinetypeTableRecord
  2
BYBLOCK
 70
0
  3

 72
65
 73
0
 40
0.0
  0
LTYPE
  5
15
100
AcDbSymbolTableRecord
100
AcDbLinetypeTableRecord
  2
BYLAYER
 70
0
  3

 72
65
 73
0
 40
0.0
  0
LTYPE
  5
16
100
AcDbSymbolTableRecord
100
AcDbLinetypeTableRecord
  2
CONTINUOUS
 70
64
  3
Solid line
 72
65
 73
0
 40
0.0
  0
LTYPE
  5
1F5
100
AcDbSymbolTableRecord
100
AcDbLinetypeTableRecord
  2
CENTER
 70
64
  3
____ _ ____ _ ____ _ ____ _ ____ _ ____ _ ____
 72
65
 73
4
 40
0.6
 49
0.375
 74
0
 49
-0.075
 74
0
 49
0.075
 74
0
 49
-0.075
 74
0
  0
LTYPE
  5
1F6
100
AcDbSymbolTableRecord
100
AcDbLinetypeTableRecord
  2
HIDDEN
 70
64
  3
- - - - - - - - - - - - - - - - - - - -
 72
65
 73
2
 40
0.2
 49
0.1
 74
0
 49
-0.1
 74
0
  0
LTYPE
  5
1F7
100
AcDbSymbolTableRecord
100
AcDbLinetypeTableRecord
  2
PHANTOM
 70
64
  3
_____ _ _ _____ _ _ _____ _ _ _____
 72
65
 73
6
 40
0.8
 49
0.45
 74
0
 49
-0.05
 74
0
 49
0.1
 74
0
 49
-0.05
 74
0
 49
0.1
 74
0
 49
-0.05
 74
0
  0
LTYPE
  5
1F8
100
AcDbSymbolTableRecord
100
AcDbLinetypeTableRecord
  2
DOT
 70
64
  3
. . . . . . . . . . . . . . . . . . . .
 72
65
 73
2
 40
0.2
 49
0.1
 74
0
 49
-0.1
 74
0
  0
LTYPE
  5
1F9
100
AcDbSymbolTableRecord
100
AcDbLinetypeTableRecord
  2
DASHED
 70
64
  3
- - - - - - - - - - - - - - - - - - - -
 72
65
 73
2
 40
0.2
 49
0.1
 74
0
 49
-0.1
 74
0
  0
ENDTAB
  0
TABLE
  2
LAYER
  5
2
100
AcDbSymbolTable
 70
36
  0
LAYER
  5
10
100
AcDbSymbolTableRecord
100
AcDbLayerTableRecord
  2
0
 70
0
 62
7
  6
CONTINUOUS
370
-3
390
F
  0
LAYER
  5
1FA
100
AcDbSymbolTableRecord
100
AcDbLayerTableRecord
  2
DEFAULT_1
 70
0
 62
7
  6
CENTER
370
-3
390
F
  0
LAYER
  5
1FB
100
AcDbSymbolTableRecord
100
AcDbLayerTableRecord
  2
DEFAULT_2
 70
0
 62
8
  6
HIDDEN
370
-3
390
F
  0
LAYER
  5
1FC
100
AcDbSymbolTableRecord
100
AcDbLayerTableRecord
  2
DEFAULT_3
 70
0
 62
7
  6
PHANTOM
370
-3
390
F
  0
LAYER
  5
1FD
100
AcDbSymbolTableRecord
100
AcDbLayerTableRecord
  2
ALL_FEATURES
 70
0
 62
7
  6
CONTINUOUS
370
-3
390
F
  0
LAYER
  5
1FE
100
AcDbSymbolTableRecord
100
AcDbLayerTableRecord
  2
AXES_FEATURES
 70
0
 62
7
  6
CONTINUOUS
370
-3
390
F
  0
LAYER
  5
1FF
100
AcDbSymbolTableRecord
100
AcDbLayerTableRecord
  2
DIMENSIONS
 70
0
 62
7
  6
CONTINUOUS
370
-3
390
F
  0
ENDTAB
  0
TABLE
  2
STYLE
  5
3
100
AcDbSymbolTable
 70
1
  0
STYLE
  5
11
100
AcDbSymbolTableRecord
100
AcDbTextStyleTableRecord
  2
STANDARD
 70
0
 40
0.0
 41
0.8
 50
0.0
 71
0
 42
0.2
  3
txt
  4

  0
STYLE
  5
200
100
AcDbSymbolTableRecord
100
AcDbTextStyleTableRecord
  2
TEXTSTYLE_1
 70
0
 40
0.0
 41
0.8
 50
0.0
 71
0
 42
0.2
  3
gdt
  4

  0
ENDTAB
  0
TABLE
  2
VIEW
  5
6
100
AcDbSymbolTable
 70
0
  0
ENDTAB
  0
TABLE
  2
UCS
  5
7
100
AcDbSymbolTable
 70
0
  0
ENDTAB
  0
TABLE
  2
APPID
  5
9
100
AcDbSymbolTable
 70
1
  0
APPID
  5
201
100
AcDbSymbolTableRecord
100
AcDbRegAppTableRecord
  2
ACAD
 70
0
  0
ENDTAB
  0
TABLE
  2
BLOCK_RECORD
  5
1
100
AcDbSymbolTable
 70
0
  0
BLOCK_RECORD
  5
202
100
AcDbSymbolTableRecord
100
AcDbBlockTableRecord
  2
*Model_Space
  0
BLOCK_RECORD
  5
203
100
AcDbSymbolTableRecord
100
AcDbBlockTableRecord
  2
*Paper_Space
  0
BLOCK_RECORD
  5
204
100
AcDbSymbolTableRecord
100
AcDbBlockTableRecord
  2
_FILLED
  0
ENDTAB
  0
TABLE
  2
DIMSTYLE
  5
A
100
AcDbSymbolTable
 70
1
100
AcDbDimStyleTable
 71
0
  0
DIMSTYLE
105
205
100
AcDbSymbolTableRecord
100
AcDbDimStyleTableRecord
  2
STANDARD
 70
0
  3

  4

 40
1.0
 41
0.1
 42
0.0625
 43
0.38
 44
0.125
 45
0.0
 46
0.0
 47
0.001
 48
0.001
140
0.08
141
0.09
142
0.0
143
25.4
144
1.0
145
0.0
146
1.0
147
0.09
 71
1.0
 72
0.0
 73
1
 74
1
 75
0
 76
0
 77
0
 78
4
 79
1
170
1
171
2
172
0
173
0
174
0
175
0
176
0
177
0
178
0
270
2
179
3
271
3
272
3
273
2
274
2
275
0
280
0
281
0
282
0
283
1
284
4
285
0
286
0
287
3
288
0
340
11
278
46
341
204
342
204
343
204
344
204
  0
ENDTAB
  0
ENDSEC
  0
SECTION
  2
BLOCKS
  0
BLOCK
  5
20
100
AcDbEntity
  8
0
100
AcDbBlockBegin
  2
*Model_Space
 70
0
 10
0.0
 20
0.0
 30
0.0
  3
*Model_Space
  1

  0
ENDBLK
  5
21
100
AcDbEntity
  8
0
100
AcDbBlockEnd
  0
BLOCK
  5
1C
100
AcDbEntity
  8
0
100
AcDbBlockBegin
  2
*Paper_Space
 70
0
 10
0.0
 20
0.0
 30
0.0
  3
*Paper_Space
  1

  0
ENDBLK
  5
1D
100
AcDbEntity
  8
0
100
AcDbBlockEnd
  0
BLOCK
  5
206
100
AcDbEntity
  8
0
100
AcDbBlockBegin
  2
_FILLED
 70
64
 10
0.0
 20
0.0
  3
_FILLED
  1

  0
SOLID
  5
207
100
AcDbEntity
  8
0
  6
BYBLOCK
 62
0
100
AcDbTrace
 10
0.0
 20
0.0
 11
-1.0
 21
0.2
 12
-1.0
 22
-0.2
 13
-1.0
 23
-0.2
  0
ENDBLK
  5
208
100
AcDbEntity
  8
0
  6
BYBLOCK
 62
0
100
AcDbBlockEnd
  0
ENDSEC
  0
SECTION
  2
ENTITIES
  0
LINE
  5
209
100
AcDbEntity
  8
0
100
AcDbLine
 62
7
  6
CONTINUOUS
 10
8.8879408087
 20
10.2076695021
 11
8.8879408087
 21
10.5976695021
  0
LINE
  5
20A
100
AcDbEntity
  8
0
100
AcDbLine
 62
7
  6
CONTINUOUS
 10
8.9679408087
 20
10.2076695021
 11
8.9679408087
 21
10.5976695021
  0
LINE
  5
20B
100
AcDbEntity
  8
0
100
AcDbLine
 62
7
  6
CONTINUOUS
 10
8.5546048214
 20
7.696793101
 11
8.5234408087
 21
7.5626695021
  0
LINE
  5
20C
100
AcDbEntity
  8
0
100
AcDbLine
 62
7
  6
CONTINUOUS
 10
9.1137312696
 20
10.6076695021
 11
9.1281821126
 21
10.6541993814
  0
LINE
  5
20D
100
AcDbEntity
  8
0
100
AcDbLine
 62
7
  6
CONTINUOUS
 10
9.0184408087
 20
8.0408902169
 11
9.0184408087
 21
8.1944486151
  0
LINE
  5
20E
100
AcDbEntity
  8
0
100
AcDbLine
 62
7
  6
CONTINUOUS
 10
9.1059408087
 20
10.5986695021
 11
9.1059408087
 21
10.2066695021
  0
LINE
  5
20F
100
AcDbEntity
  8
0
100
AcDbLine
 62
7
  6
CONTINUOUS
 10
9.357260154
 20
9.0769481426
 11
9.357260154
 21
9.1663908617
  0
LINE
  5
210
100
AcDbEntity
  8
0
100
AcDbLine
 62
7
  6
CONTINUOUS
 10
8.5234420661
 20
7.5626695021
 11
10.8884395514
 21
7.5626695021
  0
LINE
  5
211
100
AcDbEntity
  8
0
100
AcDbLine
 62
9
  6
CONTINUOUS
 10
10.857276796
 20
7.696793101
 11
8.5546048214
 21
7.696793101
  0
LINE
  5
212
100
AcDbEntity
  8
0
100
AcDbLine
 62
7
  6
CONTINUOUS
 10
9.3944445602
 20
9.0769481426
 11
9.3944445602
 21
9.1663908617
  0
LINE
  5
213
100
AcDbEntity
  8
0
100
AcDbLine
 62
7
  6
CONTINUOUS
 10
9.4341370903
 20
9.0769481426
 11
9.4341370903
 21
9.1663908617
  0
LINE
  5
214
100
AcDbEntity
  8
0
100
AcDbLine
 62
7
  6
CONTINUOUS
 10
9.4559408087
 20
9.3776695021
 11
9.4559408087
 21
9.9846695021
  0
LINE
  5
215
100
AcDbEntity
  8
0
100
AcDbLine
 62
7
  6
CONTINUOUS
 10
9.4760181456
 20
9.0769481426
 11
9.4760181456
 21
9.1663908617
  0
LINE
  5
216
100
AcDbEntity
  8
0
100
AcDbLine
 62
7
  6
CONTINUOUS
 10
9.5197505057
 20
9.0769481426
 11
9.5197505057
 21
9.1663908617
  0
LINE
  5
217
100
AcDbEntity
  8
0
100
AcDbLine
 62
7
  6
CONTINUOUS
 10
9.564982044
 20
9.0769481426
 11
9.564982044
 21
9.1663908617
  0
LINE
  5
218
100
AcDbEntity
  8
0
100
AcDbLine
 62
9
  6
CONTINUOUS
 10
10.8150613274
 20
7.7404340935
 11
8.59682029
 21
7.7404340935
  0
LINE
  5
219
100
AcDbEntity
  8
0
100
AcDbLine
 62
7
  6
CONTINUOUS
 10
9.0184408087
 20
8.0408987395
 11
9.0409408087
 21
8.0376695021
  0
LINE
  5
21A
100
AcDbEntity
  8
0
100
AcDbLine
 62
7
  6
CONTINUOUS
 10
9.1263841495
 20
10.1564032214
 11
9.1137312696
 21
10.1976695021
  0
LINE
  5
21B
100
AcDbEntity
  8
0
100
AcDbLine
 62
7
  6
CONTINUOUS
 10
9.6113485623
 20
9.0769481426
 11
9.6113485623
 21
9.1663908617
  0
LINE
  5
21C
100
AcDbEntity
  8
0
100
AcDbLine
 62
7
  6
CONTINUOUS
 10
9.6584767241
 20
9.0769481426
 11
9.6584767241
 21
9.1663908617
  0
LINE
  5
21D
100
AcDbEntity
  8
0
100
AcDbLine
 62
7
  6
CONTINUOUS
 10
9.7059754971
 20
9.0769481668
 11
9.7059754971
 21
9.1663908375
  0
LINE
  5
21E
100
AcDbEntity
  8
0
100
AcDbLine
 62
7
  6
CONTINUOUS
 10
9.7534970234
 20
9.0769481426
 11
9.7534970234
 21
9.1663908617
  0
LINE
  5
21F
100
AcDbEntity
  8
0
100
AcDbLine
 62
7
  6
CONTINUOUS
 10
10.2359408097
 20
10.7026695039
 11
10.2440958772
 21
10.7167944951
  0
LINE
  5
220
100
AcDbEntity
  8
0
100
AcDbLine
 62
9
  6
CONTINUOUS
 10
10.534817997
 20
7.9454475647
 11
8.8770636204
 21
7.9454475647
  0
LINE
  5
221
100
AcDbEntity
  8
0
100
AcDbLine
 62
7
  6
CONTINUOUS
 10
10.3709408087
 20
8.0376695021
 11
9.0409408087
 21
8.0376695021
  0
LINE
  5
222
100
AcDbEntity
  8
0
100
AcDbLine
 62
7
  6
CONTINUOUS
 10
9.800624071
 20
9.0769481426
 11
9.800624071
 21
9.1663908617
  0
LINE
  5
223
100
AcDbEntity
  8
0
100
AcDbLine
 62
7
  6
CONTINUOUS
 10
9.8469887422
 20
9.0769481426
 11
9.8469887422
 21
9.1663908617
  0
LINE
  5
224
100
AcDbEntity
  8
0
100
AcDbLine
 62
7
  6
CONTINUOUS
 10
9.8922177154
 20
9.0769481426
 11
9.8922177154
 21
9.1663908617
  0
LINE
  5
225
100
AcDbEntity
  8
0
100
AcDbLine
 62
7
  6
CONTINUOUS
 10
9.9359468132
 20
9.0769481426
 11
9.9359468132
 21
9.1663908617
  0
LINE
  5
226
100
AcDbEntity
  8
0
100
AcDbLine
 62
7
  6
CONTINUOUS
 10
9.9559408087
 20
9.3776695021
 11
9.9559408087
 21
9.9846695021
  0
LINE
  5
227
100
AcDbEntity
  8
0
100
AcDbLine
 62
7
  6
CONTINUOUS
 10
9.9778239351
 20
9.0769481426
 11
9.9778239351
 21
9.1663908617
  0
LINE
  5
228
100
AcDbEntity
  8
0
100
AcDbLine
 62
7
  6
CONTINUOUS
 10
10.3934408087
 20
8.0408987395
 11
10.3709408087
 21
8.0376695021
  0
LINE
  5
229
100
AcDbEntity
  8
0
100
AcDbLine
 62
7
  6
CONTINUOUS
 10
9.0394408087
 20
8.1976554384
 11
10.3724408087
 21
8.1976554384
  0
LINE
  5
22A
100
AcDbEntity
  8
0
100
AcDbLine
 62
7
  6
CONTINUOUS
 10
10.3724408087
 20
8.1976554384
 11
10.3934408087
 21
8.1944402648
  0
LINE
  5
22B
100
AcDbEntity
  8
0
100
AcDbLine
 62
7
  6
CONTINUOUS
 10
10.0175118924
 20
9.0769481426
 11
10.0175118924
 21
9.1663908617
  0
LINE
  5
22C
100
AcDbEntity
  8
0
100
AcDbLine
 62
7
  6
CONTINUOUS
 10
10.0546911232
 20
9.0769481426
 11
10.0546911232
 21
9.1663908617
  0
LINE
  5
22D
100
AcDbEntity
  8
0
100
AcDbLine
 62
7
  6
CONTINUOUS
 10
10.2854974679
 20
10.1564032214
 11
10.2981503479
 21
10.1976695021
  0
LINE
  5
22E
100
AcDbEntity
  8
0
100
AcDbLine
 62
7
  6
CONTINUOUS
 10
9.0394408087
 20
8.1976554384
 11
9.0184408087
 21
8.1944402648
  0
LINE
  5
22F
100
AcDbEntity
  8
0
100
AcDbLine
 62
7
  6
CONTINUOUS
 10
9.1759408077
 20
10.702669504
 11
9.1677857402
 21
10.7167944951
  0
LINE
  5
230
100
AcDbEntity
  8
0
100
AcDbLine
 62
9
  6
CONTINUOUS
 10
10.3150647934
 20
10.2066695021
 11
10.3150647934
 21
10.5986695021
  0
LINE
  5
231
100
AcDbEntity
  8
0
100
AcDbLine
 62
7
  6
CONTINUOUS
 10
10.3934408087
 20
8.0408902169
 11
10.3934408087
 21
8.1944486151
  0
LINE
  5
232
100
AcDbEntity
  8
0
100
AcDbLine
 62
7
  6
CONTINUOUS
 10
10.5299408087
 20
10.6736695021
 11
10.5299408087
 21
10.1316695021
  0
LINE
  5
233
100
AcDbEntity
  8
0
100
AcDbLine
 62
7
  6
CONTINUOUS
 10
10.857276796
 20
7.696793101
 11
10.8884408087
 21
7.5626695021
  0
LINE
  5
234
100
AcDbEntity
  8
0
100
AcDbLine
 62
7
  6
CONTINUOUS
 10
10.6299408087
 20
10.1316695021
 11
10.6299408087
 21
10.6736695021
  0
LINE
  5
235
100
AcDbEntity
  8
0
100
AcDbLine
 62
7
  6
CONTINUOUS
 10
10.1959408087
 20
9.0616695021
 11
9.2159408087
 21
9.0616695021
  0
LINE
  5
236
100
AcDbEntity
  8
0
100
AcDbLine
 62
7
  6
CONTINUOUS
 10
10.2981503479
 20
10.6076695021
 11
10.2836995049
 21
10.6541993814
  0
LINE
  5
237
100
AcDbEntity
  8
0
100
AcDbLine
 62
7
  6
CONTINUOUS
 10
10.1959408087
 20
9.1816695021
 11
9.2159408087
 21
9.1816695021
  0
LINE
  5
238
100
AcDbEntity
  8
0
100
AcDbLine
 62
7
  6
CONTINUOUS
 10
9.9959799323
 20
9.3776695021
 11
9.4159008047
 21
9.3776695021
  0
LINE
  5
239
100
AcDbEntity
  8
0
100
AcDbLine
 62
9
  6
CONTINUOUS
 10
9.9559408087
 20
9.9846695021
 11
9.4559408087
 21
9.9846695021
  0
LINE
  5
23A
100
AcDbEntity
  8
0
100
AcDbLine
 62
9
  6
CONTINUOUS
 10
11.8374745399
 20
10.0581695021
 11
11.8374745399
 21
10.7471695021
  0
LINE
  5
23B
100
AcDbEntity
  8
0
100
AcDbLine
 62
7
  6
CONTINUOUS
 10
9.2012347678
 20
10.1026695021
 11
10.2106460181
 21
10.1026695021
  0
LINE
  5
23C
100
AcDbEntity
  8
0
100
AcDbLine
 62
9
  6
CONTINUOUS
 10
10.2854974679
 20
10.1564032214
 11
9.1263841495
 21
10.1564032214
  0
LINE
  5
23D
100
AcDbEntity
  8
0
100
AcDbLine
 62
7
  6
CONTINUOUS
 10
9.1059408087
 20
10.2066695021
 11
9.1143418017
 21
10.2066695021
  0
LINE
  5
23E
100
AcDbEntity
  8
0
100
AcDbLine
 62
7
  6
CONTINUOUS
 10
10.2975393871
 20
10.2066695021
 11
10.3150647934
 21
10.2066695021
  0
LINE
  5
23F
100
AcDbEntity
  8
0
100
AcDbLine
 62
7
  6
CONTINUOUS
 10
9.1059408087
 20
10.5986695021
 11
9.114342222
 21
10.5986695021
  0
LINE
  5
240
100
AcDbEntity
  8
0
100
AcDbLine
 62
7
  6
CONTINUOUS
 10
10.2975398047
 20
10.5986695021
 11
10.3150647934
 21
10.5986695021
  0
LINE
  5
241
100
AcDbEntity
  8
0
100
AcDbLine
 62
9
  6
CONTINUOUS
 10
9.1281821126
 20
10.6541993814
 11
10.2836995049
 21
10.6541993814
  0
LINE
  5
242
100
AcDbEntity
  8
0
100
AcDbLine
 62
7
  6
CONTINUOUS
 10
9.1759408077
 20
10.702669504
 11
10.2359408097
 21
10.7026695039
  0
LINE
  5
243
100
AcDbEntity
  8
0
100
AcDbLine
 62
9
  6
CONTINUOUS
 10
10.2440958772
 20
10.7167944951
 11
9.1677857402
 21
10.7167944951
  0
LINE
  5
244
100
AcDbEntity
  8
0
100
AcDbLine
 62
9
  6
CONTINUOUS
 10
9.1834408087
 20
10.7720015085
 11
10.2284408087
 21
10.7720015085
  0
LINE
  5
245
100
AcDbEntity
  8
0
100
AcDbLine
 62
9
  6
CONTINUOUS
 10
10.1765700809
 20
10.8485108199
 11
9.2353115365
 21
10.8485108199
  0
LINE
  5
246
100
AcDbEntity
  8
0
100
AcDbLine
 62
7
  6
CONTINUOUS
 10
10.160675248
 20
10.8626695021
 11
9.2512063694
 21
10.8626695021
  0
LINE
  5
247
100
AcDbEntity
  8
0
100
AcDbLine
 62
9
  6
CONTINUOUS
 10
9.3194229516
 20
10.906981028
 11
10.0924586659
 21
10.906981028
  0
LINE
  5
248
100
AcDbEntity
  8
0
100
AcDbLine
 62
7
  6
CONTINUOUS
 10
13.1299408087
 20
10.7471695021
 11
13.1299408087
 21
10.0581695021
  0
LINE
  5
249
100
AcDbEntity
  8
0
100
AcDbLine
 62
7
  6
CONTINUOUS
 10
13.2309408087
 20
10.0581695021
 11
13.2309408087
 21
10.7471695021
  0
ARC
  5
24A
100
AcDbEntity
  8
0
100
AcDbCircle
 62
7
  6
CONTINUOUS
 10
8.2189288703
 20
8.815303525
 40
1.027
100
AcDbArc
 50
323.0290504961
 51
13.8799876593
  0
ARC
  5
24B
100
AcDbEntity
  8
0
100
AcDbCircle
 62
7
  6
CONTINUOUS
 10
8.4727231674
 20
8.2041149149
 40
0.48
100
AcDbArc
 50
284.9831919527
 51
327.3918704587
  0
ARC
  5
24C
100
AcDbEntity
  8
0
100
AcDbCircle
 62
7
  6
CONTINUOUS
 10
9.0455388092
 20
7.8376695021
 40
0.2
100
AcDbArc
 50
90.0
 51
147.3918704587
  0
ARC
  5
24D
100
AcDbEntity
  8
0
100
AcDbCircle
 62
7
  6
CONTINUOUS
 10
8.6120738957
 20
7.6834399928
 40
0.059
100
AcDbArc
 50
104.9831928821
 51
166.919261208
  0
ARC
  5
24E
100
AcDbEntity
  8
0
100
AcDbCircle
 62
7
  6
CONTINUOUS
 10
9.0364163355
 20
10.1347921927
 40
0.1
100
AcDbArc
 50
45.953277559
 51
133.2163633587
  0
ARC
  5
24F
100
AcDbEntity
  8
0
100
AcDbCircle
 62
7
  6
CONTINUOUS
 10
8.9279408087
 20
10.2076695021
 40
0.04
100
AcDbArc
 50
180.0
 51
360.0
  0
ARC
  5
250
100
AcDbEntity
  8
0
100
AcDbCircle
 62
7
  6
CONTINUOUS
 10
9.3834251584
 20
9.1216711711
 40
0.15217579
100
AcDbArc
 50
177.0618002087
 51
182.9493585134
  0
ARC
  5
251
100
AcDbEntity
  8
0
100
AcDbCircle
 62
7
  6
CONTINUOUS
 10
9.3258783216
 20
9.1216717225
 40
0.1176195937
100
AcDbArc
 50
176.1971601611
 51
183.8172759627
  0
ARC
  5
252
100
AcDbEntity
  8
0
100
AcDbCircle
 62
7
  6
CONTINUOUS
 10
9.2857941351
 20
9.1216723892
 40
0.0965187822
100
AcDbArc
 50
175.3638034048
 51
184.6537491815
  0
ARC
  5
253
100
AcDbEntity
  8
0
100
AcDbCircle
 62
7
  6
CONTINUOUS
 10
9.2568777003
 20
9.1216731476
 40
0.0824256042
100
AcDbArc
 50
174.5682371545
 51
185.4523592438
  0
ARC
  5
254
100
AcDbEntity
  8
0
100
AcDbCircle
 62
7
  6
CONTINUOUS
 10
9.2363607684
 20
9.1216739755
 40
0.0724524573
100
AcDbArc
 50
173.8171209148
 51
186.2063081901
  0
ARC
  5
255
100
AcDbEntity
  8
0
100
AcDbCircle
 62
7
  6
CONTINUOUS
 10
9.2228436462
 20
9.1216642123
 40
0.0651147508
100
AcDbArc
 50
173.1163757768
 51
186.9096906969
  0
ARC
  5
256
100
AcDbEntity
  8
0
100
AcDbCircle
 62
7
  6
CONTINUOUS
 10
9.2159408087
 20
9.1216695021
 40
0.06
100
AcDbArc
 50
90.0
 51
136.7213031418
  0
ARC
  5
257
100
AcDbEntity
  8
0
100
AcDbCircle
 62
7
  6
CONTINUOUS
 10
9.2159408087
 20
9.1216695021
 40
0.06
100
AcDbArc
 50
223.2420691179
 51
270.0
  0
ARC
  5
258
100
AcDbEntity
  8
0
100
AcDbCircle
 62
7
  6
CONTINUOUS
 10
9.2155318062
 20
9.1216756662
 40
0.059567762
100
AcDbArc
 50
172.4424445747
 51
187.5290333325
  0
ARC
  5
259
100
AcDbEntity
  8
0
100
AcDbCircle
 62
7
  6
CONTINUOUS
 10
9.2152042374
 20
9.1216993212
 40
0.0592383023
100
AcDbArc
 50
162.778121307
 51
172.4352778392
  0
ARC
  5
25A
100
AcDbEntity
  8
0
100
AcDbCircle
 62
7
  6
CONTINUOUS
 10
9.2152041413
 20
9.1216396871
 40
0.0592382082
100
AcDbArc
 50
187.5360597373
 51
197.2106094676
  0
ARC
  5
25B
100
AcDbEntity
  8
0
100
AcDbCircle
 62
7
  6
CONTINUOUS
 10
9.21499297
 20
9.1215876077
 40
0.0590210842
100
AcDbArc
 50
197.2229720771
 51
199.5439855326
  0
ARC
  5
25C
100
AcDbEntity
  8
0
100
AcDbCircle
 62
7
  6
CONTINUOUS
 10
9.2149884453
 20
9.1217528097
 40
0.0590163501
100
AcDbArc
 50
160.4542672045
 51
162.7656946179
  0
ARC
  5
25D
100
AcDbEntity
  8
0
100
AcDbCircle
 62
7
  6
CONTINUOUS
 10
9.2146966801
 20
9.121755774
 40
0.0587634729
100
AcDbArc
 50
130.5735206266
 51
139.8015998127
  0
ARC
  5
25E
100
AcDbEntity
  8
0
100
AcDbCircle
 62
7
  6
CONTINUOUS
 10
9.2146955503
 20
9.1215820767
 40
0.0587618619
100
AcDbArc
 50
220.1599122026
 51
229.4265845954
  0
ARC
  5
25F
100
AcDbEntity
  8
0
100
AcDbCircle
 62
7
  6
CONTINUOUS
 10
9.2144034483
 20
9.1213328366
 40
0.0583778362
100
AcDbArc
 50
199.5310619248
 51
220.1550014673
  0
ARC
  5
260
100
AcDbEntity
  8
0
100
AcDbCircle
 62
7
  6
CONTINUOUS
 10
9.2144029826
 20
9.1220065116
 40
0.0583772585
100
AcDbArc
 50
139.8064717994
 51
160.4673540775
  0
ARC
  5
261
100
AcDbEntity
  8
0
100
AcDbCircle
 62
7
  6
CONTINUOUS
 10
9.2139447176
 20
9.1216765265
 40
0.0553133247
100
AcDbArc
 50
171.8564984157
 51
188.1127890344
  0
ARC
  5
262
100
AcDbEntity
  8
0
100
AcDbCircle
 62
7
  6
CONTINUOUS
 10
9.2177263364
 20
9.1216773451
 40
0.0520207366
100
AcDbArc
 50
171.3363578945
 51
188.6309892028
  0
ARC
  5
263
100
AcDbEntity
  8
0
100
AcDbCircle
 62
7
  6
CONTINUOUS
 10
9.2266760595
 20
9.1216837361
 40
0.0495463521
100
AcDbArc
 50
170.8927237932
 51
189.0730967274
  0
ARC
  5
264
100
AcDbEntity
  8
0
100
AcDbCircle
 62
7
  6
CONTINUOUS
 10
9.2404338159
 20
9.1216863468
 40
0.0476220963
100
AcDbArc
 50
170.5182255555
 51
189.4461424899
  0
ARC
  5
265
100
AcDbEntity
  8
0
100
AcDbCircle
 62
7
  6
CONTINUOUS
 10
9.2588195396
 20
9.1216884934
 40
0.0461941607
100
AcDbArc
 50
170.2196351533
 51
189.7436415508
  0
ARC
  5
266
100
AcDbEntity
  8
0
100
AcDbCircle
 62
7
  6
CONTINUOUS
 10
9.2816054629
 20
9.1216901235
 40
0.0451943182
100
AcDbArc
 50
169.9989979061
 51
189.9634741329
  0
ARC
  5
267
100
AcDbEntity
  8
0
100
AcDbCircle
 62
7
  6
CONTINUOUS
 10
9.3085885365
 20
9.1216941297
 40
0.0446110407
100
AcDbArc
 50
169.8616672385
 51
190.1003259481
  0
ARC
  5
268
100
AcDbEntity
  8
0
100
AcDbCircle
 62
7
  6
CONTINUOUS
 10
9.3379408087
 20
9.9846695021
 40
0.118
100
AcDbArc
 50
0.0
 51
89.9999870546
  0
ARC
  5
269
100
AcDbEntity
  8
0
100
AcDbCircle
 62
7
  6
CONTINUOUS
 10
9.2012347678
 20
10.1816695021
 40
0.079
100
AcDbArc
 50
198.6524229103
 51
269.9999993655
  0
ARC
  5
26A
100
AcDbEntity
  8
0
100
AcDbCircle
 62
7
  6
CONTINUOUS
 10
10.3663428083
 20
7.8376695021
 40
0.2
100
AcDbArc
 50
32.6081295413
 51
90.0
  0
ARC
  5
26B
100
AcDbEntity
  8
0
100
AcDbCircle
 62
7
  6
CONTINUOUS
 10
9.6792228052
 20
9.121670479
 40
0.390741603
100
AcDbArc
 50
178.8562392618
 51
181.1481069186
  0
ARC
  5
26C
100
AcDbEntity
  8
0
100
AcDbCircle
 62
7
  6
CONTINUOUS
 10
9.7333255675
 20
9.121668526
 40
0.3901373395
100
AcDbArc
 50
358.8544676528
 51
1.1498901175
  0
ARC
  5
26D
100
AcDbEntity
  8
0
100
AcDbCircle
 62
7
  6
CONTINUOUS
 10
9.4761719636
 20
9.1216707521
 40
0.2181098062
100
AcDbArc
 50
177.9505873604
 51
182.0571985151
  0
ARC
  5
26E
100
AcDbEntity
  8
0
100
AcDbCircle
 62
7
  6
CONTINUOUS
 10
9.9359508866
 20
9.1216682525
 40
0.2179242818
100
AcDbArc
 50
357.9488420272
 51
2.0589591024
  0
ARC
  5
26F
100
AcDbEntity
  8
0
100
AcDbCircle
 62
7
  6
CONTINUOUS
 10
9.4159008047
 20
9.1776695021
 40
0.2
100
AcDbArc
 50
90.0
 51
178.8540080016
  0
ARC
  5
270
100
AcDbEntity
  8
0
100
AcDbCircle
 62
7
  6
CONTINUOUS
 10
9.9959808127
 20
9.1776695021
 40
0.2
100
AcDbArc
 50
1.1459919984
 51
90.0
  0
ARC
  5
271
100
AcDbEntity
  8
0
100
AcDbCircle
 62
7
  6
CONTINUOUS
 10
9.7059408087
 20
9.8026695022
 40
1.17
100
AcDbArc
 50
70.7095459639
 51
109.2904540361
  0
ARC
  5
272
100
AcDbEntity
  8
0
100
AcDbCircle
 62
7
  6
CONTINUOUS
 10
10.0285930995
 20
9.1216678332
 40
0.1520876259
100
AcDbArc
 50
357.060095573
 51
2.9510820785
  0
ARC
  5
273
100
AcDbEntity
  8
0
100
AcDbCircle
 62
7
  6
CONTINUOUS
 10
10.0860950887
 20
9.1216672816
 40
0.1175686548
100
AcDbArc
 50
356.1955100342
 51
3.8189483472
  0
ARC
  5
274
100
AcDbEntity
  8
0
100
AcDbCircle
 62
7
  6
CONTINUOUS
 10
10.1261526985
 20
9.1216666233
 40
0.0964864661
100
AcDbArc
 50
355.3621447229
 51
4.6554310528
  0
ARC
  5
275
100
AcDbEntity
  8
0
100
AcDbCircle
 62
7
  6
CONTINUOUS
 10
10.1550513051
 20
9.1216658562
 40
0.0824029026
100
AcDbArc
 50
354.5667359063
 51
5.4538891575
  0
ARC
  5
276
100
AcDbEntity
  8
0
100
AcDbCircle
 62
7
  6
CONTINUOUS
 10
10.1755535508
 20
9.1216650281
 40
0.0724360269
100
AcDbArc
 50
353.8157125062
 51
6.2077480648
  0
ARC
  5
277
100
AcDbEntity
  8
0
100
AcDbCircle
 62
7
  6
CONTINUOUS
 10
10.1890579679
 20
9.1216747926
 40
0.0651024796
100
AcDbArc
 50
353.1150714202
 51
6.911029059
  0
ARC
  5
278
100
AcDbEntity
  8
0
100
AcDbCircle
 62
7
  6
CONTINUOUS
 10
10.1959408087
 20
9.1216695021
 40
0.06
100
AcDbArc
 50
43.1703154961
 51
90.0
  0
ARC
  5
279
100
AcDbEntity
  8
0
100
AcDbCircle
 62
7
  6
CONTINUOUS
 10
10.1959408087
 20
9.1216695021
 40
0.06
100
AcDbArc
 50
270.0
 51
316.7925111264
  0
ARC
  5
27A
100
AcDbEntity
  8
0
100
AcDbCircle
 62
7
  6
CONTINUOUS
 10
10.1963413272
 20
9.1216633388
 40
0.0595771205
100
AcDbArc
 50
352.4436709048
 51
7.5278430896
  0
ARC
  5
27B
100
AcDbEntity
  8
0
100
AcDbCircle
 62
7
  6
CONTINUOUS
 10
10.1966700974
 20
9.1216395193
 40
0.0592464481
100
AcDbArc
 50
342.7735916583
 51
352.4365155399
  0
ARC
  5
27C
100
AcDbEntity
  8
0
100
AcDbCircle
 62
7
  6
CONTINUOUS
 10
10.1966701905
 20
9.1216994802
 40
0.0592463571
100
AcDbArc
 50
7.5348580668
 51
17.2151890868
  0
ARC
  5
27D
100
AcDbEntity
  8
0
100
AcDbCircle
 62
7
  6
CONTINUOUS
 10
10.1968827299
 20
9.1217519483
 40
0.0590278124
100
AcDbArc
 50
17.2275997614
 51
19.5319899551
  0
ARC
  5
27E
100
AcDbEntity
  8
0
100
AcDbCircle
 62
7
  6
CONTINUOUS
 10
10.196887254
 20
9.1215856434
 40
0.0590230789
100
AcDbArc
 50
340.4663266301
 51
342.7611163797
  0
ARC
  5
27F
100
AcDbEntity
  8
0
100
AcDbCircle
 62
7
  6
CONTINUOUS
 10
10.1971882451
 20
9.1215769494
 40
0.0587592476
100
AcDbArc
 50
310.5781250418
 51
319.806133665
  0
ARC
  5
280
100
AcDbEntity
  8
0
100
AcDbCircle
 62
7
  6
CONTINUOUS
 10
10.1971893673
 20
9.1217632004
 40
0.0587576476
100
AcDbArc
 50
40.1553769216
 51
49.4219794394
  0
ARC
  5
281
100
AcDbEntity
  8
0
100
AcDbCircle
 62
7
  6
CONTINUOUS
 10
10.1974785531
 20
9.1220099729
 40
0.058377443
100
AcDbArc
 50
19.5188861831
 51
40.1504957733
  0
ARC
  5
282
100
AcDbEntity
  8
0
100
AcDbCircle
 62
7
  6
CONTINUOUS
 10
10.1974790238
 20
9.1213286838
 40
0.058376859
100
AcDbArc
 50
319.8109763324
 51
340.4795931826
  0
ARC
  5
283
100
AcDbEntity
  8
0
100
AcDbCircle
 62
7
  6
CONTINUOUS
 10
10.1979391562
 20
9.1216624784
 40
0.055320544
100
AcDbArc
 50
351.8576031173
 51
8.111722571
  0
ARC
  5
284
100
AcDbEntity
  8
0
100
AcDbCircle
 62
7
  6
CONTINUOUS
 10
10.1941676942
 20
9.1216616597
 40
0.0520263239
100
AcDbArc
 50
351.3373323226
 51
8.6300546757
  0
ARC
  5
285
100
AcDbEntity
  8
0
100
AcDbCircle
 62
7
  6
CONTINUOUS
 10
10.1852278471
 20
9.1216552545
 40
0.0495504482
100
AcDbArc
 50
350.8937108424
 51
9.0721425214
  0
ARC
  5
286
100
AcDbEntity
  8
0
100
AcDbCircle
 62
7
  6
CONTINUOUS
 10
10.1714791336
 20
9.1216526599
 40
0.0476253122
100
AcDbArc
 50
350.5189143621
 51
9.4454957715
  0
ARC
  5
287
100
AcDbEntity
  8
0
100
AcDbCircle
 62
7
  6
CONTINUOUS
 10
10.1531021886
 20
9.1216505124
 40
0.0461964871
100
AcDbArc
 50
350.2201752422
 51
9.7431440487
  0
ARC
  5
288
100
AcDbEntity
  8
0
100
AcDbCircle
 62
7
  6
CONTINUOUS
 10
10.1303245949
 20
9.1216488813
 40
0.0451958626
100
AcDbArc
 50
349.9993854519
 51
9.9631294182
  0
ARC
  5
289
100
AcDbEntity
  8
0
100
AcDbCircle
 62
7
  6
CONTINUOUS
 10
10.1033493691
 20
9.1216448729
 40
0.0446118826
100
AcDbArc
 50
349.8619007348
 51
10.1001354805
  0
ARC
  5
28A
100
AcDbEntity
  8
0
100
AcDbCircle
 62
7
  6
CONTINUOUS
 10
10.3150647934
 20
9.8576695021
 40
0.349
100
AcDbArc
 50
51.9957995254
 51
90.0
  0
ARC
  5
28B
100
AcDbEntity
  8
0
100
AcDbCircle
 62
7
  6
CONTINUOUS
 10
10.0739408087
 20
9.9846695021
 40
0.118
100
AcDbArc
 50
90.0000129454
 51
180.0
  0
ARC
  5
28C
100
AcDbEntity
  8
0
100
AcDbCircle
 62
7
  6
CONTINUOUS
 10
10.2106468496
 20
10.1816695021
 40
0.079
100
AcDbArc
 50
270.0000006345
 51
341.3475770898
  0
ARC
  5
28D
100
AcDbEntity
  8
0
100
AcDbCircle
 62
7
  6
CONTINUOUS
 10
10.5799408087
 20
10.1316695021
 40
0.05
100
AcDbArc
 50
180.0
 51
360.0
  0
ARC
  5
28E
100
AcDbEntity
  8
0
100
AcDbCircle
 62
7
  6
CONTINUOUS
 10
10.3150647934
 20
10.9476695021
 40
0.349
100
AcDbArc
 50
270.0
 51
308.0042004746
  0
ARC
  5
28F
100
AcDbEntity
  8
0
100
AcDbCircle
 62
7
  6
CONTINUOUS
 10
8.9919408087
 20
10.4026695021
 40
0.221
100
AcDbArc
 50
118.0724869359
 51
241.9275130641
  0
ARC
  5
290
100
AcDbEntity
  8
0
100
AcDbCircle
 62
7
  6
CONTINUOUS
 10
9.1359759396
 20
10.860019042
 40
0.1
100
AcDbArc
 50
298.3364788229
 51
353.3916314555
  0
ARC
  5
291
100
AcDbEntity
  8
0
100
AcDbCircle
 62
7
  6
CONTINUOUS
 10
10.2759056779
 20
10.860019042
 40
0.1
100
AcDbArc
 50
186.6083685445
 51
241.6635211771
  0
ARC
  5
292
100
AcDbEntity
  8
0
100
AcDbCircle
 62
7
  6
CONTINUOUS
 10
9.0364163355
 20
10.6705468116
 40
0.1
100
AcDbArc
 50
226.7836366413
 51
314.046722441
  0
ARC
  5
293
100
AcDbEntity
  8
0
100
AcDbCircle
 62
7
  6
CONTINUOUS
 10
9.2028482645
 20
10.6283930692
 40
0.079
100
AcDbArc
 50
109.9134773666
 51
160.933691832
  0
ARC
  5
294
100
AcDbEntity
  8
0
100
AcDbCircle
 62
7
  6
CONTINUOUS
 10
10.2090333529
 20
10.6283930691
 40
0.079
100
AcDbArc
 50
19.0663081653
 51
70.0865226518
  0
ARC
  5
295
100
AcDbEntity
  8
0
100
AcDbCircle
 62
7
  6
CONTINUOUS
 10
10.5799408087
 20
10.6736695021
 40
0.05
100
AcDbArc
 50
0.0
 51
180.0
  0
ARC
  5
296
100
AcDbEntity
  8
0
100
AcDbCircle
 62
7
  6
CONTINUOUS
 10
9.3359408087
 20
10.8597882277
 40
0.05
100
AcDbArc
 50
109.2904540363
 51
176.6453337496
  0
ARC
  5
297
100
AcDbEntity
  8
0
100
AcDbCircle
 62
7
  6
CONTINUOUS
 10
10.0759408087
 20
10.8597882277
 40
0.05
100
AcDbArc
 50
3.3546662504
 51
70.7095459637
  0
ARC
  5
298
100
AcDbEntity
  8
0
100
AcDbCircle
 62
7
  6
CONTINUOUS
 10
10.2094548611
 20
10.7367944951
 40
0.04
100
AcDbArc
 50
330.0
 51
61.6635211771
  0
ARC
  5
299
100
AcDbEntity
  8
0
100
AcDbCircle
 62
7
  6
CONTINUOUS
 10
9.2024267564
 20
10.7367944951
 40
0.04
100
AcDbArc
 50
118.3364788229
 51
210.0
  0
ARC
  5
29A
100
AcDbEntity
  8
0
100
AcDbCircle
 62
7
  6
CONTINUOUS
 10
8.9279408087
 20
10.5976695021
 40
0.04
100
AcDbArc
 50
0.0
 51
180.0
  0
ARC
  5
29B
100
AcDbEntity
  8
0
100
AcDbCircle
 62
7
  6
CONTINUOUS
 10
9.2512052318
 20
10.8466695021
 40
0.016
100
AcDbArc
 50
90.0
 51
173.3916245928
  0
ARC
  5
29C
100
AcDbEntity
  8
0
100
AcDbCircle
 62
7
  6
CONTINUOUS
 10
10.1606763856
 20
10.8466695021
 40
0.016
100
AcDbArc
 50
6.6083754072
 51
90.0
  0
ARC
  5
29D
100
AcDbEntity
  8
0
100
AcDbCircle
 62
7
  6
CONTINUOUS
 10
11.102671382
 20
7.942120278
 40
2.24
100
AcDbArc
 50
70.8503198608
 51
102.1833313251
  0
ARC
  5
29E
100
AcDbEntity
  8
0
100
AcDbCircle
 62
7
  6
CONTINUOUS
 10
12.4837076743
 20
8.8861797827
 40
1.97
100
AcDbArc
 50
70.8503198608
 51
109.1496801392
  0
ARC
  5
29F
100
AcDbEntity
  8
0
100
AcDbCircle
 62
7
  6
CONTINUOUS
 10
11.1929527471
 20
8.815303525
 40
1.027
100
AcDbArc
 50
166.1200123407
 51
216.9709495039
  0
ARC
  5
2A0
100
AcDbEntity
  8
0
100
AcDbCircle
 62
7
  6
CONTINUOUS
 10
10.9391584501
 20
8.2041149149
 40
0.48
100
AcDbArc
 50
212.6081295413
 51
255.0168080473
  0
ARC
  5
2A1
100
AcDbEntity
  8
0
100
AcDbCircle
 62
7
  6
CONTINUOUS
 10
10.7998077217
 20
7.6834399928
 40
0.059
100
AcDbArc
 50
13.080738792
 51
75.0168071179
  0
ARC
  5
2A2
100
AcDbEntity
  8
0
100
AcDbCircle
 62
7
  6
CONTINUOUS
 10
13.1804408087
 20
10.0581695021
 40
0.0505
100
AcDbArc
 50
180.0
 51
360.0
  0
ARC
  5
2A3
100
AcDbEntity
  8
0
100
AcDbCircle
 62
7
  6
CONTINUOUS
 10
11.102671382
 20
12.8632187263
 40
2.24
100
AcDbArc
 50
257.8166686749
 51
289.1496801392
  0
ARC
  5
2A4
100
AcDbEntity
  8
0
100
AcDbCircle
 62
7
  6
CONTINUOUS
 10
12.4837076743
 20
11.9191592216
 40
1.97
100
AcDbArc
 50
250.8503198608
 51
289.1496801392
  0
ARC
  5
2A5
100
AcDbEntity
  8
0
100
AcDbCircle
 62
7
  6
CONTINUOUS
 10
12.9619408087
 20
10.4026695021
 40
0.39
100
AcDbArc
 50
313.6098152012
 51
46.3901847988
  0
ARC
  5
2A6
100
AcDbEntity
  8
0
100
AcDbCircle
 62
7
  6
CONTINUOUS
 10
13.1804408087
 20
10.7471695021
 40
0.0505
100
AcDbArc
 50
0.0
 51
180.0
  0
SPLINE
  5
2A7
100
AcDbEntity
  8
0
100
AcDbSpline
 62
7
  6
CONTINUOUS
 70
0
 71
3
 72
39
 73
35
 74
0
 42
0.0000001
 43
0.0000001
 44
0.0000000001
 40
0.0
 40
0.0
 40
0.0
 40
0.0
 40
0.1949581517
 40
0.2901660553
 40
0.3825220168
 40
0.4711821569
 40
0.5553168682
 40
0.634132208
 40
0.7068459422
 40
0.7727604043
 40
0.8312523738
 40
0.8575266822
 40
0.8817384488
 40
0.9038322893
 40
0.9237527901
 40
0.9414445916
 40
0.9568610012
 40
0.9699716046
 40
0.9756532808
 40
0.9807477656
 40
0.9852514772
 40
0.9891608328
 40
0.9924722493
 40
0.9951824122
 40
0.9963116175
 40
0.9972902415
 40
0.998118288
 40
0.9987957612
 40
0.999322665
 40
0.9996990034
 40
0.9998307118
 40
0.9999247804
 40
0.9999812096
 40
1.0
 40
1.0
 40
1.0
 40
1.0
 10
9.1208126176
 20
10.4026695021
 30
0.0
 10
9.1208126176
 20
10.4160021481
 30
0.0
 10
9.1206787052
 20
10.4358461231
 30
0.0
 10
9.1202458146
 20
10.4620022764
 30
0.0
 10
9.1198113638
 20
10.4808876096
 30
0.0
 10
9.1192824765
 20
10.4990129339
 30
0.0
 10
9.1186751861
 20
10.5162092375
 30
0.0
 10
9.1180151319
 20
10.5323121872
 30
0.0
 10
9.117326836
 20
10.5471666747
 30
0.0
 10
9.116636687
 20
10.5606295444
 30
0.0
 10
9.1160646792
 20
10.5709183226
 30
0.0
 10
9.1156296927
 20
10.5783583261
 30
0.0
 10
9.1153312337
 20
10.5833128861
 30
0.0
 10
9.115051325
 20
10.5878332495
 30
0.0
 10
9.1147925542
 20
10.5919081801
 30
0.0
 10
9.1145574976
 20
10.5955270416
 30
0.0
 10
9.1143485151
 20
10.5986809024
 30
0.0
 10
9.1141909447
 20
10.6010150276
 30
0.0
 10
9.1140794743
 20
10.6026447694
 30
0.0
 10
9.1140076235
 20
10.6036872444
 30
0.0
 10
9.1139436738
 20
10.6046087717
 30
0.0
 10
9.1138878545
 20
10.6054086324
 30
0.0
 10
9.1138403794
 20
10.6060861165
 30
0.0
 10
9.1138061666
 20
10.6065739492
 30
0.0
 10
9.1137831127
 20
10.6069026167
 30
0.0
 10
9.113769074
 20
10.6071029343
 30
0.0
 10
9.1137571626
 20
10.6072723044
 30
0.0
 10
9.1137475039
 20
10.6074112243
 30
0.0
 10
9.1137397631
 20
10.6075183706
 30
0.0
 10
9.1137351684
 20
10.6075904028
 30
0.0
 10
9.1137317978
 20
10.607629559
 30
0.0
 10
9.1137312418
 20
10.6076519649
 30
0.0
 10
9.113729021
 20
10.6076579453
 30
0.0
 10
9.1137301152
 20
10.6076688396
 30
0.0
 10
9.1137294245
 20
10.607667756
 30
0.0
  0
SPLINE
  5
2A8
100
AcDbEntity
  8
0
100
AcDbSpline
 62
7
  6
CONTINUOUS
 70
0
 71
3
 72
39
 73
35
 74
0
 42
0.0000001
 43
0.0000001
 44
0.0000000001
 40
0.0
 40
0.0
 40
0.0
 40
0.0
 40
0.1949586904
 40
0.2901668389
 40
0.3825226128
 40
0.4711824371
 40
0.5553169621
 40
0.6341322346
 40
0.7068459696
 40
0.7727604374
 40
0.8312524293
 40
0.8575267422
 40
0.881738501
 40
0.9038323301
 40
0.9237528246
 40
0.9414446323
 40
0.9568610384
 40
0.9699716264
 40
0.9756532938
 40
0.9807477708
 40
0.9852514769
 40
0.9891608307
 40
0.9924722502
 40
0.995182419
 40
0.9963116257
 40
0.9972902502
 40
0.9981182964
 40
0.9987957687
 40
0.999322671
 40
0.9996990076
 40
0.999830715
 40
0.9999247825
 40
0.9999812107
 40
1.0
 40
1.0
 40
1.0
 40
1.0
 10
10.2910689998
 20
10.4026695021
 30
0.0
 10
10.2910689998
 20
10.3893368193
 30
0.0
 10
10.2912027462
 20
10.3694927897
 30
0.0
 10
10.2916356593
 20
10.3433365952
 30
0.0
 10
10.2920702692
 20
10.3244512831
 30
0.0
 10
10.2925992842
 20
10.3063260099
 30
0.0
 10
10.2932065461
 20
10.2891297444
 30
0.0
 10
10.2938665068
 20
10.2730268082
 30
0.0
 10
10.2945547472
 20
10.2581723221
 30
0.0
 10
10.2952449051
 20
10.2447094507
 30
0.0
 10
10.2958169353
 20
10.2344206715
 30
0.0
 10
10.2962519302
 20
10.2269806671
 30
0.0
 10
10.2965503913
 20
10.2220261083
 30
0.0
 10
10.2968302994
 20
10.2175057466
 30
0.0
 10
10.297089068
 20
10.2134308166
 30
0.0
 10
10.2973241221
 20
10.2098119552
 30
0.0
 10
10.2975331018
 20
10.206658095
 30
0.0
 10
10.2976906698
 20
10.2043239715
 30
0.0
 10
10.2978021386
 20
10.2026942319
 30
0.0
 10
10.2978739885
 20
10.2016517583
 30
0.0
 10
10.2979379377
 20
10.200730232
 30
0.0
 10
10.2979937569
 20
10.1999303715
 30
0.0
 10
10.2980412324
 20
10.1992528869
 30
0.0
 10
10.2980754459
 20
10.1987650537
 30
0.0
 10
10.2980985004
 20
10.1984363856
 30
0.0
 10
10.2981125395
 20
10.198236068
 30
0.0
 10
10.2981244516
 20
10.1980666977
 30
0.0
 10
10.2981341095
 20
10.1979277788
 30
0.0
 10
10.2981418536
 20
10.1978206309
 30
0.0
 10
10.2981464426
 20
10.197748603
 30
0.0
 10
10.2981498217
 20
10.1977094417
 30
0.0
 10
10.2981503644
 20
10.1976870448
 30
0.0
 10
10.2981526092
 20
10.1976810491
 30
0.0
 10
10.2981514906
 20
10.1976701713
 30
0.0
 10
10.2981521915
 20
10.1976712482
 30
0.0
  0
SPLINE
  5
2A9
100
AcDbEntity
  8
0
100
AcDbSpline
 62
7
  6
CONTINUOUS
 70
0
 71
3
 72
9
 73
5
 74
0
 42
0.0000001
 43
0.0000001
 44
0.0000000001
 40
0.0
 40
0.0
 40
0.0
 40
0.0
 40
0.5149563487
 40
1.0
 40
1.0
 40
1.0
 40
1.0
 10
9.1581982661
 20
9.1294684166
 30
0.0
 10
9.1586975376
 20
9.1335987542
 30
0.0
 10
9.1604461816
 20
9.141546523
 30
0.0
 10
9.1636929712
 20
9.1490054994
 30
0.0
 10
9.1656023847
 20
9.1524275785
 30
0.0
  0
SPLINE
  5
2AA
100
AcDbEntity
  8
0
100
AcDbSpline
 62
7
  6
CONTINUOUS
 70
0
 71
3
 72
9
 73
5
 74
0
 42
0.0000001
 43
0.0000001
 44
0.0000000001
 40
0.0
 40
0.0
 40
0.0
 40
0.0
 40
0.5153111419
 40
1.0
 40
1.0
 40
1.0
 40
1.0
 10
9.1656023847
 20
9.1524275785
 30
0.0
 10
9.167088007
 20
9.1550901326
 30
0.0
 10
9.1703737031
 20
9.160043858
 30
0.0
 10
9.174383363
 20
9.1644294882
 30
0.0
 10
9.1764755512
 20
9.1663908617
 30
0.0
  0
SPLINE
  5
2AB
100
AcDbEntity
  8
0
100
AcDbSpline
 62
7
  6
CONTINUOUS
 70
0
 71
3
 72
11
 73
7
 74
0
 42
0.0000001
 43
0.0000001
 44
0.0000000001
 40
0.0
 40
0.0
 40
0.0
 40
0.0
 40
0.2778168662
 40
0.5386657636
 40
0.7791015419
 40
1.0
 40
1.0
 40
1.0
 40
1.0
 10
9.1643297559
 20
9.1294684166
 30
0.0
 10
9.1647402855
 20
9.1332508262
 30
0.0
 10
9.1661223289
 20
9.140536129
 30
0.0
 10
9.1697911942
 20
9.1506036983
 30
0.0
 10
9.174664518
 20
9.1592591438
 30
0.0
 10
9.178648326
 20
9.1642061397
 30
0.0
 10
9.1807408059
 20
9.1663908617
 30
0.0
  0
SPLINE
  5
2AC
100
AcDbEntity
  8
0
100
AcDbSpline
 62
7
  6
CONTINUOUS
 70
0
 71
3
 72
11
 73
7
 74
0
 42
0.0000001
 43
0.0000001
 44
0.0000000001
 40
0.0
 40
0.0
 40
0.0
 40
0.0
 40
0.2828289527
 40
0.5458191382
 40
0.7846602785
 40
1.0
 40
1.0
 40
1.0
 40
1.0
 10
9.1748222215
 20
9.1294684166
 30
0.0
 10
9.1751817833
 20
9.1332405701
 30
0.0
 10
9.1763849117
 20
9.1404836809
 30
0.0
 10
9.1795912873
 20
9.150533864
 30
0.0
 10
9.1838546744
 20
9.159184342
 30
0.0
 10
9.1873777661
 20
9.1641830137
 30
0.0
 10
9.189234897
 20
9.1663908617
 30
0.0
  0
SPLINE
  5
2AD
100
AcDbEntity
  8
0
100
AcDbSpline
 62
7
  6
CONTINUOUS
 70
0
 71
3
 72
11
 73
7
 74
0
 42
0.0000001
 43
0.0000001
 44
0.0000000001
 40
0.0
 40
0.0
 40
0.0
 40
0.0
 40
0.287824732
 40
0.5530065505
 40
0.7903060629
 40
1.0
 40
1.0
 40
1.0
 40
1.0
 10
9.1895911671
 20
9.1294682692
 30
0.0
 10
9.1898972038
 20
9.1332309611
 30
0.0
 10
9.190915358
 20
9.1404342103
 30
0.0
 10
9.1936377063
 20
9.1504647036
 30
0.0
 10
9.1972592242
 20
9.1591049196
 30
0.0
 10
9.2002857032
 20
9.1641564738
 30
0.0
 10
9.2018894312
 20
9.1663908617
 30
0.0
  0
SPLINE
  5
2AE
100
AcDbEntity
  8
0
100
AcDbSpline
 62
7
  6
CONTINUOUS
 70
0
 71
3
 72
11
 73
7
 74
0
 42
0.0000001
 43
0.0000001
 44
0.0000000001
 40
0.0
 40
0.0
 40
0.0
 40
0.0
 40
0.29257235
 40
0.5598896788
 40
0.7957719285
 40
1.0
 40
1.0
 40
1.0
 40
1.0
 10
9.2085177111
 20
9.1294684166
 30
0.0
 10
9.2087681125
 20
9.1332227221
 30
0.0
 10
9.2095968457
 20
9.140389982
 30
0.0
 10
9.2118184594
 20
9.1503997578
 30
0.0
 10
9.2147736146
 20
9.1590249603
 30
0.0
 10
9.2172702747
 20
9.1641273295
 30
0.0
 10
9.2186025161
 20
9.1663908617
 30
0.0
  0
SPLINE
  5
2AF
100
AcDbEntity
  8
0
100
AcDbSpline
 62
7
  6
CONTINUOUS
 70
0
 71
3
 72
11
 73
7
 74
0
 42
0.0000001
 43
0.0000001
 44
0.0000000001
 40
0.0
 40
0.0
 40
0.0
 40
0.0
 40
0.2967998528
 40
0.5660620125
 40
0.8007243846
 40
1.0
 40
1.0
 40
1.0
 40
1.0
 10
9.2314494238
 20
9.1294684166
 30
0.0
 10
9.2316424908
 20
9.1332157499
 30
0.0
 10
9.2322786661
 20
9.1403525522
 30
0.0
 10
9.233987304
 20
9.1503425419
 30
0.0
 10
9.2362590087
 20
9.1589500595
 30
0.0
 10
9.2381968717
 20
9.1640974185
 30
0.0
 10
9.2392395802
 20
9.1663908617
 30
0.0
  0
SPLINE
  5
2B0
100
AcDbEntity
  8
0
100
AcDbSpline
 62
7
  6
CONTINUOUS
 70
0
 71
3
 72
11
 73
7
 74
0
 42
0.0000001
 43
0.0000001
 44
0.0000000001
 40
0.0
 40
0.0
 40
0.0
 40
0.0
 40
0.3002162466
 40
0.5710798107
 40
0.8047872274
 40
1.0
 40
1.0
 40
1.0
 40
1.0
 10
9.2582016742
 20
9.1294684166
 30
0.0
 10
9.258336126
 20
9.1332104258
 30
0.0
 10
9.258777663
 20
9.1403236711
 30
0.0
 10
9.2599649917
 20
9.1502968193
 30
0.0
 10
9.2615426004
 20
9.1588870939
 30
0.0
 10
9.2628985736
 20
9.1640699543
 30
0.0
 10
9.2636344568
 20
9.1663908617
 30
0.0
  0
SPLINE
  5
2B1
100
AcDbEntity
  8
0
100
AcDbSpline
 62
7
  6
CONTINUOUS
 70
0
 71
3
 72
11
 73
7
 74
0
 42
0.0000001
 43
0.0000001
 44
0.0000000001
 40
0.0
 40
0.0
 40
0.0
 40
0.0
 40
0.3025484564
 40
0.5745204711
 40
0.807592649
 40
1.0
 40
1.0
 40
1.0
 40
1.0
 10
9.288559057
 20
9.1294684166
 30
0.0
 10
9.2886340155
 20
9.1332069425
 30
0.0
 10
9.2888796339
 20
9.1403046454
 30
0.0
 10
9.2895405606
 20
9.1502658813
 30
0.0
 10
9.2904182826
 20
9.1588429362
 30
0.0
 10
9.2911764068
 20
9.1640492184
 30
0.0
 10
9.2915907218
 20
9.1663908617
 30
0.0
  0
SPLINE
  5
2B2
100
AcDbEntity
  8
0
100
AcDbSpline
 62
7
  6
CONTINUOUS
 70
0
 71
3
 72
10
 73
6
 74
0
 42
0.0000001
 43
0.0000001
 44
0.0000000001
 40
0.0
 40
0.0
 40
0.0
 40
0.0
 40
0.5785925653
 40
0.8126046828
 40
1.0
 40
1.0
 40
1.0
 40
1.0
 10
9.3222615729
 20
9.1216695021
 30
0.0
 10
9.3222615729
 20
9.1302958148
 30
0.0
 10
9.3223352746
 20
9.1424114334
 30
0.0
 10
9.3226086447
 20
9.1573181767
 30
0.0
 10
9.3227845022
 20
9.1635987068
 30
0.0
 10
9.3228832753
 20
9.1663908617
 30
0.0
  0
SPLINE
  5
2B3
100
AcDbEntity
  8
0
100
AcDbSpline
 62
7
  6
CONTINUOUS
 70
0
 71
3
 72
10
 73
6
 74
0
 42
0.0000001
 43
0.0000001
 44
0.0000000001
 40
0.0
 40
0.0
 40
0.0
 40
0.0
 40
0.5785915629
 40
0.8126038438
 40
1.0
 40
1.0
 40
1.0
 40
1.0
 10
10.0896888167
 20
9.1216695021
 30
0.0
 10
10.0896888167
 20
9.1130431863
 30
0.0
 10
10.0896145398
 20
9.1009275485
 30
0.0
 10
10.0893390377
 20
9.086020811
 30
0.0
 10
10.0891618088
 20
9.0797402886
 30
0.0
 10
10.0890622657
 20
9.0769481426
 30
0.0
  0
SPLINE
  5
2B4
100
AcDbEntity
  8
0
100
AcDbSpline
 62
7
  6
CONTINUOUS
 70
0
 71
3
 72
11
 73
7
 74
0
 42
0.0000001
 43
0.0000001
 44
0.0000000001
 40
0.0
 40
0.0
 40
0.0
 40
0.0
 40
0.302545123
 40
0.5745155448
 40
0.8075886208
 40
1.0
 40
1.0
 40
1.0
 40
1.0
 10
10.1233849317
 20
9.1138705877
 30
0.0
 10
10.1233098569
 20
9.1101320569
 30
0.0
 10
10.1230638567
 20
9.1030343321
 30
0.0
 10
10.1224019034
 20
9.0930730789
 30
0.0
 10
10.1215228172
 20
9.0844960044
 30
0.0
 10
10.1207635199
 20
9.079289755
 30
0.0
 10
10.1203485682
 20
9.0769481426
 30
0.0
  0
SPLINE
  5
2B5
100
AcDbEntity
  8
0
100
AcDbSpline
 62
7
  6
CONTINUOUS
 70
0
 71
3
 72
11
 73
7
 74
0
 42
0.0000001
 43
0.0000001
 44
0.0000000001
 40
0.0
 40
0.0
 40
0.0
 40
0.0
 40
0.3002105743
 40
0.5710714577
 40
0.8047804363
 40
1.0
 40
1.0
 40
1.0
 40
1.0
 10
10.1537355328
 20
9.1138705876
 30
0.0
 10
10.153600966
 20
9.1101285698
 30
0.0
 10
10.1531590491
 20
9.1030152861
 30
0.0
 10
10.1519707009
 20
9.0930421095
 30
0.0
 10
10.1503917356
 20
9.0844518041
 30
0.0
 10
10.1490346131
 20
9.0792690016
 30
0.0
 10
10.1482981178
 20
9.0769481426
 30
0.0
  0
SPLINE
  5
2B6
100
AcDbEntity
  8
0
100
AcDbSpline
 62
7
  6
CONTINUOUS
 70
0
 71
3
 72
11
 73
7
 74
0
 42
0.0000001
 43
0.0000001
 44
0.0000000001
 40
0.0
 40
0.0
 40
0.0
 40
0.0
 40
0.2967923253
 40
0.5660509862
 40
0.8007154936
 40
1.0
 40
1.0
 40
1.0
 40
1.0
 10
10.1804805539
 20
9.1138705877
 30
0.0
 10
10.1802873741
 20
9.1101232424
 30
0.0
 10
10.1796508219
 20
9.1029863872
 30
0.0
 10
10.1779411774
 20
9.0929963611
 30
0.0
 10
10.1756681316
 20
9.0843888084
 30
0.0
 10
10.1737291575
 20
9.0792415287
 30
0.0
 10
10.1726858688
 20
9.0769481426
 30
0.0
  0
SPLINE
  5
2B7
100
AcDbEntity
  8
0
100
AcDbSpline
 62
7
  6
CONTINUOUS
 70
0
 71
3
 72
11
 73
7
 74
0
 42
0.0000001
 43
0.0000001
 44
0.0000000001
 40
0.0
 40
0.0
 40
0.0
 40
0.0
 40
0.2925635299
 40
0.5598768439
 40
0.7957616814
 40
1.0
 40
1.0
 40
1.0
 40
1.0
 10
10.2034046478
 20
9.1138705876
 30
0.0
 10
10.2031541366
 20
9.1101162671
 30
0.0
 10
10.2023250315
 20
9.1029489421
 30
0.0
 10
10.200102431
 20
9.0929391264
 30
0.0
 10
10.1971459612
 20
9.0843138913
 30
0.0
 10
10.1946482412
 20
9.0792116165
 30
0.0
 10
10.1933154544
 20
9.0769481426
 30
0.0
  0
SPLINE
  5
2B8
100
AcDbEntity
  8
0
100
AcDbSpline
 62
7
  6
CONTINUOUS
 70
0
 71
3
 72
11
 73
7
 74
0
 42
0.0000001
 43
0.0000001
 44
0.0000000001
 40
0.0
 40
0.0
 40
0.0
 40
0.0
 40
0.2878151354
 40
0.5529926386
 40
0.7902950629
 40
1.0
 40
1.0
 40
1.0
 40
1.0
 10
10.2223232304
 20
9.1138705543
 30
0.0
 10
10.2220170829
 20
9.1101078634
 30
0.0
 10
10.2209985552
 20
9.1029045765
 30
0.0
 10
10.218275249
 20
9.0928740943
 30
0.0
 10
10.2146524659
 20
9.0842338958
 30
0.0
 10
10.2116249996
 20
9.0791824667
 30
0.0
 10
10.210020768
 20
9.0769481426
 30
0.0
  0
SPLINE
  5
2B9
100
AcDbEntity
  8
0
100
AcDbSpline
 62
7
  6
CONTINUOUS
 70
0
 71
3
 72
11
 73
7
 74
0
 42
0.0000001
 43
0.0000001
 44
0.0000000001
 40
0.0
 40
0.0
 40
0.0
 40
0.0
 40
0.2828191554
 40
0.5458050991
 40
0.784649311
 40
1.0
 40
1.0
 40
1.0
 40
1.0
 10
10.2370839799
 20
9.1138705877
 30
0.0
 10
10.2367243165
 20
9.1100984148
 30
0.0
 10
10.2355208336
 20
9.1028552238
 30
0.0
 10
10.2323135363
 20
9.0928050042
 30
0.0
 10
10.2280489299
 20
9.0841545113
 30
0.0
 10
10.2245249069
 20
9.0791559422
 30
0.0
 10
10.2226673008
 20
9.0769481426
 30
0.0
  0
SPLINE
  5
2BA
100
AcDbEntity
  8
0
100
AcDbSpline
 62
7
  6
CONTINUOUS
 70
0
 71
3
 72
11
 73
7
 74
0
 42
0.0000001
 43
0.0000001
 44
0.0000000001
 40
0.0
 40
0.0
 40
0.0
 40
0.0
 40
0.2778072319
 40
0.5386520689
 40
0.7790909565
 40
1.0
 40
1.0
 40
1.0
 40
1.0
 10
10.2475680368
 20
9.1138705877
 30
0.0
 10
10.247157411
 20
9.1100881576
 30
0.0
 10
10.2457750265
 20
9.1028027716
 30
0.0
 10
10.2421052862
 20
9.0927351714
 30
0.0
 10
10.2372308122
 20
9.0840797213
 30
0.0
 10
10.2332461446
 20
9.0791328231
 30
0.0
 10
10.2311532248
 20
9.0769481426
 30
0.0
  0
SPLINE
  5
2BB
100
AcDbEntity
  8
0
100
AcDbSpline
 62
7
  6
CONTINUOUS
 70
0
 71
3
 72
9
 73
5
 74
0
 42
0.0000001
 43
0.0000001
 44
0.0000000001
 40
0.0
 40
0.0
 40
0.0
 40
0.0
 40
0.5149509291
 40
1.0
 40
1.0
 40
1.0
 40
1.0
 10
10.2536909875
 20
9.1138705877
 30
0.0
 10
10.2531916178
 20
9.109740225
 30
0.0
 10
10.2514426047
 20
9.1017923544
 30
0.0
 10
10.248195206
 20
9.0943334564
 30
0.0
 10
10.2462854563
 20
9.0909114279
 30
0.0
  0
SPLINE
  5
2BC
100
AcDbEntity
  8
0
100
AcDbSpline
 62
7
  6
CONTINUOUS
 70
0
 71
3
 72
9
 73
5
 74
0
 42
0.0000001
 43
0.0000001
 44
0.0000000001
 40
0.0
 40
0.0
 40
0.0
 40
0.0
 40
0.5153040208
 40
1.0
 40
1.0
 40
1.0
 40
1.0
 10
10.2462854563
 20
9.0909114279
 30
0.0
 10
10.2447995307
 20
9.0882488383
 30
0.0
 10
10.2415131475
 20
9.083295046
 30
0.0
 10
10.2375027699
 20
9.0789094878
 30
0.0
 10
10.2354102125
 20
9.0769481426
 30
0.0
  0
SPLINE
  5
2BD
100
AcDbEntity
  8
0
100
AcDbSpline
 62
7
  6
CONTINUOUS
 70
0
 71
3
 72
39
 73
35
 74
0
 42
0.0000001
 43
0.0000001
 44
0.0000000001
 40
0.0
 40
0.0
 40
0.0
 40
0.0
 40
0.0000188485
 40
0.0000753358
 40
0.0001694614
 40
0.0003012248
 40
0.0006776632
 40
0.0012046467
 40
0.0018821716
 40
0.0027102338
 40
0.0036888293
 40
0.0048179541
 40
0.0075277754
 40
0.0108389237
 40
0.0147482368
 40
0.0192520727
 40
0.0243467904
 40
0.0300287495
 40
0.0431398348
 40
0.0585562252
 40
0.0762475182
 40
0.0961680005
 40
0.1182620709
 40
0.1424739897
 40
0.1687480465
 40
0.2272390615
 40
0.2931528904
 40
0.3658652933
 40
0.4446795211
 40
0.5288133637
 40
0.6174727826
 40
0.7098287933
 40
0.8050381283
 40
1.0
 40
1.0
 40
1.0
 40
1.0
 10
10.298152193
 20
10.607667756
 30
0.0
 10
10.2981528858
 20
10.607666669
 30
0.0
 10
10.2981506305
 20
10.6076610449
 30
0.0
 10
10.2981516559
 20
10.6076499516
 30
0.0
 10
10.2981492729
 20
10.6076304229
 30
0.0
 10
10.2981470305
 20
10.6075894928
 30
0.0
 10
10.2981416193
 20
10.6075187522
 30
0.0
 10
10.298134296
 20
10.6074109574
 30
0.0
 10
10.2981244989
 20
10.6072722725
 30
0.0
 10
10.2981126634
 20
10.6071028093
 30
0.0
 10
10.2980986263
 20
10.6069025271
 30
0.0
 10
10.2980756132
 20
10.606573875
 30
0.0
 10
10.2980414426
 20
10.6060860944
 30
0.0
 10
10.2979940055
 20
10.6054086492
 30
0.0
 10
10.2979381989
 20
10.6046088015
 30
0.0
 10
10.2978742449
 20
10.6036872525
 30
0.0
 10
10.2978023745
 20
10.6026447351
 30
0.0
 10
10.2976908617
 20
10.6010149278
 30
0.0
 10
10.2975332212
 20
10.5986807563
 30
0.0
 10
10.2973241589
 20
10.5955269039
 30
0.0
 10
10.297089042
 20
10.5919080837
 30
0.0
 10
10.2968302085
 20
10.5878331775
 30
0.0
 10
10.2965502496
 20
10.5833127922
 30
0.0
 10
10.2962517632
 20
10.578358225
 30
0.0
 10
10.2958167948
 20
10.5709182926
 30
0.0
 10
10.2952448918
 20
10.5606296346
 30
0.0
 10
10.2945548372
 20
10.54716696
 30
0.0
 10
10.2938665417
 20
10.5323126833
 30
0.0
 10
10.2932064406
 20
10.5162099623
 30
0.0
 10
10.2925991138
 20
10.4990138448
 30
0.0
 10
10.292070264
 20
10.4808886248
 30
0.0
 10
10.2916358808
 20
10.4620032381
 30
0.0
 10
10.2912030156
 20
10.435846729
 30
0.0
 10
10.2910689998
 20
10.4160024025
 30
0.0
 10
10.2910689998
 20
10.4026695021
 30
0.0
  0
LINE
  5
2BE
100
AcDbEntity
  8
0
100
AcDbLine
 62
7
  6
CONTINUOUS
 10
10.2981521915
 20
10.1976712482
 11
10.2980272805
 21
10.199455274
  0
SPLINE
  5
2BF
100
AcDbEntity
  8
0
100
AcDbSpline
 62
7
  6
CONTINUOUS
 70
0
 71
3
 72
10
 73
6
 74
0
 42
0.0000001
 43
0.0000001
 44
0.0000000001
 40
0.0
 40
0.0
 40
0.0
 40
0.0
 40
0.5785942493
 40
0.8126054688
 40
1.0
 40
1.0
 40
1.0
 40
1.0
 10
10.0896888167
 20
9.1216695021
 30
0.0
 10
10.0896888167
 20
9.1302958581
 30
0.0
 10
10.0896145395
 20
9.1424115201
 30
0.0
 10
10.0893390361
 20
9.1573182575
 30
0.0
 10
10.0891618079
 20
9.1635987399
 30
0.0
 10
10.0890622657
 20
9.1663908617
 30
0.0
  0
SPLINE
  5
2C0
100
AcDbEntity
  8
0
100
AcDbSpline
 62
7
  6
CONTINUOUS
 70
0
 71
3
 72
11
 73
7
 74
0
 42
0.0000001
 43
0.0000001
 44
0.0000000001
 40
0.0
 40
0.0
 40
0.0
 40
0.0
 40
0.3025443732
 40
0.5745009286
 40
0.8075719606
 40
1.0
 40
1.0
 40
1.0
 40
1.0
 10
10.12338434
 20
9.1294978104
 30
0.0
 10
10.123309037
 20
9.1332333623
 30
0.0
 10
10.1230627522
 20
9.1403252615
 30
0.0
 10
10.1224007871
 20
9.1502783737
 30
0.0
 10
10.121522054
 20
9.158848621
 30
0.0
 10
10.1207632268
 20
9.1640509031
 30
0.0
 10
10.1203485682
 20
9.1663908617
 30
0.0
  0
SPLINE
  5
2C1
100
AcDbEntity
  8
0
100
AcDbSpline
 62
7
  6
CONTINUOUS
 70
0
 71
3
 72
11
 73
7
 74
0
 42
0.0000001
 43
0.0000001
 44
0.0000000001
 40
0.0
 40
0.0
 40
0.0
 40
0.0
 40
0.300209321
 40
0.5710566625
 40
0.8047639386
 40
1.0
 40
1.0
 40
1.0
 40
1.0
 10
10.1537344733
 20
9.1294978103
 30
0.0
 10
10.1535994972
 20
9.1332368538
 30
0.0
 10
10.1531570687
 20
9.140344306
 30
0.0
 10
10.1519687023
 20
9.1503093204
 30
0.0
 10
10.1503903751
 20
9.1588927763
 30
0.0
 10
10.1490340967
 20
9.1640716302
 30
0.0
 10
10.1482981178
 20
9.1663908617
 30
0.0
  0
SPLINE
  5
2C2
100
AcDbEntity
  8
0
100
AcDbSpline
 62
7
  6
CONTINUOUS
 70
0
 71
3
 72
11
 73
7
 74
0
 42
0.0000001
 43
0.0000001
 44
0.0000000001
 40
0.0
 40
0.0
 40
0.0
 40
0.0
 40
0.2967904387
 40
0.5660360909
 40
0.8006993586
 40
1.0
 40
1.0
 40
1.0
 40
1.0
 10
10.180479035
 20
9.1294978104
 30
0.0
 10
10.1802852671
 20
9.1332421883
 30
0.0
 10
10.179647978
 20
9.1403732022
 30
0.0
 10
10.1779383136
 20
9.1503550336
 30
0.0
 10
10.1756661951
 20
9.1589557051
 30
0.0
 10
10.173728433
 20
9.1640990682
 30
0.0
 10
10.1726858688
 20
9.1663908617
 30
0.0
  0
LINE
  5
2C3
100
AcDbEntity
  8
0
100
AcDbLine
 62
7
  6
CONTINUOUS
 10
9.1137294245
 20
10.607667756
 11
9.1138565358
 21
10.60585242
  0
SPLINE
  5
2C4
100
AcDbEntity
  8
0
100
AcDbSpline
 62
7
  6
CONTINUOUS
 70
0
 71
3
 72
11
 73
7
 74
0
 42
0.0000001
 43
0.0000001
 44
0.0000000001
 40
0.0
 40
0.0
 40
0.0
 40
0.0
 40
0.292561032
 40
0.5598620897
 40
0.7957461942
 40
1.0
 40
1.0
 40
1.0
 40
1.0
 10
10.2034026819
 20
9.1294978103
 30
0.0
 10
10.203151407
 20
9.1332491721
 30
0.0
 10
10.2023213422
 20
9.1404106412
 30
0.0
 10
10.2000987269
 20
9.1504122206
 30
0.0
 10
10.1971434787
 20
9.1590305381
 30
0.0
 10
10.1946473259
 20
9.1641289422
 30
0.0
 10
10.1933154544
 20
9.1663908617
 30
0.0
  0
SPLINE
  5
2C5
100
AcDbEntity
  8
0
100
AcDbSpline
 62
7
  6
CONTINUOUS
 70
0
 71
3
 72
11
 73
7
 74
0
 42
0.0000001
 43
0.0000001
 44
0.0000000001
 40
0.0
 40
0.0
 40
0.0
 40
0.0
 40
0.2878121931
 40
0.5529784358
 40
0.7902805939
 40
1.0
 40
1.0
 40
1.0
 40
1.0
 10
10.2223208387
 20
9.129497776
 30
0.0
 10
10.2220137587
 20
9.1332575254
 30
0.0
 10
10.2209940558
 20
9.1404549501
 30
0.0
 10
10.218270748
 20
9.1504771661
 30
0.0
 10
10.2146494804
 20
9.159110427
 30
0.0
 10
10.2116239129
 20
9.164158051
 30
0.0
 10
10.210020768
 20
9.1663908617
 30
0.0
  0
SPLINE
  5
2C6
100
AcDbEntity
  8
0
100
AcDbSpline
 62
7
  6
CONTINUOUS
 70
0
 71
3
 72
39
 73
35
 74
0
 42
0.0000001
 43
0.0000001
 44
0.0000000001
 40
0.0
 40
0.0
 40
0.0
 40
0.0
 40
0.0000188495
 40
0.0000753379
 40
0.0001694645
 40
0.000301229
 40
0.0006776691
 40
0.0012046541
 40
0.00188218
 40
0.0027102424
 40
0.0036888374
 40
0.0048179607
 40
0.0075277757
 40
0.0108389187
 40
0.0147482309
 40
0.0192520695
 40
0.024346792
 40
0.0300287573
 40
0.0431398541
 40
0.0585562474
 40
0.0762475347
 40
0.0961680248
 40
0.1182621154
 40
0.1424740632
 40
0.1687481545
 40
0.2272392865
 40
0.2931532375
 40
0.3658656111
 40
0.444679712
 40
0.5288133358
 40
0.617472467
 40
0.7098283064
 40
0.8050377642
 40
1.0
 40
1.0
 40
1.0
 40
1.0
 10
9.1137294259
 20
10.1976712482
 30
0.0
 10
9.1137287227
 20
10.1976723286
 30
0.0
 10
9.1137310026
 20
10.197677969
 30
0.0
 10
9.1137299532
 20
10.197689047
 30
0.0
 10
9.1137323494
 20
10.1977085847
 30
0.0
 10
9.1137345832
 20
10.1977495097
 30
0.0
 10
9.11374
 20
10.1978202546
 30
0.0
 10
9.1137473198
 20
10.1979280479
 30
0.0
 10
9.1137571173
 20
10.1980667338
 30
0.0
 10
9.1137689517
 20
10.1982361968
 30
0.0
 10
9.1137829881
 20
10.1984364791
 30
0.0
 10
9.1138059999
 20
10.1987651306
 30
0.0
 10
9.1138401688
 20
10.1992529104
 30
0.0
 10
9.1138876038
 20
10.1999303549
 30
0.0
 10
9.1139434088
 20
10.2007302025
 30
0.0
 10
9.1140073617
 20
10.201651752
 30
0.0
 10
9.1140792314
 20
10.2026942704
 30
0.0
 10
9.114190744
 20
10.2043240792
 30
0.0
 10
9.114348386
 20
10.2066582521
 30
0.0
 10
9.1145574526
 20
10.2098121048
 30
0.0
 10
9.1147925775
 20
10.2134309248
 30
0.0
 10
9.115051421
 20
10.217505832
 30
0.0
 10
9.115331388
 20
10.2220262206
 30
0.0
 10
9.1156298772
 20
10.2269807934
 30
0.0
 10
9.1160648372
 20
10.2344207388
 30
0.0
 10
9.1166366954
 20
10.2447094181
 30
0.0
 10
9.117326713
 20
10.2581721088
 30
0.0
 10
9.1180150737
 20
10.2730263801
 30
0.0
 10
9.1186753164
 20
10.2891290696
 30
0.0
 10
9.1192827153
 20
10.3063251416
 30
0.0
 10
9.1198114475
 20
10.3244503191
 30
0.0
 10
9.1202456572
 20
10.3433356867
 30
0.0
 10
9.1206784504
 20
10.369492218
 30
0.0
 10
9.1208126176
 20
10.3893365768
 30
0.0
 10
9.1208126176
 20
10.4026695021
 30
0.0
  0
SPLINE
  5
2C7
100
AcDbEntity
  8
0
100
AcDbSpline
 62
7
  6
CONTINUOUS
 70
0
 71
3
 72
11
 73
7
 74
0
 42
0.0000001
 43
0.0000001
 44
0.0000000001
 40
0.0
 40
0.0
 40
0.0
 40
0.0
 40
0.2828159818
 40
0.5457917654
 40
0.7846361082
 40
1.0
 40
1.0
 40
1.0
 40
1.0
 10
10.2370811707
 20
9.1294978104
 30
0.0
 10
10.2367204075
 20
9.1332670462
 30
0.0
 10
10.235515535
 20
9.1405043354
 30
0.0
 10
10.2323082589
 20
9.1505462162
 30
0.0
 10
10.2280454679
 20
9.1591897247
 30
0.0
 10
10.2245236595
 20
9.1641845447
 30
0.0
 10
10.2226673008
 20
9.1663908617
 30
0.0
  0
SPLINE
  5
2C8
100
AcDbEntity
  8
0
100
AcDbSpline
 62
7
  6
CONTINUOUS
 70
0
 71
3
 72
11
 73
7
 74
0
 42
0.0000001
 43
0.0000001
 44
0.0000000001
 40
0.0
 40
0.0
 40
0.0
 40
0.0
 40
0.2778041156
 40
0.5386400526
 40
0.7790793358
 40
1.0
 40
1.0
 40
1.0
 40
1.0
 10
10.2475648382
 20
9.1294978104
 30
0.0
 10
10.2471529547
 20
9.1332773152
 30
0.0
 10
10.2457689779
 20
9.140556768
 30
0.0
 10
10.2420992908
 20
9.1506159744
 30
0.0
 10
10.2372269222
 20
9.1592644176
 30
0.0
 10
10.2332447531
 20
9.1642076337
 30
0.0
 10
10.2311532248
 20
9.1663908617
 30
0.0
  0
SPLINE
  5
2C9
100
AcDbEntity
  8
0
100
AcDbSpline
 62
7
  6
CONTINUOUS
 70
0
 71
3
 72
9
 73
5
 74
0
 42
0.0000001
 43
0.0000001
 44
0.0000000001
 40
0.0
 40
0.0
 40
0.0
 40
0.0
 40
0.5149903852
 40
1.0
 40
1.0
 40
1.0
 40
1.0
 10
10.2536874254
 20
9.1294978104
 30
0.0
 10
10.253185646
 20
9.1336322298
 30
0.0
 10
10.2514304593
 20
9.1415868877
 30
0.0
 10
10.2481740684
 20
9.1490505255
 30
0.0
 10
10.2462595955
 20
9.1524738632
 30
0.0
  0
SPLINE
  5
2CA
100
AcDbEntity
  8
0
100
AcDbSpline
 62
7
  6
CONTINUOUS
 70
0
 71
3
 72
9
 73
5
 74
0
 42
0.0000001
 43
0.0000001
 44
0.0000000001
 40
0.0
 40
0.0
 40
0.0
 40
0.0
 40
0.5152596325
 40
1.0
 40
1.0
 40
1.0
 40
1.0
 10
10.2462595955
 20
9.1524738632
 30
0.0
 10
10.244775864
 20
9.1551269768
 30
0.0
 10
10.2414960381
 20
9.1600636785
 30
0.0
 10
10.237496729
 20
9.1644351786
 30
0.0
 10
10.2354102125
 20
9.1663908617
 30
0.0
  0
SPLINE
  5
2CB
100
AcDbEntity
  8
0
100
AcDbSpline
 62
7
  6
CONTINUOUS
 70
0
 71
3
 72
10
 73
6
 74
0
 42
0.0000001
 43
0.0000001
 44
0.0000000001
 40
0.0
 40
0.0
 40
0.0
 40
0.0
 40
0.5785952513
 40
0.8126063078
 40
1.0
 40
1.0
 40
1.0
 40
1.0
 10
9.3222615729
 20
9.1216695021
 30
0.0
 10
9.3222615729
 20
9.1130431495
 30
0.0
 10
9.322335275
 20
9.1009275066
 30
0.0
 10
9.3226086463
 20
9.0860207633
 30
0.0
 10
9.322784503
 20
9.0797402733
 30
0.0
 10
9.3228832753
 20
9.0769481426
 30
0.0
  0
SPLINE
  5
2CC
100
AcDbEntity
  8
0
100
AcDbSpline
 62
7
  6
CONTINUOUS
 70
0
 71
3
 72
11
 73
7
 74
0
 42
0.0000001
 43
0.0000001
 44
0.0000000001
 40
0.0
 40
0.0
 40
0.0
 40
0.0
 40
0.3025477103
 40
0.5745058744
 40
0.807576009
 40
1.0
 40
1.0
 40
1.0
 40
1.0
 10
9.2885596471
 20
9.1138412266
 30
0.0
 10
9.2886348332
 20
9.1101056763
 30
0.0
 10
9.2888807355
 20
9.1030137925
 30
0.0
 10
9.2895416739
 20
9.0930606883
 30
0.0
 10
9.2904190437
 20
9.0844904532
 30
0.0
 10
9.2911766991
 20
9.0792881339
 30
0.0
 10
9.2915907218
 20
9.0769481426
 30
0.0
  0
SPLINE
  5
2CD
100
AcDbEntity
  8
0
100
AcDbSpline
 62
7
  6
CONTINUOUS
 70
0
 71
3
 72
11
 73
7
 74
0
 42
0.0000001
 43
0.0000001
 44
0.0000000001
 40
0.0
 40
0.0
 40
0.0
 40
0.0
 40
0.3002149978
 40
0.571065035
 40
0.8047707492
 40
1.0
 40
1.0
 40
1.0
 40
1.0
 10
9.2582027316
 20
9.1138412266
 30
0.0
 10
9.2583375919
 20
9.1101021884
 30
0.0
 10
9.2587796394
 20
9.102994768
 30
0.0
 10
9.2599669864
 20
9.093029773
 30
0.0
 10
9.2615439584
 20
9.0844463403
 30
0.0
 10
9.2628990891
 20
9.0792674241
 30
0.0
 10
9.2636344568
 20
9.0769481426
 30
0.0
  0
SPLINE
  5
2CE
100
AcDbEntity
  8
0
100
AcDbSpline
 62
7
  6
CONTINUOUS
 70
0
 71
3
 72
11
 73
7
 74
0
 42
0.0000001
 43
0.0000001
 44
0.0000000001
 40
0.0
 40
0.0
 40
0.0
 40
0.0
 40
0.2967979715
 40
0.5660471368
 40
0.8007082685
 40
1.0
 40
1.0
 40
1.0
 40
1.0
 10
9.2314509401
 20
9.1138412266
 30
0.0
 10
9.2316445942
 20
9.1100968575
 30
0.0
 10
9.2322815052
 20
9.1029658899
 30
0.0
 10
9.233990163
 20
9.0929840856
 30
0.0
 10
9.236260942
 20
9.0843834415
 30
0.0
 10
9.2381975951
 20
9.0792399948
 30
0.0
 10
9.2392395802
 20
9.0769481426
 30
0.0
  0
SPLINE
  5
2CF
100
AcDbEntity
  8
0
100
AcDbSpline
 62
7
  6
CONTINUOUS
 70
0
 71
3
 72
11
 73
7
 74
0
 42
0.0000001
 43
0.0000001
 44
0.0000000001
 40
0.0
 40
0.0
 40
0.0
 40
0.0
 40
0.2925698579
 40
0.5598749432
 40
0.7957564588
 40
1.0
 40
1.0
 40
1.0
 40
1.0
 10
9.208519674
 20
9.1138412266
 30
0.0
 10
9.2087708378
 20
9.1100898765
 30
0.0
 10
9.2096005293
 20
9.1029284659
 30
0.0
 10
9.2118221578
 20
9.0929269172
 30
0.0
 10
9.2147760934
 20
9.0843086246
 30
0.0
 10
9.2172711886
 20
9.079210122
 30
0.0
 10
9.2186025161
 20
9.0769481426
 30
0.0
  0
SPLINE
  5
2D0
100
AcDbEntity
  8
0
100
AcDbSpline
 62
7
  6
CONTINUOUS
 70
0
 71
3
 72
11
 73
7
 74
0
 42
0.0000001
 43
0.0000001
 44
0.0000000001
 40
0.0
 40
0.0
 40
0.0
 40
0.0
 40
0.2878217889
 40
0.5529923744
 40
0.7902916123
 40
1.0
 40
1.0
 40
1.0
 40
1.0
 10
9.1895935556
 20
9.1138414375
 30
0.0
 10
9.1899005235
 20
9.1100816844
 30
0.0
 10
9.1909198514
 20
9.1028842915
 30
0.0
 10
9.1936422015
 20
9.0928620562
 30
0.0
 10
9.197262206
 20
9.084228771
 30
0.0
 10
9.2002867886
 20
9.0791810183
 30
0.0
 10
9.2018894312
 20
9.0769481426
 30
0.0
  0
SPLINE
  5
2D1
100
AcDbEntity
  8
0
100
AcDbSpline
 62
7
  6
CONTINUOUS
 70
0
 71
3
 72
11
 73
7
 74
0
 42
0.0000001
 43
0.0000001
 44
0.0000000001
 40
0.0
 40
0.0
 40
0.0
 40
0.0
 40
0.2828257848
 40
0.54580582
 40
0.7846470895
 40
1.0
 40
1.0
 40
1.0
 40
1.0
 10
9.1748250268
 20
9.1138412266
 30
0.0
 10
9.1751856868
 20
9.1100720069
 30
0.0
 10
9.1763902029
 20
9.1028347913
 30
0.0
 10
9.1795965575
 20
9.0927929376
 30
0.0
 10
9.1838581317
 20
9.0841494361
 30
0.0
 10
9.1873790118
 20
9.0791545095
 30
0.0
 10
9.189234897
 20
9.0769481426
 30
0.0
  0
SPLINE
  5
2D2
100
AcDbEntity
  8
0
100
AcDbSpline
 62
7
  6
CONTINUOUS
 70
0
 71
3
 72
11
 73
7
 74
0
 42
0.0000001
 43
0.0000001
 44
0.0000000001
 40
0.0
 40
0.0
 40
0.0
 40
0.0
 40
0.2778137549
 40
0.5386537606
 40
0.7790899328
 40
1.0
 40
1.0
 40
1.0
 40
1.0
 10
9.1643329501
 20
9.1138412266
 30
0.0
 10
9.1647447358
 20
9.1100617391
 30
0.0
 10
9.1661283694
 20
9.1027823628
 30
0.0
 10
9.1697971816
 20
9.0927231778
 30
0.0
 10
9.1746684029
 20
9.0840747313
 30
0.0
 10
9.1786497157
 20
9.0791314136
 30
0.0
 10
9.1807408059
 20
9.0769481426
 30
0.0
  0
SPLINE
  5
2D3
100
AcDbEntity
  8
0
100
AcDbSpline
 62
7
  6
CONTINUOUS
 70
0
 71
3
 72
9
 73
5
 74
0
 42
0.0000001
 43
0.0000001
 44
0.0000000001
 40
0.0
 40
0.0
 40
0.0
 40
0.0
 40
0.514995826
 40
1.0
 40
1.0
 40
1.0
 40
1.0
 10
9.1582018236
 20
9.1138412266
 30
0.0
 10
9.1587035028
 20
9.1097068272
 30
0.0
 10
9.1604583179
 20
9.1017522613
 30
0.0
 10
9.1637141005
 20
9.0942885353
 30
0.0
 10
9.1656282386
 20
9.0908651426
 30
0.0
  0
SPLINE
  5
2D4
100
AcDbEntity
  8
0
100
AcDbSpline
 62
7
  6
CONTINUOUS
 70
0
 71
3
 72
9
 73
5
 74
0
 42
0.0000001
 43
0.0000001
 44
0.0000000001
 40
0.0
 40
0.0
 40
0.0
 40
0.0
 40
0.515266739
 40
1.0
 40
1.0
 40
1.0
 40
1.0
 10
9.1656282386
 20
9.0908651426
 30
0.0
 10
9.1671116674
 20
9.0882120636
 30
0.0
 10
9.1703908083
 20
9.083275427
 30
0.0
 10
9.1743894025
 20
9.0789038542
 30
0.0
 10
9.1764755512
 20
9.0769481426
 30
0.0
  0
SPLINE
  5
2D5
100
AcDbEntity
  8
0
100
AcDbSpline
 62
7
  6
CONTINUOUS
 70
0
 71
3
 72
9
 73
5
 74
0
 42
0.0000001
 43
0.0000001
 44
0.0000000001
 40
0.0
 40
0.0
 40
0.0
 40
0.0
 40
0.5096247396
 40
1.0
 40
1.0
 40
1.0
 40
1.0
 10
9.1591849586
 20
9.1138705877
 30
0.0
 10
9.1597774749
 20
9.1097143932
 30
0.0
 10
9.1618813812
 20
9.1016654095
 30
0.0
 10
9.1656965838
 20
9.0942859636
 30
0.0
 10
9.1679172196
 20
9.0909114279
 30
0.0
  0
SPLINE
  5
2D6
100
AcDbEntity
  8
0
100
AcDbSpline
 62
7
  6
CONTINUOUS
 70
0
 71
3
 72
9
 73
5
 74
0
 42
0.0000001
 43
0.0000001
 44
0.0000000001
 40
0.0
 40
0.0
 40
0.0
 40
0.0
 40
0.5089611948
 40
1.0
 40
1.0
 40
1.0
 40
1.0
 10
9.1679172196
 20
9.0909114279
 30
0.0
 10
9.1696908581
 20
9.088216161
 30
0.0
 10
9.1736277018
 20
9.0832050905
 30
0.0
 10
9.1783039935
 20
9.0788851365
 30
0.0
 10
9.1807408059
 20
9.0769481426
 30
0.0
  0
SPLINE
  5
2D7
100
AcDbEntity
  8
0
100
AcDbSpline
 62
7
  6
CONTINUOUS
 70
0
 71
3
 72
9
 73
5
 74
0
 42
0.0000001
 43
0.0000001
 44
0.0000000001
 40
0.0
 40
0.0
 40
0.0
 40
0.0
 40
0.5072492758
 40
1.0
 40
1.0
 40
1.0
 40
1.0
 10
9.1662947161
 20
9.1138705877
 30
0.0
 10
9.1669271111
 20
9.1097023524
 30
0.0
 10
9.1691863143
 20
9.1016082536
 30
0.0
 10
9.1732384785
 20
9.0942660362
 30
0.0
 10
9.1755877698
 20
9.0909114279
 30
0.0
  0
SPLINE
  5
2D8
100
AcDbEntity
  8
0
100
AcDbSpline
 62
7
  6
CONTINUOUS
 70
0
 71
3
 72
9
 73
5
 74
0
 42
0.0000001
 43
0.0000001
 44
0.0000000001
 40
0.0
 40
0.0
 40
0.0
 40
0.0
 40
0.5065022233
 40
1.0
 40
1.0
 40
1.0
 40
1.0
 10
9.1755877698
 20
9.0909114279
 30
0.0
 10
9.1774847385
 20
9.0882027019
 30
0.0
 10
9.1816994381
 20
9.0831703592
 30
0.0
 10
9.1866534783
 20
9.0788762573
 30
0.0
 10
9.189234897
 20
9.0769481426
 30
0.0
  0
SPLINE
  5
2D9
100
AcDbEntity
  8
0
100
AcDbSpline
 62
7
  6
CONTINUOUS
 70
0
 71
3
 72
31
 73
27
 74
0
 42
0.0000001
 43
0.0000001
 44
0.0000000001
 40
0.0
 40
0.0
 40
0.0
 40
0.0
 40
0.0621629336
 40
0.1240468075
 40
0.1858058119
 40
0.2166652421
 40
0.2475145318
 40
0.3091968776
 40
0.3708698805
 40
0.4325405156
 40
0.494213302
 40
0.5558947694
 40
0.6175986196
 40
0.679355624
 40
0.7102769645
 40
0.741244106
 40
0.7722800958
 40
0.8034206811
 40
0.8347224914
 40
0.8662783149
 40
0.8982465476
 40
0.9309052242
 40
0.9476619108
 40
0.9647748802
 40
0.9822571387
 40
1.0
 40
1.0
 40
1.0
 40
1.0
 10
9.1773395382
 20
8.0594541931
 30
0.0
 10
9.186502662
 20
8.0564970946
 30
0.0
 10
9.2051811643
 20
8.0518008004
 30
0.0
 10
9.2336052705
 20
8.0471827984
 30
0.0
 10
9.2574184065
 20
8.0447078667
 30
0.0
 10
9.2764910928
 20
8.0433018792
 30
0.0
 10
9.2955727798
 20
8.0422089202
 30
0.0
 10
9.319444496
 20
8.0413446062
 30
0.0
 10
9.3481007976
 20
8.0408765978
 30
0.0
 10
9.3767593808
 20
8.0408803842
 30
0.0
 10
9.4054154968
 20
8.0413558168
 30
0.0
 10
9.4340626636
 20
8.0424084155
 30
0.0
 10
9.4626843468
 20
8.0442556997
 30
0.0
 10
9.4864777949
 20
8.0467438881
 30
0.0
 10
9.5054235212
 20
8.0495652955
 30
0.0
 10
9.5195788598
 20
8.0521912136
 30
0.0
 10
9.5336415299
 20
8.0554379099
 30
0.0
 10
9.5475623147
 20
8.0594507632
 30
0.0
 10
9.5612607722
 20
8.0644230351
 30
0.0
 10
9.5746021679
 20
8.0706261716
 30
0.0
 10
9.587326939
 20
8.0784482253
 30
0.0
 10
9.5969282893
 20
8.0867642504
 30
0.0
 10
9.6033951984
 20
8.094825298
 30
0.0
 10
9.6073948245
 20
8.1017452048
 30
0.0
 10
9.6100954457
 20
8.1094456247
 30
0.0
 10
9.6107401954
 20
8.1149212977
 30
0.0
 10
9.6107401954
 20
8.1176695022
 30
0.0
  0
SPLINE
  5
2DA
100
AcDbEntity
  8
0
100
AcDbSpline
 62
7
  6
CONTINUOUS
 70
0
 71
3
 72
28
 73
24
 74
0
 42
0.0000001
 43
0.0000001
 44
0.0000000001
 40
0.0
 40
0.0
 40
0.0
 40
0.0
 40
0.0177143453
 40
0.0352794141
 40
0.0525944119
 40
0.069633232
 40
0.0864075918
 40
0.1029479062
 40
0.1354565785
 40
0.1674355548
 40
0.1990530455
 40
0.2304201706
 40
0.2616107125
 40
0.3236305712
 40
0.3853797623
 40
0.446980318
 40
0.5084986903
 40
0.569971928
 40
0.6314208247
 40
0.6928569656
 40
0.7542866421
 40
0.8771383843
 40
1.0
 40
1.0
 40
1.0
 40
1.0
 10
9.6107401954
 20
8.1176695022
 30
0.0
 10
9.6107401954
 20
8.1196705111
 30
0.0
 10
9.6104000492
 20
8.1236635371
 30
0.0
 10
9.6089301946
 20
8.1294440622
 30
0.0
 10
9.6066464985
 20
8.1348672166
 30
0.0
 10
9.6037221052
 20
8.1398638596
 30
0.0
 10
9.6003082284
 20
8.1444263641
 30
0.0
 10
9.5952965364
 20
8.149931119
 30
0.0
 10
9.5883257084
 20
8.1559169217
 30
0.0
 10
9.5792681769
 20
8.1619357154
 30
0.0
 10
9.5697981637
 20
8.1670022106
 30
0.0
 10
9.5600569313
 20
8.171297567
 30
0.0
 10
9.5468468396
 20
8.176167692
 30
0.0
 10
9.529983337
 20
8.1809536251
 30
0.0
 10
9.5094631935
 20
8.1851827572
 30
0.0
 10
9.488803532
 20
8.1882806015
 30
0.0
 10
9.4680688938
 20
8.1905249117
 30
0.0
 10
9.4472931164
 20
8.1921200528
 30
0.0
 10
9.4264955226
 20
8.1932181661
 30
0.0
 10
9.4056866322
 20
8.1939308719
 30
0.0
 10
9.3779348844
 20
8.1944701437
 30
0.0
 10
9.3432371477
 20
8.1945023917
 30
0.0
 10
9.3154841322
 20
8.1938679542
 30
0.0
 10
9.3016169359
 20
8.1933098193
 30
0.0
  0
SPLINE
  5
2DB
100
AcDbEntity
  8
0
100
AcDbSpline
 62
7
  6
CONTINUOUS
 70
0
 71
3
 72
21
 73
17
 74
0
 42
0.0000001
 43
0.0000001
 44
0.0000000001
 40
0.0
 40
0.0
 40
0.0
 40
0.0
 40
0.1217264034
 40
0.2435178768
 40
0.3654510107
 40
0.4876852905
 40
0.5490302941
 40
0.6106146451
 40
0.6725591822
 40
0.7350582386
 40
0.7984361944
 40
0.8632319381
 40
0.8964736246
 40
0.9303874457
 40
0.9649670429
 40
1.0
 40
1.0
 40
1.0
 40
1.0
 10
9.3016169359
 20
8.1933098193
 30
0.0
 10
9.2927920853
 20
8.1929546316
 30
0.0
 10
9.2751445663
 20
8.1920459073
 30
0.0
 10
9.2487128882
 20
8.1898616091
 30
0.0
 10
9.2223612155
 20
8.1865201136
 30
0.0
 10
9.2005618682
 20
8.1823687001
 30
0.0
 10
9.1833471709
 20
8.1778606368
 30
0.0
 10
9.1705734917
 20
8.1737380139
 30
0.0
 10
9.1580366056
 20
8.1687012841
 30
0.0
 10
9.1458737354
 20
8.1625009697
 30
0.0
 10
9.1343431583
 20
8.154788437
 30
0.0
 10
9.1257378226
 20
8.1467132759
 30
0.0
 10
9.1200164116
 20
8.1390041731
 30
0.0
 10
9.1165192606
 20
8.1324655382
 30
0.0
 10
9.1141949424
 20
8.1252770777
 30
0.0
 10
9.1136371558
 20
8.1202113577
 30
0.0
 10
9.1136371558
 20
8.1176695023
 30
0.0
  0
SPLINE
  5
2DC
100
AcDbEntity
  8
0
100
AcDbSpline
 62
7
  6
CONTINUOUS
 70
0
 71
3
 72
17
 73
13
 74
0
 42
0.0000001
 43
0.0000001
 44
0.0000000001
 40
0.0
 40
0.0
 40
0.0
 40
0.0
 40
0.0678269862
 40
0.1350396202
 40
0.2012531587
 40
0.2663629131
 40
0.3934751332
 40
0.5176612744
 40
0.6398676335
 40
0.7607367751
 40
0.8806912477
 40
1.0
 40
1.0
 40
1.0
 40
1.0
 10
9.1136371558
 20
8.1176695023
 30
0.0
 10
9.1136371558
 20
8.1155929698
 30
0.0
 10
9.1140098472
 20
8.1114504884
 30
0.0
 10
9.1155861819
 20
8.1054678951
 30
0.0
 10
9.1180291744
 20
8.0998783861
 30
0.0
 10
9.1221455056
 20
8.0930996549
 30
0.0
 10
9.1285439276
 20
8.0857341397
 30
0.0
 10
9.1373836039
 20
8.0784272148
 30
0.0
 10
9.1468781548
 20
8.0723634785
 30
0.0
 10
9.1567793285
 20
8.0672865388
 30
0.0
 10
9.1669475991
 20
8.0630032174
 30
0.0
 10
9.1738634149
 20
8.0605759982
 30
0.0
 10
9.1773395382
 20
8.0594541931
 30
0.0
  0
SPLINE
  5
2DD
100
AcDbEntity
  8
0
100
AcDbSpline
 62
7
  6
CONTINUOUS
 70
0
 71
3
 72
31
 73
27
 74
0
 42
0.0000001
 43
0.0000001
 44
0.0000000001
 40
0.0
 40
0.0
 40
0.0
 40
0.0
 40
0.0621629491
 40
0.124046826
 40
0.1858058252
 40
0.2166652601
 40
0.2475145522
 40
0.309196897
 40
0.3708698994
 40
0.4325405341
 40
0.4942133196
 40
0.5558947864
 40
0.6175986358
 40
0.6793556386
 40
0.710276979
 40
0.7412441195
 40
0.7722801079
 40
0.8034206915
 40
0.8347224997
 40
0.86627832
 40
0.8982465521
 40
0.9309052293
 40
0.947661902
 40
0.9647748915
 40
0.9822571273
 40
1.0
 40
1.0
 40
1.0
 40
1.0
 10
9.8648395382
 20
8.0594541931
 30
0.0
 10
9.874002665
 20
8.0564970936
 30
0.0
 10
9.8926811713
 20
8.0518007962
 30
0.0
 10
9.9211052828
 20
8.0471827994
 30
0.0
 10
9.9449184203
 20
8.0447078586
 30
0.0
 10
9.9639911093
 20
8.0433018811
 30
0.0
 10
9.9830727985
 20
8.0422089165
 30
0.0
 10
10.0069445172
 20
8.0413446113
 30
0.0
 10
10.0356008207
 20
8.0408765923
 30
0.0
 10
10.0642594061
 20
8.0408803847
 30
0.0
 10
10.0929155242
 20
8.0413558168
 30
0.0
 10
10.121562693
 20
8.0424084168
 30
0.0
 10
10.1501843782
 20
8.0442557011
 30
0.0
 10
10.1739778275
 20
8.0467438932
 30
0.0
 10
10.1929235551
 20
8.0495653003
 30
0.0
 10
10.2070788942
 20
8.0521912207
 30
0.0
 10
10.2211415643
 20
8.0554379191
 30
0.0
 10
10.2350623491
 20
8.0594507745
 30
0.0
 10
10.2487608053
 20
8.0644230493
 30
0.0
 10
10.2621022019
 20
8.0706261884
 30
0.0
 10
10.2748269627
 20
8.07844825
 30
0.0
 10
10.284428336
 20
8.0867642677
 30
0.0
 10
10.2908951855
 20
8.0948253421
 30
0.0
 10
10.2948949513
 20
8.1017452078
 30
0.0
 10
10.2975951364
 20
8.1094457182
 30
0.0
 10
10.2982406287
 20
8.1149212955
 30
0.0
 10
10.2982406287
 20
8.117669502
 30
0.0
  0
SPLINE
  5
2DE
100
AcDbEntity
  8
0
100
AcDbSpline
 62
7
  6
CONTINUOUS
 70
0
 71
3
 72
21
 73
17
 74
0
 42
0.0000001
 43
0.0000001
 44
0.0000000001
 40
0.0
 40
0.0
 40
0.0
 40
0.0
 40
0.0350315511
 40
0.0696109366
 40
0.1035253337
 40
0.1367689786
 40
0.201568674
 40
0.2649493727
 40
0.3274502875
 40
0.3893959034
 40
0.4509806888
 40
0.5123255915
 40
0.6345583654
 40
0.7564889296
 40
0.8782771872
 40
1.0
 40
1.0
 40
1.0
 40
1.0
 10
10.2982406287
 20
8.117669502
 30
0.0
 10
10.2982406287
 20
8.1202081117
 30
0.0
 10
10.2976907218
 20
8.1252681713
 30
0.0
 10
10.2953683066
 20
8.1324477678
 30
0.0
 10
10.2918801331
 20
8.1389806083
 30
0.0
 10
10.2861696639
 20
8.146683797
 30
0.0
 10
10.2775799057
 20
8.1547549584
 30
0.0
 10
10.2660678083
 20
8.1624654958
 30
0.0
 10
10.2539232708
 20
8.1686655027
 30
0.0
 10
10.2414044357
 20
8.1737030322
 30
0.0
 10
10.228648583
 20
8.1778271956
 30
0.0
 10
10.2114574235
 20
8.1823379541
 30
0.0
 10
10.1896870906
 20
8.1864935981
 30
0.0
 10
10.1633697342
 20
8.1898405553
 30
0.0
 10
10.1369720757
 20
8.1920301803
 30
0.0
 10
10.1193470971
 20
8.192942194
 30
0.0
 10
10.1105335036
 20
8.1932989685
 30
0.0
  0
SPLINE
  5
2DF
100
AcDbEntity
  8
0
100
AcDbSpline
 62
7
  6
CONTINUOUS
 70
0
 71
3
 72
28
 73
24
 74
0
 42
0.0000001
 43
0.0000001
 44
0.0000000001
 40
0.0
 40
0.0
 40
0.0
 40
0.0
 40
0.1228634393
 40
0.2457168651
 40
0.3071473484
 40
0.3685842577
 40
0.4300338686
 40
0.4915077272
 40
0.5530265771
 40
0.6146274021
 40
0.6763765611
 40
0.7383959572
 40
0.7695860604
 40
0.8009525475
 40
0.8325691662
 40
0.8645470074
 40
0.8970543237
 40
0.9135938847
 40
0.9303674476
 40
0.9474060111
 40
0.9647204593
 40
0.9822858524
 40
1.0
 40
1.0
 40
1.0
 40
1.0
 10
10.1105335036
 20
8.1932989685
 30
0.0
 10
10.0966552082
 20
8.1938607622
 30
0.0
 10
10.0688798096
 20
8.1945002514
 30
0.0
 10
10.0341540028
 20
8.1944720545
 30
0.0
 10
10.0063797617
 20
8.1939358116
 30
0.0
 10
9.9855539751
 20
8.1932254361
 30
0.0
 10
9.9647394389
 20
8.1921297946
 30
0.0
 10
9.9439466496
 20
8.1905372682
 30
0.0
 10
9.9231948961
 20
8.1882956684
 30
0.0
 10
9.9025179731
 20
8.1852004942
 30
0.0
 10
9.8819803665
 20
8.1809737883
 30
0.0
 10
9.8651020746
 20
8.1761893951
 30
0.0
 10
9.8518799832
 20
8.1713199837
 30
0.0
 10
9.8421296737
 20
8.167024797
 30
0.0
 10
9.8326504936
 20
8.1619579874
 30
0.0
 10
9.8235837243
 20
8.1559381726
 30
0.0
 10
9.8166052453
 20
8.149950646
 30
0.0
 10
9.8115875839
 20
8.1444437539
 30
0.0
 10
9.8081695849
 20
8.1398789332
 30
0.0
 10
9.8052408809
 20
8.1348797201
 30
0.0
 10
9.8029541473
 20
8.1294526137
 30
0.0
 10
9.8014835134
 20
8.1236678547
 30
0.0
 10
9.8011369846
 20
8.1196720805
 30
0.0
 10
9.8011369846
 20
8.1176695034
 30
0.0
  0
SPLINE
  5
2E0
100
AcDbEntity
  8
0
100
AcDbSpline
 62
7
  6
CONTINUOUS
 70
0
 71
3
 72
17
 73
13
 74
0
 42
0.0000001
 43
0.0000001
 44
0.0000000001
 40
0.0
 40
0.0
 40
0.0
 40
0.0
 40
0.0678269133
 40
0.1350394867
 40
0.2012530381
 40
0.2663628195
 40
0.3934750709
 40
0.5176612282
 40
0.639867604
 40
0.7607367573
 40
0.8806912395
 40
1.0
 40
1.0
 40
1.0
 40
1.0
 10
9.8011369846
 20
8.1176695034
 30
0.0
 10
9.8011369846
 20
8.1155929728
 30
0.0
 10
9.8015099298
 20
8.1114505176
 30
0.0
 10
9.8030861517
 20
8.1054679153
 30
0.0
 10
9.8055291665
 20
8.0998784057
 30
0.0
 10
9.809645494
 20
8.0930996727
 30
0.0
 10
9.816043916
 20
8.0857341496
 30
0.0
 10
9.8248835942
 20
8.0784272216
 30
0.0
 10
9.8343781474
 20
8.0723634825
 30
0.0
 10
9.8442793235
 20
8.067286541
 30
0.0
 10
9.8544475966
 20
8.0630032183
 30
0.0
 10
9.8613634141
 20
8.0605759984
 30
0.0
 10
9.8648395382
 20
8.0594541931
 30
0.0
  0
SPLINE
  5
2E1
100
AcDbEntity
  8
0
100
AcDbSpline
 62
7
  6
CONTINUOUS
 70
0
 71
3
 72
9
 73
5
 74
0
 42
0.0000001
 43
0.0000001
 44
0.0000000001
 40
0.0
 40
0.0
 40
0.0
 40
0.0
 40
0.5051437683
 40
1.0
 40
1.0
 40
1.0
 40
1.0
 10
9.1777496333
 20
9.1138705533
 30
0.0
 10
9.178416847
 20
9.1096913727
 30
0.0
 10
9.1808132385
 20
9.1015573509
 30
0.0
 10
9.1850690735
 20
9.0942489819
 30
0.0
 10
9.1875286377
 20
9.0909114419
 30
0.0
  0
SPLINE
  5
2E2
100
AcDbEntity
  8
0
100
AcDbSpline
 62
7
  6
CONTINUOUS
 70
0
 71
3
 72
9
 73
5
 74
0
 42
0.0000001
 43
0.0000001
 44
0.0000000001
 40
0.0
 40
0.0
 40
0.0
 40
0.0
 40
0.5044827579
 40
1.0
 40
1.0
 40
1.0
 40
1.0
 10
9.1875286377
 20
9.0909114419
 30
0.0
 10
9.1895332134
 20
9.0881913048
 30
0.0
 10
9.1939897148
 20
9.083141929
 30
0.0
 10
9.1991829843
 20
9.0788691854
 30
0.0
 10
9.2018894312
 20
9.0769481426
 30
0.0
  0
SPLINE
  5
2E3
100
AcDbEntity
  8
0
100
AcDbSpline
 62
7
  6
CONTINUOUS
 70
0
 71
3
 72
11
 73
7
 74
0
 42
0.0000001
 43
0.0000001
 44
0.0000000001
 40
0.0
 40
0.0
 40
0.0
 40
0.0
 40
0.2524515574
 40
0.5034547095
 40
0.7527005314
 40
1.0
 40
1.0
 40
1.0
 40
1.0
 10
9.1934574605
 20
9.1138705877
 30
0.0
 10
9.1938074868
 20
9.1117657977
 30
0.0
 10
9.1947883263
 20
9.1076101203
 30
0.0
 10
9.1970436684
 20
9.1016441813
 30
0.0
 10
9.1999936184
 20
9.0960402476
 30
0.0
 10
9.2023709901
 20
9.0925694153
 30
0.0
 10
9.2036437077
 20
9.0909114279
 30
0.0
  0
SPLINE
  5
2E4
100
AcDbEntity
  8
0
100
AcDbSpline
 62
7
  6
CONTINUOUS
 70
0
 71
3
 72
9
 73
5
 74
0
 42
0.0000001
 43
0.0000001
 44
0.0000000001
 40
0.0
 40
0.0
 40
0.0
 40
0.0
 40
0.5028700373
 40
1.0
 40
1.0
 40
1.0
 40
1.0
 10
9.2036437077
 20
9.0909114279
 30
0.0
 10
9.2057389358
 20
9.0881819444
 30
0.0
 10
9.2103986401
 20
9.0831192824
 30
0.0
 10
9.2157914569
 20
9.0788636712
 30
0.0
 10
9.2186025161
 20
9.0769481426
 30
0.0
  0
SPLINE
  5
2E5
100
AcDbEntity
  8
0
100
AcDbSpline
 62
7
  6
CONTINUOUS
 70
0
 71
3
 72
11
 73
7
 74
0
 42
0.0000001
 43
0.0000001
 44
0.0000000001
 40
0.0
 40
0.0
 40
0.0
 40
0.0
 40
0.2514424888
 40
0.5020229171
 40
0.7515822903
 40
1.0
 40
1.0
 40
1.0
 40
1.0
 10
9.2132917368
 20
9.1138705877
 30
0.0
 10
9.2136532371
 20
9.111764056
 30
0.0
 10
9.2146672925
 20
9.1076028984
 30
0.0
 10
9.2169964
 20
9.1016355946
 30
0.0
 10
9.2200420685
 20
9.0960314101
 30
0.0
 10
9.2224920311
 20
9.0925666521
 30
0.0
 10
9.2238031929
 20
9.0909114279
 30
0.0
  0
SPLINE
  5
2E6
100
AcDbEntity
  8
0
100
AcDbSpline
 62
7
  6
CONTINUOUS
 70
0
 71
3
 72
9
 73
5
 74
0
 42
0.0000001
 43
0.0000001
 44
0.0000000001
 40
0.0
 40
0.0
 40
0.0
 40
0.0
 40
0.5016336213
 40
1.0
 40
1.0
 40
1.0
 40
1.0
 10
9.2238031929
 20
9.0909114279
 30
0.0
 10
9.2259711094
 20
9.0881746279
 30
0.0
 10
9.2307934062
 20
9.08310197
 30
0.0
 10
9.236345054
 20
9.0788595245
 30
0.0
 10
9.2392395802
 20
9.0769481426
 30
0.0
  0
SPLINE
  5
2E7
100
AcDbEntity
  8
0
100
AcDbSpline
 62
7
  6
CONTINUOUS
 70
0
 71
3
 72
11
 73
7
 74
0
 42
0.0000001
 43
0.0000001
 44
0.0000000001
 40
0.0
 40
0.0
 40
0.0
 40
0.0
 40
0.2506898286
 40
0.5009565522
 40
0.7507508954
 40
1.0
 40
1.0
 40
1.0
 40
1.0
 10
9.237092754
 20
9.1138705877
 30
0.0
 10
9.2374627593
 20
9.1117627373
 30
0.0
 10
9.2385014886
 20
9.1075974597
 30
0.0
 10
9.2408852299
 20
9.1016291915
 30
0.0
 10
9.2440017305
 20
9.0960248928
 30
0.0
 10
9.2465052471
 20
9.0925646344
 30
0.0
 10
9.2478447822
 20
9.0909114279
 30
0.0
  0
SPLINE
  5
2E8
100
AcDbEntity
  8
0
100
AcDbSpline
 62
7
  6
CONTINUOUS
 70
0
 71
3
 72
9
 73
5
 74
0
 42
0.0000001
 43
0.0000001
 44
0.0000000001
 40
0.0
 40
0.0
 40
0.0
 40
0.0
 40
0.5007479719
 40
1.0
 40
1.0
 40
1.0
 40
1.0
 10
9.2478447822
 20
9.0909114279
 30
0.0
 10
9.2500666275
 20
9.0881693057
 30
0.0
 10
9.2550093523
 20
9.0830895956
 30
0.0
 10
9.2606782215
 20
9.0788565956
 30
0.0
 10
9.2636344568
 20
9.0769481426
 30
0.0
  0
SPLINE
  5
2E9
100
AcDbEntity
  8
0
100
AcDbSpline
 62
7
  6
CONTINUOUS
 70
0
 71
3
 72
13
 73
9
 74
0
 42
0.0000001
 43
0.0000001
 44
0.0000000001
 40
0.0
 40
0.0
 40
0.0
 40
0.0
 40
0.1252981786
 40
0.2505274971
 40
0.3757083863
 40
0.5008081738
 40
0.7504964167
 40
1.0
 40
1.0
 40
1.0
 40
1.0
 10
9.2646688696
 20
9.1138705877
 30
0.0
 10
9.2650129066
 20
9.111938349
 30
0.0
 10
9.2659557814
 20
9.1081157857
 30
0.0
 10
9.2680778782
 20
9.102611802
 30
0.0
 10
9.2708381277
 20
9.0974024431
 30
0.0
 10
9.2752607785
 20
9.0909229513
 30
0.0
 10
9.281997467
 20
9.0837458695
 30
0.0
 10
9.288293709
 20
9.0790465362
 30
0.0
 10
9.2915907218
 20
9.0769481426
 30
0.0
  0
SPLINE
  5
2EA
100
AcDbEntity
  8
0
100
AcDbSpline
 62
7
  6
CONTINUOUS
 70
0
 71
3
 72
13
 73
9
 74
0
 42
0.0000001
 43
0.0000001
 44
0.0000000001
 40
0.0
 40
0.0
 40
0.0
 40
0.0
 40
0.1250690605
 40
0.2501576428
 40
0.3752315719
 40
0.5003236275
 40
0.7500831508
 40
1.0
 40
1.0
 40
1.0
 40
1.0
 10
9.2951024821
 20
9.1216695021
 30
0.0
 10
9.2951024821
 20
9.1193805775
 30
0.0
 10
9.2954629461
 20
9.1147944409
 30
0.0
 10
9.297054147
 20
9.1080883984
 30
0.0
 10
9.2996164931
 20
9.1016904498
 30
0.0
 10
9.304167248
 20
9.0937248672
 30
0.0
 10
9.3116916636
 20
9.0849663728
 30
0.0
 10
9.3190179856
 20
9.0793933785
 30
0.0
 10
9.3228832753
 20
9.0769481426
 30
0.0
  0
SPLINE
  5
2EB
100
AcDbEntity
  8
0
100
AcDbSpline
 62
7
  6
CONTINUOUS
 70
0
 71
3
 72
13
 73
9
 74
0
 42
0.0000001
 43
0.0000001
 44
0.0000000001
 40
0.0
 40
0.0
 40
0.0
 40
0.0
 40
0.1251473995
 40
0.2503025332
 40
0.3754217159
 40
0.5005318721
 40
0.750240221
 40
1.0
 40
1.0
 40
1.0
 40
1.0
 10
9.3295354738
 20
9.1216695021
 30
0.0
 10
9.3295354738
 20
9.1193806056
 30
0.0
 10
9.3298951691
 20
9.1147947719
 30
0.0
 10
9.3314830234
 20
9.1080889645
 30
0.0
 10
9.3340400435
 20
9.1016911294
 30
0.0
 10
9.3385809129
 20
9.0937264598
 30
0.0
 10
9.3460889543
 20
9.0849683788
 30
0.0
 10
9.3534019925
 20
9.079393809
 30
0.0
 10
9.357260154
 20
9.0769481426
 30
0.0
  0
SPLINE
  5
2EC
100
AcDbEntity
  8
0
100
AcDbSpline
 62
7
  6
CONTINUOUS
 70
0
 71
3
 72
11
 73
7
 74
0
 42
0.0000001
 43
0.0000001
 44
0.0000000001
 40
0.0
 40
0.0
 40
0.0
 40
0.0
 40
0.3021761474
 40
0.5780924952
 40
0.8121805937
 40
1.0
 40
1.0
 40
1.0
 40
1.0
 10
9.3591312747
 20
9.1216695021
 30
0.0
 10
9.3591312747
 20
9.126179733
 30
0.0
 10
9.3590429732
 20
9.1348085259
 30
0.0
 10
9.3586615926
 20
9.1469260326
 30
0.0
 10
9.358085914
 20
9.1573266829
 30
0.0
 10
9.3575569444
 20
9.1636032553
 30
0.0
 10
9.357260154
 20
9.1663908617
 30
0.0
  0
SPLINE
  5
2ED
100
AcDbEntity
  8
0
100
AcDbSpline
 62
7
  6
CONTINUOUS
 70
0
 71
3
 72
13
 73
9
 74
0
 42
0.0000001
 43
0.0000001
 44
0.0000000001
 40
0.0
 40
0.0
 40
0.0
 40
0.0
 40
0.1255376746
 40
0.251024508
 40
0.3763694827
 40
0.5015702448
 40
0.7510240731
 40
1.0
 40
1.0
 40
1.0
 40
1.0
 10
9.3669992328
 20
9.1216695021
 30
0.0
 10
9.3669992328
 20
9.1193807446
 30
0.0
 10
9.3673550994
 20
9.1147964095
 30
0.0
 10
9.368926304
 20
9.1080917707
 30
0.0
 10
9.3714568187
 20
9.1016945071
 30
0.0
 10
9.3759485082
 20
9.0937344001
 30
0.0
 10
9.3833750399
 20
9.0849784389
 30
0.0
 10
9.3906218899
 20
9.0793959752
 30
0.0
 10
9.3944445602
 20
9.0769481426
 30
0.0
  0
SPLINE
  5
2EE
100
AcDbEntity
  8
0
100
AcDbSpline
 62
7
  6
CONTINUOUS
 70
0
 71
3
 72
11
 73
7
 74
0
 42
0.0000001
 43
0.0000001
 44
0.0000000001
 40
0.0
 40
0.0
 40
0.0
 40
0.0
 40
0.3006026829
 40
0.575647894
 40
0.8101158655
 40
1.0
 40
1.0
 40
1.0
 40
1.0
 10
9.3987934381
 20
9.1216695021
 30
0.0
 10
9.3987934381
 20
9.1261808315
 30
0.0
 10
9.398587778
 20
9.1348214654
 30
0.0
 10
9.3976993083
 20
9.1469523964
 30
0.0
 10
9.3963577776
 20
9.157367924
 30
0.0
 10
9.3951290843
 20
9.1636245894
 30
0.0
 10
9.3944445602
 20
9.1663908617
 30
0.0
  0
SPLINE
  5
2EF
100
AcDbEntity
  8
0
100
AcDbSpline
 62
7
  6
CONTINUOUS
 70
0
 71
3
 72
13
 73
9
 74
0
 42
0.0000001
 43
0.0000001
 44
0.0000000001
 40
0.0
 40
0.0
 40
0.0
 40
0.0
 40
0.1262377262
 40
0.2523201875
 40
0.3780716139
 40
0.5034367273
 40
0.7524357748
 40
1.0
 40
1.0
 40
1.0
 40
1.0
 10
9.4071920925
 20
9.1216695021
 30
0.0
 10
9.4071920925
 20
9.1193809901
 30
0.0
 10
9.4075411319
 20
9.1147993044
 30
0.0
 10
9.4090825577
 20
9.1080967509
 30
0.0
 10
9.4115656319
 20
9.1017005333
 30
0.0
 10
9.4159693823
 20
9.0937486702
 30
0.0
 10
9.4232499505
 20
9.0849967645
 30
0.0
 10
9.4303780098
 20
9.0793999527
 30
0.0
 10
9.4341370903
 20
9.0769481426
 30
0.0
  0
SPLINE
  5
2F0
100
AcDbEntity
  8
0
100
AcDbSpline
 62
7
  6
CONTINUOUS
 70
0
 71
3
 72
11
 73
7
 74
0
 42
0.0000001
 43
0.0000001
 44
0.0000000001
 40
0.0
 40
0.0
 40
0.0
 40
0.0
 40
0.2979103361
 40
0.5714776693
 40
0.8066136592
 40
1.0
 40
1.0
 40
1.0
 40
1.0
 10
9.4409287086
 20
9.1216695021
 30
0.0
 10
9.4409287086
 20
9.126182771
 30
0.0
 10
9.4406063142
 20
9.1348443011
 30
0.0
 10
9.4392133341
 20
9.146997928
 30
0.0
 10
9.4371088595
 20
9.1574373937
 30
0.0
 10
9.4351931703
 20
9.1636580675
 30
0.0
 10
9.4341370903
 20
9.1663908617
 30
0.0
  0
SPLINE
  5
2F1
100
AcDbEntity
  8
0
100
AcDbSpline
 62
7
  6
CONTINUOUS
 70
0
 71
3
 72
13
 73
9
 74
0
 42
0.0000001
 43
0.0000001
 44
0.0000000001
 40
0.0
 40
0.0
 40
0.0
 40
0.0
 40
0.1272432314
 40
0.2541826147
 40
0.3805210492
 40
0.506126312
 40
0.7544762493
 40
1.0
 40
1.0
 40
1.0
 40
1.0
 10
9.4497904392
 20
9.1216695021
 30
0.0
 10
9.4497904392
 20
9.1193813341
 30
0.0
 10
9.4501297168
 20
9.1148033658
 30
0.0
 10
9.451628549
 20
9.108103781
 30
0.0
 10
9.4540436911
 20
9.1017091146
 30
0.0
 10
9.4583217027
 20
9.0937692211
 30
0.0
 10
9.465393103
 20
9.0850237264
 30
0.0
 10
9.472350287
 20
9.0794058808
 30
0.0
 10
9.4760181456
 20
9.0769481426
 30
0.0
  0
SPLINE
  5
2F2
100
AcDbEntity
  8
0
100
AcDbSpline
 62
7
  6
CONTINUOUS
 70
0
 71
3
 72
11
 73
7
 74
0
 42
0.0000001
 43
0.0000001
 44
0.0000000001
 40
0.0
 40
0.0
 40
0.0
 40
0.0
 40
0.2943077593
 40
0.5659228481
 40
0.8019869181
 40
1.0
 40
1.0
 40
1.0
 40
1.0
 10
9.4851978192
 20
9.1216695021
 30
0.0
 10
9.4851978192
 20
9.1261854877
 30
0.0
 10
9.4847596962
 20
9.1348762327
 30
0.0
 10
9.4828670727
 20
9.147059731
 30
0.0
 10
9.4800059725
 20
9.157527848
 30
0.0
 10
9.4774248532
 20
9.1636977152
 30
0.0
 10
9.4760181456
 20
9.1663908617
 30
0.0
  0
SPLINE
  5
2F3
100
AcDbEntity
  8
0
100
AcDbSpline
 62
7
  6
CONTINUOUS
 70
0
 71
3
 72
12
 73
8
 74
0
 42
0.0000001
 43
0.0000001
 44
0.0000000001
 40
0.0
 40
0.0
 40
0.0
 40
0.0
 40
0.2756140498
 40
0.5375276745
 40
0.6610488094
 40
0.7791644023
 40
1.0
 40
1.0
 40
1.0
 40
1.0
 10
9.7356904476
 20
9.1216695021
 30
0.0
 10
9.7356904476
 20
9.1262020827
 30
0.0
 10
9.7365687301
 20
9.1350667425
 30
0.0
 10
9.7397729858
 20
9.1455329758
 30
0.0
 10
9.7433687308
 20
9.1530071093
 30
0.0
 10
9.7473288208
 20
9.1595101786
 30
0.0
 10
9.7509122165
 20
9.1638397407
 30
0.0
 10
9.7534970234
 20
9.1663908617
 30
0.0
  0
SPLINE
  5
2F4
100
AcDbEntity
  8
0
100
AcDbSpline
 62
7
  6
CONTINUOUS
 70
0
 71
3
 72
11
 73
7
 74
0
 42
0.0000001
 43
0.0000001
 44
0.0000000001
 40
0.0
 40
0.0
 40
0.0
 40
0.0
 40
0.2666856321
 40
0.5243011986
 40
0.7685898956
 40
1.0
 40
1.0
 40
1.0
 40
1.0
 10
9.7748297415
 20
9.1216695021
 30
0.0
 10
9.7748297415
 20
9.1171271403
 30
0.0
 10
9.7737557166
 20
9.1081599766
 30
0.0
 10
9.7691757793
 20
9.0957771838
 30
0.0
 10
9.762308749
 20
9.0852304821
 30
0.0
 10
9.7565391592
 20
9.0794543428
 30
0.0
 10
9.7534970234
 20
9.0769481426
 30
0.0
  0
SPLINE
  5
2F5
100
AcDbEntity
  8
0
100
AcDbSpline
 62
7
  6
CONTINUOUS
 70
0
 71
3
 72
11
 73
7
 74
0
 42
0.0000001
 43
0.0000001
 44
0.0000000001
 40
0.0
 40
0.0
 40
0.0
 40
0.0
 40
0.2805279213
 40
0.5449419651
 40
0.7848844024
 40
1.0
 40
1.0
 40
1.0
 40
1.0
 10
9.7848014862
 20
9.1216695021
 30
0.0
 10
9.7848014862
 20
9.1261973465
 30
0.0
 10
9.7855750199
 20
9.1350137538
 30
0.0
 10
9.7889034724
 20
9.1473051879
 30
0.0
 10
9.7939304397
 20
9.1578431098
 30
0.0
 10
9.7983009371
 20
9.1638105025
 30
0.0
 10
9.800624071
 20
9.1663908617
 30
0.0
  0
SPLINE
  5
2F6
100
AcDbEntity
  8
0
100
AcDbSpline
 62
7
  6
CONTINUOUS
 70
0
 71
3
 72
13
 73
9
 74
0
 42
0.0000001
 43
0.0000001
 44
0.0000000001
 40
0.0
 40
0.0
 40
0.0
 40
0.0
 40
0.1319938664
 40
0.2630045816
 40
0.3921662696
 40
0.5189712721
 40
0.7643251691
 40
1.0
 40
1.0
 40
1.0
 40
1.0
 10
9.8234671184
 20
9.1216695021
 30
0.0
 10
9.8234671184
 20
9.1193828155
 30
0.0
 10
9.8231733942
 20
9.1148210475
 30
0.0
 10
9.8218740131
 20
9.1081349889
 30
0.0
 10
9.819778074
 20
9.1017482937
 30
0.0
 10
9.8160875764
 20
9.093866831
 30
0.0
 10
9.8100002629
 20
9.0851617621
 30
0.0
 10
9.8038600544
 20
9.0794377773
 30
0.0
 10
9.800624071
 20
9.0769481426
 30
0.0
  0
SPLINE
  5
2F7
100
AcDbEntity
  8
0
100
AcDbSpline
 62
7
  6
CONTINUOUS
 70
0
 71
3
 72
11
 73
7
 74
0
 42
0.0000001
 43
0.0000001
 44
0.0000000001
 40
0.0
 40
0.0
 40
0.0
 40
0.0
 40
0.285799491
 40
0.4227210889
 40
0.5533032544
 40
1.0
 40
1.0
 40
1.0
 40
1.0
 10
9.8332775497
 20
9.1216695021
 30
0.0
 10
9.8332775497
 20
9.1261929154
 30
0.0
 10
9.8337850234
 20
9.1328984321
 30
0.0
 10
9.8354714711
 20
9.1415022208
 30
0.0
 10
9.8385126518
 20
9.1523816841
 30
0.0
 10
9.8426398801
 20
9.1608166459
 30
0.0
 10
9.8469887422
 20
9.1663908617
 30
0.0
  0
SPLINE
  5
2F8
100
AcDbEntity
  8
0
100
AcDbSpline
 62
7
  6
CONTINUOUS
 70
0
 71
3
 72
13
 73
9
 74
0
 42
0.0000001
 43
0.0000001
 44
0.0000000001
 40
0.0
 40
0.0
 40
0.0
 40
0.0
 40
0.1301347919
 40
0.2595484294
 40
0.3875953055
 40
0.5139176527
 40
0.7604293577
 40
1.0
 40
1.0
 40
1.0
 40
1.0
 10
9.8711581901
 20
9.1216695021
 30
0.0
 10
9.8711581901
 20
9.1193822527
 30
0.0
 10
9.8708467031
 20
9.1148143722
 30
0.0
 10
9.869469441
 20
9.1081230937
 30
0.0
 10
9.867248675
 20
9.1017331484
 30
0.0
 10
9.8633291238
 20
9.0938284838
 30
0.0
 10
9.8568569371
 20
9.0851055392
 30
0.0
 10
9.8503943014
 20
9.079424453
 30
0.0
 10
9.8469887422
 20
9.0769481426
 30
0.0
  0
SPLINE
  5
2F9
100
AcDbEntity
  8
0
100
AcDbSpline
 62
7
  6
CONTINUOUS
 70
0
 71
3
 72
11
 73
7
 74
0
 42
0.0000001
 43
0.0000001
 44
0.0000000001
 40
0.0
 40
0.0
 40
0.0
 40
0.0
 40
0.2900547008
 40
0.5594003485
 40
0.79660788
 40
1.0
 40
1.0
 40
1.0
 40
1.0
 10
9.8807283158
 20
9.1216695021
 30
0.0
 10
9.8807283158
 20
9.1261889331
 30
0.0
 10
9.881280474
 20
9.1349161134
 30
0.0
 10
9.8836639632
 20
9.1471341647
 30
0.0
 10
9.8872683777
 20
9.1576306462
 30
0.0
 10
9.8904835917
 20
9.1637382963
 30
0.0
 10
9.8922177154
 20
9.1663908617
 30
0.0
  0
SPLINE
  5
2FA
100
AcDbEntity
  8
0
100
AcDbSpline
 62
7
  6
CONTINUOUS
 70
0
 71
3
 72
13
 73
9
 74
0
 42
0.0000001
 43
0.0000001
 44
0.0000000001
 40
0.0
 40
0.0
 40
0.0
 40
0.0
 40
0.1285450395
 40
0.2565972205
 40
0.3837007544
 40
0.5096236097
 40
0.7571405253
 40
1.0
 40
1.0
 40
1.0
 40
1.0
 10
9.9175189547
 20
9.1216695021
 30
0.0
 10
9.9175189547
 20
9.1193817474
 30
0.0
 10
9.9171922163
 20
9.1148083906
 30
0.0
 10
9.9157482043
 20
9.108112553
 30
0.0
 10
9.9134206475
 20
9.1017199474
 30
0.0
 10
9.9093044154
 20
9.093795783
 30
0.0
 10
9.9025029697
 20
9.0850596994
 30
0.0
 10
9.8957675993
 20
9.0794139305
 30
0.0
 10
9.8922177154
 20
9.0769481426
 30
0.0
  0
SPLINE
  5
2FB
100
AcDbEntity
  8
0
100
AcDbSpline
 62
7
  6
CONTINUOUS
 70
0
 71
3
 72
11
 73
7
 74
0
 42
0.0000001
 43
0.0000001
 44
0.0000000001
 40
0.0
 40
0.0
 40
0.0
 40
0.0
 40
0.29431856
 40
0.5659373968
 40
0.8019984401
 40
1.0
 40
1.0
 40
1.0
 40
1.0
 10
9.9267717175
 20
9.1216695021
 30
0.0
 10
9.9267717175
 20
9.1261855288
 30
0.0
 10
9.9272096273
 20
9.1348762503
 30
0.0
 10
9.9291012974
 20
9.147059709
 30
0.0
 10
9.9319609369
 20
9.15752772
 30
0.0
 10
9.9345407774
 20
9.1636976584
 30
0.0
 10
9.9359468132
 20
9.1663908617
 30
0.0
  0
SPLINE
  5
2FC
100
AcDbEntity
  8
0
100
AcDbSpline
 62
7
  6
CONTINUOUS
 70
0
 71
3
 72
13
 73
9
 74
0
 42
0.0000001
 43
0.0000001
 44
0.0000000001
 40
0.0
 40
0.0
 40
0.0
 40
0.0
 40
0.1272419545
 40
0.2541811728
 40
0.3805184048
 40
0.5061228653
 40
0.7544735522
 40
1.0
 40
1.0
 40
1.0
 40
1.0
 10
9.9621761219
 20
9.1216695021
 30
0.0
 10
9.9621761219
 20
9.1193813159
 30
0.0
 10
9.9618368091
 20
9.1148032905
 30
0.0
 10
9.9603378544
 20
9.1081036533
 30
0.0
 10
9.9579225448
 20
9.1017089583
 30
0.0
 10
9.9536442321
 20
9.0937690659
 30
0.0
 10
9.9465723815
 20
9.0850236108
 30
0.0
 10
9.9396148475
 20
9.0794058485
 30
0.0
 10
9.9359468132
 20
9.0769481426
 30
0.0
  0
SPLINE
  5
2FD
100
AcDbEntity
  8
0
100
AcDbSpline
 62
7
  6
CONTINUOUS
 70
0
 71
3
 72
11
 73
7
 74
0
 42
0.0000001
 43
0.0000001
 44
0.0000000001
 40
0.0
 40
0.0
 40
0.0
 40
0.0
 40
0.2979196334
 40
0.5714899171
 40
0.8066233207
 40
1.0
 40
1.0
 40
1.0
 40
1.0
 10
9.9710370198
 20
9.1216695021
 30
0.0
 10
9.9710370198
 20
9.1261828135
 30
0.0
 10
9.9713591958
 20
9.1348443349
 30
0.0
 10
9.9727512073
 20
9.1469979341
 30
0.0
 10
9.9748542041
 20
9.1574372991
 30
0.0
 10
9.9767685671
 20
9.1636580177
 30
0.0
 10
9.9778239351
 20
9.1663908617
 30
0.0
  0
SPLINE
  5
2FE
100
AcDbEntity
  8
0
100
AcDbSpline
 62
7
  6
CONTINUOUS
 70
0
 71
3
 72
13
 73
9
 74
0
 42
0.0000001
 43
0.0000001
 44
0.0000000001
 40
0.0
 40
0.0
 40
0.0
 40
0.0
 40
0.1262370305
 40
0.2523198226
 40
0.3780704007
 40
0.5034348706
 40
0.7524343103
 40
1.0
 40
1.0
 40
1.0
 40
1.0
 10
10.0047701184
 20
9.1216695021
 30
0.0
 10
10.0047701184
 20
9.119380972
 30
0.0
 10
10.004421049
 20
9.1147992312
 30
0.0
 10
10.0028795245
 20
9.108096627
 30
0.0
 10
10.0003963216
 20
9.1017003817
 30
0.0
 10
9.9959923418
 20
9.0937485272
 30
0.0
 10
9.9887114455
 20
9.0849966665
 30
0.0
 10
9.9815831375
 20
9.0793999244
 30
0.0
 10
9.9778239351
 20
9.0769481426
 30
0.0
  0
SPLINE
  5
2FF
100
AcDbEntity
  8
0
100
AcDbSpline
 62
7
  6
CONTINUOUS
 70
0
 71
3
 72
11
 73
7
 74
0
 42
0.0000001
 43
0.0000001
 44
0.0000000001
 40
0.0
 40
0.0
 40
0.0
 40
0.0
 40
0.3006100267
 40
0.5756570967
 40
0.8101230033
 40
1.0
 40
1.0
 40
1.0
 40
1.0
 10
10.0131678056
 20
9.1216695021
 30
0.0
 10
10.0131678056
 20
9.1261808757
 30
0.0
 10
10.0133732415
 20
9.1348215178
 30
0.0
 10
10.0142607332
 20
9.1469524374
 30
0.0
 10
10.0156007774
 20
9.1573678785
 30
0.0
 10
10.0168281145
 20
9.1636245581
 30
0.0
 10
10.0175118924
 20
9.1663908617
 30
0.0
  0
SPLINE
  5
300
100
AcDbEntity
  8
0
100
AcDbSpline
 62
7
  6
CONTINUOUS
 70
0
 71
3
 72
13
 73
9
 74
0
 42
0.0000001
 43
0.0000001
 44
0.0000000001
 40
0.0
 40
0.0
 40
0.0
 40
0.0
 40
0.1255375636
 40
0.251025232
 40
0.3763697163
 40
0.5015700053
 40
0.7510238502
 40
1.0
 40
1.0
 40
1.0
 40
1.0
 10
10.0449579843
 20
9.1216695021
 30
0.0
 10
10.0449579843
 20
9.1193807269
 30
0.0
 10
10.044602087
 20
9.1147963393
 30
0.0
 10
10.0430308091
 20
9.1080916519
 30
0.0
 10
10.0405002064
 20
9.1016943606
 30
0.0
 10
10.0360083608
 20
9.0937342696
 30
0.0
 10
10.0285816262
 20
9.0849783571
 30
0.0
 10
10.0213346297
 20
9.0793959505
 30
0.0
 10
10.0175118924
 20
9.0769481426
 30
0.0
  0
SPLINE
  5
301
100
AcDbEntity
  8
0
100
AcDbSpline
 62
7
  6
CONTINUOUS
 70
0
 71
3
 72
11
 73
7
 74
0
 42
0.0000001
 43
0.0000001
 44
0.0000000001
 40
0.0
 40
0.0
 40
0.0
 40
0.0
 40
0.3021811567
 40
0.5780980861
 40
0.8121846797
 40
1.0
 40
1.0
 40
1.0
 40
1.0
 10
10.0528248414
 20
9.1216695021
 30
0.0
 10
10.0528248414
 20
9.1261797786
 30
0.0
 10
10.0529129165
 20
9.1348085977
 30
0.0
 10
10.0532933121
 20
9.1469261126
 30
0.0
 10
10.0538675003
 20
9.1573266979
 30
0.0
 10
10.0543951001
 20
9.1636032533
 30
0.0
 10
10.0546911232
 20
9.1663908617
 30
0.0
  0
SPLINE
  5
302
100
AcDbEntity
  8
0
100
AcDbSpline
 62
7
  6
CONTINUOUS
 70
0
 71
3
 72
13
 73
9
 74
0
 42
0.0000001
 43
0.0000001
 44
0.0000000001
 40
0.0
 40
0.0
 40
0.0
 40
0.0
 40
0.1251479003
 40
0.2503043817
 40
0.3754234225
 40
0.500533232
 40
0.750241209
 40
1.0
 40
1.0
 40
1.0
 40
1.0
 10
10.0824161301
 20
9.1216695021
 30
0.0
 10
10.0824161301
 20
9.119380588
 30
0.0
 10
10.0820564161
 20
9.1147947033
 30
0.0
 10
10.0804685133
 20
9.1080888489
 30
0.0
 10
10.0779114453
 20
9.1016909879
 30
0.0
 10
10.0733704966
 20
9.0937263416
 30
0.0
 10
10.0658623783
 20
9.0849683134
 30
0.0
 10
10.0585492968
 20
9.0793937879
 30
0.0
 10
10.0546911232
 20
9.0769481426
 30
0.0
  0
SPLINE
  5
303
100
AcDbEntity
  8
0
100
AcDbSpline
 62
7
  6
CONTINUOUS
 70
0
 71
3
 72
13
 73
9
 74
0
 42
0.0000001
 43
0.0000001
 44
0.0000000001
 40
0.0
 40
0.0
 40
0.0
 40
0.0
 40
0.1285468777
 40
0.2565997048
 40
0.3837047934
 40
0.5096286178
 40
0.7571444523
 40
1.0
 40
1.0
 40
1.0
 40
1.0
 10
9.4944512727
 20
9.1216695021
 30
0.0
 10
9.4944512727
 20
9.1193817657
 30
0.0
 10
9.494777971
 20
9.1148084676
 30
0.0
 10
9.496221838
 20
9.1081126841
 30
0.0
 10
9.49854919
 20
9.1017201082
 30
0.0
 10
9.5026650524
 20
9.0937959504
 30
0.0
 10
9.5094659299
 20
9.0850598339
 30
0.0
 10
9.51620085
 20
9.0794139675
 30
0.0
 10
9.5197505057
 20
9.0769481426
 30
0.0
  0
SPLINE
  5
304
100
AcDbEntity
  8
0
100
AcDbSpline
 62
7
  6
CONTINUOUS
 70
0
 71
3
 72
13
 73
9
 74
0
 42
0.0000001
 43
0.0000001
 44
0.0000000001
 40
0.0
 40
0.0
 40
0.0
 40
0.0
 40
0.1250701683
 40
0.2501606137
 40
0.3752347521
 40
0.5003266021
 40
0.7500853576
 40
1.0
 40
1.0
 40
1.0
 40
1.0
 10
10.1168429505
 20
9.1216695021
 30
0.0
 10
10.1168429505
 20
9.1193805601
 30
0.0
 10
10.1164824737
 20
9.114794375
 30
0.0
 10
10.1148912502
 20
9.1080882872
 30
0.0
 10
10.1123288974
 20
9.1016903136
 30
0.0
 10
10.1077781398
 20
9.0937247614
 30
0.0
 10
10.1002537745
 20
9.084966323
 30
0.0
 10
10.0929275121
 20
9.0793933607
 30
0.0
 10
10.0890622657
 20
9.0769481426
 30
0.0
  0
SPLINE
  5
305
100
AcDbEntity
  8
0
100
AcDbSpline
 62
7
  6
CONTINUOUS
 70
0
 71
3
 72
11
 73
7
 74
0
 42
0.0000001
 43
0.0000001
 44
0.0000000001
 40
0.0
 40
0.0
 40
0.0
 40
0.0
 40
0.2900428988
 40
0.5593842973
 40
0.796595199
 40
1.0
 40
1.0
 40
1.0
 40
1.0
 10
9.5312443213
 20
9.1216695021
 30
0.0
 10
9.5312443213
 20
9.1261888931
 30
0.0
 10
9.530691956
 20
9.1349161095
 30
0.0
 10
9.528307535
 20
9.1471342072
 30
0.0
 10
9.5247016898
 20
9.1576307911
 30
0.0
 10
9.5214852597
 20
9.1637383517
 30
0.0
 10
9.5197505057
 20
9.1663908617
 30
0.0
  0
SPLINE
  5
306
100
AcDbEntity
  8
0
100
AcDbSpline
 62
7
  6
CONTINUOUS
 70
0
 71
3
 72
13
 73
9
 74
0
 42
0.0000001
 43
0.0000001
 44
0.0000000001
 40
0.0
 40
0.0
 40
0.0
 40
0.0
 40
0.1301371619
 40
0.2595519045
 40
0.3876006808
 40
0.5139241714
 40
0.7604344991
 40
1.0
 40
1.0
 40
1.0
 40
1.0
 10
9.5408149901
 20
9.1216695021
 30
0.0
 10
9.5408149901
 20
9.1193822711
 30
0.0
 10
9.5411264326
 20
9.1148144506
 30
0.0
 10
9.5425035284
 20
9.1081232277
 30
0.0
 10
9.5447240544
 20
9.101733313
 30
0.0
 10
9.5486431714
 20
9.0938286628
 30
0.0
 10
9.5551146773
 20
9.0851056939
 30
0.0
 10
9.561576764
 20
9.0794244952
 30
0.0
 10
9.564982044
 20
9.0769481426
 30
0.0
  0
SPLINE
  5
307
100
AcDbEntity
  8
0
100
AcDbSpline
 62
7
  6
CONTINUOUS
 70
0
 71
3
 72
13
 73
9
 74
0
 42
0.0000001
 43
0.0000001
 44
0.0000000001
 40
0.0
 40
0.0
 40
0.0
 40
0.0
 40
0.1253004819
 40
0.2505307459
 40
0.3757116932
 40
0.5008114297
 40
0.7504989293
 40
1.0
 40
1.0
 40
1.0
 40
1.0
 10
10.1472646508
 20
9.1138412266
 30
0.0
 10
10.1469195562
 20
9.1119104154
 30
0.0
 10
10.1459749454
 20
9.1080908452
 30
0.0
 10
10.1438514689
 20
9.1025914103
 30
0.0
 10
10.1410909236
 20
9.0973864863
 30
0.0
 10
10.1366691969
 20
9.0909124852
 30
0.0
 10
10.1299357277
 20
9.0837412332
 30
0.0
 10
10.1236434197
 20
9.0790452019
 30
0.0
 10
10.1203485682
 20
9.0769481426
 30
0.0
  0
SPLINE
  5
308
100
AcDbEntity
  8
0
100
AcDbSpline
 62
7
  6
CONTINUOUS
 70
0
 71
3
 72
11
 73
7
 74
0
 42
0.0000001
 43
0.0000001
 44
0.0000000001
 40
0.0
 40
0.0
 40
0.0
 40
0.0
 40
0.2857873102
 40
0.4227057697
 40
0.5532868485
 40
1.0
 40
1.0
 40
1.0
 40
1.0
 10
9.5786974549
 20
9.1216695021
 30
0.0
 10
9.5786974549
 20
9.1261928763
 30
0.0
 10
9.5781898346
 20
9.1328983877
 30
0.0
 10
9.5765028783
 20
9.1415021192
 30
0.0
 10
9.5734606983
 20
9.1523819063
 30
0.0
 10
9.5693320452
 20
9.1608169007
 30
0.0
 10
9.564982044
 20
9.1663908617
 30
0.0
  0
SPLINE
  5
309
100
AcDbEntity
  8
0
100
AcDbSpline
 62
7
  6
CONTINUOUS
 70
0
 71
3
 72
13
 73
9
 74
0
 42
0.0000001
 43
0.0000001
 44
0.0000000001
 40
0.0
 40
0.0
 40
0.0
 40
0.0
 40
0.1319967257
 40
0.2630089713
 40
0.3921728913
 40
0.5189792168
 40
0.7643314864
 40
1.0
 40
1.0
 40
1.0
 40
1.0
 10
9.5885082772
 20
9.1216695021
 30
0.0
 10
9.5885082772
 20
9.119382834
 30
0.0
 10
9.588801953
 20
9.1148211268
 30
0.0
 10
9.5901011484
 20
9.1081351251
 30
0.0
 10
9.5921968143
 20
9.1017484615
 30
0.0
 10
9.5958868182
 20
9.0938670207
 30
0.0
 10
9.6019733451
 20
9.0851619382
 30
0.0
 10
9.6081129073
 20
9.0794378255
 30
0.0
 10
9.6113485623
 20
9.0769481426
 30
0.0
  0
SPLINE
  5
30A
100
AcDbEntity
  8
0
100
AcDbSpline
 62
7
  6
CONTINUOUS
 70
0
 71
3
 72
11
 73
7
 74
0
 42
0.0000001
 43
0.0000001
 44
0.0000000001
 40
0.0
 40
0.0
 40
0.0
 40
0.0
 40
0.2506948348
 40
0.5009622027
 40
0.7507543417
 40
1.0
 40
1.0
 40
1.0
 40
1.0
 10
10.1748337061
 20
9.1138412266
 30
0.0
 10
10.1744619011
 20
9.111731141
 30
0.0
 10
10.1734189475
 20
9.107561729
 30
0.0
 10
10.1710274614
 20
9.1015885075
 30
0.0
 10
10.1679021938
 20
9.0959806434
 30
0.0
 10
10.1653924073
 20
9.0925188875
 30
0.0
 10
10.1640496836
 20
9.0908651426
 30
0.0
  0
SPLINE
  5
30B
100
AcDbEntity
  8
0
100
AcDbSpline
 62
7
  6
CONTINUOUS
 70
0
 71
3
 72
9
 73
5
 74
0
 42
0.0000001
 43
0.0000001
 44
0.0000000001
 40
0.0
 40
0.0
 40
0.0
 40
0.0
 40
0.500748215
 40
1.0
 40
1.0
 40
1.0
 40
1.0
 10
10.1640496836
 20
9.0908651426
 30
0.0
 10
10.161831379
 20
9.0881330018
 30
0.0
 10
10.1568993905
 20
9.0830712031
 30
0.0
 10
10.1512459576
 20
9.0788512438
 30
0.0
 10
10.1482981178
 20
9.0769481426
 30
0.0
  0
SPLINE
  5
30C
100
AcDbEntity
  8
0
100
AcDbSpline
 62
7
  6
CONTINUOUS
 70
0
 71
3
 72
11
 73
7
 74
0
 42
0.0000001
 43
0.0000001
 44
0.0000000001
 40
0.0
 40
0.0
 40
0.0
 40
0.0
 40
0.2805154997
 40
0.5449250669
 40
0.7848712207
 40
1.0
 40
1.0
 40
1.0
 40
1.0
 10
9.627175134
 20
9.1216695021
 30
0.0
 10
9.627175134
 20
9.1261973079
 30
0.0
 10
9.6264014099
 20
9.1350137676
 30
0.0
 10
9.6230720927
 20
9.1473052482
 30
0.0
 10
9.6180438032
 20
9.157843249
 30
0.0
 10
9.6136722449
 20
9.1638105432
 30
0.0
 10
9.6113485623
 20
9.1663908617
 30
0.0
  0
SPLINE
  5
30D
100
AcDbEntity
  8
0
100
AcDbSpline
 62
7
  6
CONTINUOUS
 70
0
 71
3
 72
11
 73
7
 74
0
 42
0.0000001
 43
0.0000001
 44
0.0000000001
 40
0.0
 40
0.0
 40
0.0
 40
0.0
 40
0.2514498496
 40
0.5020316195
 40
0.751587905
 40
1.0
 40
1.0
 40
1.0
 40
1.0
 10
10.1986273019
 20
9.1138412266
 30
0.0
 10
10.1982640504
 20
9.1117324673
 30
0.0
 10
10.1972458926
 20
9.107567193
 30
0.0
 10
10.1949092576
 20
9.1015949339
 30
0.0
 10
10.1918550714
 20
9.0959871783
 30
0.0
 10
10.1893990068
 20
9.0925209093
 30
0.0
 10
10.1880847431
 20
9.0908651426
 30
0.0
  0
SPLINE
  5
30E
100
AcDbEntity
  8
0
100
AcDbSpline
 62
7
  6
CONTINUOUS
 70
0
 71
3
 72
9
 73
5
 74
0
 42
0.0000001
 43
0.0000001
 44
0.0000000001
 40
0.0
 40
0.0
 40
0.0
 40
0.0
 40
0.5016316119
 40
1.0
 40
1.0
 40
1.0
 40
1.0
 10
10.1880847431
 20
9.0908651426
 30
0.0
 10
10.185920307
 20
9.0881382915
 30
0.0
 10
10.1811085316
 20
9.0830835045
 30
0.0
 10
10.1755721166
 20
9.0788541578
 30
0.0
 10
10.1726858688
 20
9.0769481426
 30
0.0
  0
SPLINE
  5
30F
100
AcDbEntity
  8
0
100
AcDbSpline
 62
7
  6
CONTINUOUS
 70
0
 71
3
 72
11
 73
7
 74
0
 42
0.0000001
 43
0.0000001
 44
0.0000000001
 40
0.0
 40
0.0
 40
0.0
 40
0.0
 40
0.2666909021
 40
0.524310551
 40
0.7685973736
 40
1.0
 40
1.0
 40
1.0
 40
1.0
 10
9.6371471146
 20
9.1216695021
 30
0.0
 10
9.6371471146
 20
9.1171271978
 30
0.0
 10
9.6382209354
 20
9.1081601734
 30
0.0
 10
9.6428001245
 20
9.0957774486
 30
0.0
 10
9.6496661155
 20
9.0852306797
 30
0.0
 10
9.6554349644
 20
9.0794543981
 30
0.0
 10
9.6584767241
 20
9.0769481426
 30
0.0
  0
SPLINE
  5
310
100
AcDbEntity
  8
0
100
AcDbSpline
 62
7
  6
CONTINUOUS
 70
0
 71
3
 72
12
 73
8
 74
0
 42
0.0000001
 43
0.0000001
 44
0.0000000001
 40
0.0
 40
0.0
 40
0.0
 40
0.0
 40
0.2756018596
 40
0.5375111649
 40
0.6610328742
 40
0.7791516694
 40
1.0
 40
1.0
 40
1.0
 40
1.0
 10
9.6762870233
 20
9.1216695021
 30
0.0
 10
9.6762870233
 20
9.1262020444
 30
0.0
 10
9.6754085629
 20
9.1350667602
 30
0.0
 10
9.6722036325
 20
9.1455329472
 30
0.0
 10
9.6686071671
 20
9.1530070563
 30
0.0
 10
9.6646461897
 20
9.1595102259
 30
0.0
 10
9.6610620391
 20
9.1638397725
 30
0.0
 10
9.6584767241
 20
9.1663908617
 30
0.0
  0
SPLINE
  5
311
100
AcDbEntity
  8
0
100
AcDbSpline
 62
7
  6
CONTINUOUS
 70
0
 71
3
 72
11
 73
7
 74
0
 42
0.0000001
 43
0.0000001
 44
0.0000000001
 40
0.0
 40
0.0
 40
0.0
 40
0.0
 40
0.2524619378
 40
0.5034673219
 40
0.752708921
 40
1.0
 40
1.0
 40
1.0
 40
1.0
 10
10.2184538556
 20
9.1138412266
 30
0.0
 10
10.2181021411
 20
9.1117342189
 30
0.0
 10
10.2171173562
 20
9.1075744474
 30
0.0
 10
10.2148547662
 20
9.1016035505
 30
0.0
 10
10.211896617
 20
9.0959960388
 30
0.0
 10
10.2095133573
 20
9.0925236781
 30
0.0
 10
10.2082376477
 20
9.0908651426
 30
0.0
  0
SPLINE
  5
312
100
AcDbEntity
  8
0
100
AcDbSpline
 62
7
  6
CONTINUOUS
 70
0
 71
3
 72
9
 73
5
 74
0
 42
0.0000001
 43
0.0000001
 44
0.0000000001
 40
0.0
 40
0.0
 40
0.0
 40
0.0
 40
0.5028647276
 40
1.0
 40
1.0
 40
1.0
 40
1.0
 10
10.2082376477
 20
9.0908651426
 30
0.0
 10
10.2061458057
 20
9.0881455626
 30
0.0
 10
10.2014963024
 20
9.0831007125
 30
0.0
 10
10.19611841
 20
9.078858283
 30
0.0
 10
10.1933154544
 20
9.0769481426
 30
0.0
  0
SPLINE
  5
313
100
AcDbEntity
  8
0
100
AcDbSpline
 62
7
  6
CONTINUOUS
 70
0
 71
3
 72
9
 73
5
 74
0
 42
0.0000001
 43
0.0000001
 44
0.0000000001
 40
0.0
 40
0.0
 40
0.0
 40
0.0
 40
0.505160993
 40
1.0
 40
1.0
 40
1.0
 40
1.0
 10
10.2341537601
 20
9.1138414365
 30
0.0
 10
10.2334833553
 20
9.1096578222
 30
0.0
 10
10.231078478
 20
9.101516203
 30
0.0
 10
10.2268112144
 20
9.0942034181
 30
0.0
 10
10.2243457564
 20
9.0908646381
 30
0.0
  0
SPLINE
  5
314
100
AcDbEntity
  8
0
100
AcDbSpline
 62
7
  6
CONTINUOUS
 70
0
 71
3
 72
9
 73
5
 74
0
 42
0.0000001
 43
0.0000001
 44
0.0000000001
 40
0.0
 40
0.0
 40
0.0
 40
0.0
 40
0.5044729118
 40
1.0
 40
1.0
 40
1.0
 40
1.0
 10
10.2243457564
 20
9.0908646381
 30
0.0
 10
10.2223444752
 20
9.0881544569
 30
0.0
 10
10.2178978581
 20
9.0831230116
 30
0.0
 10
10.212719257
 20
9.0788637072
 30
0.0
 10
10.210020768
 20
9.0769481426
 30
0.0
  0
SPLINE
  5
315
100
AcDbEntity
  8
0
100
AcDbSpline
 62
7
  6
CONTINUOUS
 70
0
 71
3
 72
12
 73
8
 74
0
 42
0.0000001
 43
0.0000001
 44
0.0000000001
 40
0.0
 40
0.0
 40
0.0
 40
0.0
 40
0.2709330002
 40
0.5305420241
 40
0.6542955149
 40
0.7736503659
 40
1.0
 40
1.0
 40
1.0
 40
1.0
 10
9.686339869
 20
9.1216695021
 30
0.0
 10
9.686339869
 20
9.126205907
 30
0.0
 10
9.6873179764
 20
9.1351193158
 30
0.0
 10
9.6908656395
 20
9.1455769441
 30
0.0
 10
9.6948212563
 20
9.1530234172
 30
0.0
 10
9.6992149709
 20
9.1595530437
 30
0.0
 10
9.7031523209
 20
9.1638623702
 30
0.0
 10
9.7059754971
 20
9.1663908375
 30
0.0
  0
SPLINE
  5
316
100
AcDbEntity
  8
0
100
AcDbSpline
 62
7
  6
CONTINUOUS
 70
0
 71
3
 72
12
 73
8
 74
0
 42
0.0000001
 43
0.0000001
 44
0.0000000001
 40
0.0
 40
0.0
 40
0.0
 40
0.0
 40
0.2709798465
 40
0.5306256537
 40
0.7734589166
 40
0.8886511633
 40
1.0
 40
1.0
 40
1.0
 40
1.0
 10
9.7256376806
 20
9.1216695021
 30
0.0
 10
9.7256376806
 20
9.1171309619
 30
0.0
 10
9.7246573501
 20
9.1082112272
 30
0.0
 10
9.7204644648
 20
9.0958555521
 30
0.0
 10
9.7151163851
 20
9.0869034341
 30
0.0
 10
9.7100764346
 20
9.0808564549
 30
0.0
 10
9.7073656354
 20
9.0781913551
 30
0.0
 10
9.7059754971
 20
9.0769481668
 30
0.0
  0
SPLINE
  5
317
100
AcDbEntity
  8
0
100
AcDbSpline
 62
7
  6
CONTINUOUS
 70
0
 71
3
 72
9
 73
5
 74
0
 42
0.0000001
 43
0.0000001
 44
0.0000000001
 40
0.0
 40
0.0
 40
0.0
 40
0.0
 40
0.5072720828
 40
1.0
 40
1.0
 40
1.0
 40
1.0
 10
10.2456005013
 20
9.1138412266
 30
0.0
 10
10.2449651067
 20
9.1096687646
 30
0.0
 10
10.2426980667
 20
9.1015674867
 30
0.0
 10
10.2386352609
 20
9.0942209403
 30
0.0
 10
10.2362804837
 20
9.0908651426
 30
0.0
  0
SPLINE
  5
318
100
AcDbEntity
  8
0
100
AcDbSpline
 62
7
  6
CONTINUOUS
 70
0
 71
3
 72
9
 73
5
 74
0
 42
0.0000001
 43
0.0000001
 44
0.0000000001
 40
0.0
 40
0.0
 40
0.0
 40
0.0
 40
0.5064871449
 40
1.0
 40
1.0
 40
1.0
 40
1.0
 10
10.2362804837
 20
9.0908651426
 30
0.0
 10
10.2343866193
 20
9.0881661928
 30
0.0
 10
10.2301811829
 20
9.0831514792
 30
0.0
 10
10.2252411336
 20
9.0788708021
 30
0.0
 10
10.2226673008
 20
9.0769481426
 30
0.0
  0
SPLINE
  5
319
100
AcDbEntity
  8
0
100
AcDbSpline
 62
7
  6
CONTINUOUS
 70
0
 71
3
 72
11
 73
7
 74
0
 42
0.0000001
 43
0.0000001
 44
0.0000000001
 40
0.0
 40
0.0
 40
0.0
 40
0.0
 40
0.2710517854
 40
0.530769914
 40
0.7736684195
 40
1.0
 40
1.0
 40
1.0
 40
1.0
 10
9.7256376806
 20
9.1216695021
 30
0.0
 10
9.7256376806
 20
9.1262079948
 30
0.0
 10
9.7246579492
 20
9.1351271348
 30
0.0
 10
9.720462661
 20
9.1474851286
 30
0.0
 10
9.7141610925
 20
9.1580392479
 30
0.0
 10
9.7088018187
 20
9.1638662164
 30
0.0
 10
9.7059754971
 20
9.1663908375
 30
0.0
  0
SPLINE
  5
31A
100
AcDbEntity
  8
0
100
AcDbSpline
 62
7
  6
CONTINUOUS
 70
0
 71
3
 72
9
 73
5
 74
0
 42
0.0000001
 43
0.0000001
 44
0.0000000001
 40
0.0
 40
0.0
 40
0.0
 40
0.0
 40
0.5096541576
 40
1.0
 40
1.0
 40
1.0
 40
1.0
 10
10.2527020124
 20
9.1138412266
 30
0.0
 10
10.2521067063
 20
9.1096808659
 30
0.0
 10
10.2499955947
 20
9.1016248467
 30
0.0
 10
10.2461704145
 20
9.0942409154
 30
0.0
 10
10.2439446181
 20
9.0908651426
 30
0.0
  0
SPLINE
  5
31B
100
AcDbEntity
  8
0
100
AcDbSpline
 62
7
  6
CONTINUOUS
 70
0
 71
3
 72
9
 73
5
 74
0
 42
0.0000001
 43
0.0000001
 44
0.0000000001
 40
0.0
 40
0.0
 40
0.0
 40
0.0
 40
0.5089396654
 40
1.0
 40
1.0
 40
1.0
 40
1.0
 10
10.2439446181
 20
9.0908651426
 30
0.0
 10
10.2421739023
 20
9.0881795717
 30
0.0
 10
10.2382457192
 20
9.0831860015
 30
0.0
 10
10.2335827916
 20
9.0788796337
 30
0.0
 10
10.2311532248
 20
9.0769481426
 30
0.0
  0
SPLINE
  5
31C
100
AcDbEntity
  8
0
100
AcDbSpline
 62
7
  6
CONTINUOUS
 70
0
 71
3
 72
12
 73
8
 74
0
 42
0.0000001
 43
0.0000001
 44
0.0000000001
 40
0.0
 40
0.0
 40
0.0
 40
0.0
 40
0.2756111433
 40
0.5375250611
 40
0.6610463221
 40
0.7791626428
 40
1.0
 40
1.0
 40
1.0
 40
1.0
 10
9.7356904476
 20
9.1216695021
 30
0.0
 10
9.7356904476
 20
9.1171369693
 30
0.0
 10
9.7365687073
 20
9.1082723515
 30
0.0
 10
9.7397729427
 20
9.0978061547
 30
0.0
 10
9.7433686734
 20
9.0903319933
 30
0.0
 10
9.7473287791
 20
9.0838288827
 30
0.0
 10
9.7509121959
 20
9.0794992839
 30
0.0
 10
9.7534970234
 20
9.0769481426
 30
0.0
  0
SPLINE
  5
31D
100
AcDbEntity
  8
0
100
AcDbSpline
 62
7
  6
CONTINUOUS
 70
0
 71
3
 72
11
 73
7
 74
0
 42
0.0000001
 43
0.0000001
 44
0.0000000001
 40
0.0
 40
0.0
 40
0.0
 40
0.0
 40
0.2666828067
 40
0.5242986083
 40
0.7685880866
 40
1.0
 40
1.0
 40
1.0
 40
1.0
 10
9.7748297415
 20
9.1216695021
 30
0.0
 10
9.7748297415
 20
9.1262118159
 30
0.0
 10
9.7737557431
 20
9.1351789363
 30
0.0
 10
9.769175833
 20
9.1475617075
 30
0.0
 10
9.762308801
 20
9.1581084655
 30
0.0
 10
9.756539183
 20
9.1638846418
 30
0.0
 10
9.7534970234
 20
9.1663908617
 30
0.0
  0
SPLINE
  5
31E
100
AcDbEntity
  8
0
100
AcDbSpline
 62
7
  6
CONTINUOUS
 70
0
 71
3
 72
11
 73
7
 74
0
 42
0.0000001
 43
0.0000001
 44
0.0000000001
 40
0.0
 40
0.0
 40
0.0
 40
0.0
 40
0.2805249739
 40
0.5449393431
 40
0.7848826662
 40
1.0
 40
1.0
 40
1.0
 40
1.0
 10
9.7848014862
 20
9.1216695021
 30
0.0
 10
9.7848014862
 20
9.1171417054
 30
0.0
 10
9.7855750008
 20
9.10832534
 30
0.0
 10
9.7889034332
 20
9.096033929
 30
0.0
 10
9.7939304001
 20
9.0854959543
 30
0.0
 10
9.7983009183
 20
9.0795285226
 30
0.0
 10
9.800624071
 20
9.0769481426
 30
0.0
  0
SPLINE
  5
31F
100
AcDbEntity
  8
0
100
AcDbSpline
 62
7
  6
CONTINUOUS
 70
0
 71
3
 72
13
 73
9
 74
0
 42
0.0000001
 43
0.0000001
 44
0.0000000001
 40
0.0
 40
0.0
 40
0.0
 40
0.0
 40
0.1319928632
 40
0.2630017858
 40
0.3921633768
 40
0.5189686824
 40
0.7643233363
 40
1.0
 40
1.0
 40
1.0
 40
1.0
 10
9.8234671184
 20
9.1216695021
 30
0.0
 10
9.8234671184
 20
9.1239561714
 30
0.0
 10
9.8231734052
 20
9.128517891
 30
0.0
 10
9.8218740481
 20
9.1352039034
 30
0.0
 10
9.8197781227
 20
9.1415905739
 30
0.0
 10
9.8160876435
 20
9.1494720633
 30
0.0
 10
9.8100003166
 20
9.1581771859
 30
0.0
 10
9.8038600796
 20
9.1639012077
 30
0.0
 10
9.800624071
 20
9.1663908617
 30
0.0
  0
SPLINE
  5
320
100
AcDbEntity
  8
0
100
AcDbSpline
 62
7
  6
CONTINUOUS
 70
0
 71
3
 72
11
 73
7
 74
0
 42
0.0000001
 43
0.0000001
 44
0.0000000001
 40
0.0
 40
0.0
 40
0.0
 40
0.0
 40
0.2857965052
 40
0.4227180487
 40
0.5533006287
 40
1.0
 40
1.0
 40
1.0
 40
1.0
 10
9.8332775497
 20
9.1216695021
 30
0.0
 10
9.8332775497
 20
9.1171461363
 30
0.0
 10
9.8337850067
 20
9.1104406673
 30
0.0
 10
9.8354714423
 20
9.1018369188
 30
0.0
 10
9.8385126123
 20
9.0909574042
 30
0.0
 10
9.8426398546
 20
9.082522391
 30
0.0
 10
9.8469887422
 20
9.0769481426
 30
0.0
  0
SPLINE
  5
321
100
AcDbEntity
  8
0
100
AcDbSpline
 62
7
  6
CONTINUOUS
 70
0
 71
3
 72
13
 73
9
 74
0
 42
0.0000001
 43
0.0000001
 44
0.0000000001
 40
0.0
 40
0.0
 40
0.0
 40
0.0
 40
0.1301338015
 40
0.2595456625
 40
0.3875924351
 40
0.5139150688
 40
0.7604275063
 40
1.0
 40
1.0
 40
1.0
 40
1.0
 10
9.8711581901
 20
9.1216695021
 30
0.0
 10
9.8711581901
 20
9.1239567342
 30
0.0
 10
9.8708467148
 20
9.128524566
 30
0.0
 10
9.8694694781
 20
9.1352157984
 30
0.0
 10
9.8672487267
 20
9.1416057189
 30
0.0
 10
9.8633291949
 20
9.1495104107
 30
0.0
 10
9.8568569934
 20
9.1582334095
 30
0.0
 10
9.8503943277
 20
9.1639145322
 30
0.0
 10
9.8469887422
 20
9.1663908617
 30
0.0
  0
SPLINE
  5
322
100
AcDbEntity
  8
0
100
AcDbSpline
 62
7
  6
CONTINUOUS
 70
0
 71
3
 72
11
 73
7
 74
0
 42
0.0000001
 43
0.0000001
 44
0.0000000001
 40
0.0
 40
0.0
 40
0.0
 40
0.0
 40
0.2900516694
 40
0.559397701
 40
0.7966061931
 40
1.0
 40
1.0
 40
1.0
 40
1.0
 10
9.8807283158
 20
9.1216695021
 30
0.0
 10
9.8807283158
 20
9.1171501184
 30
0.0
 10
9.8812804604
 20
9.1084229791
 30
0.0
 10
9.8836639351
 20
9.0962049517
 30
0.0
 10
9.8872683485
 20
9.08570842
 30
0.0
 10
9.8904835773
 20
9.07960073
 30
0.0
 10
9.8922177154
 20
9.0769481426
 30
0.0
  0
SPLINE
  5
323
100
AcDbEntity
  8
0
100
AcDbSpline
 62
7
  6
CONTINUOUS
 70
0
 71
3
 72
13
 73
9
 74
0
 42
0.0000001
 43
0.0000001
 44
0.0000000001
 40
0.0
 40
0.0
 40
0.0
 40
0.0
 40
0.12854406
 40
0.2565944781
 40
0.3836979029
 40
0.5096210304
 40
0.7571386579
 40
1.0
 40
1.0
 40
1.0
 40
1.0
 10
9.9175189547
 20
9.1216695021
 30
0.0
 10
9.9175189547
 20
9.1239572395
 30
0.0
 10
9.9171922286
 20
9.1285305475
 30
0.0
 10
9.9157482431
 20
9.1352263391
 30
0.0
 10
9.9134207018
 20
9.1416189197
 30
0.0
 10
9.9093044897
 20
9.1495431117
 30
0.0
 10
9.9025030283
 20
9.1582792499
 30
0.0
 10
9.8957676266
 20
9.1639250548
 30
0.0
 10
9.8922177154
 20
9.1663908617
 30
0.0
  0
SPLINE
  5
324
100
AcDbEntity
  8
0
100
AcDbSpline
 62
7
  6
CONTINUOUS
 70
0
 71
3
 72
11
 73
7
 74
0
 42
0.0000001
 43
0.0000001
 44
0.0000000001
 40
0.0
 40
0.0
 40
0.0
 40
0.0
 40
0.2943154905
 40
0.5659347368
 40
0.8019967748
 40
1.0
 40
1.0
 40
1.0
 40
1.0
 10
9.9267717175
 20
9.1216695021
 30
0.0
 10
9.9267717175
 20
9.1171535226
 30
0.0
 10
9.9272096164
 20
9.1084628418
 30
0.0
 10
9.9291012751
 20
9.096279407
 30
0.0
 10
9.9319609134
 20
9.0858113471
 30
0.0
 10
9.9345407655
 20
9.0796413686
 30
0.0
 10
9.9359468132
 20
9.0769481426
 30
0.0
  0
SPLINE
  5
325
100
AcDbEntity
  8
0
100
AcDbSpline
 62
7
  6
CONTINUOUS
 70
0
 71
3
 72
13
 73
9
 74
0
 42
0.0000001
 43
0.0000001
 44
0.0000000001
 40
0.0
 40
0.0
 40
0.0
 40
0.0
 40
0.1272409839
 40
0.2541784504
 40
0.3805155687
 40
0.5061202897
 40
0.7544716718
 40
1.0
 40
1.0
 40
1.0
 40
1.0
 10
9.9621761219
 20
9.1216695021
 30
0.0
 10
9.9621761219
 20
9.1239576709
 30
0.0
 10
9.9618368219
 20
9.1285356474
 30
0.0
 10
9.9603378947
 20
9.1352352387
 30
0.0
 10
9.9579226011
 20
9.1416299087
 30
0.0
 10
9.9536443092
 20
9.1495698291
 30
0.0
 10
9.9465724419
 20
9.158315339
 30
0.0
 10
9.9396148756
 20
9.163933137
 30
0.0
 10
9.9359468132
 20
9.1663908617
 30
0.0
  0
SPLINE
  5
326
100
AcDbEntity
  8
0
100
AcDbSpline
 62
7
  6
CONTINUOUS
 70
0
 71
3
 72
11
 73
7
 74
0
 42
0.0000001
 43
0.0000001
 44
0.0000000001
 40
0.0
 40
0.0
 40
0.0
 40
0.0
 40
0.2979165316
 40
0.5714872458
 40
0.8066216733
 40
1.0
 40
1.0
 40
1.0
 40
1.0
 10
9.9710370198
 20
9.1216695021
 30
0.0
 10
9.9710370198
 20
9.1171562378
 30
0.0
 10
9.9713591879
 20
9.1084947568
 30
0.0
 10
9.972751191
 20
9.0963411817
 30
0.0
 10
9.9748541867
 20
9.0859017687
 30
0.0
 10
9.9767685581
 20
9.0796810098
 30
0.0
 10
9.9778239351
 20
9.0769481426
 30
0.0
  0
SPLINE
  5
327
100
AcDbEntity
  8
0
100
AcDbSpline
 62
7
  6
CONTINUOUS
 70
0
 71
3
 72
13
 73
9
 74
0
 42
0.0000001
 43
0.0000001
 44
0.0000000001
 40
0.0
 40
0.0
 40
0.0
 40
0.0
 40
0.1262360667
 40
0.2523171155
 40
0.3780675762
 40
0.5034322977
 40
0.7524324199
 40
1.0
 40
1.0
 40
1.0
 40
1.0
 10
10.0047701184
 20
9.1216695021
 30
0.0
 10
10.0047701184
 20
9.1239580148
 30
0.0
 10
10.0044210621
 20
9.1285397066
 30
0.0
 10
10.0028795659
 20
9.135242265
 30
0.0
 10
10.0003963795
 20
9.1416384852
 30
0.0
 10
9.995992421
 20
9.1495903679
 30
0.0
 10
9.9887115072
 20
9.1583422836
 30
0.0
 10
9.9815831662
 20
9.1639390611
 30
0.0
 10
9.9778239351
 20
9.1663908617
 30
0.0
  0
SPLINE
  5
328
100
AcDbEntity
  8
0
100
AcDbSpline
 62
7
  6
CONTINUOUS
 70
0
 71
3
 72
11
 73
7
 74
0
 42
0.0000001
 43
0.0000001
 44
0.0000000001
 40
0.0
 40
0.0
 40
0.0
 40
0.0
 40
0.3006069041
 40
0.5756544124
 40
0.810121365
 40
1.0
 40
1.0
 40
1.0
 40
1.0
 10
10.0131678056
 20
9.1216695021
 30
0.0
 10
10.0131678056
 20
9.1171581755
 30
0.0
 10
10.0133732364
 20
9.1085175736
 30
0.0
 10
10.0142607228
 20
9.0963866783
 30
0.0
 10
10.0156007662
 20
9.0859711899
 30
0.0
 10
10.0168281086
 20
9.07971447
 30
0.0
 10
10.0175118924
 20
9.0769481426
 30
0.0
  0
SPLINE
  5
329
100
AcDbEntity
  8
0
100
AcDbSpline
 62
7
  6
CONTINUOUS
 70
0
 71
3
 72
13
 73
9
 74
0
 42
0.0000001
 43
0.0000001
 44
0.0000000001
 40
0.0
 40
0.0
 40
0.0
 40
0.0
 40
0.1255366066
 40
0.2510225395
 40
0.3763669064
 40
0.5015674299
 40
0.7510219397
 40
1.0
 40
1.0
 40
1.0
 40
1.0
 10
10.0449579843
 20
9.1216695021
 30
0.0
 10
10.0449579843
 20
9.12395826
 30
0.0
 10
10.0446021004
 20
9.1285425985
 30
0.0
 10
10.0430308513
 20
9.1352472403
 30
0.0
 10
10.0405002654
 20
9.1416445063
 30
0.0
 10
10.0360084418
 20
9.1496046256
 30
0.0
 10
10.028581689
 20
9.1583605929
 30
0.0
 10
10.0213346591
 20
9.163943035
 30
0.0
 10
10.0175118924
 20
9.1663908617
 30
0.0
  0
SPLINE
  5
32A
100
AcDbEntity
  8
0
100
AcDbSpline
 62
7
  6
CONTINUOUS
 70
0
 71
3
 72
11
 73
7
 74
0
 42
0.0000001
 43
0.0000001
 44
0.0000000001
 40
0.0
 40
0.0
 40
0.0
 40
0.0
 40
0.3021780163
 40
0.5780954008
 40
0.8121830531
 40
1.0
 40
1.0
 40
1.0
 40
1.0
 10
10.0528248414
 20
9.1216695021
 30
0.0
 10
10.0528248414
 20
9.1171592726
 30
0.0
 10
10.0529129143
 20
9.1085304935
 30
0.0
 10
10.0532933076
 20
9.0964130028
 30
0.0
 10
10.0538674956
 20
9.0860123706
 30
0.0
 10
10.0543950975
 20
9.0797357751
 30
0.0
 10
10.0546911232
 20
9.0769481426
 30
0.0
  0
SPLINE
  5
32B
100
AcDbEntity
  8
0
100
AcDbSpline
 62
7
  6
CONTINUOUS
 70
0
 71
3
 72
13
 73
9
 74
0
 42
0.0000001
 43
0.0000001
 44
0.0000000001
 40
0.0
 40
0.0
 40
0.0
 40
0.0
 40
0.125146944
 40
0.2503016912
 40
0.3754206106
 40
0.5005306618
 40
0.7502393077
 40
1.0
 40
1.0
 40
1.0
 40
1.0
 10
10.0824161301
 20
9.1216695021
 30
0.0
 10
10.0824161301
 20
9.1239583988
 30
0.0
 10
10.0820564297
 20
9.1285442343
 30
0.0
 10
10.080468556
 20
9.1352500431
 30
0.0
 10
10.077911505
 20
9.1416478788
 30
0.0
 10
10.0733705781
 20
9.1496125538
 30
0.0
 10
10.0658624415
 20
9.1583706371
 30
0.0
 10
10.0585493262
 20
9.1639451978
 30
0.0
 10
10.0546911232
 20
9.1663908617
 30
0.0
  0
SPLINE
  5
32C
100
AcDbEntity
  8
0
100
AcDbSpline
 62
7
  6
CONTINUOUS
 70
0
 71
3
 72
13
 73
9
 74
0
 42
0.0000001
 43
0.0000001
 44
0.0000000001
 40
0.0
 40
0.0
 40
0.0
 40
0.0
 40
0.1250692124
 40
0.2501579243
 40
0.3752319411
 40
0.5003240322
 40
0.7500834556
 40
1.0
 40
1.0
 40
1.0
 40
1.0
 10
10.1168429505
 20
9.1216695021
 30
0.0
 10
10.1168429505
 20
9.1239584267
 30
0.0
 10
10.1164824873
 20
9.1285445627
 30
0.0
 10
10.1148912929
 20
9.1352506047
 30
0.0
 10
10.1123289573
 20
9.1416485531
 30
0.0
 10
10.1077782215
 20
9.149614134
 30
0.0
 10
10.1002538378
 20
9.1583726276
 30
0.0
 10
10.0929275415
 20
9.1639456249
 30
0.0
 10
10.0890622657
 20
9.1663908617
 30
0.0
  0
SPLINE
  5
32D
100
AcDbEntity
  8
0
100
AcDbSpline
 62
7
  6
CONTINUOUS
 70
0
 71
3
 72
13
 73
9
 74
0
 42
0.0000001
 43
0.0000001
 44
0.0000000001
 40
0.0
 40
0.0
 40
0.0
 40
0.0
 40
0.125298938
 40
0.2505288385
 40
0.3757100897
 40
0.5008099962
 40
0.7504977557
 40
1.0
 40
1.0
 40
1.0
 40
1.0
 10
10.1472698908
 20
9.1294684166
 30
0.0
 10
10.1469258607
 20
9.1314006543
 30
0.0
 10
10.1459830055
 20
9.1352232145
 30
0.0
 10
10.1438609515
 20
9.1407271976
 30
0.0
 10
10.141100757
 20
9.1459365563
 30
0.0
 10
10.1366781982
 20
9.1524160423
 30
0.0
 10
10.1299416497
 20
9.1595931213
 30
0.0
 10
10.1236455209
 20
9.164292465
 30
0.0
 10
10.1203485682
 20
9.1663908617
 30
0.0
  0
SPLINE
  5
32E
100
AcDbEntity
  8
0
100
AcDbSpline
 62
7
  6
CONTINUOUS
 70
0
 71
3
 72
11
 73
7
 74
0
 42
0.0000001
 43
0.0000001
 44
0.0000000001
 40
0.0
 40
0.0
 40
0.0
 40
0.0
 40
0.2506910351
 40
0.5009582602
 40
0.7507522268
 40
1.0
 40
1.0
 40
1.0
 40
1.0
 10
10.174838872
 20
9.1294684166
 30
0.0
 10
10.1744688802
 20
9.131576265
 30
0.0
 10
10.1734301903
 20
9.1357415365
 30
0.0
 10
10.171046536
 20
9.1417098038
 30
0.0
 10
10.1679301479
 20
9.1473141029
 30
0.0
 10
10.1654267164
 20
9.1507743687
 30
0.0
 10
10.1640872264
 20
9.1524275785
 30
0.0
  0
SPLINE
  5
32F
100
AcDbEntity
  8
0
100
AcDbSpline
 62
7
  6
CONTINUOUS
 70
0
 71
3
 72
9
 73
5
 74
0
 42
0.0000001
 43
0.0000001
 44
0.0000000001
 40
0.0
 40
0.0
 40
0.0
 40
0.0
 40
0.500749367
 40
1.0
 40
1.0
 40
1.0
 40
1.0
 10
10.1640872264
 20
9.1524275785
 30
0.0
 10
10.1618654675
 20
9.1551696918
 30
0.0
 10
10.1569229357
 20
9.1602493901
 30
0.0
 10
10.1512542542
 20
9.1644824043
 30
0.0
 10
10.1482981178
 20
9.1663908617
 30
0.0
  0
SPLINE
  5
330
100
AcDbEntity
  8
0
100
AcDbSpline
 62
7
  6
CONTINUOUS
 70
0
 71
3
 72
12
 73
8
 74
0
 42
0.0000001
 43
0.0000001
 44
0.0000000001
 40
0.0
 40
0.0
 40
0.0
 40
0.0
 40
0.2756047635
 40
0.5375137778
 40
0.6610353615
 40
0.7791534289
 40
1.0
 40
1.0
 40
1.0
 40
1.0
 10
9.6762870233
 20
9.1216695021
 30
0.0
 10
9.6762870233
 20
9.1171369122
 30
0.0
 10
9.6754085401
 20
9.1082721545
 30
0.0
 10
9.6722035895
 20
9.0978059309
 30
0.0
 10
9.6686071097
 20
9.0903318497
 30
0.0
 10
9.664646148
 20
9.0838287213
 30
0.0
 10
9.6610620185
 20
9.0794992114
 30
0.0
 10
9.6584767241
 20
9.0769481426
 30
0.0
  0
SPLINE
  5
331
100
AcDbEntity
  8
0
100
AcDbSpline
 62
7
  6
CONTINUOUS
 70
0
 71
3
 72
11
 73
7
 74
0
 42
0.0000001
 43
0.0000001
 44
0.0000000001
 40
0.0
 40
0.0
 40
0.0
 40
0.0
 40
0.26669373
 40
0.5243131418
 40
0.7685991826
 40
1.0
 40
1.0
 40
1.0
 40
1.0
 10
9.6371471146
 20
9.1216695021
 30
0.0
 10
9.6371471146
 20
9.1262118546
 30
0.0
 10
9.638220962
 20
9.1351789223
 30
0.0
 10
9.6428001782
 20
9.1475616688
 30
0.0
 10
9.6496661674
 20
9.1581083813
 30
0.0
 10
9.6554349882
 20
9.1638846258
 30
0.0
 10
9.6584767241
 20
9.1663908617
 30
0.0
  0
SPLINE
  5
332
100
AcDbEntity
  8
0
100
AcDbSpline
 62
7
  6
CONTINUOUS
 70
0
 71
3
 72
11
 73
7
 74
0
 42
0.0000001
 43
0.0000001
 44
0.0000000001
 40
0.0
 40
0.0
 40
0.0
 40
0.0
 40
0.2805184445
 40
0.5449276885
 40
0.784872957
 40
1.0
 40
1.0
 40
1.0
 40
1.0
 10
9.627175134
 20
9.1216695021
 30
0.0
 10
9.627175134
 20
9.1171416489
 30
0.0
 10
9.6264013908
 20
9.1083251473
 30
0.0
 10
9.6230720535
 20
9.0960336435
 30
0.0
 10
9.6180437636
 20
9.0854956955
 30
0.0
 10
9.6136722261
 20
9.0795284403
 30
0.0
 10
9.6113485623
 20
9.0769481426
 30
0.0
  0
SPLINE
  5
333
100
AcDbEntity
  8
0
100
AcDbSpline
 62
7
  6
CONTINUOUS
 70
0
 71
3
 72
13
 73
9
 74
0
 42
0.0000001
 43
0.0000001
 44
0.0000000001
 40
0.0
 40
0.0
 40
0.0
 40
0.0
 40
0.1319977301
 40
0.2630117696
 40
0.3921757857
 40
0.518981807
 40
0.7643333192
 40
1.0
 40
1.0
 40
1.0
 40
1.0
 10
9.5885082772
 20
9.1216695021
 30
0.0
 10
9.5885082772
 20
9.1239561876
 30
0.0
 10
9.588801964
 20
9.1285179433
 30
0.0
 10
9.5901011834
 20
9.1352039913
 30
0.0
 10
9.592196863
 20
9.1415906795
 30
0.0
 10
9.5958868853
 20
9.1494720936
 30
0.0
 10
9.6019733988
 20
9.1581771224
 30
0.0
 10
9.6081129325
 20
9.1639011981
 30
0.0
 10
9.6113485623
 20
9.1663908617
 30
0.0
  0
SPLINE
  5
334
100
AcDbEntity
  8
0
100
AcDbSpline
 62
7
  6
CONTINUOUS
 70
0
 71
3
 72
11
 73
7
 74
0
 42
0.0000001
 43
0.0000001
 44
0.0000000001
 40
0.0
 40
0.0
 40
0.0
 40
0.0
 40
0.2857902934
 40
0.4227088081
 40
0.5532894738
 40
1.0
 40
1.0
 40
1.0
 40
1.0
 10
9.5786974549
 20
9.1216695021
 30
0.0
 10
9.5786974549
 20
9.1171460807
 30
0.0
 10
9.5781898178
 20
9.1104405215
 30
0.0
 10
9.5765028495
 20
9.1018367499
 30
0.0
 10
9.5734606587
 20
9.090957014
 30
0.0
 10
9.5693320197
 20
9.0825220709
 30
0.0
 10
9.564982044
 20
9.0769481426
 30
0.0
  0
SPLINE
  5
335
100
AcDbEntity
  8
0
100
AcDbSpline
 62
7
  6
CONTINUOUS
 70
0
 71
3
 72
13
 73
9
 74
0
 42
0.0000001
 43
0.0000001
 44
0.0000000001
 40
0.0
 40
0.0
 40
0.0
 40
0.0
 40
0.1301381535
 40
0.2595546738
 40
0.3876035528
 40
0.5139267558
 40
0.7604363506
 40
1.0
 40
1.0
 40
1.0
 40
1.0
 10
9.5408149901
 20
9.1216695021
 30
0.0
 10
9.5408149901
 20
9.1239567506
 30
0.0
 10
9.5411264443
 20
9.1285246198
 30
0.0
 10
9.5425035655
 20
9.1352158888
 30
0.0
 10
9.5447241061
 20
9.1416058283
 30
0.0
 10
9.5486432424
 20
9.1495104513
 30
0.0
 10
9.5551147337
 20
9.158233366
 30
0.0
 10
9.5615767903
 20
9.1639145283
 30
0.0
 10
9.564982044
 20
9.1663908617
 30
0.0
  0
SPLINE
  5
336
100
AcDbEntity
  8
0
100
AcDbSpline
 62
7
  6
CONTINUOUS
 70
0
 71
3
 72
11
 73
7
 74
0
 42
0.0000001
 43
0.0000001
 44
0.0000000001
 40
0.0
 40
0.0
 40
0.0
 40
0.0
 40
0.2900459276
 40
0.5593869444
 40
0.796596886
 40
1.0
 40
1.0
 40
1.0
 40
1.0
 10
9.5312443213
 20
9.1216695021
 30
0.0
 10
9.5312443213
 20
9.117150064
 30
0.0
 10
9.5306919424
 20
9.1084228066
 30
0.0
 10
9.528307507
 20
9.0962046851
 30
0.0
 10
9.5247016606
 20
9.0857081513
 30
0.0
 10
9.5214852453
 20
9.0796006306
 30
0.0
 10
9.5197505057
 20
9.0769481426
 30
0.0
  0
SPLINE
  5
337
100
AcDbEntity
  8
0
100
AcDbSpline
 62
7
  6
CONTINUOUS
 70
0
 71
3
 72
13
 73
9
 74
0
 42
0.0000001
 43
0.0000001
 44
0.0000000001
 40
0.0
 40
0.0
 40
0.0
 40
0.0
 40
0.1285478584
 40
0.2566024496
 40
0.3837076464
 40
0.5096311975
 40
0.7571463197
 40
1.0
 40
1.0
 40
1.0
 40
1.0
 10
9.4944512727
 20
9.1216695021
 30
0.0
 10
9.4944512727
 20
9.123957256
 30
0.0
 10
9.4947779833
 20
9.1285306029
 30
0.0
 10
9.4962218769
 20
9.1352264324
 30
0.0
 10
9.4985492442
 20
9.1416190333
 30
0.0
 10
9.5026651268
 20
9.1495431634
 30
0.0
 10
9.5094659885
 20
9.1582792254
 30
0.0
 10
9.5162008773
 20
9.1639250558
 30
0.0
 10
9.5197505057
 20
9.1663908617
 30
0.0
  0
SPLINE
  5
338
100
AcDbEntity
  8
0
100
AcDbSpline
 62
7
  6
CONTINUOUS
 70
0
 71
3
 72
11
 73
7
 74
0
 42
0.0000001
 43
0.0000001
 44
0.0000000001
 40
0.0
 40
0.0
 40
0.0
 40
0.0
 40
0.2943108261
 40
0.5659255077
 40
0.8019885835
 40
1.0
 40
1.0
 40
1.0
 40
1.0
 10
9.4851978192
 20
9.1216695021
 30
0.0
 10
9.4851978192
 20
9.1171534695
 30
0.0
 10
9.4847596854
 20
9.1084626839
 30
0.0
 10
9.4828670505
 20
9.0962791616
 30
0.0
 10
9.4800059491
 20
9.0858110935
 30
0.0
 10
9.4774248414
 20
9.0796412665
 30
0.0
 10
9.4760181456
 20
9.0769481426
 30
0.0
  0
SPLINE
  5
339
100
AcDbEntity
  8
0
100
AcDbSpline
 62
7
  6
CONTINUOUS
 70
0
 71
3
 72
13
 73
9
 74
0
 42
0.0000001
 43
0.0000001
 44
0.0000000001
 40
0.0
 40
0.0
 40
0.0
 40
0.0
 40
0.1272442031
 40
0.2541853394
 40
0.3805238869
 40
0.5061288881
 40
0.7544781296
 40
1.0
 40
1.0
 40
1.0
 40
1.0
 10
9.4497904392
 20
9.1216695021
 30
0.0
 10
9.4497904392
 20
9.1239576876
 30
0.0
 10
9.4501297296
 20
9.128535705
 30
0.0
 10
9.4516285894
 20
9.1352353356
 30
0.0
 10
9.4540437474
 20
9.141630027
 30
0.0
 10
9.4583217798
 20
9.1495698925
 30
0.0
 10
9.4653931634
 20
9.1583153324
 30
0.0
 10
9.4723503151
 20
9.1639331423
 30
0.0
 10
9.4760181456
 20
9.1663908617
 30
0.0
  0
SPLINE
  5
33A
100
AcDbEntity
  8
0
100
AcDbSpline
 62
7
  6
CONTINUOUS
 70
0
 71
3
 72
11
 73
7
 74
0
 42
0.0000001
 43
0.0000001
 44
0.0000000001
 40
0.0
 40
0.0
 40
0.0
 40
0.0
 40
0.2979134353
 40
0.5714803402
 40
0.8066153066
 40
1.0
 40
1.0
 40
1.0
 40
1.0
 10
9.4409287086
 20
9.1216695021
 30
0.0
 10
9.4409287086
 20
9.1171561863
 30
0.0
 10
9.4406063062
 20
9.1084946159
 30
0.0
 10
9.4392133177
 20
9.0963409649
 30
0.0
 10
9.4371088421
 20
9.0859015471
 30
0.0
 10
9.4351931613
 20
9.0796809135
 30
0.0
 10
9.4341370903
 20
9.0769481426
 30
0.0
  0
SPLINE
  5
33B
100
AcDbEntity
  8
0
100
AcDbSpline
 62
7
  6
CONTINUOUS
 70
0
 71
3
 72
13
 73
9
 74
0
 42
0.0000001
 43
0.0000001
 44
0.0000000001
 40
0.0
 40
0.0
 40
0.0
 40
0.0
 40
0.1262386911
 40
0.2523228969
 40
0.37807444
 40
0.5034393008
 40
0.7524376652
 40
1.0
 40
1.0
 40
1.0
 40
1.0
 10
9.4071920925
 20
9.1216695021
 30
0.0
 10
9.4071920925
 20
9.1239580317
 30
0.0
 10
9.4075411451
 20
9.1285397664
 30
0.0
 10
9.4090825992
 20
9.1352423657
 30
0.0
 10
9.4115656899
 20
9.1416386085
 30
0.0
 10
9.4159694615
 20
9.1495904433
 30
0.0
 10
9.4232500122
 20
9.1583422939
 30
0.0
 10
9.4303780385
 20
9.1639390703
 30
0.0
 10
9.4341370903
 20
9.1663908617
 30
0.0
  0
SPLINE
  5
33C
100
AcDbEntity
  8
0
100
AcDbSpline
 62
7
  6
CONTINUOUS
 70
0
 71
3
 72
11
 73
7
 74
0
 42
0.0000001
 43
0.0000001
 44
0.0000000001
 40
0.0
 40
0.0
 40
0.0
 40
0.0
 40
0.3006058012
 40
0.5756505769
 40
0.810117512
 40
1.0
 40
1.0
 40
1.0
 40
1.0
 10
9.3987934381
 20
9.1216695021
 30
0.0
 10
9.3987934381
 20
9.117158126
 30
0.0
 10
9.398587773
 20
9.1085174518
 30
0.0
 10
9.3976992978
 20
9.0963864965
 30
0.0
 10
9.3963577664
 20
9.0859710162
 30
0.0
 10
9.3951290784
 20
9.0797143909
 30
0.0
 10
9.3944445602
 20
9.0769481426
 30
0.0
  0
SPLINE
  5
33D
100
AcDbEntity
  8
0
100
AcDbSpline
 62
7
  6
CONTINUOUS
 70
0
 71
3
 72
13
 73
9
 74
0
 42
0.0000001
 43
0.0000001
 44
0.0000000001
 40
0.0
 40
0.0
 40
0.0
 40
0.0
 40
0.1255386323
 40
0.2510272035
 40
0.3763722995
 40
0.5015728209
 40
0.7510259749
 40
1.0
 40
1.0
 40
1.0
 40
1.0
 10
9.3669992328
 20
9.1216695021
 30
0.0
 10
9.3669992328
 20
9.1239582771
 30
0.0
 10
9.3673551128
 20
9.1285426613
 30
0.0
 10
9.3689263462
 20
9.1352473459
 30
0.0
 10
9.3714568778
 20
9.1416446347
 30
0.0
 10
9.375948589
 20
9.1496047133
 30
0.0
 10
9.3833751026
 20
9.1583606194
 30
0.0
 10
9.3906219191
 20
9.1639430478
 30
0.0
 10
9.3944445602
 20
9.1663908617
 30
0.0
  0
SPLINE
  5
33E
100
AcDbEntity
  8
0
100
AcDbSpline
 62
7
  6
CONTINUOUS
 70
0
 71
3
 72
11
 73
7
 74
0
 42
0.0000001
 43
0.0000001
 44
0.0000000001
 40
0.0
 40
0.0
 40
0.0
 40
0.0
 40
0.3021792851
 40
0.5780951801
 40
0.8121822203
 40
1.0
 40
1.0
 40
1.0
 40
1.0
 10
9.3591312747
 20
9.1216695021
 30
0.0
 10
9.3591312747
 20
9.1171592245
 30
0.0
 10
9.359042971
 20
9.1085303914
 30
0.0
 10
9.3586615881
 20
9.0964128606
 30
0.0
 10
9.3580859092
 20
9.0860122572
 30
0.0
 10
9.3575569418
 20
9.0797357248
 30
0.0
 10
9.357260154
 20
9.0769481426
 30
0.0
  0
SPLINE
  5
33F
100
AcDbEntity
  8
0
100
AcDbSpline
 62
7
  6
CONTINUOUS
 70
0
 71
3
 72
13
 73
9
 74
0
 42
0.0000001
 43
0.0000001
 44
0.0000000001
 40
0.0
 40
0.0
 40
0.0
 40
0.0
 40
0.1251483569
 40
0.250305226
 40
0.3754245294
 40
0.5005344427
 40
0.7502421222
 40
1.0
 40
1.0
 40
1.0
 40
1.0
 10
9.3295354738
 20
9.1216695021
 30
0.0
 10
9.3295354738
 20
9.1239584162
 30
0.0
 10
9.3298951826
 20
9.1285442991
 30
0.0
 10
9.3314830661
 20
9.1352501523
 30
0.0
 10
9.3340401032
 20
9.1416480125
 30
0.0
 10
9.3385809944
 20
9.1496126535
 30
0.0
 10
9.3460890175
 20
9.1583706792
 30
0.0
 10
9.3534020218
 20
9.1639452139
 30
0.0
 10
9.357260154
 20
9.1663908617
 30
0.0
  0
SPLINE
  5
340
100
AcDbEntity
  8
0
100
AcDbSpline
 62
7
  6
CONTINUOUS
 70
0
 71
3
 72
13
 73
9
 74
0
 42
0.0000001
 43
0.0000001
 44
0.0000000001
 40
0.0
 40
0.0
 40
0.0
 40
0.0
 40
0.1250700174
 40
0.2501603345
 40
0.3752343845
 40
0.500326198
 40
0.7500850528
 40
1.0
 40
1.0
 40
1.0
 40
1.0
 10
9.2951024821
 20
9.1216695021
 30
0.0
 10
9.2951024821
 20
9.1239584442
 30
0.0
 10
9.2954629597
 20
9.1285446301
 30
0.0
 10
9.2970541898
 20
9.1352507183
 30
0.0
 10
9.299616553
 20
9.1416486921
 30
0.0
 10
9.3041673297
 20
9.149614246
 30
0.0
 10
9.3116917268
 20
9.1583726852
 30
0.0
 10
9.319018015
 20
9.1639456444
 30
0.0
 10
9.3228832753
 20
9.1663908617
 30
0.0
  0
SPLINE
  5
341
100
AcDbEntity
  8
0
100
AcDbSpline
 62
7
  6
CONTINUOUS
 70
0
 71
3
 72
11
 73
7
 74
0
 42
0.0000001
 43
0.0000001
 44
0.0000000001
 40
0.0
 40
0.0
 40
0.0
 40
0.0
 40
0.2514442072
 40
0.502025353
 40
0.7515841916
 40
1.0
 40
1.0
 40
1.0
 40
1.0
 10
10.1986323522
 20
9.1294684166
 30
0.0
 10
10.1982708712
 20
9.1315749455
 30
0.0
 10
10.1972568722
 20
9.1357360942
 30
0.0
 10
10.1949278893
 20
9.1417033963
 30
0.0
 10
10.1918823825
 20
9.147307581
 30
0.0
 10
10.1894325423
 20
9.1507723496
 30
0.0
 10
10.1881214453
 20
9.1524275785
 30
0.0
  0
SPLINE
  5
342
100
AcDbEntity
  8
0
100
AcDbSpline
 62
7
  6
CONTINUOUS
 70
0
 71
3
 72
9
 73
5
 74
0
 42
0.0000001
 43
0.0000001
 44
0.0000000001
 40
0.0
 40
0.0
 40
0.0
 40
0.0
 40
0.5016356774
 40
1.0
 40
1.0
 40
1.0
 40
1.0
 10
10.1881214453
 20
9.1524275785
 30
0.0
 10
10.1859536523
 20
9.1551643658
 30
0.0
 10
10.1811316316
 20
9.1602370064
 30
0.0
 10
10.1755802532
 20
9.1644794732
 30
0.0
 10
10.1726858688
 20
9.1663908617
 30
0.0
  0
SPLINE
  5
343
100
AcDbEntity
  8
0
100
AcDbSpline
 62
7
  6
CONTINUOUS
 70
0
 71
3
 72
13
 73
9
 74
0
 42
0.0000001
 43
0.0000001
 44
0.0000000001
 40
0.0
 40
0.0
 40
0.0
 40
0.0
 40
0.1252997236
 40
0.2505294053
 40
0.3757099896
 40
0.500809607
 40
0.7504975903
 40
1.0
 40
1.0
 40
1.0
 40
1.0
 10
9.2646741156
 20
9.1294978104
 30
0.0
 10
9.2650192182
 20
9.131428621
 30
0.0
 10
9.2659638507
 20
9.1352481909
 30
0.0
 10
9.2680873715
 20
9.1407476213
 30
0.0
 10
9.2708479722
 20
9.1459525405
 30
0.0
 10
9.27526979
 20
9.1524265413
 30
0.0
 10
9.2820033956
 20
9.1595977896
 30
0.0
 10
9.2882958126
 20
9.1642938069
 30
0.0
 10
9.2915907218
 20
9.1663908617
 30
0.0
  0
SPLINE
  5
344
100
AcDbEntity
  8
0
100
AcDbSpline
 62
7
  6
CONTINUOUS
 70
0
 71
3
 72
12
 73
8
 74
0
 42
0.0000001
 43
0.0000001
 44
0.0000000001
 40
0.0
 40
0.0
 40
0.0
 40
0.0
 40
0.2709303316
 40
0.5305402062
 40
0.6542929921
 40
0.7736470947
 40
1.0
 40
1.0
 40
1.0
 40
1.0
 10
9.686339869
 20
9.1216695021
 30
0.0
 10
9.686339869
 20
9.1171331439
 30
0.0
 10
9.6873179501
 20
9.1082197544
 30
0.0
 10
9.6908655936
 20
9.0977622168
 30
0.0
 10
9.6948211111
 20
9.090315629
 30
0.0
 10
9.699215471
 20
9.083786601
 30
0.0
 10
9.7031508127
 20
9.0794750288
 30
0.0
 10
9.7059754971
 20
9.0769481668
 30
0.0
  0
SPLINE
  5
345
100
AcDbEntity
  8
0
100
AcDbSpline
 62
7
  6
CONTINUOUS
 70
0
 71
3
 72
11
 73
7
 74
0
 42
0.0000001
 43
0.0000001
 44
0.0000000001
 40
0.0
 40
0.0
 40
0.0
 40
0.0
 40
0.2506936274
 40
0.5009604919
 40
0.7507530072
 40
1.0
 40
1.0
 40
1.0
 40
1.0
 10
9.2370979258
 20
9.1294978103
 30
0.0
 10
9.2374697455
 20
9.1316078953
 30
0.0
 10
9.2385127402
 20
9.1357773081
 30
0.0
 10
9.2409043136
 20
9.1417505227
 30
0.0
 10
9.2440296922
 20
9.1473583793
 30
0.0
 10
9.2465395618
 20
9.1508201234
 30
0.0
 10
9.2478823293
 20
9.1524738632
 30
0.0
  0
SPLINE
  5
346
100
AcDbEntity
  8
0
100
AcDbSpline
 62
7
  6
CONTINUOUS
 70
0
 71
3
 72
9
 73
5
 74
0
 42
0.0000001
 43
0.0000001
 44
0.0000000001
 40
0.0
 40
0.0
 40
0.0
 40
0.0
 40
0.5007468239
 40
1.0
 40
1.0
 40
1.0
 40
1.0
 10
9.2478823293
 20
9.1524738632
 30
0.0
 10
9.2501007198
 20
9.155206012
 30
0.0
 10
9.2550329
 20
9.1602678211
 30
0.0
 10
9.260686519
 20
9.1644877653
 30
0.0
 10
9.2636344568
 20
9.1663908617
 30
0.0
  0
SPLINE
  5
347
100
AcDbEntity
  8
0
100
AcDbSpline
 62
7
  6
CONTINUOUS
 70
0
 71
3
 72
11
 73
7
 74
0
 42
0.0000001
 43
0.0000001
 44
0.0000000001
 40
0.0
 40
0.0
 40
0.0
 40
0.0
 40
0.2524537595
 40
0.5034578365
 40
0.7527029767
 40
1.0
 40
1.0
 40
1.0
 40
1.0
 10
10.2184587495
 20
9.1294684166
 30
0.0
 10
10.2181087481
 20
9.131573203
 30
0.0
 10
10.2171279812
 20
9.135728869
 30
0.0
 10
10.2148728005
 20
9.1416948055
 30
0.0
 10
10.2119230598
 20
9.1472987391
 30
0.0
 10
10.2095458471
 20
9.1507695849
 30
0.0
 10
10.2082732138
 20
9.1524275785
 30
0.0
  0
SPLINE
  5
348
100
AcDbEntity
  8
0
100
AcDbSpline
 62
7
  6
CONTINUOUS
 70
0
 71
3
 72
9
 73
5
 74
0
 42
0.0000001
 43
0.0000001
 44
0.0000000001
 40
0.0
 40
0.0
 40
0.0
 40
0.0
 40
0.5028727983
 40
1.0
 40
1.0
 40
1.0
 40
1.0
 10
10.2082732138
 20
9.1524275785
 30
0.0
 10
10.206178145
 20
9.1551570454
 30
0.0
 10
10.2015187974
 20
9.1602196841
 30
0.0
 10
10.1961263301
 20
9.164475324
 30
0.0
 10
10.1933154544
 20
9.1663908617
 30
0.0
  0
SPLINE
  5
349
100
AcDbEntity
  8
0
100
AcDbSpline
 62
7
  6
CONTINUOUS
 70
0
 71
3
 72
11
 73
7
 74
0
 42
0.0000001
 43
0.0000001
 44
0.0000000001
 40
0.0
 40
0.0
 40
0.0
 40
0.0
 40
0.2514481288
 40
0.5020291785
 40
0.7515859988
 40
1.0
 40
1.0
 40
1.0
 40
1.0
 10
9.2132967929
 20
9.1294978103
 30
0.0
 10
9.213660065
 20
9.1316065698
 30
0.0
 10
9.2146782809
 20
9.1357718478
 30
0.0
 10
9.217015041
 20
9.1417441008
 30
0.0
 10
9.2200693876
 20
9.147351849
 30
0.0
 10
9.2225255725
 20
9.1508181031
 30
0.0
 10
9.2238398999
 20
9.1524738632
 30
0.0
  0
SPLINE
  5
34A
100
AcDbEntity
  8
0
100
AcDbSpline
 62
7
  6
CONTINUOUS
 70
0
 71
3
 72
9
 73
5
 74
0
 42
0.0000001
 43
0.0000001
 44
0.0000000001
 40
0.0
 40
0.0
 40
0.0
 40
0.0
 40
0.5016295617
 40
1.0
 40
1.0
 40
1.0
 40
1.0
 10
9.2238398999
 20
9.1524738632
 30
0.0
 10
9.226004459
 20
9.1552007262
 30
0.0
 10
9.2308165091
 20
9.1602555289
 30
0.0
 10
9.2363531916
 20
9.1644848534
 30
0.0
 10
9.2392395802
 20
9.1663908617
 30
0.0
  0
SPLINE
  5
34B
100
AcDbEntity
  8
0
100
AcDbSpline
 62
7
  6
CONTINUOUS
 70
0
 71
3
 72
11
 73
7
 74
0
 42
0.0000001
 43
0.0000001
 44
0.0000000001
 40
0.0
 40
0.0
 40
0.0
 40
0.0
 40
0.2524597316
 40
0.5034641872
 40
0.7527064686
 40
1.0
 40
1.0
 40
1.0
 40
1.0
 10
9.1934623602
 20
9.1294978104
 30
0.0
 10
9.1938141008
 20
9.1316048191
 30
0.0
 10
9.1947989601
 20
9.1357645968
 30
0.0
 10
9.197061712
 20
9.1417354883
 30
0.0
 10
9.2000200695
 20
9.1473429931
 30
0.0
 10
9.2024034864
 20
9.1508153359
 30
0.0
 10
9.2036792791
 20
9.1524738632
 30
0.0
  0
SPLINE
  5
34C
100
AcDbEntity
  8
0
100
AcDbSpline
 62
7
  6
CONTINUOUS
 70
0
 71
3
 72
9
 73
5
 74
0
 42
0.0000001
 43
0.0000001
 44
0.0000000001
 40
0.0
 40
0.0
 40
0.0
 40
0.0
 40
0.5028619744
 40
1.0
 40
1.0
 40
1.0
 40
1.0
 10
9.2036792791
 20
9.1524738632
 30
0.0
 10
9.2057712798
 20
9.155193459
 30
0.0
 10
9.2104211382
 20
9.1602383309
 30
0.0
 10
9.2157993781
 20
9.1644807308
 30
0.0
 10
9.2186025161
 20
9.1663908617
 30
0.0
  0
SPLINE
  5
34D
100
AcDbEntity
  8
0
100
AcDbSpline
 62
7
  6
CONTINUOUS
 70
0
 71
3
 72
9
 73
5
 74
0
 42
0.0000001
 43
0.0000001
 44
0.0000000001
 40
0.0
 40
0.0
 40
0.0
 40
0.0
 40
0.5051476119
 40
1.0
 40
1.0
 40
1.0
 40
1.0
 10
10.2341584483
 20
9.1294682683
 30
0.0
 10
10.233491304
 20
9.1336474695
 30
0.0
 10
10.2310951616
 20
9.1417815021
 30
0.0
 10
10.2268396497
 20
9.1490900011
 30
0.0
 10
10.2243802569
 20
9.1524275997
 30
0.0
  0
SPLINE
  5
34E
100
AcDbEntity
  8
0
100
AcDbSpline
 62
7
  6
CONTINUOUS
 70
0
 71
3
 72
9
 73
5
 74
0
 42
0.0000001
 43
0.0000001
 44
0.0000000001
 40
0.0
 40
0.0
 40
0.0
 40
0.0
 40
0.504486265
 40
1.0
 40
1.0
 40
1.0
 40
1.0
 10
10.2243802569
 20
9.1524275997
 30
0.0
 10
10.2223758768
 20
9.1551477086
 30
0.0
 10
10.2179198164
 20
9.1601970409
 30
0.0
 10
10.2127269852
 20
9.1644698111
 30
0.0
 10
10.210020768
 20
9.1663908617
 30
0.0
  0
SPLINE
  5
34F
100
AcDbEntity
  8
0
100
AcDbSpline
 62
7
  6
CONTINUOUS
 70
0
 71
3
 72
9
 73
5
 74
0
 42
0.0000001
 43
0.0000001
 44
0.0000000001
 40
0.0
 40
0.0
 40
0.0
 40
0.0
 40
0.505157075
 40
1.0
 40
1.0
 40
1.0
 40
1.0
 10
9.1777543261
 20
9.129497776
 30
0.0
 10
9.1784247925
 20
9.1336813052
 30
0.0
 10
9.1808298704
 20
9.1418227903
 30
0.0
 10
9.1850973554
 20
9.149135353
 30
0.0
 10
9.1875629273
 20
9.1524740393
 30
0.0
  0
SPLINE
  5
350
100
AcDbEntity
  8
0
100
AcDbSpline
 62
7
  6
CONTINUOUS
 70
0
 71
3
 72
9
 73
5
 74
0
 42
0.0000001
 43
0.0000001
 44
0.0000000001
 40
0.0
 40
0.0
 40
0.0
 40
0.0
 40
0.5044695141
 40
1.0
 40
1.0
 40
1.0
 40
1.0
 10
9.1875629273
 20
9.1524740393
 30
0.0
 10
9.1895644232
 20
9.15518431
 30
0.0
 10
9.1940115387
 20
9.1602159095
 30
0.0
 10
9.1991906653
 20
9.1644752709
 30
0.0
 10
9.2018894312
 20
9.1663908617
 30
0.0
  0
SPLINE
  5
351
100
AcDbEntity
  8
0
100
AcDbSpline
 62
7
  6
CONTINUOUS
 70
0
 71
3
 72
9
 73
5
 74
0
 42
0.0000001
 43
0.0000001
 44
0.0000000001
 40
0.0
 40
0.0
 40
0.0
 40
0.0
 40
0.5072676957
 40
1.0
 40
1.0
 40
1.0
 40
1.0
 10
9.1662991861
 20
9.1294978104
 30
0.0
 10
9.1669346555
 20
9.1336702894
 30
0.0
 10
9.1692019831
 20
9.1417716391
 30
0.0
 10
9.1732652147
 20
9.1491181058
 30
0.0
 10
9.1756202221
 20
9.1524738632
 30
0.0
  0
SPLINE
  5
352
100
AcDbEntity
  8
0
100
AcDbSpline
 62
7
  6
CONTINUOUS
 70
0
 71
3
 72
9
 73
5
 74
0
 42
0.0000001
 43
0.0000001
 44
0.0000000001
 40
0.0
 40
0.0
 40
0.0
 40
0.0
 40
0.5064828129
 40
1.0
 40
1.0
 40
1.0
 40
1.0
 10
9.1756202221
 20
9.1524738632
 30
0.0
 10
9.1775143109
 20
9.1551728368
 30
0.0
 10
9.181720252
 20
9.1601875865
 30
0.0
 10
9.1866608026
 20
9.1644682177
 30
0.0
 10
9.189234897
 20
9.1663908617
 30
0.0
  0
SPLINE
  5
353
100
AcDbEntity
  8
0
100
AcDbSpline
 62
7
  6
CONTINUOUS
 70
0
 71
3
 72
9
 73
5
 74
0
 42
0.0000001
 43
0.0000001
 44
0.0000000001
 40
0.0
 40
0.0
 40
0.0
 40
0.0
 40
0.5072536497
 40
1.0
 40
1.0
 40
1.0
 40
1.0
 10
10.2456049659
 20
9.1294684166
 30
0.0
 10
10.2449726433
 20
9.1336366298
 30
0.0
 10
10.2427137253
 20
9.1417306465
 30
0.0
 10
10.238661989
 20
9.149072934
 30
0.0
 10
10.2363129298
 20
9.1524275785
 30
0.0
  0
SPLINE
  5
354
100
AcDbEntity
  8
0
100
AcDbSpline
 62
7
  6
CONTINUOUS
 70
0
 71
3
 72
9
 73
5
 74
0
 42
0.0000001
 43
0.0000001
 44
0.0000000001
 40
0.0
 40
0.0
 40
0.0
 40
0.0
 40
0.5065065664
 40
1.0
 40
1.0
 40
1.0
 40
1.0
 10
10.2363129298
 20
9.1524275785
 30
0.0
 10
10.2344161862
 20
9.15513628
 30
0.0
 10
10.2302019932
 20
9.1601685847
 30
0.0
 10
10.2252484567
 20
9.1644627319
 30
0.0
 10
10.2226673008
 20
9.1663908617
 30
0.0
  0
SPLINE
  5
355
100
AcDbEntity
  8
0
100
AcDbSpline
 62
7
  6
CONTINUOUS
 70
0
 71
3
 72
9
 73
5
 74
0
 42
0.0000001
 43
0.0000001
 44
0.0000000001
 40
0.0
 40
0.0
 40
0.0
 40
0.0
 40
0.5096492916
 40
1.0
 40
1.0
 40
1.0
 40
1.0
 10
9.1591891589
 20
9.1294978104
 30
0.0
 10
9.1597845491
 20
9.1336581899
 30
0.0
 10
9.1618959813
 20
9.1417142901
 30
0.0
 10
9.1657216513
 20
9.1490981362
 30
0.0
 10
9.1679477135
 20
9.1524738632
 30
0.0
  0
SPLINE
  5
356
100
AcDbEntity
  8
0
100
AcDbSpline
 62
7
  6
CONTINUOUS
 70
0
 71
3
 72
9
 73
5
 74
0
 42
0.0000001
 43
0.0000001
 44
0.0000000001
 40
0.0
 40
0.0
 40
0.0
 40
0.0
 40
0.5089344494
 40
1.0
 40
1.0
 40
1.0
 40
1.0
 10
9.1679477135
 20
9.1524738632
 30
0.0
 10
9.1697186829
 20
9.1551594617
 30
0.0
 10
9.1736474379
 20
9.160153077
 30
0.0
 10
9.1783109404
 20
9.1644593898
 30
0.0
 10
9.1807408059
 20
9.1663908617
 30
0.0
  0
SPLINE
  5
357
100
AcDbEntity
  8
0
100
AcDbSpline
 62
7
  6
CONTINUOUS
 70
0
 71
3
 72
9
 73
5
 74
0
 42
0.0000001
 43
0.0000001
 44
0.0000000001
 40
0.0
 40
0.0
 40
0.0
 40
0.0
 40
0.5096295895
 40
1.0
 40
1.0
 40
1.0
 40
1.0
 10
10.2527062075
 20
9.1294684166
 30
0.0
 10
10.2521137731
 20
9.1336245873
 30
0.0
 10
10.2500101849
 20
9.1416734797
 30
0.0
 10
10.2461954738
 20
9.1490530012
 30
0.0
 10
10.2439751055
 20
9.1524275785
 30
0.0
  0
SPLINE
  5
358
100
AcDbEntity
  8
0
100
AcDbSpline
 62
7
  6
CONTINUOUS
 70
0
 71
3
 72
9
 73
5
 74
0
 42
0.0000001
 43
0.0000001
 44
0.0000000001
 40
0.0
 40
0.0
 40
0.0
 40
0.0
 40
0.5089664235
 40
1.0
 40
1.0
 40
1.0
 40
1.0
 10
10.2439751055
 20
9.1524275785
 30
0.0
 10
10.2422017213
 20
9.1551228169
 30
0.0
 10
10.2382654514
 20
9.1601338407
 30
0.0
 10
10.2335897372
 20
9.1644538489
 30
0.0
 10
10.2311532248
 20
9.1663908617
 30
0.0
  0
ENDSEC
  0
SECTION
  2
OBJECTS
  0
DICTIONARY
  5
C
100
AcDbDictionary
280
0
281
1
  3
ACAD_GROUP
350
D
  3
ACAD_MLINESTYLE
350
17
  3
ACAD_LAYOUT
350
1A
  3
ACAD_PLOTSETTINGS
350
19
  3
ACAD_PLOTSTYLENAME
350
E
  0
DICTIONARY
  5
D
102
{ACAD_REACTORS
330
C
102
}
100
AcDbDictionary
280
0
281
1
  0
ACDBDICTIONARYWDFLT
  5
E
102
{ACAD_REACTORS
330
C
102
}
100
AcDbDictionary
281
1
  3
Normal
350
F
100
AcDbDictionaryWithDefault
340
F
  0
DICTIONARY
  5
17
102
{ACAD_REACTORS
330
C
102
}
100
AcDbDictionary
280
0
281
1
  3
Standard
350
18
  0
DICTIONARY
  5
19
102
{ACAD_REACTORS
330
C
102
}
100
AcDbDictionary
281
1
  0
DICTIONARY
  5
1A
102
{ACAD_REACTORS
330
C
102
}
100
AcDbDictionary
281
1
  3
Model
350
359
  3
Layout1
350
35A
  0
ACDBPLACEHOLDER
  5
F
102
{ACAD_REACTORS
330
E
102
}
  0
MLINESTYLE
  5
18
102
{ACAD_REACTORS
330
17
102
}
100
AcDbMlineStyle
  2
STANDARD
 70
0
  3

 62
256
 51
90.0
 52
90.0
 71
2
 49
0.5
 62
256
  6
BYLAYER
 49
-0.5
 62
256
  6
BYLAYER
  0
LAYOUT
  5
359
102
{ACAD_REACTORS
330
1A
102
}
100
AcDbPlotSettings
  1

  2
none_device
  4
ANSI_C_(22.00_x_17.00_Inches)
  6

 40
0.0
 41
0.0
 42
0.0
 43
0.0
 44
558.8
 45
431.8
 46
0.0
 47
0.0
 48
0.0
 49
0.0
140
0.0
141
0.0
142
1.0
143
1.0
 70
1024
 72
0
 73
0
 74
0
  7

 75
0
147
1.0
148
0.0
149
0.0
100
AcDbLayout
  1
Model
 70
0
 71
0
 10
0.0
 20
0.0
 11
22.0
 21
17.0
 12
0.0
 22
0.0
 32
0.0
 14
0.0
 24
0.0
 34
0.0
 15
0.0
 25
0.0
 35
0.0
146
0.0
 13
0.0
 23
0.0
 33
0.0
 16
1.0
 26
0.0
 36
0.0
 17
0.0
 27
1.0
 37
0.0
 76
0
330
202
345
0
346
0
  0
LAYOUT
  5
35A
102
{ACAD_REACTORS
330
1A
102
}
100
AcDbPlotSettings
  1

  2
none_device
  4
ANSI_C_(22.00_x_17.00_Inches)
  6

 40
0.0
 41
0.0
 42
0.0
 43
0.0
 44
558.8
 45
431.8
 46
0.0
 47
0.0
 48
0.0
 49
0.0
140
0.0
141
0.0
142
1.0
143
1.0
 70
0
 72
0
 73
0
 74
0
  7

 75
0
147
1.0
148
0.0
149
0.0
100
AcDbLayout
  1
Layout1
 70
0
 71
1
 10
0.0
 20
0.0
 11
22.0
 21
17.0
 12
0.0
 22
0.0
 32
0.0
 14
0.0
 24
0.0
 34
0.0
 15
0.0
 25
0.0
 35
0.0
146
0.0
 13
0.0
 23
0.0
 33
0.0
 16
1.0
 26
0.0
 36
0.0
 17
0.0
 27
1.0
 37
0.0
 76
0
330
203
345
0
346
0
  0
ENDSEC
  0
EOF
