999
DXF file: E:\BT Custom\CADOUTPUT\_TOP.dxf
999
Pro/ENGINEER 2018400 by Parametric Technology Corporation
  0
SECTION
  2
HEADER
  9
$ACADVER
  1
AC1018
  9
$DWGCODEPAGE
  3
ANSI_1252
  9
$EXTMAX
 10
22.0
 20
17.0
 30
0.0
  9
$EXTMIN
 10
0.0
 20
0.0
 30
0.0
  9
$LIMMIN
 10
0.0
 20
0.0
  9
$LIMMAX
 10
22.0
 20
17.0
  9
$VIEWCTR
 10
11.0
 20
8.5
  9
$VIEWSIZE
 40
17.0
  9
$CLAYER
  8
0
  9
$LTSCALE
 40
1.21
  9
$CELTYPE
  6
BYLAYER
  9
$DIMSCALE
 40
1.0
  9
$DIMASZ
 40
0.1
  9
$DIMEXO
 40
0.0625
  9
$DIMDLI
 40
0.836
  9
$DIMEXE
 40
0.125
  9
$DIMCEN
 40
0.198
  9
$DIMLFAC
 40
1.0
  9
$DIMBLK
  1
_FILLED
  9
$DIMALT
 70
1
  9
$DIMALTD
 70
2
  9
$DIMALTTD
 70
2
  9
$DIMALTF
 40
25.4
  9
$DIMTXT
 40
0.08
  9
$DIMTOL
 70
1
  9
$DIMLIM
 70
0
  9
$DIMTFAC
 40
1.0
  9
$DIMTP
 40
0.001
  9
$DIMTM
 40
0.001
  9
$DIMGAP
 40
0.09
  9
$DIMDSEP
 70
46
  9
$AUNITS
 70
0
  9
$PDMODE
 70
3
  9
$PDSIZE
 40
0.06
  9
$HANDSEED
  5
26B
  9
$TILEMODE
 70
1
  9
$MEASUREMENT
 70
0
  9
$INSUNITS
 70
1
  0
ENDSEC
  0
SECTION
  2
CLASSES
  0
CLASS
  1
ACDBDICTIONARYWDFLT
  2
AcDbDictionaryWithDefault
  3
AutoCAD 2000
 90
0
 91
1
280
0
281
0
  0
CLASS
  1
ACDBPLACEHOLDER
  2
AcDbPlaceHolder
  3
AutoCAD 2000
 90
0
 91
1
280
0
281
0
  0
CLASS
  1
LAYOUT
  2
AcDbLayout
  3
AutoCAD 2000
 90
0
 91
0
280
0
281
0
  0
ENDSEC
  0
SECTION
  2
TABLES
  0
TABLE
  2
VPORT
  5
8
100
AcDbSymbolTable
 70
2
  0
VPORT
  5
1F4
100
AcDbSymbolTableRecord
100
AcDbViewportTableRecord
  2
*ACTIVE
 70
0
 10
0.0
 20
0.0
 11
1.0
 21
1.0
 12
11.0
 22
8.5
 13
0.0
 23
0.0
 14
1.0
 24
1.0
 15
0.0
 25
0.0
 16
0.0
 26
0.0
 36
1.0
 17
0.0
 27
0.0
 37
0.0
 40
17.0
 41
1.2941176471
 42
50.0
 43
0.0
 44
0.0
 50
0.0
 51
0.0
 71
0
 72
100
 73
1
 74
1
 75
0
 76
0
 77
0
 78
0
  0
ENDTAB
  0
TABLE
  2
LTYPE
  5
5
100
AcDbSymbolTable
 70
6
  0
LTYPE
  5
14
100
AcDbSymbolTableRecord
100
AcDbLinetypeTableRecord
  2
BYBLOCK
 70
0
  3

 72
65
 73
0
 40
0.0
  0
LTYPE
  5
15
100
AcDbSymbolTableRecord
100
AcDbLinetypeTableRecord
  2
BYLAYER
 70
0
  3

 72
65
 73
0
 40
0.0
  0
LTYPE
  5
16
100
AcDbSymbolTableRecord
100
AcDbLinetypeTableRecord
  2
CONTINUOUS
 70
64
  3
Solid line
 72
65
 73
0
 40
0.0
  0
LTYPE
  5
1F5
100
AcDbSymbolTableRecord
100
AcDbLinetypeTableRecord
  2
CENTER
 70
64
  3
____ _ ____ _ ____ _ ____ _ ____ _ ____ _ ____
 72
65
 73
4
 40
0.6
 49
0.375
 74
0
 49
-0.075
 74
0
 49
0.075
 74
0
 49
-0.075
 74
0
  0
LTYPE
  5
1F6
100
AcDbSymbolTableRecord
100
AcDbLinetypeTableRecord
  2
HIDDEN
 70
64
  3
- - - - - - - - - - - - - - - - - - - -
 72
65
 73
2
 40
0.2
 49
0.1
 74
0
 49
-0.1
 74
0
  0
LTYPE
  5
1F7
100
AcDbSymbolTableRecord
100
AcDbLinetypeTableRecord
  2
PHANTOM
 70
64
  3
_____ _ _ _____ _ _ _____ _ _ _____
 72
65
 73
6
 40
0.8
 49
0.45
 74
0
 49
-0.05
 74
0
 49
0.1
 74
0
 49
-0.05
 74
0
 49
0.1
 74
0
 49
-0.05
 74
0
  0
LTYPE
  5
1F8
100
AcDbSymbolTableRecord
100
AcDbLinetypeTableRecord
  2
DOT
 70
64
  3
. . . . . . . . . . . . . . . . . . . .
 72
65
 73
2
 40
0.2
 49
0.1
 74
0
 49
-0.1
 74
0
  0
LTYPE
  5
1F9
100
AcDbSymbolTableRecord
100
AcDbLinetypeTableRecord
  2
DASHED
 70
64
  3
- - - - - - - - - - - - - - - - - - - -
 72
65
 73
2
 40
0.2
 49
0.1
 74
0
 49
-0.1
 74
0
  0
ENDTAB
  0
TABLE
  2
LAYER
  5
2
100
AcDbSymbolTable
 70
36
  0
LAYER
  5
10
100
AcDbSymbolTableRecord
100
AcDbLayerTableRecord
  2
0
 70
0
 62
7
  6
CONTINUOUS
370
-3
390
F
  0
LAYER
  5
1FA
100
AcDbSymbolTableRecord
100
AcDbLayerTableRecord
  2
DEFAULT_1
 70
0
 62
7
  6
CENTER
370
-3
390
F
  0
LAYER
  5
1FB
100
AcDbSymbolTableRecord
100
AcDbLayerTableRecord
  2
DEFAULT_2
 70
0
 62
8
  6
HIDDEN
370
-3
390
F
  0
LAYER
  5
1FC
100
AcDbSymbolTableRecord
100
AcDbLayerTableRecord
  2
DEFAULT_3
 70
0
 62
7
  6
PHANTOM
370
-3
390
F
  0
LAYER
  5
1FD
100
AcDbSymbolTableRecord
100
AcDbLayerTableRecord
  2
ALL_FEATURES
 70
0
 62
7
  6
CONTINUOUS
370
-3
390
F
  0
LAYER
  5
1FE
100
AcDbSymbolTableRecord
100
AcDbLayerTableRecord
  2
AXES_FEATURES
 70
0
 62
7
  6
CONTINUOUS
370
-3
390
F
  0
LAYER
  5
1FF
100
AcDbSymbolTableRecord
100
AcDbLayerTableRecord
  2
DEFAULT_COORDINATE_SYSTEM
 70
0
 62
7
  6
CONTINUOUS
370
-3
390
F
  0
LAYER
  5
200
100
AcDbSymbolTableRecord
100
AcDbLayerTableRecord
  2
DEFAULT_DATUM_AXES
 70
0
 62
7
  6
CONTINUOUS
370
-3
390
F
  0
LAYER
  5
201
100
AcDbSymbolTableRecord
100
AcDbLayerTableRecord
  2
DEFAULT_DATUM_PLANES
 70
0
 62
7
  6
CONTINUOUS
370
-3
390
F
  0
LAYER
  5
202
100
AcDbSymbolTableRecord
100
AcDbLayerTableRecord
  2
DIMENSIONS
 70
0
 62
7
  6
CONTINUOUS
370
-3
390
F
  0
ENDTAB
  0
TABLE
  2
STYLE
  5
3
100
AcDbSymbolTable
 70
1
  0
STYLE
  5
11
100
AcDbSymbolTableRecord
100
AcDbTextStyleTableRecord
  2
STANDARD
 70
0
 40
0.0
 41
0.8
 50
0.0
 71
0
 42
0.2
  3
txt
  4

  0
STYLE
  5
203
100
AcDbSymbolTableRecord
100
AcDbTextStyleTableRecord
  2
TEXTSTYLE_1
 70
0
 40
0.0
 41
0.8
 50
0.0
 71
0
 42
0.2
  3
gdt
  4

  0
ENDTAB
  0
TABLE
  2
VIEW
  5
6
100
AcDbSymbolTable
 70
0
  0
ENDTAB
  0
TABLE
  2
UCS
  5
7
100
AcDbSymbolTable
 70
0
  0
ENDTAB
  0
TABLE
  2
APPID
  5
9
100
AcDbSymbolTable
 70
1
  0
APPID
  5
204
100
AcDbSymbolTableRecord
100
AcDbRegAppTableRecord
  2
ACAD
 70
0
  0
ENDTAB
  0
TABLE
  2
BLOCK_RECORD
  5
1
100
AcDbSymbolTable
 70
0
  0
BLOCK_RECORD
  5
205
100
AcDbSymbolTableRecord
100
AcDbBlockTableRecord
  2
*Model_Space
  0
BLOCK_RECORD
  5
206
100
AcDbSymbolTableRecord
100
AcDbBlockTableRecord
  2
*Paper_Space
  0
BLOCK_RECORD
  5
207
100
AcDbSymbolTableRecord
100
AcDbBlockTableRecord
  2
_FILLED
  0
ENDTAB
  0
TABLE
  2
DIMSTYLE
  5
A
100
AcDbSymbolTable
 70
1
100
AcDbDimStyleTable
 71
0
  0
DIMSTYLE
105
208
100
AcDbSymbolTableRecord
100
AcDbDimStyleTableRecord
  2
STANDARD
 70
0
  3

  4

 40
1.0
 41
0.1
 42
0.0625
 43
0.38
 44
0.125
 45
0.0
 46
0.0
 47
0.001
 48
0.001
140
0.08
141
0.09
142
0.0
143
25.4
144
1.0
145
0.0
146
1.0
147
0.09
 71
1.0
 72
0.0
 73
1
 74
1
 75
0
 76
0
 77
0
 78
4
 79
1
170
1
171
2
172
0
173
0
174
0
175
0
176
0
177
0
178
0
270
2
179
3
271
3
272
3
273
2
274
2
275
0
280
0
281
0
282
0
283
1
284
4
285
0
286
0
287
3
288
0
340
11
278
46
341
207
342
207
343
207
344
207
  0
ENDTAB
  0
ENDSEC
  0
SECTION
  2
BLOCKS
  0
BLOCK
  5
20
100
AcDbEntity
  8
0
100
AcDbBlockBegin
  2
*Model_Space
 70
0
 10
0.0
 20
0.0
 30
0.0
  3
*Model_Space
  1

  0
ENDBLK
  5
21
100
AcDbEntity
  8
0
100
AcDbBlockEnd
  0
BLOCK
  5
1C
100
AcDbEntity
  8
0
100
AcDbBlockBegin
  2
*Paper_Space
 70
0
 10
0.0
 20
0.0
 30
0.0
  3
*Paper_Space
  1

  0
ENDBLK
  5
1D
100
AcDbEntity
  8
0
100
AcDbBlockEnd
  0
BLOCK
  5
209
100
AcDbEntity
  8
0
100
AcDbBlockBegin
  2
_FILLED
 70
64
 10
0.0
 20
0.0
  3
_FILLED
  1

  0
SOLID
  5
20A
100
AcDbEntity
  8
0
  6
BYBLOCK
 62
0
100
AcDbTrace
 10
0.0
 20
0.0
 11
-1.0
 21
0.2
 12
-1.0
 22
-0.2
 13
-1.0
 23
-0.2
  0
ENDBLK
  5
20B
100
AcDbEntity
  8
0
  6
BYBLOCK
 62
0
100
AcDbBlockEnd
  0
ENDSEC
  0
SECTION
  2
ENTITIES
  0
LINE
  5
20C
100
AcDbEntity
  8
0
100
AcDbLine
 62
7
  6
CONTINUOUS
 10
8.0473183383
 20
9.6188318604
 11
8.0785293166
 21
9.2620887455
  0
LINE
  5
20D
100
AcDbEntity
  8
0
100
AcDbLine
 62
7
  6
CONTINUOUS
 10
10.0623183383
 20
9.2438318604
 11
10.0623183383
 21
6.7508318604
  0
LINE
  5
20E
100
AcDbEntity
  8
0
100
AcDbLine
 62
7
  6
CONTINUOUS
 10
10.7323187302
 20
6.6708318604
 11
11.3623179463
 21
6.6708318604
  0
LINE
  5
20F
100
AcDbEntity
  8
0
100
AcDbLine
 62
7
  6
CONTINUOUS
 10
12.0023181799
 20
6.7208318604
 11
10.0923184967
 21
6.7208318604
  0
LINE
  5
210
100
AcDbEntity
  8
0
100
AcDbLine
 62
9
  6
CONTINUOUS
 10
12.0323183383
 20
6.7508318604
 11
10.0623183383
 21
6.7508318604
  0
LINE
  5
211
100
AcDbEntity
  8
0
100
AcDbLine
 62
7
  6
CONTINUOUS
 10
10.7323183383
 20
5.6608421217
 11
10.7323183383
 21
6.6708318604
  0
LINE
  5
212
100
AcDbEntity
  8
0
100
AcDbLine
 62
7
  6
CONTINUOUS
 10
10.8623183383
 20
6.7208318604
 11
10.8623183383
 21
6.6708318604
  0
LINE
  5
213
100
AcDbEntity
  8
0
100
AcDbLine
 62
7
  6
CONTINUOUS
 10
11.2323183383
 20
6.7208318604
 11
11.2323183383
 21
6.6708318604
  0
LINE
  5
214
100
AcDbEntity
  8
0
100
AcDbLine
 62
7
  6
CONTINUOUS
 10
11.3623183383
 20
5.6608421744
 11
11.3623183383
 21
6.6708318604
  0
LINE
  5
215
100
AcDbEntity
  8
0
100
AcDbLine
 62
7
  6
CONTINUOUS
 10
11.3621019544
 20
5.6491581719
 11
11.362157922
 21
5.6507801688
  0
LINE
  5
216
100
AcDbEntity
  8
0
100
AcDbLine
 62
7
  6
CONTINUOUS
 10
12.0323183383
 20
9.2438318604
 11
12.0323183383
 21
6.7508318604
  0
LINE
  5
217
100
AcDbEntity
  8
0
100
AcDbLine
 62
7
  6
CONTINUOUS
 10
13.996183466
 20
9.2438318604
 11
8.0984532106
 21
9.2438318604
  0
LINE
  5
218
100
AcDbEntity
  8
0
100
AcDbLine
 62
9
  6
CONTINUOUS
 10
14.0161073599
 20
9.2620887455
 11
8.0785293166
 21
9.2620887455
  0
LINE
  5
219
100
AcDbEntity
  8
0
100
AcDbLine
 62
7
  6
CONTINUOUS
 10
14.0473183383
 20
9.6188318604
 11
8.0473183383
 21
9.6188318604
  0
LINE
  5
21A
100
AcDbEntity
  8
0
100
AcDbLine
 62
7
  6
CONTINUOUS
 10
14.0473183383
 20
9.6188318604
 11
14.0161073599
 21
9.2620887455
  0
ARC
  5
21B
100
AcDbEntity
  8
0
100
AcDbCircle
 62
7
  6
CONTINUOUS
 10
10.0923183383
 20
6.7508318604
 40
0.03
100
AcDbArc
 50
180.0
 51
270.0
  0
ARC
  5
21C
100
AcDbEntity
  8
0
100
AcDbCircle
 62
7
  6
CONTINUOUS
 10
8.0984532106
 20
9.2638318604
 40
0.02
100
AcDbArc
 50
185.0
 51
270.0
  0
CIRCLE
  5
21D
100
AcDbEntity
  8
0
100
AcDbCircle
 62
7
  6
CONTINUOUS
 10
11.0473183383
 20
5.6608318604
 40
0.315
  0
ARC
  5
21E
100
AcDbEntity
  8
0
100
AcDbCircle
 62
7
  6
CONTINUOUS
 10
11.0473183383
 20
5.6608318604
 40
0.315
100
AcDbArc
 50
90.0
 51
91.4154296693
  0
ARC
  5
21F
100
AcDbEntity
  8
0
100
AcDbCircle
 62
7
  6
CONTINUOUS
 10
11.0473183383
 20
5.6608318604
 40
0.315
100
AcDbArc
 50
235.8321060449
 51
236.3883399499
  0
ARC
  5
220
100
AcDbEntity
  8
0
100
AcDbCircle
 62
7
  6
CONTINUOUS
 10
11.0473183383
 20
5.6608318604
 40
0.315
100
AcDbArc
 50
241.3281099864
 51
241.3765954169
  0
ARC
  5
221
100
AcDbEntity
  8
0
100
AcDbCircle
 62
7
  6
CONTINUOUS
 10
11.0473183383
 20
5.6608318604
 40
0.315
100
AcDbArc
 50
238.7678907088
 51
238.989149636
  0
ARC
  5
222
100
AcDbEntity
  8
0
100
AcDbCircle
 62
7
  6
CONTINUOUS
 10
11.0473183383
 20
5.6608318604
 40
0.315
100
AcDbArc
 50
237.4080688347
 51
238.2116592996
  0
ARC
  5
223
100
AcDbEntity
  8
0
100
AcDbCircle
 62
7
  6
CONTINUOUS
 10
11.0473183383
 20
5.6608318604
 40
0.315
100
AcDbArc
 50
234.0475536696
 51
235.5831863521
  0
ARC
  5
224
100
AcDbEntity
  8
0
100
AcDbCircle
 62
7
  6
CONTINUOUS
 10
11.0473183383
 20
5.6608318604
 40
0.315
100
AcDbArc
 50
224.4834125151
 51
224.7108501638
  0
ARC
  5
225
100
AcDbEntity
  8
0
100
AcDbCircle
 62
7
  6
CONTINUOUS
 10
11.0473183383
 20
5.6608318604
 40
0.315
100
AcDbArc
 50
230.6762384264
 51
230.803702705
  0
ARC
  5
226
100
AcDbEntity
  8
0
100
AcDbCircle
 62
7
  6
CONTINUOUS
 10
11.0473183383
 20
5.6608318604
 40
0.315
100
AcDbArc
 50
229.3282699716
 51
230.4281099863
  0
ARC
  5
227
100
AcDbEntity
  8
0
100
AcDbCircle
 62
7
  6
CONTINUOUS
 10
11.0473183383
 20
5.6608318604
 40
0.315
100
AcDbArc
 50
228.0891496362
 51
228.1168052032
  0
ARC
  5
228
100
AcDbEntity
  8
0
100
AcDbCircle
 62
7
  6
CONTINUOUS
 10
11.0473183383
 20
5.6608318604
 40
0.315
100
AcDbArc
 50
226.4
 51
227.3116592996
  0
ARC
  5
229
100
AcDbEntity
  8
0
100
AcDbCircle
 62
7
  6
CONTINUOUS
 10
11.0473183383
 20
5.6608318604
 40
0.315
100
AcDbArc
 50
211.2237616953
 51
211.4718902494
  0
ARC
  5
22A
100
AcDbEntity
  8
0
100
AcDbCircle
 62
7
  6
CONTINUOUS
 10
11.0473183383
 20
5.6608318604
 40
0.315
100
AcDbArc
 50
219.7762384264
 51
219.903702705
  0
ARC
  5
22B
100
AcDbEntity
  8
0
100
AcDbCircle
 62
7
  6
CONTINUOUS
 10
11.0473183383
 20
5.6608318604
 40
0.315
100
AcDbArc
 50
209.0036940689
 51
210.05
  0
ARC
  5
22C
100
AcDbEntity
  8
0
100
AcDbCircle
 62
7
  6
CONTINUOUS
 10
11.0473183383
 20
5.6608318604
 40
0.315
100
AcDbArc
 50
210.1852012228
 51
210.8783668053
  0
ARC
  5
22D
100
AcDbEntity
  8
0
100
AcDbCircle
 62
7
  6
CONTINUOUS
 10
11.0473183383
 20
5.6608318604
 40
0.315
100
AcDbArc
 50
203.132106046
 51
203.6883399501
  0
ARC
  5
22E
100
AcDbEntity
  8
0
100
AcDbCircle
 62
7
  6
CONTINUOUS
 10
11.0473183383
 20
5.6608318604
 40
0.315
100
AcDbArc
 50
208.6281099866
 51
208.8762384264
  0
ARC
  5
22F
100
AcDbEntity
  8
0
100
AcDbCircle
 62
7
  6
CONTINUOUS
 10
11.0473183383
 20
5.6608318604
 40
0.315
100
AcDbArc
 50
192.7883399501
 51
193.7
  0
ARC
  5
230
100
AcDbEntity
  8
0
100
AcDbCircle
 62
7
  6
CONTINUOUS
 10
11.0473183383
 20
5.6608318604
 40
0.315
100
AcDbArc
 50
197.7281099867
 51
197.9762384264
  0
ARC
  5
231
100
AcDbEntity
  8
0
100
AcDbCircle
 62
7
  6
CONTINUOUS
 10
11.0473183383
 20
5.6608318604
 40
0.315
100
AcDbArc
 50
187.5133844511
 51
187.7853681416
  0
ARC
  5
232
100
AcDbEntity
  8
0
100
AcDbCircle
 62
7
  6
CONTINUOUS
 10
11.0473183383
 20
5.6608318604
 40
0.315
100
AcDbArc
 50
184.2678907088
 51
184.4891496361
  0
ARC
  5
233
100
AcDbEntity
  8
0
100
AcDbCircle
 62
7
  6
CONTINUOUS
 10
11.0473183383
 20
5.6608318604
 40
0.315
100
AcDbArc
 50
170.4082823729
 51
170.4194248309
  0
ARC
  5
234
100
AcDbEntity
  8
0
100
AcDbCircle
 62
7
  6
CONTINUOUS
 10
11.0473183383
 20
5.6608318604
 40
0.315
100
AcDbArc
 50
164.8763569543
 51
165.5293647893
  0
ARC
  5
235
100
AcDbEntity
  8
0
100
AcDbCircle
 62
7
  6
CONTINUOUS
 10
11.0473183383
 20
5.6608318604
 40
0.315
100
AcDbArc
 50
162.6891496361
 51
162.7168052032
  0
ARC
  5
236
100
AcDbEntity
  8
0
100
AcDbCircle
 62
7
  6
CONTINUOUS
 10
11.0473183383
 20
5.6608318604
 40
0.315
100
AcDbArc
 50
143.6105695793
 51
145.1589128178
  0
ARC
  5
237
100
AcDbEntity
  8
0
100
AcDbCircle
 62
7
  6
CONTINUOUS
 10
11.0473183383
 20
5.6608318604
 40
0.315
100
AcDbArc
 50
132.7036940691
 51
133.75
  0
ARC
  5
238
100
AcDbEntity
  8
0
100
AcDbCircle
 62
7
  6
CONTINUOUS
 10
11.0473183383
 20
5.6608318604
 40
0.315
100
AcDbArc
 50
135.3331485118
 51
135.9392889067
  0
ARC
  5
239
100
AcDbEntity
  8
0
100
AcDbCircle
 62
7
  6
CONTINUOUS
 10
11.0473183383
 20
5.6608318604
 40
0.315
100
AcDbArc
 50
135.9594612248
 51
137.5108501663
  0
ARC
  5
23A
100
AcDbEntity
  8
0
100
AcDbCircle
 62
7
  6
CONTINUOUS
 10
11.0473183383
 20
5.6608318604
 40
0.315
100
AcDbArc
 50
126.3834125158
 51
126.4869406034
  0
ARC
  5
23B
100
AcDbEntity
  8
0
100
AcDbCircle
 62
7
  6
CONTINUOUS
 10
11.0473183383
 20
5.6608318604
 40
0.315
100
AcDbArc
 50
128.03158355
 51
128.0652308885
  0
ARC
  5
23C
100
AcDbEntity
  8
0
100
AcDbCircle
 62
7
  6
CONTINUOUS
 10
11.0473183383
 20
5.6608318604
 40
0.315
100
AcDbArc
 50
131.9220252377
 51
132.3281099868
  0
ARC
  5
23D
100
AcDbEntity
  8
0
100
AcDbCircle
 62
7
  6
CONTINUOUS
 10
11.0473183383
 20
5.6608318604
 40
0.315
100
AcDbArc
 50
128.3
 51
129.2116592997
  0
ARC
  5
23E
100
AcDbEntity
  8
0
100
AcDbCircle
 62
7
  6
CONTINUOUS
 10
11.0473183383
 20
5.6608318604
 40
0.315
100
AcDbArc
 50
55.2344305414
 51
55.2565370051
  0
ARC
  5
23F
100
AcDbEntity
  8
0
100
AcDbCircle
 62
7
  6
CONTINUOUS
 10
11.0473183383
 20
5.6608318604
 40
0.315
100
AcDbArc
 50
53.5777011889
 51
54.8491456825
  0
ARC
  5
240
100
AcDbEntity
  8
0
100
AcDbCircle
 62
7
  6
CONTINUOUS
 10
11.0473183383
 20
5.6608318604
 40
0.315
100
AcDbArc
 50
45.7187870574
 51
47.9718902495
  0
ARC
  5
241
100
AcDbEntity
  8
0
100
AcDbCircle
 62
7
  6
CONTINUOUS
 10
11.0473183383
 20
5.6608318604
 40
0.315
100
AcDbArc
 50
49.6474563907
 51
52.0
  0
ARC
  5
242
100
AcDbEntity
  8
0
100
AcDbCircle
 62
7
  6
CONTINUOUS
 10
11.0473183383
 20
5.6608318604
 40
0.315
100
AcDbArc
 50
40.1883399502
 51
40.4307980607
  0
ARC
  5
243
100
AcDbEntity
  8
0
100
AcDbCircle
 62
7
  6
CONTINUOUS
 10
11.0473183383
 20
5.6608318604
 40
0.315
100
AcDbArc
 50
41.1
 51
44.7767904631
  0
ARC
  5
244
100
AcDbEntity
  8
0
100
AcDbCircle
 62
7
  6
CONTINUOUS
 10
11.0473183383
 20
5.6608318604
 40
0.315
100
AcDbArc
 50
36.8237616953
 51
39.632106047
  0
ARC
  5
245
100
AcDbEntity
  8
0
100
AcDbCircle
 62
7
  6
CONTINUOUS
 10
11.0473183383
 20
5.6608318604
 40
0.315
100
AcDbArc
 50
31.9168052032
 51
36.3715122296
  0
ARC
  5
246
100
AcDbEntity
  8
0
100
AcDbCircle
 62
7
  6
CONTINUOUS
 10
11.0473183383
 20
5.6608318604
 40
0.315
100
AcDbArc
 50
30.5362671117
 51
31.1116592996
  0
ARC
  5
247
100
AcDbEntity
  8
0
100
AcDbCircle
 62
7
  6
CONTINUOUS
 10
11.0473183383
 20
5.6608318604
 40
0.315
100
AcDbArc
 50
26.5179555685
 51
30.2
  0
ARC
  5
248
100
AcDbEntity
  8
0
100
AcDbCircle
 62
7
  6
CONTINUOUS
 10
11.0473183383
 20
5.6608318604
 40
0.315
100
AcDbArc
 50
21.0168136479
 51
25.9237616953
  0
ARC
  5
249
100
AcDbEntity
  8
0
100
AcDbCircle
 62
7
  6
CONTINUOUS
 10
11.0473183383
 20
5.6608318604
 40
0.315
100
AcDbArc
 50
14.4281467154
 51
20.2116592997
  0
ARC
  5
24A
100
AcDbEntity
  8
0
100
AcDbCircle
 62
7
  6
CONTINUOUS
 10
11.0473183383
 20
5.6608318604
 40
0.315
100
AcDbArc
 50
11.5649640027
 51
13.9572140769
  0
ARC
  5
24B
100
AcDbEntity
  8
0
100
AcDbCircle
 62
7
  6
CONTINUOUS
 10
11.0473183383
 20
5.6608318604
 40
0.315
100
AcDbArc
 50
8.4
 51
11.4489382079
  0
ARC
  5
24C
100
AcDbEntity
  8
0
100
AcDbCircle
 62
7
  6
CONTINUOUS
 10
11.0473183383
 20
5.6608318604
 40
0.315
100
AcDbArc
 50
246.4831955909
 51
246.5147073032
  0
ARC
  5
24D
100
AcDbEntity
  8
0
100
AcDbCircle
 62
7
  6
CONTINUOUS
 10
11.0473183383
 20
5.6608318604
 40
0.315
100
AcDbArc
 50
245.0065893071
 51
245.1615587394
  0
ARC
  5
24E
100
AcDbEntity
  8
0
100
AcDbCircle
 62
7
  6
CONTINUOUS
 10
11.0473183383
 20
5.6608318604
 40
0.315
100
AcDbArc
 50
243.9219973063
 51
244.1856272377
  0
ARC
  5
24F
100
AcDbEntity
  8
0
100
AcDbCircle
 62
7
  6
CONTINUOUS
 10
11.0473183383
 20
5.6608318604
 40
0.315
100
AcDbArc
 50
250.2168053108
 51
250.4649047584
  0
ARC
  5
250
100
AcDbEntity
  8
0
100
AcDbCircle
 62
7
  6
CONTINUOUS
 10
11.0473183383
 20
5.6608318604
 40
0.315
100
AcDbArc
 50
249.0823575848
 51
249.1918116062
  0
ARC
  5
251
100
AcDbEntity
  8
0
100
AcDbCircle
 62
7
  6
CONTINUOUS
 10
11.0473183383
 20
5.6608318604
 40
0.315
100
AcDbArc
 50
252.6604905827
 51
252.9687604778
  0
ARC
  5
252
100
AcDbEntity
  8
0
100
AcDbCircle
 62
7
  6
CONTINUOUS
 10
11.0473183383
 20
5.6608318604
 40
0.315
100
AcDbArc
 50
359.2187066937
 51
360.0
  0
ARC
  5
253
100
AcDbEntity
  8
0
100
AcDbCircle
 62
7
  6
CONTINUOUS
 10
11.0473183383
 20
5.6608318604
 40
0.315
100
AcDbArc
 50
4.9151935335
 51
7.4883399502
  0
ARC
  5
254
100
AcDbEntity
  8
0
100
AcDbCircle
 62
7
  6
CONTINUOUS
 10
11.0473183383
 20
5.6608318604
 40
0.315
100
AcDbArc
 50
261.0834687745
 51
261.1168053109
  0
ARC
  5
255
100
AcDbEntity
  8
0
100
AcDbCircle
 62
7
  6
CONTINUOUS
 10
11.0473183383
 20
5.6608318604
 40
0.315
100
AcDbArc
 50
258.4081876114
 51
259.25
  0
ARC
  5
256
100
AcDbEntity
  8
0
100
AcDbCircle
 62
7
  6
CONTINUOUS
 10
11.0473183383
 20
5.6608318604
 40
0.315
100
AcDbArc
 50
256.7099071602
 51
257.4165308573
  0
ARC
  5
257
100
AcDbEntity
  8
0
100
AcDbCircle
 62
7
  6
CONTINUOUS
 10
11.0473183383
 20
5.6608318604
 40
0.315
100
AcDbArc
 50
255.1549828271
 51
256.5252292219
  0
ARC
  5
258
100
AcDbEntity
  8
0
100
AcDbCircle
 62
7
  6
CONTINUOUS
 10
11.0473183383
 20
5.6608318604
 40
0.315
100
AcDbArc
 50
254.8462960411
 51
254.9395095084
  0
ARC
  5
259
100
AcDbEntity
  8
0
100
AcDbCircle
 62
7
  6
CONTINUOUS
 10
11.0473183383
 20
5.6608318604
 40
0.315
100
AcDbArc
 50
263.5604905828
 51
263.7281230623
  0
ARC
  5
25A
100
AcDbEntity
  8
0
100
AcDbCircle
 62
7
  6
CONTINUOUS
 10
11.0473183383
 20
5.6608318604
 40
0.315
100
AcDbArc
 50
264.1154133579
 51
264.3584891055
  0
ARC
  5
25B
100
AcDbEntity
  8
0
100
AcDbCircle
 62
7
  6
CONTINUOUS
 10
11.0473183383
 20
5.6608318604
 40
0.315
100
AcDbArc
 50
264.6731248214
 51
271.8409921792
  0
ARC
  5
25C
100
AcDbEntity
  8
0
100
AcDbCircle
 62
7
  6
CONTINUOUS
 10
11.0473183383
 20
5.6608318604
 40
0.315
100
AcDbArc
 50
271.9834687746
 51
281.8918116063
  0
ARC
  5
25D
100
AcDbEntity
  8
0
100
AcDbCircle
 62
7
  6
CONTINUOUS
 10
11.0473183383
 20
5.6608318604
 40
0.315
100
AcDbArc
 50
282.8834687746
 51
304.6852923003
  0
ARC
  5
25E
100
AcDbEntity
  8
0
100
AcDbCircle
 62
7
  6
CONTINUOUS
 10
11.0473183383
 20
5.6608318604
 40
0.315
100
AcDbArc
 50
304.7168136479
 51
357.876170552
  0
CIRCLE
  5
25F
100
AcDbEntity
  8
0
100
AcDbCircle
 62
9
  6
CONTINUOUS
 10
11.0473183383
 20
5.6608318604
 40
0.295
  0
CIRCLE
  5
260
100
AcDbEntity
  8
0
100
AcDbCircle
 62
7
  6
CONTINUOUS
 10
11.0473183383
 20
7.3708318604
 40
0.13
  0
CIRCLE
  5
261
100
AcDbEntity
  8
0
100
AcDbCircle
 62
9
  6
CONTINUOUS
 10
11.0473183383
 20
7.3708318604
 40
0.0890909091
  0
ARC
  5
262
100
AcDbEntity
  8
0
100
AcDbCircle
 62
7
  6
CONTINUOUS
 10
12.0023183383
 20
6.7508318604
 40
0.03
100
AcDbArc
 50
270.0
 51
360.0
  0
ARC
  5
263
100
AcDbEntity
  8
0
100
AcDbCircle
 62
7
  6
CONTINUOUS
 10
13.996183466
 20
9.2638318604
 40
0.02
100
AcDbArc
 50
270.0
 51
355.0
  0
LINE
  5
264
100
AcDbEntity
  8
0
100
AcDbLine
 62
9
  6
CONTINUOUS
 10
10.7323183383
 20
5.6608294345
 11
10.7323183636
 21
5.6609309038
  0
SPLINE
  5
265
100
AcDbEntity
  8
0
100
AcDbSpline
 62
9
  6
CONTINUOUS
 70
0
 71
3
 72
38
 73
34
 74
0
 42
0.0000001
 43
0.0000001
 44
0.0000000001
 40
0.0
 40
0.0
 40
0.0
 40
0.0
 40
0.0573430518
 40
0.1147671067
 40
0.1723660158
 40
0.2302307524
 40
0.2884673099
 40
0.3471902693
 40
0.3767811038
 40
0.4065470347
 40
0.4365083223
 40
0.4666867059
 40
0.4971077557
 40
0.5277984865
 40
0.5587859699
 40
0.5744021333
 40
0.5901051437
 40
0.6217839326
 40
0.6538579479
 40
0.6863625649
 40
0.7193303287
 40
0.752789415
 40
0.786760508
 40
0.8212497308
 40
0.8386883975
 40
0.8562498729
 40
0.8739278736
 40
0.8917146407
 40
0.9275641236
 40
0.9456075599
 40
0.9637063204
 40
0.9818441991
 40
1.0
 40
1.0
 40
1.0
 40
1.0
 10
10.7323183636
 20
5.6609309038
 30
0.0
 10
10.7323221196
 20
5.6717787088
 30
0.0
 10
10.733002118
 20
5.6934956598
 30
0.0
 10
10.7360716617
 20
5.7259787791
 30
0.0
 10
10.7412139606
 20
5.7583008032
 30
0.0
 10
10.7484839181
 20
5.7903706806
 30
0.0
 10
10.7579524603
 20
5.8220847034
 30
0.0
 10
10.7677370317
 20
5.8480523028
 30
0.0
 10
10.7767588602
 20
5.8684917625
 30
0.0
 10
10.7841674462
 20
5.8836824641
 30
0.0
 10
10.7922208492
 20
5.8986678319
 30
0.0
 10
10.8009434612
 20
5.9134184778
 30
0.0
 10
10.8103585465
 20
5.9279024415
 30
0.0
 10
10.8204914041
 20
5.9420826686
 30
0.0
 10
10.829538001
 20
5.953577833
 30
0.0
 10
10.8371578515
 20
5.9625717549
 30
0.0
 10
10.8450836092
 20
5.9714731748
 30
0.0
 10
10.8555048406
 20
5.9823151536
 30
0.0
 10
10.8688141563
 20
5.9947557796
 30
0.0
 10
10.8829884807
 20
6.006587451
 30
0.0
 10
10.8980509523
 20
6.0177147637
 30
0.0
 10
10.9140168858
 20
6.0280255486
 30
0.0
 10
10.9308802576
 20
6.0374020848
 30
0.0
 10
10.9456137012
 20
6.0442927137
 30
0.0
 10
10.9578105267
 20
6.0492028613
 30
0.0
 10
10.9671898823
 20
6.0525768726
 30
0.0
 10
10.9767548632
 20
6.0556083435
 30
0.0
 10
10.9897679473
 20
6.0591762824
 30
0.0
 10
11.0030533813
 20
6.0619781405
 30
0.0
 10
11.0165298053
 20
6.0639637414
 30
0.0
 10
11.0267450993
 20
6.0650374253
 30
0.0
 10
11.0370170554
 20
6.0656859541
 30
0.0
 10
11.0438837356
 20
6.0658317436
 30
0.0
 10
11.0473183383
 20
6.0658318462
 30
0.0
  0
SPLINE
  5
266
100
AcDbEntity
  8
0
100
AcDbSpline
 62
9
  6
CONTINUOUS
 70
0
 71
3
 72
29
 73
25
 74
0
 42
0.0000001
 43
0.0000001
 44
0.0000000001
 40
0.0
 40
0.0
 40
0.0
 40
0.0
 40
0.0362894601
 40
0.0724276351
 40
0.1082806963
 40
0.1437421435
 40
0.1787393328
 40
0.2132317263
 40
0.2472056768
 40
0.2806677364
 40
0.3136381256
 40
0.3461453576
 40
0.3782222599
 40
0.4099032598
 40
0.4721949411
 40
0.5332962366
 40
0.5934284745
 40
0.652779366
 40
0.7115077271
 40
0.7697488092
 40
0.8276193237
 40
0.885222791
 40
0.9426535481
 40
1.0
 40
1.0
 40
1.0
 40
1.0
 10
11.0473183383
 20
6.0658318595
 30
0.0
 10
11.054183878
 20
6.0658318427
 30
0.0
 10
11.0678933039
 20
6.0652547679
 30
0.0
 10
11.0882393146
 20
6.0626835864
 30
0.0
 10
11.1081528833
 20
6.0584850062
 30
0.0
 10
11.1274597281
 20
6.0527753095
 30
0.0
 10
11.1460297795
 20
6.0456945727
 30
0.0
 10
11.1637742025
 20
6.0373918613
 30
0.0
 10
11.1806410269
 20
6.0280140829
 30
0.0
 10
11.1966074007
 20
6.0176985238
 30
0.0
 10
11.2116718468
 20
6.0065688519
 30
0.0
 10
11.225847387
 20
5.994734169
 30
0.0
 10
11.2391566631
 20
5.9822886298
 30
0.0
 10
11.2556880892
 20
5.9650887883
 30
0.0
 10
11.2743941628
 20
5.94242209
 30
0.0
 10
11.2939572712
 20
5.9136846869
 30
0.0
 10
11.3107413266
 20
5.8838833614
 30
0.0
 10
11.3249372557
 20
5.8532663243
 30
0.0
 10
11.3367046528
 20
5.8220223426
 30
0.0
 10
11.3461712738
 20
5.7903011897
 30
0.0
 10
11.3534369805
 20
5.7582251054
 30
0.0
 10
11.35857585
 20
5.7258966646
 30
0.0
 10
11.3616395293
 20
5.6934077686
 30
0.0
 10
11.3623176618
 20
5.6716871371
 30
0.0
 10
11.3623183378
 20
5.6608378618
 30
0.0
  0
SPLINE
  5
267
100
AcDbEntity
  8
0
100
AcDbSpline
 62
7
  6
CONTINUOUS
 70
0
 71
3
 72
39
 73
35
 74
0
 42
0.0000001
 43
0.0000001
 44
0.0000000001
 40
0.0
 40
0.0
 40
0.0
 40
0.0
 40
0.0312950112
 40
0.0625811843
 40
0.0938528212
 40
0.125105655
 40
0.156339278
 40
0.1875564243
 40
0.2187624064
 40
0.2499641295
 40
0.2811689107
 40
0.3123833564
 40
0.3436125777
 40
0.3748595244
 40
0.4061247052
 40
0.4374061681
 40
0.4686998266
 40
0.499999997
 40
0.5313001685
 40
0.5625938265
 40
0.5938752898
 40
0.6251404701
 40
0.6563874174
 40
0.6876166379
 40
0.7188310844
 40
0.7500358649
 40
0.7812375886
 40
0.8124435692
 40
0.843660717
 40
0.874894339
 40
0.9061471743
 40
0.9374188115
 40
0.9687049871
 40
1.0
 40
1.0
 40
1.0
 40
1.0
 10
11.0473183383
 20
7.1958318604
 30
0.0
 10
11.0418037677
 20
7.1958318604
 30
0.0
 10
11.0307663518
 20
7.1964473118
 30
0.0
 10
11.0144262214
 20
7.1991988645
 30
0.0
 10
10.9984929162
 20
7.203726052
 30
0.0
 10
10.9831532036
 20
7.209946699
 30
0.0
 10
10.9685698419
 20
7.2177551223
 30
0.0
 10
10.9548838384
 20
7.2270297385
 30
0.0
 10
10.9422137049
 20
7.2376392286
 30
0.0
 10
10.9306576674
 20
7.2494475388
 30
0.0
 10
10.9202964351
 20
7.2623174024
 30
0.0
 10
10.9111960369
 20
7.2761122389
 30
0.0
 10
10.9034103273
 20
7.2906969773
 30
0.0
 10
10.8969828928
 20
7.3059381207
 30
0.0
 10
10.8919484218
 20
7.3217034323
 30
0.0
 10
10.8883334952
 20
7.3378614825
 30
0.0
 10
10.8861569953
 20
7.3542812491
 30
0.0
 10
10.8854302352
 20
7.370831859
 30
0.0
 10
10.8861569951
 20
7.3873824689
 30
0.0
 10
10.8883334948
 20
7.4038022357
 30
0.0
 10
10.891948421
 20
7.4199602858
 30
0.0
 10
10.8969828918
 20
7.4357255976
 30
0.0
 10
10.9034103261
 20
7.4509667409
 30
0.0
 10
10.9111960354
 20
7.4655514795
 30
0.0
 10
10.9202964334
 20
7.4793463161
 30
0.0
 10
10.9306576655
 20
7.4922161799
 30
0.0
 10
10.9422137027
 20
7.5040244901
 30
0.0
 10
10.954883836
 20
7.5146339806
 30
0.0
 10
10.9685698393
 20
7.5239085969
 30
0.0
 10
10.9831532012
 20
7.5317170207
 30
0.0
 10
10.9984929138
 20
7.537937668
 30
0.0
 10
11.0144262196
 20
7.5424648558
 30
0.0
 10
11.0307663507
 20
7.545216409
 30
0.0
 10
11.0418037674
 20
7.5458318604
 30
0.0
 10
11.0473183383
 20
7.5458318604
 30
0.0
  0
SPLINE
  5
268
100
AcDbEntity
  8
0
100
AcDbSpline
 62
7
  6
CONTINUOUS
 70
0
 71
3
 72
39
 73
35
 74
0
 42
0.0000001
 43
0.0000001
 44
0.0000000001
 40
0.0
 40
0.0
 40
0.0
 40
0.0
 40
0.0312950111
 40
0.0625811839
 40
0.0938528209
 40
0.1251056546
 40
0.1563392777
 40
0.187556424
 40
0.2187624062
 40
0.2499641292
 40
0.2811689105
 40
0.3123833562
 40
0.3436125776
 40
0.3748595242
 40
0.4061247051
 40
0.437406168
 40
0.4686998265
 40
0.499999997
 40
0.5313001685
 40
0.5625938265
 40
0.5938752899
 40
0.6251404702
 40
0.6563874175
 40
0.687616638
 40
0.7188310846
 40
0.7500358651
 40
0.7812375888
 40
0.8124435696
 40
0.8436607173
 40
0.8748943394
 40
0.9061471746
 40
0.9374188118
 40
0.9687049872
 40
1.0
 40
1.0
 40
1.0
 40
1.0
 10
11.0473183383
 20
7.5458318604
 30
0.0
 10
11.0528329088
 20
7.5458318604
 30
0.0
 10
11.0638703247
 20
7.545216409
 30
0.0
 10
11.080210455
 20
7.5424648563
 30
0.0
 10
11.0961437601
 20
7.5379376689
 30
0.0
 10
11.1114834728
 20
7.5317170219
 30
0.0
 10
11.1260668345
 20
7.5239085987
 30
0.0
 10
11.1397528381
 20
7.5146339824
 30
0.0
 10
11.1524229716
 20
7.5040244923
 30
0.0
 10
11.1639790091
 20
7.4922161821
 30
0.0
 10
11.1743402414
 20
7.4793463185
 30
0.0
 10
11.1834406397
 20
7.465551482
 30
0.0
 10
11.1912263492
 20
7.4509667436
 30
0.0
 10
11.1976537837
 20
7.4357256002
 30
0.0
 10
11.2026882548
 20
7.4199602886
 30
0.0
 10
11.2063031813
 20
7.4038022384
 30
0.0
 10
11.2084796812
 20
7.3873824717
 30
0.0
 10
11.2092064414
 20
7.3708318618
 30
0.0
 10
11.2084796815
 20
7.354281252
 30
0.0
 10
11.2063031818
 20
7.3378614851
 30
0.0
 10
11.2026882555
 20
7.321703435
 30
0.0
 10
11.1976537847
 20
7.3059381232
 30
0.0
 10
11.1912263505
 20
7.2906969798
 30
0.0
 10
11.1834406411
 20
7.2761122412
 30
0.0
 10
11.1743402431
 20
7.2623174047
 30
0.0
 10
11.163979011
 20
7.2494475408
 30
0.0
 10
11.1524229738
 20
7.2376392306
 30
0.0
 10
11.1397528404
 20
7.2270297401
 30
0.0
 10
11.1260668371
 20
7.2177551238
 30
0.0
 10
11.1114834753
 20
7.2099467
 30
0.0
 10
11.0961437626
 20
7.2037260527
 30
0.0
 10
11.0802104568
 20
7.199198865
 30
0.0
 10
11.0638703258
 20
7.1964473118
 30
0.0
 10
11.0528329092
 20
7.1958318604
 30
0.0
 10
11.0473183383
 20
7.1958318604
 30
0.0
  0
ENDSEC
  0
SECTION
  2
OBJECTS
  0
DICTIONARY
  5
C
100
AcDbDictionary
280
0
281
1
  3
ACAD_GROUP
350
D
  3
ACAD_MLINESTYLE
350
17
  3
ACAD_LAYOUT
350
1A
  3
ACAD_PLOTSETTINGS
350
19
  3
ACAD_PLOTSTYLENAME
350
E
  0
DICTIONARY
  5
D
102
{ACAD_REACTORS
330
C
102
}
100
AcDbDictionary
280
0
281
1
  0
ACDBDICTIONARYWDFLT
  5
E
102
{ACAD_REACTORS
330
C
102
}
100
AcDbDictionary
281
1
  3
Normal
350
F
100
AcDbDictionaryWithDefault
340
F
  0
DICTIONARY
  5
17
102
{ACAD_REACTORS
330
C
102
}
100
AcDbDictionary
280
0
281
1
  3
Standard
350
18
  0
DICTIONARY
  5
19
102
{ACAD_REACTORS
330
C
102
}
100
AcDbDictionary
281
1
  0
DICTIONARY
  5
1A
102
{ACAD_REACTORS
330
C
102
}
100
AcDbDictionary
281
1
  3
Model
350
269
  3
Layout1
350
26A
  0
ACDBPLACEHOLDER
  5
F
102
{ACAD_REACTORS
330
E
102
}
  0
MLINESTYLE
  5
18
102
{ACAD_REACTORS
330
17
102
}
100
AcDbMlineStyle
  2
STANDARD
 70
0
  3

 62
256
 51
90.0
 52
90.0
 71
2
 49
0.5
 62
256
  6
BYLAYER
 49
-0.5
 62
256
  6
BYLAYER
  0
LAYOUT
  5
269
102
{ACAD_REACTORS
330
1A
102
}
100
AcDbPlotSettings
  1

  2
none_device
  4
ANSI_C_(22.00_x_17.00_Inches)
  6

 40
0.0
 41
0.0
 42
0.0
 43
0.0
 44
558.8
 45
431.8
 46
0.0
 47
0.0
 48
0.0
 49
0.0
140
0.0
141
0.0
142
1.0
143
1.0
 70
1024
 72
0
 73
0
 74
0
  7

 75
0
147
1.0
148
0.0
149
0.0
100
AcDbLayout
  1
Model
 70
0
 71
0
 10
0.0
 20
0.0
 11
22.0
 21
17.0
 12
0.0
 22
0.0
 32
0.0
 14
0.0
 24
0.0
 34
0.0
 15
0.0
 25
0.0
 35
0.0
146
0.0
 13
0.0
 23
0.0
 33
0.0
 16
1.0
 26
0.0
 36
0.0
 17
0.0
 27
1.0
 37
0.0
 76
0
330
205
345
0
346
0
  0
LAYOUT
  5
26A
102
{ACAD_REACTORS
330
1A
102
}
100
AcDbPlotSettings
  1

  2
none_device
  4
ANSI_C_(22.00_x_17.00_Inches)
  6

 40
0.0
 41
0.0
 42
0.0
 43
0.0
 44
558.8
 45
431.8
 46
0.0
 47
0.0
 48
0.0
 49
0.0
140
0.0
141
0.0
142
1.0
143
1.0
 70
0
 72
0
 73
0
 74
0
  7

 75
0
147
1.0
148
0.0
149
0.0
100
AcDbLayout
  1
Layout1
 70
0
 71
1
 10
0.0
 20
0.0
 11
22.0
 21
17.0
 12
0.0
 22
0.0
 32
0.0
 14
0.0
 24
0.0
 34
0.0
 15
0.0
 25
0.0
 35
0.0
146
0.0
 13
0.0
 23
0.0
 33
0.0
 16
1.0
 26
0.0
 36
0.0
 17
0.0
 27
1.0
 37
0.0
 76
0
330
206
345
0
346
0
  0
ENDSEC
  0
EOF
