999
DXF file: E:\BT Custom\CADOUTPUT\_RIGHT.dxf
999
Pro/ENGINEER 2018400 by Parametric Technology Corporation
  0
SECTION
  2
HEADER
  9
$ACADVER
  1
AC1018
  9
$DWGCODEPAGE
  3
ANSI_1252
  9
$EXTMAX
 10
22.0
 20
17.0
 30
0.0
  9
$EXTMIN
 10
0.0
 20
0.0
 30
0.0
  9
$LIMMIN
 10
0.0
 20
0.0
  9
$LIMMAX
 10
22.0
 20
17.0
  9
$VIEWCTR
 10
11.0
 20
8.5
  9
$VIEWSIZE
 40
17.0
  9
$CLAYER
  8
0
  9
$LTSCALE
 40
1.21
  9
$CELTYPE
  6
BYLAYER
  9
$DIMSCALE
 40
1.0
  9
$DIMASZ
 40
0.1
  9
$DIMEXO
 40
0.0625
  9
$DIMDLI
 40
0.836
  9
$DIMEXE
 40
0.125
  9
$DIMCEN
 40
0.198
  9
$DIMLFAC
 40
1.0
  9
$DIMBLK
  1
_FILLED
  9
$DIMALT
 70
1
  9
$DIMALTD
 70
2
  9
$DIMALTTD
 70
2
  9
$DIMALTF
 40
25.4
  9
$DIMTXT
 40
0.08
  9
$DIMTOL
 70
1
  9
$DIMLIM
 70
0
  9
$DIMTFAC
 40
1.0
  9
$DIMTP
 40
0.001
  9
$DIMTM
 40
0.001
  9
$DIMGAP
 40
0.09
  9
$DIMDSEP
 70
46
  9
$AUNITS
 70
0
  9
$PDMODE
 70
3
  9
$PDSIZE
 40
0.06
  9
$HANDSEED
  5
238
  9
$TILEMODE
 70
1
  9
$MEASUREMENT
 70
0
  9
$INSUNITS
 70
1
  0
ENDSEC
  0
SECTION
  2
CLASSES
  0
CLASS
  1
ACDBDICTIONARYWDFLT
  2
AcDbDictionaryWithDefault
  3
AutoCAD 2000
 90
0
 91
1
280
0
281
0
  0
CLASS
  1
ACDBPLACEHOLDER
  2
AcDbPlaceHolder
  3
AutoCAD 2000
 90
0
 91
1
280
0
281
0
  0
CLASS
  1
LAYOUT
  2
AcDbLayout
  3
AutoCAD 2000
 90
0
 91
0
280
0
281
0
  0
ENDSEC
  0
SECTION
  2
TABLES
  0
TABLE
  2
VPORT
  5
8
100
AcDbSymbolTable
 70
2
  0
VPORT
  5
1F4
100
AcDbSymbolTableRecord
100
AcDbViewportTableRecord
  2
*ACTIVE
 70
0
 10
0.0
 20
0.0
 11
1.0
 21
1.0
 12
11.0
 22
8.5
 13
0.0
 23
0.0
 14
1.0
 24
1.0
 15
0.0
 25
0.0
 16
0.0
 26
0.0
 36
1.0
 17
0.0
 27
0.0
 37
0.0
 40
17.0
 41
1.2941176471
 42
50.0
 43
0.0
 44
0.0
 50
0.0
 51
0.0
 71
0
 72
100
 73
1
 74
1
 75
0
 76
0
 77
0
 78
0
  0
ENDTAB
  0
TABLE
  2
LTYPE
  5
5
100
AcDbSymbolTable
 70
6
  0
LTYPE
  5
14
100
AcDbSymbolTableRecord
100
AcDbLinetypeTableRecord
  2
BYBLOCK
 70
0
  3

 72
65
 73
0
 40
0.0
  0
LTYPE
  5
15
100
AcDbSymbolTableRecord
100
AcDbLinetypeTableRecord
  2
BYLAYER
 70
0
  3

 72
65
 73
0
 40
0.0
  0
LTYPE
  5
16
100
AcDbSymbolTableRecord
100
AcDbLinetypeTableRecord
  2
CONTINUOUS
 70
64
  3
Solid line
 72
65
 73
0
 40
0.0
  0
LTYPE
  5
1F5
100
AcDbSymbolTableRecord
100
AcDbLinetypeTableRecord
  2
CENTER
 70
64
  3
____ _ ____ _ ____ _ ____ _ ____ _ ____ _ ____
 72
65
 73
4
 40
0.6
 49
0.375
 74
0
 49
-0.075
 74
0
 49
0.075
 74
0
 49
-0.075
 74
0
  0
LTYPE
  5
1F6
100
AcDbSymbolTableRecord
100
AcDbLinetypeTableRecord
  2
HIDDEN
 70
64
  3
- - - - - - - - - - - - - - - - - - - -
 72
65
 73
2
 40
0.2
 49
0.1
 74
0
 49
-0.1
 74
0
  0
LTYPE
  5
1F7
100
AcDbSymbolTableRecord
100
AcDbLinetypeTableRecord
  2
PHANTOM
 70
64
  3
_____ _ _ _____ _ _ _____ _ _ _____
 72
65
 73
6
 40
0.8
 49
0.45
 74
0
 49
-0.05
 74
0
 49
0.1
 74
0
 49
-0.05
 74
0
 49
0.1
 74
0
 49
-0.05
 74
0
  0
LTYPE
  5
1F8
100
AcDbSymbolTableRecord
100
AcDbLinetypeTableRecord
  2
DOT
 70
64
  3
. . . . . . . . . . . . . . . . . . . .
 72
65
 73
2
 40
0.2
 49
0.1
 74
0
 49
-0.1
 74
0
  0
LTYPE
  5
1F9
100
AcDbSymbolTableRecord
100
AcDbLinetypeTableRecord
  2
DASHED
 70
64
  3
- - - - - - - - - - - - - - - - - - - -
 72
65
 73
2
 40
0.2
 49
0.1
 74
0
 49
-0.1
 74
0
  0
ENDTAB
  0
TABLE
  2
LAYER
  5
2
100
AcDbSymbolTable
 70
36
  0
LAYER
  5
10
100
AcDbSymbolTableRecord
100
AcDbLayerTableRecord
  2
0
 70
0
 62
7
  6
CONTINUOUS
370
-3
390
F
  0
LAYER
  5
1FA
100
AcDbSymbolTableRecord
100
AcDbLayerTableRecord
  2
DEFAULT_1
 70
0
 62
7
  6
CENTER
370
-3
390
F
  0
LAYER
  5
1FB
100
AcDbSymbolTableRecord
100
AcDbLayerTableRecord
  2
DEFAULT_2
 70
0
 62
8
  6
HIDDEN
370
-3
390
F
  0
LAYER
  5
1FC
100
AcDbSymbolTableRecord
100
AcDbLayerTableRecord
  2
DEFAULT_3
 70
0
 62
7
  6
PHANTOM
370
-3
390
F
  0
LAYER
  5
1FD
100
AcDbSymbolTableRecord
100
AcDbLayerTableRecord
  2
ALL_FEATURES
 70
0
 62
7
  6
CONTINUOUS
370
-3
390
F
  0
LAYER
  5
1FE
100
AcDbSymbolTableRecord
100
AcDbLayerTableRecord
  2
AXES_FEATURES
 70
0
 62
7
  6
CONTINUOUS
370
-3
390
F
  0
LAYER
  5
1FF
100
AcDbSymbolTableRecord
100
AcDbLayerTableRecord
  2
DIMENSIONS
 70
0
 62
7
  6
CONTINUOUS
370
-3
390
F
  0
ENDTAB
  0
TABLE
  2
STYLE
  5
3
100
AcDbSymbolTable
 70
1
  0
STYLE
  5
11
100
AcDbSymbolTableRecord
100
AcDbTextStyleTableRecord
  2
STANDARD
 70
0
 40
0.0
 41
0.8
 50
0.0
 71
0
 42
0.2
  3
txt
  4

  0
STYLE
  5
200
100
AcDbSymbolTableRecord
100
AcDbTextStyleTableRecord
  2
TEXTSTYLE_1
 70
0
 40
0.0
 41
0.8
 50
0.0
 71
0
 42
0.2
  3
gdt
  4

  0
ENDTAB
  0
TABLE
  2
VIEW
  5
6
100
AcDbSymbolTable
 70
0
  0
ENDTAB
  0
TABLE
  2
UCS
  5
7
100
AcDbSymbolTable
 70
0
  0
ENDTAB
  0
TABLE
  2
APPID
  5
9
100
AcDbSymbolTable
 70
1
  0
APPID
  5
201
100
AcDbSymbolTableRecord
100
AcDbRegAppTableRecord
  2
ACAD
 70
0
  0
ENDTAB
  0
TABLE
  2
BLOCK_RECORD
  5
1
100
AcDbSymbolTable
 70
0
  0
BLOCK_RECORD
  5
202
100
AcDbSymbolTableRecord
100
AcDbBlockTableRecord
  2
*Model_Space
  0
BLOCK_RECORD
  5
203
100
AcDbSymbolTableRecord
100
AcDbBlockTableRecord
  2
*Paper_Space
  0
BLOCK_RECORD
  5
204
100
AcDbSymbolTableRecord
100
AcDbBlockTableRecord
  2
_FILLED
  0
ENDTAB
  0
TABLE
  2
DIMSTYLE
  5
A
100
AcDbSymbolTable
 70
1
100
AcDbDimStyleTable
 71
0
  0
DIMSTYLE
105
205
100
AcDbSymbolTableRecord
100
AcDbDimStyleTableRecord
  2
STANDARD
 70
0
  3

  4

 40
1.0
 41
0.1
 42
0.0625
 43
0.38
 44
0.125
 45
0.0
 46
0.0
 47
0.001
 48
0.001
140
0.08
141
0.09
142
0.0
143
25.4
144
1.0
145
0.0
146
1.0
147
0.09
 71
1.0
 72
0.0
 73
1
 74
1
 75
0
 76
0
 77
0
 78
4
 79
1
170
1
171
2
172
0
173
0
174
0
175
0
176
0
177
0
178
0
270
2
179
3
271
3
272
3
273
2
274
2
275
0
280
0
281
0
282
0
283
1
284
4
285
0
286
0
287
3
288
0
340
11
278
46
341
204
342
204
343
204
344
204
  0
ENDTAB
  0
ENDSEC
  0
SECTION
  2
BLOCKS
  0
BLOCK
  5
20
100
AcDbEntity
  8
0
100
AcDbBlockBegin
  2
*Model_Space
 70
0
 10
0.0
 20
0.0
 30
0.0
  3
*Model_Space
  1

  0
ENDBLK
  5
21
100
AcDbEntity
  8
0
100
AcDbBlockEnd
  0
BLOCK
  5
1C
100
AcDbEntity
  8
0
100
AcDbBlockBegin
  2
*Paper_Space
 70
0
 10
0.0
 20
0.0
 30
0.0
  3
*Paper_Space
  1

  0
ENDBLK
  5
1D
100
AcDbEntity
  8
0
100
AcDbBlockEnd
  0
BLOCK
  5
206
100
AcDbEntity
  8
0
100
AcDbBlockBegin
  2
_FILLED
 70
64
 10
0.0
 20
0.0
  3
_FILLED
  1

  0
SOLID
  5
207
100
AcDbEntity
  8
0
  6
BYBLOCK
 62
0
100
AcDbTrace
 10
0.0
 20
0.0
 11
-1.0
 21
0.2
 12
-1.0
 22
-0.2
 13
-1.0
 23
-0.2
  0
ENDBLK
  5
208
100
AcDbEntity
  8
0
  6
BYBLOCK
 62
0
100
AcDbBlockEnd
  0
ENDSEC
  0
SECTION
  2
ENTITIES
  0
LINE
  5
209
100
AcDbEntity
  8
0
100
AcDbLine
 62
7
  6
CONTINUOUS
 10
9.5224834891
 20
7.458391804
 11
11.8974834891
 21
7.458391804
  0
LINE
  5
20A
100
AcDbEntity
  8
0
100
AcDbLine
 62
7
  6
CONTINUOUS
 10
9.5224834891
 20
7.833391804
 11
9.5224834891
 21
7.458391804
  0
LINE
  5
20B
100
AcDbEntity
  8
0
100
AcDbLine
 62
7
  6
CONTINUOUS
 10
11.8974834891
 20
7.833391804
 11
9.5224834891
 21
7.833391804
  0
LINE
  5
20C
100
AcDbEntity
  8
0
100
AcDbLine
 62
7
  6
CONTINUOUS
 10
10.0537334891
 20
8.941391804
 11
10.0537334891
 21
7.833391804
  0
LINE
  5
20D
100
AcDbEntity
  8
0
100
AcDbLine
 62
7
  6
CONTINUOUS
 10
10.9240251687
 20
10.161391804
 11
10.8434842665
 21
10.068391181
  0
LINE
  5
20E
100
AcDbEntity
  8
0
100
AcDbLine
 62
7
  6
CONTINUOUS
 10
10.3349834891
 20
9.6093930784
 11
10.3349834891
 21
9.561391804
  0
LINE
  5
20F
100
AcDbEntity
  8
0
100
AcDbLine
 62
7
  6
CONTINUOUS
 10
10.3949834891
 20
9.561391804
 11
10.3949834891
 21
8.941391804
  0
LWPOLYLINE
  5
210
100
AcDbEntity
  8
0
100
AcDbPolyline
 62
7
  6
CONTINUOUS
 90
4
 70
0
 10
11.3681255218
 20
10.1395609434
 10
11.377735916
 20
10.1487145059
 10
11.3916915947
 20
10.157152002
 10
11.4021443525
 20
10.1606806116
  0
LINE
  5
211
100
AcDbEntity
  8
0
100
AcDbLine
 62
7
  6
CONTINUOUS
 10
11.3681194743
 20
10.1395539069
 11
11.3681222612
 21
10.1395571816
  0
LINE
  5
212
100
AcDbEntity
  8
0
100
AcDbLine
 62
7
  6
CONTINUOUS
 10
11.3681224861
 20
10.1395573845
 11
11.007903857
 21
9.7236127396
  0
LINE
  5
213
100
AcDbEntity
  8
0
100
AcDbLine
 62
7
  6
CONTINUOUS
 10
11.3662334891
 20
8.941391804
 11
10.0537334891
 21
8.941391804
  0
LINE
  5
214
100
AcDbEntity
  8
0
100
AcDbLine
 62
7
  6
CONTINUOUS
 10
11.0249834891
 20
9.561391804
 11
11.0249834891
 21
8.941391804
  0
LINE
  5
215
100
AcDbEntity
  8
0
100
AcDbLine
 62
7
  6
CONTINUOUS
 10
11.0849834891
 20
9.8126166323
 11
11.0849834891
 21
9.561391804
  0
LINE
  5
216
100
AcDbEntity
  8
0
100
AcDbLine
 62
7
  6
CONTINUOUS
 10
10.2899834891
 20
9.6873353648
 11
9.4869945179
 21
10.1509412634
  0
LINE
  5
217
100
AcDbEntity
  8
0
100
AcDbLine
 62
7
  6
CONTINUOUS
 10
10.3349834891
 20
9.561391804
 11
11.0849834891
 21
9.561391804
  0
LINE
  5
218
100
AcDbEntity
  8
0
100
AcDbLine
 62
7
  6
CONTINUOUS
 10
11.3662334891
 20
8.941391804
 11
11.3662334891
 21
7.833391804
  0
LINE
  5
219
100
AcDbEntity
  8
0
100
AcDbLine
 62
7
  6
CONTINUOUS
 10
10.1999834891
 20
10.1434420774
 11
10.1688936506
 21
10.161391804
  0
LINE
  5
21A
100
AcDbEntity
  8
0
100
AcDbLine
 62
7
  6
CONTINUOUS
 10
11.4021443525
 20
10.1606806116
 11
11.4055571819
 21
10.1613102314
  0
LINE
  5
21B
100
AcDbEntity
  8
0
100
AcDbLine
 62
7
  6
CONTINUOUS
 10
11.8974834891
 20
7.833391804
 11
11.8974834891
 21
7.458391804
  0
LINE
  5
21C
100
AcDbEntity
  8
0
100
AcDbLine
 62
7
  6
CONTINUOUS
 10
11.4043754293
 20
10.1613918041
 11
11.9474834891
 21
10.161391804
  0
LINE
  5
21D
100
AcDbEntity
  8
0
100
AcDbLine
 62
7
  6
CONTINUOUS
 10
9.4744053078
 20
10.1613948875
 11
11.2498666726
 21
10.161391804
  0
LINE
  5
21E
100
AcDbEntity
  8
0
100
AcDbLine
 62
7
  6
CONTINUOUS
 10
9.4724834891
 20
10.561391804
 11
11.9474834891
 21
10.561391804
  0
ARC
  5
21F
100
AcDbEntity
  8
0
100
AcDbCircle
 62
7
  6
CONTINUOUS
 10
9.4756652071
 20
10.4299916942
 40
0.2685997012
100
AcDbArc
 50
269.374788157
 51
269.7310960772
  0
ARC
  5
220
100
AcDbEntity
  8
0
100
AcDbCircle
 62
7
  6
CONTINUOUS
 10
11.9474834891
 20
10.361391804
 40
0.2
100
AcDbArc
 50
270.0
 51
90.0
  0
ARC
  5
221
100
AcDbEntity
  8
0
100
AcDbCircle
 62
7
  6
CONTINUOUS
 10
9.4724834891
 20
10.361391804
 40
0.2
100
AcDbArc
 50
90.0
 51
263.9650909819
  0
ARC
  5
222
100
AcDbEntity
  8
0
100
AcDbCircle
 62
7
  6
CONTINUOUS
 10
9.4416259288
 20
10.0719094574
 40
0.0911369978
100
AcDbArc
 50
68.0308684214
 51
69.0073483588
  0
ARC
  5
223
100
AcDbEntity
  8
0
100
AcDbCircle
 62
7
  6
CONTINUOUS
 10
9.4418780779
 20
10.0727163197
 40
0.0902933738
100
AcDbArc
 50
68.9733085049
 51
83.9104726163
  0
ARC
  5
224
100
AcDbEntity
  8
0
100
AcDbCircle
 62
7
  6
CONTINUOUS
 10
10.2449798781
 20
10.2213944047
 40
0.0900079523
100
AcDbArc
 50
240.0051866328
 51
317.7748259555
  0
ARC
  5
225
100
AcDbEntity
  8
0
100
AcDbCircle
 62
7
  6
CONTINUOUS
 10
10.2449752316
 20
9.609391185
 40
0.0900064545
100
AcDbArc
 50
0.0012052828
 51
59.9960503408
  0
ARC
  5
226
100
AcDbEntity
  8
0
100
AcDbCircle
 62
7
  6
CONTINUOUS
 10
9.4423770898
 20
10.0736000516
 40
0.0892881736
100
AcDbArc
 50
60.0197512346
 51
68.072034903
  0
SPLINE
  5
227
100
AcDbEntity
  8
0
100
AcDbSpline
 62
7
  6
CONTINUOUS
 70
0
 71
3
 72
23
 73
19
 74
0
 42
0.0000001
 43
0.0000001
 44
0.0000000001
 40
0.0
 40
0.0
 40
0.0
 40
0.0
 40
0.001128855
 40
0.0045694519
 40
0.0102926327
 40
0.0182692359
 40
0.0284701076
 40
0.0408661026
 40
0.0721240102
 40
0.111762386
 40
0.159466112
 40
0.2149198273
 40
0.2777971297
 40
0.3477000845
 40
0.4242045448
 40
0.5953329949
 40
0.7881260108
 40
1.0
 40
1.0
 40
1.0
 40
1.0
 10
9.4514566124
 20
10.1625001993
 30
0.0
 10
9.451448943
 20
10.1625025416
 30
0.0
 10
9.4515197743
 20
10.1624921567
 30
0.0
 10
9.4515551089
 20
10.162492568
 30
0.0
 10
9.4516976915
 20
10.1624772246
 30
0.0
 10
9.4518573838
 20
10.1624634781
 30
0.0
 10
9.4520772865
 20
10.1624430986
 30
0.0
 10
9.4524566211
 20
10.1624091432
 30
0.0
 10
9.4530471241
 20
10.1623568774
 30
0.0
 10
9.4538861212
 20
10.1622853889
 30
0.0
 10
9.4548973522
 20
10.1622031377
 30
0.0
 10
9.4560733145
 20
10.162112754
 30
0.0
 10
9.457407068
 20
10.1620167085
 30
0.0
 10
9.4588905154
 20
10.1619180126
 30
0.0
 10
9.4611421352
 20
10.1617817995
 30
0.0
 10
9.4642670193
 20
10.1616248004
 30
0.0
 10
9.4683549646
 20
10.1614800879
 30
0.0
 10
9.4712292758
 20
10.1614244137
 30
0.0
 10
9.4727343039
 20
10.1614079842
 30
0.0
  0
SPLINE
  5
228
100
AcDbEntity
  8
0
100
AcDbSpline
 62
9
  6
CONTINUOUS
 70
0
 71
3
 72
47
 73
43
 74
0
 42
0.0000001
 43
0.0000001
 44
0.0000000001
 40
0.0
 40
0.0
 40
0.0
 40
0.0
 40
0.0003223392
 40
0.0012751336
 40
0.0028373239
 40
0.004987852
 40
0.0077056605
 40
0.0109696932
 40
0.0190522115
 40
0.0290581061
 40
0.0407746085
 40
0.053980136
 40
0.0684531837
 40
0.1004549749
 40
0.1357036996
 40
0.1733309311
 40
0.2127389536
 40
0.2534463761
 40
0.2951607208
 40
0.3806523552
 40
0.4674080586
 40
0.5538926065
 40
0.5966515775
 40
0.638785988
 40
0.6800505299
 40
0.7201502485
 40
0.7588067457
 40
0.7957111135
 40
0.8305524407
 40
0.8630490031
 40
0.892873517
 40
0.9197233812
 40
0.9432479469
 40
0.9631170411
 40
0.9715716558
 40
0.9789891869
 40
0.9853358036
 40
0.9905763289
 40
0.9946784478
 40
0.9976252194
 40
0.9994035038
 40
1.0
 40
1.0
 40
1.0
 40
1.0
 10
10.1999837565
 20
10.1434419231
 30
0.0
 10
10.2000108704
 20
10.1433960599
 30
0.0
 10
10.2001250388
 20
10.1432188274
 30
0.0
 10
10.2003704493
 20
10.1428192188
 30
0.0
 10
10.2007791137
 20
10.1421652367
 30
0.0
 10
10.2013392041
 20
10.1412619078
 30
0.0
 10
10.2020476981
 20
10.1401196083
 30
0.0
 10
10.2032709917
 20
10.1381428508
 30
0.0
 10
10.2051246868
 20
10.1351395774
 30
0.0
 10
10.2077049676
 20
10.1309430031
 30
0.0
 10
10.2107176812
 20
10.1260183046
 30
0.0
 10
10.2141007039
 20
10.1204545994
 30
0.0
 10
10.2191992429
 20
10.1120099984
 30
0.0
 10
10.2261163914
 20
10.1004074638
 30
0.0
 10
10.2348644627
 20
10.0854415136
 30
0.0
 10
10.2440634448
 20
10.0693221851
 30
0.0
 10
10.2535061393
 20
10.052304591
 30
0.0
 10
10.2630313827
 20
10.0345620298
 30
0.0
 10
10.2757527271
 20
10.0098942611
 30
0.0
 10
10.2910466935
 20
9.97799386
 30
0.0
 10
10.30757593
 20
9.9385277997
 30
0.0
 10
10.3189842585
 20
9.9046461859
 30
0.0
 10
10.3260356382
 20
9.8771988299
 30
0.0
 10
10.3300625632
 20
9.8567250362
 30
0.0
 10
10.3326492983
 20
9.8364599078
 30
0.0
 10
10.3336917156
 20
9.8166280356
 30
0.0
 10
10.3330779227
 20
9.7974973503
 30
0.0
 10
10.3309239967
 20
9.7793523026
 30
0.0
 10
10.3273378546
 20
9.7624764099
 30
0.0
 10
10.3226761696
 20
9.7470891474
 30
0.0
 10
10.3172836292
 20
9.7333570753
 30
0.0
 10
10.3115850262
 20
9.721378647
 30
0.0
 10
10.3059890103
 20
9.7111994903
 30
0.0
 10
10.3014946281
 20
9.703899471
 30
0.0
 10
10.2982544577
 20
9.6989595359
 30
0.0
 10
10.2961901926
 20
9.6959219349
 30
0.0
 10
10.2943872074
 20
9.6933495533
 30
0.0
 10
10.2928732471
 20
9.6912441023
 30
0.0
 10
10.2916765983
 20
9.6896026899
 30
0.0
 10
10.2908074144
 20
9.6884308382
 30
0.0
 10
10.2902824659
 20
9.6877250544
 30
0.0
 10
10.2900425197
 20
9.6874143778
 30
0.0
 10
10.2899837565
 20
9.6873352104
 30
0.0
  0
SPLINE
  5
229
100
AcDbEntity
  8
0
100
AcDbSpline
 62
9
  6
CONTINUOUS
 70
0
 71
3
 72
42
 73
38
 74
0
 42
0.0000001
 43
0.0000001
 44
0.0000000001
 40
0.0
 40
0.0
 40
0.0
 40
0.0
 40
0.0000436243
 40
0.0001742793
 40
0.0003909529
 40
0.0006926328
 40
0.0010783069
 40
0.0015469633
 40
0.0027291757
 40
0.0042311771
 40
0.0060448766
 40
0.0081621857
 40
0.0105750183
 40
0.0162549209
 40
0.0230199504
 40
0.0308054965
 40
0.0395443207
 40
0.0491640877
 40
0.0595919671
 40
0.082581209
 40
0.1079327556
 40
0.1351720523
 40
0.1640237608
 40
0.1942366478
 40
0.2255743485
 40
0.2578768455
 40
0.2910123316
 40
0.3248524121
 40
0.3943192916
 40
0.4658326874
 40
0.5390160773
 40
0.6135358491
 40
0.6891526341
 40
0.7657092792
 40
0.843119642
 40
0.921260025
 40
1.0
 40
1.0
 40
1.0
 40
1.0
 10
9.4869946302
 20
10.1509411986
 30
0.0
 10
9.4869920155
 20
10.1509429024
 30
0.0
 10
9.487017883
 20
10.1509340806
 30
0.0
 10
9.4870318322
 20
10.150933227
 30
0.0
 10
9.4870844864
 20
10.1509191628
 30
0.0
 10
9.4871440846
 20
10.1509055161
 30
0.0
 10
9.4872257875
 20
10.1508857618
 30
0.0
 10
9.4873669164
 20
10.1508522689
 30
0.0
 10
9.4875867739
 20
10.1508000912
 30
0.0
 10
9.4878998085
 20
10.1507263996
 30
0.0
 10
9.4882783111
 20
10.1506378243
 30
0.0
 10
9.4887203336
 20
10.1505350978
 30
0.0
 10
9.4894320372
 20
10.1503708439
 30
0.0
 10
9.4904682923
 20
10.1501344065
 30
0.0
 10
9.4918803366
 20
10.1498171509
 30
0.0
 10
9.4935071525
 20
10.1494576157
 30
0.0
 10
9.4953348848
 20
10.1490608801
 30
0.0
 10
9.4973491629
 20
10.1486325145
 30
0.0
 10
9.5003635023
 20
10.1480059647
 30
0.0
 10
9.5044862627
 20
10.1471821584
 30
0.0
 10
9.5098005242
 20
10.1461852045
 30
0.0
 10
9.5155408989
 20
10.1451877442
 30
0.0
 10
9.5216378288
 20
10.1442141307
 30
0.0
 10
9.5280384094
 20
10.1432867788
 30
0.0
 10
9.5346974576
 20
10.142427102
 30
0.0
 10
9.5415771887
 20
10.1416506809
 30
0.0
 10
9.548647085
 20
10.1409711391
 30
0.0
 10
9.5583782276
 20
10.140205943
 30
0.0
 10
9.5708711334
 20
10.1395651278
 30
0.0
 10
9.5861944741
 20
10.1393639419
 30
0.0
 10
9.6018753623
 20
10.1397989979
 30
0.0
 10
9.6178157346
 20
10.1409440875
 30
0.0
 10
9.6339221065
 20
10.1428974259
 30
0.0
 10
9.6501030945
 20
10.1457624075
 30
0.0
 10
9.6662623151
 20
10.1496306426
 30
0.0
 10
9.682273648
 20
10.1546316502
 30
0.0
 10
9.6927052422
 20
10.158815512
 30
0.0
 10
9.6978312168
 20
10.1611508151
 30
0.0
  0
SPLINE
  5
22A
100
AcDbEntity
  8
0
100
AcDbSpline
 62
9
  6
CONTINUOUS
 70
0
 71
3
 72
9
 73
5
 74
0
 42
0.0000001
 43
0.0000001
 44
0.0000000001
 40
0.0
 40
0.0
 40
0.0
 40
0.0
 40
0.2417024665
 40
1.0
 40
1.0
 40
1.0
 40
1.0
 10
10.9147938033
 20
10.1504469832
 30
0.0
 10
10.9142774742
 20
10.1512533319
 30
0.0
 10
10.9122087933
 20
10.1546325205
 30
0.0
 10
10.9103998381
 20
10.1581682287
 30
0.0
 10
10.9091590655
 20
10.1609039683
 30
0.0
  0
SPLINE
  5
22B
100
AcDbEntity
  8
0
100
AcDbSpline
 62
9
  6
CONTINUOUS
 70
0
 71
3
 72
43
 73
39
 74
0
 42
0.0000001
 43
0.0000001
 44
0.0000000001
 40
0.0
 40
0.0
 40
0.0
 40
0.0
 40
0.00003675
 40
0.0001464577
 40
0.0003290328
 40
0.0005843848
 40
0.0009124231
 40
0.0013130575
 40
0.0023317528
 40
0.0036393184
 40
0.0052332784
 40
0.007110905
 40
0.0092694742
 40
0.0117060121
 40
0.0144168155
 40
0.0206459269
 40
0.0279241213
 40
0.0362106941
 40
0.0454628071
 40
0.0556355128
 40
0.06668318
 40
0.0785574496
 40
0.1045892515
 40
0.1333413793
 40
0.1644290827
 40
0.1974811891
 40
0.232146186
 40
0.2680973372
 40
0.3426933207
 40
0.3808673366
 40
0.4193606079
 40
0.4967117358
 40
0.5738773548
 40
0.6502703021
 40
0.7254253057
 40
0.7988534111
 40
0.8698981059
 40
1.0
 40
1.0
 40
1.0
 40
1.0
 10
10.3349834891
 20
9.6093930784
 30
0.0
 10
10.334985147
 20
9.6093998432
 30
0.0
 10
10.3350028169
 20
9.6094224638
 30
0.0
 10
10.3350291458
 20
9.6094785142
 30
0.0
 10
10.335081908
 20
9.6095683078
 30
0.0
 10
10.3351514604
 20
9.6096955685
 30
0.0
 10
10.3352424373
 20
9.6098584331
 30
0.0
 10
10.3354029933
 20
9.610148046
 30
0.0
 10
10.3356536728
 20
9.6106000088
 30
0.0
 10
10.3360132371
 20
9.6112501714
 30
0.0
 10
10.3364505536
 20
9.6120433685
 30
0.0
 10
10.336964186
 20
9.6129786581
 30
0.0
 10
10.3375527738
 20
9.6140549673
 30
0.0
 10
10.3382147537
 20
9.6152711141
 30
0.0
 10
10.339240964
 20
9.6171673412
 30
0.0
 10
10.3406922288
 20
9.6198768863
 30
0.0
 10
10.3426188544
 20
9.6235305116
 30
0.0
 10
10.3447812643
 20
9.6277073751
 30
0.0
 10
10.3471567664
 20
9.6323914693
 30
0.0
 10
10.3497192978
 20
9.637567182
 30
0.0
 10
10.3524422731
 20
9.6432176421
 30
0.0
 10
10.3563718186
 20
9.6516224562
 30
0.0
 10
10.3614971656
 20
9.6631712131
 30
0.0
 10
10.3676581049
 20
9.6782375195
 30
0.0
 10
10.3737781693
 20
9.6947485728
 30
0.0
 10
10.3796419701
 20
9.7125372716
 30
0.0
 10
10.3850580437
 20
9.7314294508
 30
0.0
 10
10.3915503351
 20
9.7581802593
 30
0.0
 10
10.3964270696
 20
9.7859821827
 30
0.0
 10
10.399622778
 20
9.8144774228
 30
0.0
 10
10.4016997788
 20
9.8436007832
 30
0.0
 10
10.402202574
 20
9.8802120955
 30
0.0
 10
10.3998845093
 20
9.9239395977
 30
0.0
 10
10.3951806606
 20
9.9670489621
 30
0.0
 10
10.388611055
 20
10.0091901843
 30
0.0
 10
10.3806628852
 20
10.0500570578
 30
0.0
 10
10.3691779503
 20
10.1008178544
 30
0.0
 10
10.3594472363
 20
10.1376908077
 30
0.0
 10
10.3527551299
 20
10.1614226366
 30
0.0
  0
SPLINE
  5
22C
100
AcDbEntity
  8
0
100
AcDbSpline
 62
9
  6
CONTINUOUS
 70
0
 71
3
 72
11
 73
7
 74
0
 42
0.0000001
 43
0.0000001
 44
0.0000000001
 40
0.0
 40
0.0
 40
0.0
 40
0.0
 40
0.2954405679
 40
0.5595275962
 40
0.7930854438
 40
1.0
 40
1.0
 40
1.0
 40
1.0
 10
11.3392469278
 20
10.1625001993
 30
0.0
 10
11.3456619335
 20
10.1625007736
 30
0.0
 10
11.357811449
 20
10.1623992179
 30
0.0
 10
11.3750275086
 20
10.161991398
 30
0.0
 10
11.3903192851
 20
10.1615521149
 30
0.0
 10
11.3998830872
 20
10.1613916377
 30
0.0
 10
11.4043758962
 20
10.1613919282
 30
0.0
  0
SPLINE
  5
22D
100
AcDbEntity
  8
0
100
AcDbSpline
 62
9
  6
CONTINUOUS
 70
0
 71
3
 72
11
 73
7
 74
0
 42
0.0000001
 43
0.0000001
 44
0.0000000001
 40
0.0
 40
0.0
 40
0.0
 40
0.0
 40
0.262192657
 40
0.516076405
 40
0.7612188392
 40
1.0
 40
1.0
 40
1.0
 40
1.0
 10
11.3214779394
 20
10.1509412634
 30
0.0
 10
11.3227106739
 20
10.152364704
 30
0.0
 10
11.3252966253
 20
10.1550345742
 30
0.0
 10
11.3295988838
 20
10.158438037
 30
0.0
 10
11.3342417778
 20
10.1610427747
 30
0.0
 10
11.337569072
 20
10.1621454433
 30
0.0
 10
11.3392468729
 20
10.1625001989
 30
0.0
  0
SPLINE
  5
22E
100
AcDbEntity
  8
0
100
AcDbSpline
 62
9
  6
CONTINUOUS
 70
0
 71
3
 72
35
 73
31
 74
0
 42
0.0000001
 43
0.0000001
 44
0.0000000001
 40
0.0
 40
0.0
 40
0.0
 40
0.0
 40
0.0313947546
 40
0.0629025873
 40
0.0944792857
 40
0.1260945492
 40
0.1577324365
 40
0.1893799611
 40
0.2210323018
 40
0.2526846427
 40
0.3159711384
 40
0.3476212967
 40
0.3792718124
 40
0.4425511402
 40
0.4742035982
 40
0.5058548391
 40
0.5375053775
 40
0.5691536351
 40
0.6323960485
 40
0.6956316889
 40
0.7272671199
 40
0.7588656057
 40
0.7903813352
 40
0.8217440759
 40
0.8528561572
 40
0.8835942163
 40
0.913816026
 40
0.9433736575
 40
0.9721332583
 40
1.0
 40
1.0
 40
1.0
 40
1.0
 10
10.7897918453
 20
10.1614057615
 30
0.0
 10
10.7849080709
 20
10.1560130294
 30
0.0
 10
10.7755122499
 20
10.1448505951
 30
0.0
 10
10.7624818044
 20
10.1272408532
 30
0.0
 10
10.7504283496
 20
10.1088886504
 30
0.0
 10
10.7393096688
 20
10.0899227168
 30
0.0
 10
10.7290979333
 20
10.070435893
 30
0.0
 10
10.7197709037
 20
10.0505018762
 30
0.0
 10
10.7113253002
 20
10.0301746842
 30
0.0
 10
10.7012478589
 20
10.0026163479
 30
0.0
 10
10.6929780119
 20
9.9744219467
 30
0.0
 10
10.6866683482
 20
9.9457632886
 30
0.0
 10
10.681737191
 20
9.9168386215
 30
0.0
 10
10.6790207922
 20
9.8875603341
 30
0.0
 10
10.6788696299
 20
9.8582110323
 30
0.0
 10
10.6801383583
 20
9.8362269216
 30
0.0
 10
10.6828904369
 20
9.8143762657
 30
0.0
 10
10.6886753438
 20
9.7856057755
 30
0.0
 10
10.7000643436
 20
9.7505940698
 30
0.0
 10
10.7173394341
 20
9.7180416169
 30
0.0
 10
10.7344812289
 20
9.6942262499
 30
0.0
 10
10.7489147506
 20
9.6776360903
 30
0.0
 10
10.7647696845
 20
9.6624922253
 30
0.0
 10
10.7818725411
 20
9.6489529212
 30
0.0
 10
10.8000164722
 20
9.6371716932
 30
0.0
 10
10.8189609949
 20
9.6272836978
 30
0.0
 10
10.8384453446
 20
9.6194206877
 30
0.0
 10
10.8581888323
 20
9.6136992103
 30
0.0
 10
10.8778918443
 20
9.6102057601
 30
0.0
 10
10.8910255852
 20
9.6093934209
 30
0.0
 10
10.8974834891
 20
9.6093930784
 30
0.0
  0
SPLINE
  5
22F
100
AcDbEntity
  8
0
100
AcDbSpline
 62
9
  6
CONTINUOUS
 70
0
 71
3
 72
21
 73
17
 74
0
 42
0.0000001
 43
0.0000001
 44
0.0000000001
 40
0.0
 40
0.0
 40
0.0
 40
0.0
 40
0.0639008381
 40
0.1261611339
 40
0.1869328275
 40
0.2464962341
 40
0.3052063362
 40
0.3634874908
 40
0.4217946961
 40
0.4805757236
 40
0.5402380809
 40
0.6011231885
 40
0.6634872877
 40
0.7274931582
 40
0.8605635777
 40
1.0
 40
1.0
 40
1.0
 40
1.0
 10
10.8974834891
 20
9.6093930784
 30
0.0
 10
10.9023838748
 20
9.6093931523
 30
0.0
 10
10.912066226
 20
9.6098481973
 30
0.0
 10
10.9262705439
 20
9.611954207
 30
0.0
 10
10.9398559147
 20
9.6154580829
 30
0.0
 10
10.952724488
 20
9.620326011
 30
0.0
 10
10.9647998184
 20
9.6265130331
 30
0.0
 10
10.9760238349
 20
9.6339625605
 30
0.0
 10
10.9863595496
 20
9.6426085901
 30
0.0
 10
10.9957893594
 20
9.652379099
 30
0.0
 10
11.004313216
 20
9.6631984033
 30
0.0
 10
11.0119467428
 20
9.674988129
 30
0.0
 10
11.0187182041
 20
9.6876688832
 30
0.0
 10
11.026747272
 20
9.7058898826
 30
0.0
 10
11.0347384301
 20
9.7304975081
 30
0.0
 10
11.0391440543
 20
9.7509548646
 30
0.0
 10
11.0409963837
 20
9.761486214
 30
0.0
  0
SPLINE
  5
230
100
AcDbEntity
  8
0
100
AcDbSpline
 62
9
  6
CONTINUOUS
 70
0
 71
3
 72
24
 73
20
 74
0
 42
0.0000001
 43
0.0000001
 44
0.0000000001
 40
0.0
 40
0.0
 40
0.0
 40
0.0
 40
0.0562192974
 40
0.1135644317
 40
0.1721390845
 40
0.2319692194
 40
0.2930797606
 40
0.3553998588
 40
0.483227255
 40
0.5486051882
 40
0.6147950072
 40
0.681597564
 40
0.748708874
 40
0.782223577
 40
0.8156064058
 40
0.8811991233
 40
0.9436011537
 40
0.9727582521
 40
1.0
 40
1.0
 40
1.0
 40
1.0
 10
11.0735268035
 20
10.1613828477
 30
0.0
 10
11.0776020342
 20
10.1589994422
 30
0.0
 10
11.0861586032
 20
10.1547268162
 30
0.0
 10
11.0997304281
 20
10.1496905733
 30
0.0
 10
11.1139837608
 20
10.1457984293
 30
0.0
 10
11.1287925359
 20
10.1429167046
 30
0.0
 10
11.1440653523
 20
10.1409526777
 30
0.0
 10
11.165115843
 20
10.1394043022
 30
0.0
 10
11.1866011481
 20
10.1393184166
 30
0.0
 10
11.2083615587
 20
10.1403357546
 30
0.0
 10
11.2249741882
 20
10.1415982991
 30
0.0
 10
11.2416972303
 20
10.1432528949
 30
0.0
 10
11.255664905
 20
10.1448631032
 30
0.0
 10
11.2668380481
 20
10.1462047536
 30
0.0
 10
11.2778833435
 20
10.1475416526
 30
0.0
 10
11.291344125
 20
10.1491100018
 30
0.0
 10
11.3044909741
 20
10.1502995684
 30
0.0
 10
11.3144539366
 20
10.1508361459
 30
0.0
 10
11.3191902176
 20
10.1509411642
 30
0.0
 10
11.3214778506
 20
10.1509411201
 30
0.0
  0
SPLINE
  5
231
100
AcDbEntity
  8
0
100
AcDbSpline
 62
9
  6
CONTINUOUS
 70
0
 71
3
 72
33
 73
29
 74
0
 42
0.0000001
 43
0.0000001
 44
0.0000000001
 40
0.0
 40
0.0
 40
0.0
 40
0.0
 40
0.0273129606
 40
0.055412387
 40
0.1133907623
 40
0.1430319064
 40
0.1729179871
 40
0.2328941869
 40
0.2628696238
 40
0.292762182
 40
0.3225859901
 40
0.3523906983
 40
0.3822459833
 40
0.4122495154
 40
0.442493423
 40
0.4730357058
 40
0.5039316531
 40
0.5352053249
 40
0.5987878675
 40
0.6310801413
 40
0.6636498676
 40
0.7295918542
 40
0.7629390658
 40
0.7964782667
 40
0.8639687617
 40
0.931865057
 40
0.9659202653
 40
1.0
 40
1.0
 40
1.0
 40
1.0
 10
10.9199833634
 20
9.6873352196
 30
0.0
 10
10.9153710867
 20
9.6873354377
 30
0.0
 10
10.9060093016
 20
9.687733129
 30
0.0
 10
10.886988103
 20
9.6900496895
 30
0.0
 10
10.8679014104
 20
9.6946324225
 30
0.0
 10
10.8492245784
 20
9.7013795558
 30
0.0
 10
10.8308111993
 20
9.7096729136
 30
0.0
 10
10.8133825219
 20
9.7201829704
 30
0.0
 10
10.7975938453
 20
9.7328814769
 30
0.0
 10
10.7867293399
 20
9.7434714269
 30
0.0
 10
10.7770239746
 20
9.7550975066
 30
0.0
 10
10.7686034452
 20
9.7676795352
 30
0.0
 10
10.7615793841
 20
9.78112772
 30
0.0
 10
10.7560543051
 20
9.7953363121
 30
0.0
 10
10.7520106398
 20
9.8101526342
 30
0.0
 10
10.749448791
 20
9.8254461004
 30
0.0
 10
10.7483086029
 20
9.8410815484
 30
0.0
 10
10.7485474996
 20
9.862335788
 30
0.0
 10
10.7512624476
 20
9.8837160551
 30
0.0
 10
10.755925572
 20
9.9049054971
 30
0.0
 10
10.761855497
 20
9.9261938716
 30
0.0
 10
10.7694762648
 20
9.947157903
 30
0.0
 10
10.778502114
 20
9.9676968515
 30
0.0
 10
10.7884655441
 20
9.9880905056
 30
0.0
 10
10.8024600158
 20
10.0129821554
 30
0.0
 10
10.8184020441
 20
10.036781434
 30
0.0
 10
10.8323046057
 20
10.055074002
 30
0.0
 10
10.8396382139
 20
10.0639453942
 30
0.0
 10
10.8434039041
 20
10.0682973149
 30
0.0
  0
SPLINE
  5
232
100
AcDbEntity
  8
0
100
AcDbSpline
 62
9
  6
CONTINUOUS
 70
0
 71
3
 72
25
 73
21
 74
0
 42
0.0000001
 43
0.0000001
 44
0.0000000001
 40
0.0
 40
0.0
 40
0.0
 40
0.0
 40
0.1500408726
 40
0.2835380242
 40
0.5021912271
 40
0.5901060645
 40
0.6663681362
 40
0.732571963
 40
0.7898084844
 40
0.8809082751
 40
0.9159388644
 40
0.9445055898
 40
0.9564498648
 40
0.9668533475
 40
0.9757341572
 40
0.983120803
 40
0.9890635571
 40
0.9936621991
 40
0.997139008
 40
1.0
 40
1.0
 40
1.0
 40
1.0
 10
11.3214778657
 20
10.1509411376
 30
0.0
 10
11.3239138398
 20
10.1509412016
 30
0.0
 10
11.3285188039
 20
10.150830953
 30
0.0
 10
11.3366492714
 20
10.1502004112
 30
0.0
 10
11.343726412
 20
10.149066897
 30
0.0
 10
11.3497313251
 20
10.1474484389
 30
0.0
 10
11.3532808278
 20
10.146263296
 30
0.0
 10
11.3563031635
 20
10.145086109
 30
0.0
 10
11.3594867144
 20
10.1436702895
 30
0.0
 10
11.3621400273
 20
10.1423160695
 30
0.0
 10
11.3643401403
 20
10.1411048377
 30
0.0
 10
11.3654132664
 20
10.1405109573
 30
0.0
 10
11.3661438125
 20
10.1401241021
 30
0.0
 10
11.3665965094
 20
10.1398957021
 30
0.0
 10
11.3669891764
 20
10.1397128794
 30
0.0
 10
11.3673234617
 20
10.1395772173
 30
0.0
 10
11.3676017544
 20
10.1394897564
 30
0.0
 10
11.3678270221
 20
10.139452085
 30
0.0
 10
11.3680078489
 20
10.139466081
 30
0.0
 10
11.368099555
 20
10.1395246824
 30
0.0
 10
11.3681294529
 20
10.1395602304
 30
0.0
  0
SPLINE
  5
233
100
AcDbEntity
  8
0
100
AcDbSpline
 62
9
  6
CONTINUOUS
 70
0
 71
3
 72
15
 73
11
 74
0
 42
0.0000001
 43
0.0000001
 44
0.0000000001
 40
0.0
 40
0.0
 40
0.0
 40
0.0
 40
0.0837633585
 40
0.179855823
 40
0.2891273537
 40
0.411432431
 40
0.5460785997
 40
0.6909862475
 40
0.8435078946
 40
1.0
 40
1.0
 40
1.0
 40
1.0
 10
10.9199834889
 20
9.6873353648
 30
0.0
 10
10.9184731458
 20
9.6855913709
 30
0.0
 10
10.9154757207
 20
9.6816302941
 30
0.0
 10
10.9113977307
 20
9.6747742216
 30
0.0
 10
10.9075805029
 20
9.6665808479
 30
0.0
 10
10.9041613782
 20
9.657077558
 30
0.0
 10
10.9013065392
 20
9.646371185
 30
0.0
 10
10.8991361538
 20
9.6346582446
 30
0.0
 10
10.8977935439
 20
9.6222174149
 30
0.0
 10
10.8974834888
 20
9.6137033272
 30
0.0
 10
10.8974834888
 20
9.6093930784
 30
0.0
  0
SPLINE
  5
234
100
AcDbEntity
  8
0
100
AcDbSpline
 62
9
  6
CONTINUOUS
 70
0
 71
3
 72
15
 73
11
 74
0
 42
0.0000001
 43
0.0000001
 44
0.0000000001
 40
0.0
 40
0.0
 40
0.0
 40
0.0
 40
0.1200736742
 40
0.2388981857
 40
0.3580648156
 40
0.4790705054
 40
0.6030614231
 40
0.730969751
 40
0.8632648916
 40
1.0
 40
1.0
 40
1.0
 40
1.0
 10
11.0078569277
 20
9.7235593636
 30
0.0
 10
11.0052847485
 20
9.7205921966
 30
0.0
 10
10.9998282146
 20
9.7149714468
 30
0.0
 10
10.9907112139
 20
9.7075798123
 30
0.0
 10
10.9807469911
 20
9.7013172264
 30
0.0
 10
10.9699641911
 20
9.696199397
 30
0.0
 10
10.9584107668
 20
9.6922213854
 30
0.0
 10
10.9461476057
 20
9.6893891819
 30
0.0
 10
10.9332588921
 20
9.6876980412
 30
0.0
 10
10.9244552489
 20
9.6873354455
 30
0.0
 10
10.9199835038
 20
9.6873353817
 30
0.0
  0
SPLINE
  5
235
100
AcDbEntity
  8
0
100
AcDbSpline
 62
9
  6
CONTINUOUS
 70
0
 71
3
 72
11
 73
7
 74
0
 42
0.0000001
 43
0.0000001
 44
0.0000000001
 40
0.0
 40
0.0
 40
0.0
 40
0.0
 40
0.2598011406
 40
0.516152378
 40
0.7648752767
 40
1.0
 40
1.0
 40
1.0
 40
1.0
 10
11.249866407
 20
10.1613918945
 30
0.0
 10
11.2576074781
 20
10.1613916121
 30
0.0
 10
11.2729868539
 20
10.1615282653
 30
0.0
 10
11.2957731747
 20
10.1619556334
 30
0.0
 10
11.3178243161
 20
10.1623718325
 30
0.0
 10
11.3322411187
 20
10.1625007517
 30
0.0
 10
11.3392469278
 20
10.1625001993
 30
0.0
  0
ENDSEC
  0
SECTION
  2
OBJECTS
  0
DICTIONARY
  5
C
100
AcDbDictionary
280
0
281
1
  3
ACAD_GROUP
350
D
  3
ACAD_MLINESTYLE
350
17
  3
ACAD_LAYOUT
350
1A
  3
ACAD_PLOTSETTINGS
350
19
  3
ACAD_PLOTSTYLENAME
350
E
  0
DICTIONARY
  5
D
102
{ACAD_REACTORS
330
C
102
}
100
AcDbDictionary
280
0
281
1
  0
ACDBDICTIONARYWDFLT
  5
E
102
{ACAD_REACTORS
330
C
102
}
100
AcDbDictionary
281
1
  3
Normal
350
F
100
AcDbDictionaryWithDefault
340
F
  0
DICTIONARY
  5
17
102
{ACAD_REACTORS
330
C
102
}
100
AcDbDictionary
280
0
281
1
  3
Standard
350
18
  0
DICTIONARY
  5
19
102
{ACAD_REACTORS
330
C
102
}
100
AcDbDictionary
281
1
  0
DICTIONARY
  5
1A
102
{ACAD_REACTORS
330
C
102
}
100
AcDbDictionary
281
1
  3
Model
350
236
  3
Layout1
350
237
  0
ACDBPLACEHOLDER
  5
F
102
{ACAD_REACTORS
330
E
102
}
  0
MLINESTYLE
  5
18
102
{ACAD_REACTORS
330
17
102
}
100
AcDbMlineStyle
  2
STANDARD
 70
0
  3

 62
256
 51
90.0
 52
90.0
 71
2
 49
0.5
 62
256
  6
BYLAYER
 49
-0.5
 62
256
  6
BYLAYER
  0
LAYOUT
  5
236
102
{ACAD_REACTORS
330
1A
102
}
100
AcDbPlotSettings
  1

  2
none_device
  4
ANSI_C_(22.00_x_17.00_Inches)
  6

 40
0.0
 41
0.0
 42
0.0
 43
0.0
 44
558.8
 45
431.8
 46
0.0
 47
0.0
 48
0.0
 49
0.0
140
0.0
141
0.0
142
1.0
143
1.0
 70
1024
 72
0
 73
0
 74
0
  7

 75
0
147
1.0
148
0.0
149
0.0
100
AcDbLayout
  1
Model
 70
0
 71
0
 10
0.0
 20
0.0
 11
22.0
 21
17.0
 12
0.0
 22
0.0
 32
0.0
 14
0.0
 24
0.0
 34
0.0
 15
0.0
 25
0.0
 35
0.0
146
0.0
 13
0.0
 23
0.0
 33
0.0
 16
1.0
 26
0.0
 36
0.0
 17
0.0
 27
1.0
 37
0.0
 76
0
330
202
345
0
346
0
  0
LAYOUT
  5
237
102
{ACAD_REACTORS
330
1A
102
}
100
AcDbPlotSettings
  1

  2
none_device
  4
ANSI_C_(22.00_x_17.00_Inches)
  6

 40
0.0
 41
0.0
 42
0.0
 43
0.0
 44
558.8
 45
431.8
 46
0.0
 47
0.0
 48
0.0
 49
0.0
140
0.0
141
0.0
142
1.0
143
1.0
 70
0
 72
0
 73
0
 74
0
  7

 75
0
147
1.0
148
0.0
149
0.0
100
AcDbLayout
  1
Layout1
 70
0
 71
1
 10
0.0
 20
0.0
 11
22.0
 21
17.0
 12
0.0
 22
0.0
 32
0.0
 14
0.0
 24
0.0
 34
0.0
 15
0.0
 25
0.0
 35
0.0
146
0.0
 13
0.0
 23
0.0
 33
0.0
 16
1.0
 26
0.0
 36
0.0
 17
0.0
 27
1.0
 37
0.0
 76
0
330
203
345
0
346
0
  0
ENDSEC
  0
EOF
