  0
SECTION
  2
HEADER
  9
$ACADVER
  1
AC1015
  9
$DWGCODEPAGE
  3
ANSI_1252
  9
$EXTMAX
 10
33.1102362205
 20
23.3858267717
 30
0.0
  9
$EXTMIN
 10
0.0
 20
0.0
 30
0.0
  9
$LIMMIN
 10
0.0
 20
0.0
  9
$LIMMAX
 10
33.1102362205
 20
23.3858267717
  9
$VIEWCTR
 10
16.5551181102
 20
11.6929133858
  9
$VIEWSIZE
 40
23.3858267717
  9
$CLAYER
  8
0
  9
$LTSCALE
 40
1.8210629921
  9
$CELTYPE
  6
BYLAYER
  9
$DIMSCALE
 40
1.0
  9
$DIMASZ
 40
0.1875
  9
$DIMEXO
 40
0.2069389764
  9
$DIMDLI
 40
1.2581889764
  9
$DIMEXE
 40
0.595984252
  9
$DIMCEN
 40
0.297992126
  9
$DIMLFAC
 40
1.0
  9
$DIMBLK
  1
_CLOSED
  9
$DIMTXT
 40
0.15625
  9
$DIMTOL
 70
0
  9
$DIMLIM
 70
0
  9
$DIMTFAC
 40
1.0
  9
$PDMODE
 70
3
  9
$PDSIZE
 40
0.3125
  9
$HANDSEED
  5
43E
  9
$TILEMODE
 70
1
  9
$MEASUREMENT
 70
0
  9
$INSUNITS
 70
1
  0
ENDSEC
  0
SECTION
  2
CLASSES
  0
CLASS
  1
ACDBDICTIONARYWDFLT
  2
AcDbDictionaryWithDefault
  3
AutoCAD 2000
 90
0
280
0
281
0
  0
CLASS
  1
ACDBPLACEHOLDER
  2
AcDbPlaceHolder
  3
AutoCAD 2000
 90
0
280
0
281
0
  0
CLASS
  1
LAYOUT
  2
AcDbLayout
  3
AutoCAD 2000
 90
0
280
0
281
0
  0
ENDSEC
  0
SECTION
  2
TABLES
  0
TABLE
  2
VPORT
  5
8
100
AcDbSymbolTable
 70
2
  0
VPORT
  5
1F4
100
AcDbSymbolTableRecord
100
AcDbViewportTableRecord
  2
*ACTIVE
 70
0
 10
0.0
 20
0.0
 11
1.0
 21
1.0
 12
16.5551181102
 22
11.6929133858
 13
0.0
 23
0.0
 14
1.0
 24
1.0
 15
0.0
 25
0.0
 16
0.0
 26
0.0
 36
1.0
 17
0.0
 27
0.0
 37
0.0
 40
23.3858267717
 41
1.4158249158
 42
50.0
 43
0.0
 44
0.0
 50
0.0
 51
0.0
 71
0
 72
100
 73
1
 74
1
 75
0
 76
0
 77
0
 78
0
  0
ENDTAB
  0
TABLE
  2
LTYPE
  5
5
100
AcDbSymbolTable
 70
6
  0
LTYPE
  5
14
100
AcDbSymbolTableRecord
100
AcDbLinetypeTableRecord
  2
BYBLOCK
 70
0
  3

 72
65
 73
0
 40
0.0
  0
LTYPE
  5
15
100
AcDbSymbolTableRecord
100
AcDbLinetypeTableRecord
  2
BYLAYER
 70
0
  3

 72
65
 73
0
 40
0.0
  0
LTYPE
  5
16
100
AcDbSymbolTableRecord
100
AcDbLinetypeTableRecord
  2
CONTINUOUS
 70
64
  3
Solid line
 72
65
 73
0
 40
0.0
  0
LTYPE
  5
1F5
100
AcDbSymbolTableRecord
100
AcDbLinetypeTableRecord
  2
CENTER
 70
64
  3
____ _ ____ _ ____ _ ____ _ ____ _ ____ _ ____
 72
65
 73
4
 40
0.6
 49
0.375
 74
0
 49
-0.075
 74
0
 49
0.075
 74
0
 49
-0.075
 74
0
  0
LTYPE
  5
1F6
100
AcDbSymbolTableRecord
100
AcDbLinetypeTableRecord
  2
HIDDEN
 70
64
  3
- - - - - - - - - - - - - - - - - - - -
 72
65
 73
2
 40
0.2
 49
0.1
 74
0
 49
-0.1
 74
0
  0
LTYPE
  5
1F7
100
AcDbSymbolTableRecord
100
AcDbLinetypeTableRecord
  2
PHANTOM
 70
64
  3
_____ _ _ _____ _ _ _____ _ _ _____
 72
65
 73
6
 40
0.8
 49
0.45
 74
0
 49
-0.05
 74
0
 49
0.1
 74
0
 49
-0.05
 74
0
 49
0.1
 74
0
 49
-0.05
 74
0
  0
LTYPE
  5
1F8
100
AcDbSymbolTableRecord
100
AcDbLinetypeTableRecord
  2
DOT
 70
64
  3
. . . . . . . . . . . . . . . . . . . .
 72
65
 73
2
 40
0.2
 49
0.1
 74
0
 49
-0.1
 74
0
  0
LTYPE
  5
1F9
100
AcDbSymbolTableRecord
100
AcDbLinetypeTableRecord
  2
DASHED
 70
64
  3
- - - - - - - - - - - - - - - - - - - -
 72
65
 73
2
 40
0.2
 49
0.1
 74
0
 49
-0.1
 74
0
  0
ENDTAB
  0
TABLE
  2
LAYER
  5
2
100
AcDbSymbolTable
 70
36
  0
LAYER
  5
10
100
AcDbSymbolTableRecord
100
AcDbLayerTableRecord
  2
0
 70
0
 62
7
  6
CONTINUOUS
370
-3
390
F
  0
LAYER
  5
1FA
100
AcDbSymbolTableRecord
100
AcDbLayerTableRecord
  2
DEFAULT_1
 70
0
 62
7
  6
CENTER
370
-3
390
F
  0
LAYER
  5
1FB
100
AcDbSymbolTableRecord
100
AcDbLayerTableRecord
  2
DEFAULT_2
 70
0
 62
8
  6
HIDDEN
370
-3
390
F
  0
LAYER
  5
1FC
100
AcDbSymbolTableRecord
100
AcDbLayerTableRecord
  2
DEFAULT_3
 70
0
 62
7
  6
PHANTOM
370
-3
390
F
  0
LAYER
  5
1FD
100
AcDbSymbolTableRecord
100
AcDbLayerTableRecord
  2
3_ALL_SYMBOLS
 70
0
 62
7
  6
CONTINUOUS
370
-3
390
F
  0
LAYER
  5
1FE
100
AcDbSymbolTableRecord
100
AcDbLayerTableRecord
  2
DEFAULT_COORDINATE_SYSTEM
 70
0
 62
7
  6
CONTINUOUS
370
-3
390
F
  0
LAYER
  5
1FF
100
AcDbSymbolTableRecord
100
AcDbLayerTableRecord
  2
DEFAULT_DATUM_AXES
 70
0
 62
7
  6
CONTINUOUS
370
-3
390
F
  0
LAYER
  5
200
100
AcDbSymbolTableRecord
100
AcDbLayerTableRecord
  2
DEFAULT_DATUM_CURVES
 70
0
 62
7
  6
CONTINUOUS
370
-3
390
F
  0
LAYER
  5
201
100
AcDbSymbolTableRecord
100
AcDbLayerTableRecord
  2
DEFAULT_DATUM_PLANES
 70
0
 62
7
  6
CONTINUOUS
370
-3
390
F
  0
ENDTAB
  0
TABLE
  2
STYLE
  5
3
100
AcDbSymbolTable
 70
1
  0
STYLE
  5
11
100
AcDbSymbolTableRecord
100
AcDbTextStyleTableRecord
  2
STANDARD
 70
0
 40
0.0
 41
0.8
 50
0.0
 71
0
 42
0.2
  3
txt
  4

  0
STYLE
  5
202
100
AcDbSymbolTableRecord
100
AcDbTextStyleTableRecord
  2
TEXTSTYLE_1
 70
0
 40
0.0
 41
0.8
 50
0.0
 71
0
 42
0.2
  3
gdt
  4

  0
ENDTAB
  0
TABLE
  2
VIEW
  5
6
100
AcDbSymbolTable
 70
0
  0
ENDTAB
  0
TABLE
  2
UCS
  5
7
100
AcDbSymbolTable
 70
0
  0
ENDTAB
  0
TABLE
  2
APPID
  5
9
100
AcDbSymbolTable
 70
1
  0
APPID
  5
203
100
AcDbSymbolTableRecord
100
AcDbRegAppTableRecord
  2
ACAD
 70
0
  0
ENDTAB
  0
TABLE
  2
BLOCK_RECORD
  5
1
100
AcDbSymbolTable
 70
0
  0
BLOCK_RECORD
  5
204
100
AcDbSymbolTableRecord
100
AcDbBlockTableRecord
  2
*Model_Space
  0
BLOCK_RECORD
  5
205
100
AcDbSymbolTableRecord
100
AcDbBlockTableRecord
  2
*Paper_Space
  0
ENDTAB
  0
TABLE
  2
DIMSTYLE
  5
A
100
AcDbSymbolTable
 70
1
100
AcDbDimStyleTable
 71
0
  0
DIMSTYLE
105
206
100
AcDbSymbolTableRecord
100
AcDbDimStyleTableRecord
  2
STANDARD
 70
0
  3

  4

 40
1.0
 41
0.1875
 42
0.0625
 43
0.38
 44
0.18
 45
0.0
 46
0.0
 47
0.01
 48
0.01
140
0.15625
141
0.09
142
0.0
143
25.4
144
1.0
145
0.0
146
1.0
147
0.09
 71
0.0
 72
0.0
 73
1
 74
1
 75
0
 76
0
 77
0
 78
4
170
0
171
2
172
0
173
0
174
0
175
0
176
0
177
0
178
0
270
2
271
2
272
2
273
2
274
2
275
0
280
0
281
0
282
0
283
1
284
4
285
0
286
0
287
3
288
0
340
11
  0
ENDTAB
  0
ENDSEC
  0
SECTION
  2
BLOCKS
  0
BLOCK
  5
20
100
AcDbEntity
  8
0
100
AcDbBlockBegin
  2
*Model_Space
 70
0
 10
0.0
 20
0.0
 30
0.0
  3
*Model_Space
  1

  0
ENDBLK
  5
21
100
AcDbEntity
  8
0
100
AcDbBlockEnd
  0
BLOCK
  5
1C
100
AcDbEntity
  8
0
100
AcDbBlockBegin
  2
*Paper_Space
 70
0
 10
0.0
 20
0.0
 30
0.0
  3
*Paper_Space
  1

  0
ENDBLK
  5
1D
100
AcDbEntity
  8
0
100
AcDbBlockEnd
  0
ENDSEC
  0
SECTION
  2
ENTITIES
  0
LINE
  5
207
100
AcDbEntity
  8
0
100
AcDbLine
 62
6
  6
CONTINUOUS
 10
19.8981865799
 20
5.7846463747
 11
19.9121865799
 21
5.7846463747
  0
LINE
  5
208
100
AcDbEntity
  8
0
100
AcDbLine
 62
6
  6
CONTINUOUS
 10
14.914067299
 20
17.1916898961
 11
15.0257901705
 21
17.3034127675
  0
LINE
  5
209
100
AcDbEntity
  8
0
100
AcDbLine
 62
6
  6
CONTINUOUS
 10
14.9402302499
 20
17.1655269452
 11
14.8695195718
 21
17.094816267
  0
LINE
  5
20A
100
AcDbEntity
  8
0
100
AcDbLine
 62
6
  6
CONTINUOUS
 10
15.6483976913
 20
17.6735831674
 11
15.5069763351
 21
17.5321618112
  0
LINE
  5
20B
100
AcDbEntity
  8
0
100
AcDbLine
 62
7
  6
CONTINUOUS
 10
15.6485110914
 20
17.6734697674
 11
15.5070897351
 21
17.5320484111
  0
LINE
  5
20C
100
AcDbEntity
  8
0
100
AcDbLine
 62
7
  6
CONTINUOUS
 10
15.6494178256
 20
17.6725630331
 11
15.5079964694
 21
17.5311416769
  0
LINE
  5
20D
100
AcDbEntity
  8
0
100
AcDbLine
 62
7
  6
CONTINUOUS
 10
15.6512288089
 20
17.6707520499
 11
15.5098074526
 21
17.5293306936
  0
LINE
  5
20E
100
AcDbEntity
  8
0
100
AcDbLine
 62
6
  6
CONTINUOUS
 10
15.6539390773
 20
17.6680417814
 11
15.5125177211
 21
17.5266204252
  0
LINE
  5
20F
100
AcDbEntity
  8
0
100
AcDbLine
 62
7
  6
CONTINUOUS
 10
15.6575412023
 20
17.6644396565
 11
15.5161198461
 21
17.5230183002
  0
LINE
  5
210
100
AcDbEntity
  8
0
100
AcDbLine
 62
7
  6
CONTINUOUS
 10
15.6620253106
 20
17.6599555481
 11
15.5206039544
 21
17.5185341919
  0
LINE
  5
211
100
AcDbEntity
  8
0
100
AcDbLine
 62
6
  6
CONTINUOUS
 10
15.7629489899
 20
17.7570217676
 11
15.6639540405
 21
17.6580268183
  0
LINE
  5
212
100
AcDbEntity
  8
0
100
AcDbLine
 62
6
  6
CONTINUOUS
 10
15.5225326843
 20
17.516605462
 11
15.3443417754
 21
17.3384145532
  0
LINE
  5
213
100
AcDbEntity
  8
0
100
AcDbLine
 62
7
  6
CONTINUOUS
 10
15.6673791117
 20
17.654601747
 11
15.5259577555
 21
17.5131803908
  0
LINE
  5
214
100
AcDbEntity
  8
0
100
AcDbLine
 62
7
  6
CONTINUOUS
 10
15.6707303863
 20
17.6512504724
 11
15.5293090301
 21
17.5098291162
  0
LINE
  5
215
100
AcDbEntity
  8
0
100
AcDbLine
 62
7
  6
CONTINUOUS
 10
15.6735879311
 20
17.6483929276
 11
15.5321665749
 21
17.5069715714
  0
LINE
  5
216
100
AcDbEntity
  8
0
100
AcDbLine
 62
6
  6
CONTINUOUS
 10
15.6806347509
 20
17.6413461078
 11
15.5392133947
 21
17.4999247516
  0
LINE
  5
217
100
AcDbEntity
  8
0
100
AcDbLine
 62
7
  6
CONTINUOUS
 10
15.6885002563
 20
17.6334806025
 11
15.5470789
 21
17.4920592462
  0
LINE
  5
218
100
AcDbEntity
  8
0
100
AcDbLine
 62
6
  6
CONTINUOUS
 10
16.791487583
 20
18.7293453716
 11
16.0141847147
 21
17.9520425034
  0
LINE
  5
219
100
AcDbEntity
  8
0
100
AcDbLine
 62
6
  6
CONTINUOUS
 10
15.9833529769
 20
17.9212107656
 11
15.9768983428
 21
17.9147561315
  0
LINE
  5
21A
100
AcDbEntity
  8
0
100
AcDbLine
 62
6
  6
CONTINUOUS
 10
15.944894092
 20
17.8827518806
 11
15.927120794
 21
17.8649785827
  0
LINE
  5
21B
100
AcDbEntity
  8
0
100
AcDbLine
 62
6
  6
CONTINUOUS
 10
15.8936543449
 20
17.8315121335
 11
15.8774733031
 21
17.8153310918
  0
LINE
  5
21C
100
AcDbEntity
  8
0
100
AcDbLine
 62
6
  6
CONTINUOUS
 10
15.8422845491
 20
17.7801423378
 11
15.8276646432
 21
17.7655224318
  0
LINE
  5
21D
100
AcDbEntity
  8
0
100
AcDbLine
 62
6
  6
CONTINUOUS
 10
15.6971628884
 20
17.6248179704
 11
15.5557415321
 21
17.4833966141
  0
LINE
  5
21E
100
AcDbEntity
  8
0
100
AcDbLine
 62
6
  6
CONTINUOUS
 10
15.7049039651
 20
17.6170768936
 11
15.5634826089
 21
17.4756555374
  0
LINE
  5
21F
100
AcDbEntity
  8
0
100
AcDbLine
 62
6
  6
CONTINUOUS
 10
15.7065989036
 20
17.6153819552
 11
15.5651775473
 21
17.4739605989
  0
LINE
  5
220
100
AcDbEntity
  8
0
100
AcDbLine
 62
6
  6
CONTINUOUS
 10
16.0082184787
 20
17.9145480745
 11
16.0208474059
 21
17.9271770016
  0
LINE
  5
221
100
AcDbEntity
  8
0
100
AcDbLine
 62
6
  6
CONTINUOUS
 10
15.983996529
 20
17.8882954412
 11
15.9715742683
 21
17.8758731806
  0
LINE
  5
222
100
AcDbEntity
  8
0
100
AcDbLine
 62
6
  6
CONTINUOUS
 10
15.9347534667
 20
17.8365197428
 11
15.92233217
 21
17.8240984461
  0
LINE
  5
223
100
AcDbEntity
  8
0
100
AcDbLine
 62
6
  6
CONTINUOUS
 10
15.8857352815
 20
17.7845183896
 11
15.8733152387
 21
17.7720983468
  0
LINE
  5
224
100
AcDbEntity
  8
0
100
AcDbLine
 62
6
  6
CONTINUOUS
 10
15.8364409004
 20
17.7327993586
 11
15.8240217133
 21
17.7203801715
  0
LINE
  5
225
100
AcDbEntity
  8
0
100
AcDbLine
 62
6
  6
CONTINUOUS
 10
15.7167824384
 20
17.6051984204
 11
15.5753610821
 21
17.4637770642
  0
LINE
  5
226
100
AcDbEntity
  8
0
100
AcDbLine
 62
6
  6
CONTINUOUS
 10
15.723985253
 20
17.5979956057
 11
15.5825638968
 21
17.4565742495
  0
LINE
  5
227
100
AcDbEntity
  8
0
100
AcDbLine
 62
6
  6
CONTINUOUS
 10
15.7276855804
 20
17.5942952783
 11
15.5862642242
 21
17.4528739221
  0
LINE
  5
228
100
AcDbEntity
  8
0
100
AcDbLine
 62
6
  6
CONTINUOUS
 10
15.739278445
 20
17.5827024138
 11
15.5978570887
 21
17.4412810576
  0
LINE
  5
229
100
AcDbEntity
  8
0
100
AcDbLine
 62
6
  6
CONTINUOUS
 10
15.745864082
 20
17.5761167767
 11
15.6044427258
 21
17.4346954205
  0
LINE
  5
22A
100
AcDbEntity
  8
0
100
AcDbLine
 62
7
  6
CONTINUOUS
 10
15.7515292568
 20
17.570451602
 11
15.6101079005
 21
17.4290302458
  0
LINE
  5
22B
100
AcDbEntity
  8
0
100
AcDbLine
 62
6
  6
CONTINUOUS
 10
15.7644044372
 20
17.5575764215
 11
15.622983081
 21
17.4161550653
  0
LINE
  5
22C
100
AcDbEntity
  8
0
100
AcDbLine
 62
6
  6
CONTINUOUS
 10
15.7703007431
 20
17.5516801157
 11
15.6288793868
 21
17.4102587595
  0
LINE
  5
22D
100
AcDbEntity
  8
0
100
AcDbLine
 62
6
  6
CONTINUOUS
 10
15.7778686963
 20
17.5441121624
 11
15.6364473401
 21
17.4026908062
  0
LINE
  5
22E
100
AcDbEntity
  8
0
100
AcDbLine
 62
7
  6
CONTINUOUS
 10
15.7918851295
 20
17.5300957293
 11
15.6504637733
 21
17.388674373
  0
LINE
  5
22F
100
AcDbEntity
  8
0
100
AcDbLine
 62
7
  6
CONTINUOUS
 10
15.797027503
 20
17.5249533558
 11
15.6556061467
 21
17.3835319996
  0
LINE
  5
230
100
AcDbEntity
  8
0
100
AcDbLine
 62
6
  6
CONTINUOUS
 10
15.8064153187
 20
17.5155655401
 11
15.6649939624
 21
17.3741441838
  0
LINE
  5
231
100
AcDbEntity
  8
0
100
AcDbLine
 62
7
  6
CONTINUOUS
 10
15.8214194376
 20
17.5005614211
 11
15.6799980814
 21
17.3591400649
  0
LINE
  5
232
100
AcDbEntity
  8
0
100
AcDbLine
 62
7
  6
CONTINUOUS
 10
15.836856361
 20
17.4851244977
 11
15.6954350048
 21
17.3437031415
  0
LINE
  5
233
100
AcDbEntity
  8
0
100
AcDbLine
 62
6
  6
CONTINUOUS
 10
15.8526837775
 20
17.4692970813
 11
15.7112624212
 21
17.327875725
  0
LINE
  5
234
100
AcDbEntity
  8
0
100
AcDbLine
 62
6
  6
CONTINUOUS
 10
15.8561581409
 20
17.4658227178
 11
15.7147367847
 21
17.3244013616
  0
LINE
  5
235
100
AcDbEntity
  8
0
100
AcDbLine
 62
7
  6
CONTINUOUS
 10
15.868858305
 20
17.4531225537
 11
15.7274369488
 21
17.3117011975
  0
LINE
  5
236
100
AcDbEntity
  8
0
100
AcDbLine
 62
6
  6
CONTINUOUS
 10
15.8853356104
 20
17.4366452483
 11
15.7439142542
 21
17.2952238921
  0
LINE
  5
237
100
AcDbEntity
  8
0
100
AcDbLine
 62
6
  6
CONTINUOUS
 10
15.8879141713
 20
17.4340666874
 11
15.7464928151
 21
17.2926453312
  0
LINE
  5
238
100
AcDbEntity
  8
0
100
AcDbLine
 62
7
  6
CONTINUOUS
 10
15.9020705306
 20
17.4199103282
 11
15.7606491743
 21
17.2784889719
  0
LINE
  5
239
100
AcDbEntity
  8
0
100
AcDbLine
 62
7
  6
CONTINUOUS
 10
15.9190171962
 20
17.4029636625
 11
15.77759584
 21
17.2615423063
  0
LINE
  5
23A
100
AcDbEntity
  8
0
100
AcDbLine
 62
7
  6
CONTINUOUS
 10
15.9361291577
 20
17.3858517011
 11
15.7947078014
 21
17.2444303449
  0
LINE
  5
23B
100
AcDbEntity
  8
0
100
AcDbLine
 62
7
  6
CONTINUOUS
 10
15.9533595123
 20
17.3686213465
 11
15.811938156
 21
17.2271999903
  0
LINE
  5
23C
100
AcDbEntity
  8
0
100
AcDbLine
 62
7
  6
CONTINUOUS
 10
14.3079634708
 20
15.699581271
 11
14.2848555805
 21
15.6764733807
  0
LINE
  5
23D
100
AcDbEntity
  8
0
100
AcDbLine
 62
7
  6
CONTINUOUS
 10
14.2512247476
 20
15.63577148
 11
14.2822673901
 21
15.6668141224
  0
LINE
  5
23E
100
AcDbEntity
  8
0
100
AcDbLine
 62
7
  6
CONTINUOUS
 10
14.3176227291
 20
15.7021694615
 11
14.3461745634
 21
15.7307212958
  0
LINE
  5
23F
100
AcDbEntity
  8
0
100
AcDbLine
 62
6
  6
CONTINUOUS
 10
15.9706610328
 20
17.351319826
 11
15.8292396766
 21
17.2098984697
  0
LINE
  5
240
100
AcDbEntity
  8
0
100
AcDbLine
 62
9
  6
CONTINUOUS
 10
14.4433382715
 20
15.8066718005
 11
14.3988320746
 21
15.7621656036
  0
LINE
  5
241
100
AcDbEntity
  8
0
100
AcDbLine
 62
9
  6
CONTINUOUS
 10
13.2359406724
 20
14.5992742014
 11
13.2318022717
 21
14.5951357816
  0
LINE
  5
242
100
AcDbEntity
  8
0
100
AcDbLine
 62
9
  6
CONTINUOUS
 10
13.3605723839
 20
14.7239059128
 11
14.2274672256
 21
15.5908007541
  0
LINE
  5
243
100
AcDbEntity
  8
0
100
AcDbLine
 62
6
  6
CONTINUOUS
 10
15.987986297
 20
17.3339945617
 11
15.8465649408
 21
17.1925732055
  0
LINE
  5
244
100
AcDbEntity
  8
0
100
AcDbLine
 62
7
  6
CONTINUOUS
 10
14.3673877668
 20
15.7095080924
 11
14.3388359325
 21
15.6809562581
  0
LINE
  5
245
100
AcDbEntity
  8
0
100
AcDbLine
 62
7
  6
CONTINUOUS
 10
14.3034805935
 20
15.645600919
 11
14.2724379511
 21
15.6145582766
  0
LINE
  5
246
100
AcDbEntity
  8
0
100
AcDbLine
 62
7
  6
CONTINUOUS
 10
14.3131398518
 20
15.6481891095
 11
14.3362477421
 21
15.6712969998
  0
LINE
  5
247
100
AcDbEntity
  8
0
100
AcDbLine
 62
7
  6
CONTINUOUS
 10
16.0052878175
 20
17.3166930412
 11
15.8638664613
 21
17.175271685
  0
LWPOLYLINE
  5
248
100
AcDbEntity
  8
0
100
AcDbPolyline
 62
6
  6
CONTINUOUS
 90
32
 70
0
 10
13.1645710899
 20
14.8639992518
 10
13.1592522796
 20
14.8587580917
 10
13.1547202656
 20
14.8535273747
 10
13.1505582211
 20
14.847919433
 10
13.1467797831
 20
14.841935122
 10
13.1434026023
 20
14.8355754832
 10
13.1404459618
 20
14.8288380092
 10
13.1379299562
 20
14.8217120222
 10
13.135878676
 20
14.8141817492
 10
13.1343214415
 20
14.8062262897
 10
13.1332948731
 20
14.7978321386
 10
13.1328370429
 20
14.7890342285
 10
13.1329755622
 20
14.7798530195
 10
13.1337353379
 20
14.7703011175
 10
13.1351348504
 20
14.760422198
 10
13.1371727935
 20
14.750306719
 10
13.1398293781
 20
14.740045647
 10
13.143073781
 20
14.7297147681
 10
13.1468582657
 20
14.7193941076
 10
13.1511411618
 20
14.7091211615
 10
13.1558915317
 20
14.6989115507
 10
13.1610795604
 20
14.6887828152
 10
13.1666765614
 20
14.6787519225
 10
13.1726602011
 20
14.6688289354
 10
13.1790167479
 20
14.6590146339
 10
13.1857352438
 20
14.6493123962
 10
13.1927986209
 20
14.6397379199
 10
13.2001837133
 20
14.6303092878
 10
13.2078640516
 20
14.621048542
 10
13.2158074913
 20
14.6119869129
 10
13.2239809403
 20
14.6031565717
 10
13.2318022784
 20
14.5951357883
  0
LINE
  5
249
100
AcDbEntity
  8
0
100
AcDbLine
 62
9
  6
CONTINUOUS
 10
13.1645710899
 20
14.8639992518
 11
13.1645312553
 21
14.8639630585
  0
LINE
  5
24A
100
AcDbEntity
  8
0
100
AcDbLine
 62
6
  6
CONTINUOUS
 10
13.9791314884
 20
15.6033078348
 11
13.1645703082
 21
14.8640001131
  0
LINE
  5
24B
100
AcDbEntity
  8
0
100
AcDbLine
 62
9
  6
CONTINUOUS
 10
13.9791329827
 20
15.6033074251
 11
13.9791300233
 21
15.6033047392
  0
LINE
  5
24C
100
AcDbEntity
  8
0
100
AcDbLine
 62
6
  6
CONTINUOUS
 10
17.9686420211
 20
7.364511608
 11
18.1092915698
 21
7.3893119183
  0
LINE
  5
24D
100
AcDbEntity
  8
0
100
AcDbLine
 62
6
  6
CONTINUOUS
 10
17.9686420211
 20
6.5447811414
 11
18.1092915698
 21
6.5199808311
  0
LINE
  5
24E
100
AcDbEntity
  8
0
100
AcDbLine
 62
9
  6
CONTINUOUS
 10
13.5005872647
 20
14.5278253788
 11
13.5006264776
 21
14.5278685772
  0
LINE
  5
24F
100
AcDbEntity
  8
0
100
AcDbLine
 62
6
  6
CONTINUOUS
 10
13.5006301162
 20
14.5278636572
 11
14.2399560611
 21
15.3424449154
  0
LINE
  5
250
100
AcDbEntity
  8
0
100
AcDbLine
 62
9
  6
CONTINUOUS
 10
14.2399618581
 20
15.342444838
 11
14.2399782588
 21
15.3424629042
  0
LINE
  5
251
100
AcDbEntity
  8
0
100
AcDbLine
 62
6
  6
CONTINUOUS
 10
14.2399797924
 20
15.3424645935
 11
14.2398843341
 21
15.3423658874
  0
LINE
  5
252
100
AcDbEntity
  8
0
100
AcDbLine
 62
9
  6
CONTINUOUS
 10
16.5514246037
 20
17.371762235
 11
16.551417523
 21
17.3717549888
  0
LINE
  5
253
100
AcDbEntity
  8
0
100
AcDbLine
 62
7
  6
CONTINUOUS
 10
16.0225181721
 20
17.2994626866
 11
15.8810968159
 21
17.1580413304
  0
LINE
  5
254
100
AcDbEntity
  8
0
100
AcDbLine
 62
7
  6
CONTINUOUS
 10
16.0396301336
 20
17.2823507252
 11
15.8982087774
 21
17.1409293689
  0
LINE
  5
255
100
AcDbEntity
  8
0
100
AcDbLine
 62
7
  6
CONTINUOUS
 10
16.0565767992
 20
17.2654040595
 11
15.915155443
 21
17.1239827033
  0
LINE
  5
256
100
AcDbEntity
  8
0
100
AcDbLine
 62
6
  6
CONTINUOUS
 10
16.0707331585
 20
17.2512477003
 11
15.9293118022
 21
17.109826344
  0
LINE
  5
257
100
AcDbEntity
  8
0
100
AcDbLine
 62
6
  6
CONTINUOUS
 10
16.0733117194
 20
17.2486691394
 11
15.9318903631
 21
17.1072477832
  0
LINE
  5
258
100
AcDbEntity
  8
0
100
AcDbLine
 62
7
  6
CONTINUOUS
 10
16.0897890248
 20
17.232191834
 11
15.9483676685
 21
17.0907704777
  0
LINE
  5
259
100
AcDbEntity
  8
0
100
AcDbLine
 62
6
  6
CONTINUOUS
 10
16.1024891889
 20
17.2194916699
 11
15.9610678326
 21
17.0780703136
  0
LINE
  5
25A
100
AcDbEntity
  8
0
100
AcDbLine
 62
6
  6
CONTINUOUS
 10
16.1059635523
 20
17.2160173064
 11
15.9645421961
 21
17.0745959502
  0
LINE
  5
25B
100
AcDbEntity
  8
0
100
AcDbLine
 62
7
  6
CONTINUOUS
 10
16.1217909688
 20
17.20018989
 11
15.9803696125
 21
17.0587685338
  0
LINE
  5
25C
100
AcDbEntity
  8
0
100
AcDbLine
 62
7
  6
CONTINUOUS
 10
16.132895792
 20
17.1890850667
 11
15.9914744358
 21
17.0476637105
  0
LINE
  5
25D
100
AcDbEntity
  8
0
100
AcDbLine
 62
6
  6
CONTINUOUS
 10
16.1372278922
 20
17.1847529666
 11
15.995806536
 21
17.0433316103
  0
LINE
  5
25E
100
AcDbEntity
  8
0
100
AcDbLine
 62
6
  6
CONTINUOUS
 10
16.1522320111
 20
17.1697488476
 11
16.0108106549
 21
17.0283274914
  0
LINE
  5
25F
100
AcDbEntity
  8
0
100
AcDbLine
 62
6
  6
CONTINUOUS
 10
16.1616198268
 20
17.1603610319
 11
16.0201984706
 21
17.0189396757
  0
LINE
  5
260
100
AcDbEntity
  8
0
100
AcDbLine
 62
6
  6
CONTINUOUS
 10
16.1667622003
 20
17.1552186584
 11
16.0253408441
 21
17.0137973022
  0
LINE
  5
261
100
AcDbEntity
  8
0
100
AcDbLine
 62
6
  6
CONTINUOUS
 10
16.1807786335
 20
17.1412022253
 11
16.0393572772
 21
16.999780869
  0
LINE
  5
262
100
AcDbEntity
  8
0
100
AcDbLine
 62
7
  6
CONTINUOUS
 10
16.1883465867
 20
17.133634272
 11
16.0469252305
 21
16.9922129158
  0
LINE
  5
263
100
AcDbEntity
  8
0
100
AcDbLine
 62
7
  6
CONTINUOUS
 10
16.1942428926
 20
17.1277379662
 11
16.0528215364
 21
16.9863166099
  0
LINE
  5
264
100
AcDbEntity
  8
0
100
AcDbLine
 62
7
  6
CONTINUOUS
 10
16.207118073
 20
17.1148627857
 11
16.0656967168
 21
16.9734414295
  0
LINE
  5
265
100
AcDbEntity
  8
0
100
AcDbLine
 62
6
  6
CONTINUOUS
 10
16.2127832478
 20
17.109197611
 11
16.0713618915
 21
16.9677762547
  0
LINE
  5
266
100
AcDbEntity
  8
0
100
AcDbLine
 62
6
  6
CONTINUOUS
 10
16.2193688848
 20
17.1026119739
 11
16.0779475286
 21
16.9611906177
  0
LINE
  5
267
100
AcDbEntity
  8
0
100
AcDbLine
 62
6
  6
CONTINUOUS
 10
16.2309617494
 20
17.0910191094
 11
16.0895403932
 21
16.9495977531
  0
LINE
  5
268
100
AcDbEntity
  8
0
100
AcDbLine
 62
7
  6
CONTINUOUS
 10
16.2346620768
 20
17.087318782
 11
16.0932407205
 21
16.9458974258
  0
LINE
  5
269
100
AcDbEntity
  8
0
100
AcDbLine
 62
7
  6
CONTINUOUS
 10
16.2418648914
 20
17.0801159673
 11
16.1004435352
 21
16.9386946111
  0
LINE
  5
26A
100
AcDbEntity
  8
0
100
AcDbLine
 62
6
  6
CONTINUOUS
 10
16.3827714323
 20
17.2117197019
 11
16.3951911269
 21
17.2241393964
  0
LINE
  5
26B
100
AcDbEntity
  8
0
100
AcDbLine
 62
6
  6
CONTINUOUS
 10
16.4346095897
 20
17.260902023
 11
16.4470303448
 21
17.2733227782
  0
LINE
  5
26C
100
AcDbEntity
  8
0
100
AcDbLine
 62
6
  6
CONTINUOUS
 10
16.4864177595
 20
17.3101069604
 11
16.4988394849
 21
17.3225286858
  0
LINE
  5
26D
100
AcDbEntity
  8
0
100
AcDbLine
 62
6
  6
CONTINUOUS
 10
16.5382679399
 20
17.3592747689
 11
16.5506906992
 21
17.3716975283
  0
LINE
  5
26E
100
AcDbEntity
  8
0
100
AcDbLine
 62
6
  6
CONTINUOUS
 10
16.5514184439
 20
17.3717559061
 11
16.5638434726
 21
17.3841809348
  0
LINE
  5
26F
100
AcDbEntity
  8
0
100
AcDbLine
 62
6
  6
CONTINUOUS
 10
16.2520484262
 20
17.0699324325
 11
16.11062707
 21
16.9285110763
  0
LINE
  5
270
100
AcDbEntity
  8
0
100
AcDbLine
 62
7
  6
CONTINUOUS
 10
16.2537433647
 20
17.0682374941
 11
16.1123220084
 21
16.9268161378
  0
LINE
  5
271
100
AcDbEntity
  8
0
100
AcDbLine
 62
6
  6
CONTINUOUS
 10
16.126362469
 20
16.9294411555
 11
16.1389913961
 21
16.9420700826
  0
LINE
  5
272
100
AcDbEntity
  8
0
100
AcDbLine
 62
6
  6
CONTINUOUS
 10
16.1773760858
 20
16.9804547708
 11
16.1894990485
 21
16.9925777334
  0
LINE
  5
273
100
AcDbEntity
  8
0
100
AcDbLine
 62
7
  6
CONTINUOUS
 10
16.2614844414
 20
17.0604964173
 11
16.1200630852
 21
16.9190750611
  0
LINE
  5
274
100
AcDbEntity
  8
0
100
AcDbLine
 62
6
  6
CONTINUOUS
 10
17.3660118427
 20
18.1548211119
 11
16.5887089744
 21
17.3775182437
  0
LINE
  5
275
100
AcDbEntity
  8
0
100
AcDbLine
 62
6
  6
CONTINUOUS
 10
16.5450656471
 20
17.3338749164
 11
16.5265496272
 21
17.3153588964
  0
LINE
  5
276
100
AcDbEntity
  8
0
100
AcDbLine
 62
6
  6
CONTINUOUS
 10
16.4937826742
 20
17.2825919434
 11
16.4767925104
 21
17.2656017796
  0
LINE
  5
277
100
AcDbEntity
  8
0
100
AcDbLine
 62
6
  6
CONTINUOUS
 10
16.44252251
 20
17.2313317792
 11
16.4270505301
 21
17.2158597994
  0
LINE
  5
278
100
AcDbEntity
  8
0
100
AcDbLine
 62
6
  6
CONTINUOUS
 10
16.3912472391
 20
17.1800565084
 11
16.3773116705
 21
17.1661209397
  0
LINE
  5
279
100
AcDbEntity
  8
0
100
AcDbLine
 62
7
  6
CONTINUOUS
 10
16.2701470735
 20
17.0518337852
 11
16.1287257173
 21
16.910412429
  0
LINE
  5
27A
100
AcDbEntity
  8
0
100
AcDbLine
 62
7
  6
CONTINUOUS
 10
16.2766715433
 20
17.0453093154
 11
16.1352501871
 21
16.9038879592
  0
LINE
  5
27B
100
AcDbEntity
  8
0
100
AcDbLine
 62
7
  6
CONTINUOUS
 10
16.2780125789
 20
17.0439682799
 11
16.1365912226
 21
16.9025469236
  0
LINE
  5
27C
100
AcDbEntity
  8
0
100
AcDbLine
 62
7
  6
CONTINUOUS
 10
16.2850593987
 20
17.0369214601
 11
16.1436380424
 21
16.8955001038
  0
LINE
  5
27D
100
AcDbEntity
  8
0
100
AcDbLine
 62
6
  6
CONTINUOUS
 10
16.2912682181
 20
17.0307126407
 11
16.1498468619
 21
16.8892912844
  0
LINE
  5
27E
100
AcDbEntity
  8
0
100
AcDbLine
 62
6
  6
CONTINUOUS
 10
16.3936882387
 20
17.1262825188
 11
16.2946932893
 21
17.0272875694
  0
LINE
  5
27F
100
AcDbEntity
  8
0
100
AcDbLine
 62
6
  6
CONTINUOUS
 10
16.1532719331
 20
16.8858662132
 11
15.9750810242
 21
16.7076753043
  0
LINE
  5
280
100
AcDbEntity
  8
0
100
AcDbLine
 62
7
  6
CONTINUOUS
 10
16.2966220192
 20
17.0253588396
 11
16.1552006629
 21
16.8839374833
  0
LINE
  5
281
100
AcDbEntity
  8
0
100
AcDbLine
 62
7
  6
CONTINUOUS
 10
16.3011061275
 20
17.0208747312
 11
16.1596847713
 21
16.879453375
  0
LINE
  5
282
100
AcDbEntity
  8
0
100
AcDbLine
 62
6
  6
CONTINUOUS
 10
16.3047082525
 20
17.0172726063
 11
16.1632868962
 21
16.87585125
  0
LINE
  5
283
100
AcDbEntity
  8
0
100
AcDbLine
 62
7
  6
CONTINUOUS
 10
16.3074185209
 20
17.0145623378
 11
16.1659971647
 21
16.8731409816
  0
LINE
  5
284
100
AcDbEntity
  8
0
100
AcDbLine
 62
7
  6
CONTINUOUS
 10
16.3092295042
 20
17.0127513546
 11
16.1678081479
 21
16.8713299984
  0
LINE
  5
285
100
AcDbEntity
  8
0
100
AcDbLine
 62
7
  6
CONTINUOUS
 10
16.3101362384
 20
17.0118446203
 11
16.1687148822
 21
16.8704232641
  0
LINE
  5
286
100
AcDbEntity
  8
0
100
AcDbLine
 62
6
  6
CONTINUOUS
 10
16.3102496385
 20
17.0117312203
 11
16.1688282823
 21
16.870309864
  0
LINE
  5
287
100
AcDbEntity
  8
0
100
AcDbLine
 62
6
  6
CONTINUOUS
 10
15.8021934162
 20
16.3035637789
 11
15.7314827381
 21
16.2328531008
  0
LINE
  5
288
100
AcDbEntity
  8
0
100
AcDbLine
 62
6
  6
CONTINUOUS
 10
15.8283563671
 20
16.277400828
 11
15.9400792385
 21
16.3891236994
  0
LINE
  5
289
100
AcDbEntity
  8
0
100
AcDbLine
 62
6
  6
CONTINUOUS
 10
19.8981865799
 20
8.1246463747
 11
19.9121865799
 21
8.1246463747
  0
LINE
  5
28A
100
AcDbEntity
  8
0
100
AcDbLine
 62
6
  6
CONTINUOUS
 10
15.3443417754
 20
17.3384145532
 11
15.3382097402
 21
17.2440834478
  0
LINE
  5
28B
100
AcDbEntity
  8
0
100
AcDbLine
 62
6
  6
CONTINUOUS
 10
15.8774220077
 20
17.8146201327
 11
15.8774733031
 21
17.8153310918
  0
LINE
  5
28C
100
AcDbEntity
  8
0
100
AcDbLine
 62
6
  6
CONTINUOUS
 10
15.8276137688
 20
17.7648184157
 11
15.8276646432
 21
17.7655224318
  0
LINE
  5
28D
100
AcDbEntity
  8
0
100
AcDbLine
 62
6
  6
CONTINUOUS
 10
15.9270697307
 20
17.8642721232
 11
15.927120794
 21
17.8649785827
  0
LINE
  5
28E
100
AcDbEntity
  8
0
100
AcDbLine
 62
6
  6
CONTINUOUS
 10
15.9768983515
 20
17.9147561402
 11
15.9768474784
 21
17.9140522499
  0
LINE
  5
28F
100
AcDbEntity
  8
0
100
AcDbLine
 62
6
  6
CONTINUOUS
 10
16.1390452349
 20
16.9428146671
 11
16.1389913961
 21
16.9420700826
  0
LINE
  5
290
100
AcDbEntity
  8
0
100
AcDbLine
 62
6
  6
CONTINUOUS
 10
16.1895528872
 20
16.9933223176
 11
16.1894990485
 21
16.9925777334
  0
LINE
  5
291
100
AcDbEntity
  8
0
100
AcDbLine
 62
6
  6
CONTINUOUS
 10
16.3827714323
 20
17.2117197019
 11
16.3828279283
 21
17.2125001653
  0
LINE
  5
292
100
AcDbEntity
  8
0
100
AcDbLine
 62
6
  6
CONTINUOUS
 10
16.3913013818
 20
17.180805392
 11
16.3912472391
 21
17.1800565084
  0
LINE
  5
293
100
AcDbEntity
  8
0
100
AcDbLine
 62
6
  6
CONTINUOUS
 10
16.4346095897
 20
17.260902023
 11
16.4346657979
 21
17.2616784989
  0
LINE
  5
294
100
AcDbEntity
  8
0
100
AcDbLine
 62
6
  6
CONTINUOUS
 10
16.4425770899
 20
17.2320863043
 11
16.44252251
 21
17.2313317792
  0
LINE
  5
295
100
AcDbEntity
  8
0
100
AcDbLine
 62
6
  6
CONTINUOUS
 10
16.4864177595
 20
17.3101069604
 11
16.4864736983
 21
17.3108798699
  0
LINE
  5
296
100
AcDbEntity
  8
0
100
AcDbLine
 62
6
  6
CONTINUOUS
 10
16.4938367088
 20
17.2833394054
 11
16.4937826742
 21
17.2825919434
  0
LINE
  5
297
100
AcDbEntity
  8
0
100
AcDbLine
 62
6
  6
CONTINUOUS
 10
16.5451197835
 20
17.3346236954
 11
16.5450656471
 21
17.3338749164
  0
LWPOLYLINE
  5
298
100
AcDbEntity
  8
0
100
AcDbPolyline
 62
6
  6
CONTINUOUS
 90
32
 70
0
 10
13.2318022717
 20
14.5951357816
 10
13.239778357
 20
14.5873569343
 10
13.2486124169
 20
14.5791779531
 10
13.257677398
 20
14.571229604
 10
13.2669414393
 20
14.563544758
 10
13.2763735734
 20
14.5561559882
 10
13.2859507683
 20
14.5490898435
 10
13.2956526652
 20
14.5423688562
 10
13.305465642
 20
14.5360107379
 10
13.3153929792
 20
14.5300246494
 10
13.3254430379
 20
14.5244179647
 10
13.3355995303
 20
14.5192158848
 10
13.3458189164
 20
14.5144593051
 10
13.356057513
 20
14.5101886111
 10
13.3662746729
 20
14.5064410746
 10
13.3764468947
 20
14.5032412309
 10
13.3865968906
 20
14.5005975947
 10
13.3967202696
 20
14.498534731
 10
13.4066842134
 20
14.497098812
 10
13.4163317722
 20
14.4963121681
 10
13.4255918396
 20
14.4961622187
 10
13.4344481584
 20
14.4966229227
 10
13.4428664881
 20
14.4976559114
 10
13.4508405106
 20
14.4992180295
 10
13.4583869093
 20
14.5012724433
 10
13.4655210881
 20
14.5037881116
 10
13.4722542994
 20
14.5067384692
 10
13.4785945741
 20
14.5101004298
 10
13.4845533275
 20
14.51385789
 10
13.4901404634
 20
14.5180007811
 10
13.4953633331
 20
14.5225250102
 10
13.5005691363
 20
14.5278054173
  0
LINE
  5
299
100
AcDbEntity
  8
0
100
AcDbLine
 62
6
  6
CONTINUOUS
 10
13.3506883106
 20
14.5124281974
 11
14.2362974143
 21
13.6268190937
  0
LINE
  5
29A
100
AcDbEntity
  8
0
100
AcDbLine
 62
6
  6
CONTINUOUS
 10
13.1491004148
 20
14.7140160932
 11
12.2634855647
 21
15.5996309433
  0
LINE
  5
29B
100
AcDbEntity
  8
0
100
AcDbLine
 62
7
  6
CONTINUOUS
 10
14.2848555805
 20
15.6712969998
 11
14.3079634708
 21
15.6481891095
  0
LINE
  5
29C
100
AcDbEntity
  8
0
100
AcDbLine
 62
7
  6
CONTINUOUS
 10
14.3461745634
 20
15.6170490847
 11
14.3176227291
 21
15.645600919
  0
LINE
  5
29D
100
AcDbEntity
  8
0
100
AcDbLine
 62
7
  6
CONTINUOUS
 10
14.2822673901
 20
15.6809562581
 11
14.2512247476
 21
15.7119989005
  0
LINE
  5
29E
100
AcDbEntity
  8
0
100
AcDbLine
 62
6
  6
CONTINUOUS
 10
16.0208474059
 20
17.9271770016
 11
16.0141847147
 21
17.9520425034
  0
LINE
  5
29F
100
AcDbEntity
  8
0
100
AcDbLine
 62
6
  6
CONTINUOUS
 10
15.8361927841
 20
17.7327330241
 11
15.8362311316
 21
17.7325895897
  0
LINE
  5
2A0
100
AcDbEntity
  8
0
100
AcDbLine
 62
6
  6
CONTINUOUS
 10
15.8276137684
 20
17.7648184152
 11
15.8361927841
 21
17.7327330241
  0
LINE
  5
2A1
100
AcDbEntity
  8
0
100
AcDbLine
 62
6
  6
CONTINUOUS
 10
15.8854881864
 20
17.784452329
 11
15.8855263758
 21
17.7843094839
  0
LINE
  5
2A2
100
AcDbEntity
  8
0
100
AcDbLine
 62
6
  6
CONTINUOUS
 10
15.8774219928
 20
17.8146201179
 11
15.8854881864
 21
17.784452329
  0
LINE
  5
2A3
100
AcDbEntity
  8
0
100
AcDbLine
 62
6
  6
CONTINUOUS
 10
16.1390452349
 20
16.9428146671
 11
16.1367827943
 21
16.9512769237
  0
LINE
  5
2A4
100
AcDbEntity
  8
0
100
AcDbLine
 62
6
  6
CONTINUOUS
 10
15.9345078503
 20
17.836454075
 11
15.9345458119
 21
17.836312088
  0
LINE
  5
2A5
100
AcDbEntity
  8
0
100
AcDbLine
 62
6
  6
CONTINUOUS
 10
15.9270697342
 20
17.8642721266
 11
15.9345078503
 21
17.836454075
  0
LINE
  5
2A6
100
AcDbEntity
  8
0
100
AcDbLine
 62
6
  6
CONTINUOUS
 10
16.1895528872
 20
16.9933223176
 11
16.1872904462
 21
17.0017845757
  0
LINE
  5
2A7
100
AcDbEntity
  8
0
100
AcDbLine
 62
6
  6
CONTINUOUS
 10
15.9837520482
 20
17.8882300752
 11
15.9837898347
 21
17.8880887469
  0
LINE
  5
2A8
100
AcDbEntity
  8
0
100
AcDbLine
 62
6
  6
CONTINUOUS
 10
15.9768474785
 20
17.91405225
 11
15.9837520482
 21
17.8882300752
  0
LINE
  5
2A9
100
AcDbEntity
  8
0
100
AcDbLine
 62
6
  6
CONTINUOUS
 10
16.131771537
 20
16.9700226128
 11
16.1287332751
 21
16.9813899803
  0
LINE
  5
2AA
100
AcDbEntity
  8
0
100
AcDbLine
 62
6
  6
CONTINUOUS
 10
16.1822791889
 20
17.0205302647
 11
16.179240927
 21
17.0318976322
  0
LINE
  5
2AB
100
AcDbEntity
  8
0
100
AcDbLine
 62
9
  6
CONTINUOUS
 10
17.9041865799
 20
6.6215961497
 11
17.9041865799
 21
7.2876965997
  0
LINE
  5
2AC
100
AcDbEntity
  8
0
100
AcDbLine
 62
9
  6
CONTINUOUS
 10
17.9686420211
 20
6.5447811414
 11
17.9686420211
 21
7.364511608
  0
LINE
  5
2AD
100
AcDbEntity
  8
0
100
AcDbLine
 62
9
  6
CONTINUOUS
 10
18.1092915698
 20
6.5199808311
 11
18.1092915698
 21
7.3893119183
  0
LINE
  5
2AE
100
AcDbEntity
  8
0
100
AcDbLine
 62
9
  6
CONTINUOUS
 10
18.2996921
 20
6.4301512742
 11
18.2996921
 21
7.4791414752
  0
LINE
  5
2AF
100
AcDbEntity
  8
0
100
AcDbLine
 62
9
  6
CONTINUOUS
 10
18.3161865799
 20
18.5483963747
 11
18.3161865799
 21
19.3608963747
  0
LINE
  5
2B0
100
AcDbEntity
  8
0
100
AcDbLine
 62
7
  6
CONTINUOUS
 10
14.2724379511
 20
15.7332121039
 11
14.3034805935
 21
15.7021694615
  0
LINE
  5
2B1
100
AcDbEntity
  8
0
100
AcDbLine
 62
7
  6
CONTINUOUS
 10
14.3388359325
 20
15.6668141224
 11
14.3673877668
 21
15.6382622881
  0
LINE
  5
2B2
100
AcDbEntity
  8
0
100
AcDbLine
 62
7
  6
CONTINUOUS
 10
14.3131398518
 20
15.699581271
 11
14.3362477421
 21
15.6764733807
  0
LINE
  5
2B3
100
AcDbEntity
  8
0
100
AcDbLine
 62
6
  6
CONTINUOUS
 10
16.3913013815
 20
17.1808053916
 11
16.382980636
 21
17.2119289055
  0
LINE
  5
2B4
100
AcDbEntity
  8
0
100
AcDbLine
 62
6
  6
CONTINUOUS
 10
16.4425770911
 20
17.2320863056
 11
16.4348177246
 21
17.261110158
  0
LINE
  5
2B5
100
AcDbEntity
  8
0
100
AcDbLine
 62
6
  6
CONTINUOUS
 10
16.4938367088
 20
17.2833394054
 11
16.4866249349
 21
17.3103141358
  0
LINE
  5
2B6
100
AcDbEntity
  8
0
100
AcDbLine
 62
6
  6
CONTINUOUS
 10
16.5451197831
 20
17.334623695
 11
16.5384740853
 21
17.3594809143
  0
LINE
  5
2B7
100
AcDbEntity
  8
0
100
AcDbLine
 62
9
  6
CONTINUOUS
 10
18.8381865799
 20
6.1668988112
 11
18.8381865799
 21
7.7423939382
  0
LINE
  5
2B8
100
AcDbEntity
  8
0
100
AcDbLine
 62
9
  6
CONTINUOUS
 10
19.2431865799
 20
6.1391758122
 11
19.2431865799
 21
7.7701169372
  0
LINE
  5
2B9
100
AcDbEntity
  8
0
100
AcDbLine
 62
9
  6
CONTINUOUS
 10
19.5321865799
 20
6.0128226045
 11
19.5321865799
 21
7.8964701449
  0
LINE
  5
2BA
100
AcDbEntity
  8
0
100
AcDbLine
 62
9
  6
CONTINUOUS
 10
19.5471865799
 20
6.0026982211
 11
19.5471865799
 21
7.9065945283
  0
LINE
  5
2BB
100
AcDbEntity
  8
0
100
AcDbLine
 62
9
  6
CONTINUOUS
 10
19.5821865799
 20
5.9753028176
 11
19.5821865799
 21
7.9339899318
  0
LINE
  5
2BC
100
AcDbEntity
  8
0
100
AcDbLine
 62
9
  6
CONTINUOUS
 10
19.6381865799
 20
5.9381758684
 11
19.6381865799
 21
7.971116881
  0
LINE
  5
2BD
100
AcDbEntity
  8
0
100
AcDbLine
 62
9
  6
CONTINUOUS
 10
19.6791865799
 20
5.9139004471
 11
19.6791865799
 21
7.9953923023
  0
LINE
  5
2BE
100
AcDbEntity
  8
0
100
AcDbLine
 62
6
  6
CONTINUOUS
 10
15.7990027224
 20
16.1653331164
 11
14.8019995875
 21
17.1623362514
  0
LINE
  5
2BF
100
AcDbEntity
  8
0
100
AcDbLine
 62
6
  6
CONTINUOUS
 10
15.8283563671
 20
16.277400828
 11
14.914067299
 21
17.1916898961
  0
LINE
  5
2C0
100
AcDbEntity
  8
0
100
AcDbLine
 62
6
  6
CONTINUOUS
 10
14.9423515703
 20
17.2199741673
 11
15.8566406384
 21
16.3056850992
  0
LINE
  5
2C1
100
AcDbEntity
  8
0
100
AcDbLine
 62
6
  6
CONTINUOUS
 10
15.9259371029
 20
16.3749815638
 11
15.0116480348
 21
17.2892706319
  0
LINE
  5
2C2
100
AcDbEntity
  8
0
100
AcDbLine
 62
6
  6
CONTINUOUS
 10
15.0257901705
 20
17.3034127675
 11
15.9400792385
 21
16.3891236994
  0
LINE
  5
2C3
100
AcDbEntity
  8
0
100
AcDbLine
 62
9
  6
CONTINUOUS
 10
15.8224358382
 20
16.6432291885
 11
15.2798956595
 21
17.1857693671
  0
LINE
  5
2C4
100
AcDbEntity
  8
0
100
AcDbLine
 62
9
  6
CONTINUOUS
 10
15.8807499188
 20
16.7015432691
 11
15.3382097402
 21
17.2440834478
  0
LINE
  5
2C5
100
AcDbEntity
  8
0
100
AcDbLine
 62
9
  6
CONTINUOUS
 10
19.7371865799
 20
5.8827240051
 11
19.7371865799
 21
8.0265687444
  0
LINE
  5
2C6
100
AcDbEntity
  8
0
100
AcDbLine
 62
9
  6
CONTINUOUS
 10
19.7881865799
 20
5.8502746643
 11
19.7881865799
 21
8.0590180851
  0
LINE
  5
2C7
100
AcDbEntity
  8
0
100
AcDbLine
 62
9
  6
CONTINUOUS
 10
19.8981865799
 20
5.7846463747
 11
19.8981865799
 21
8.1246463747
  0
LINE
  5
2C8
100
AcDbEntity
  8
0
100
AcDbLine
 62
9
  6
CONTINUOUS
 10
19.9121865799
 20
4.1978076351
 11
19.9121865799
 21
9.7114851143
  0
LINE
  5
2C9
100
AcDbEntity
  8
0
100
AcDbLine
 62
9
  6
CONTINUOUS
 10
20.0381865799
 20
3.9807270049
 11
20.0381865799
 21
9.9285657445
  0
LINE
  5
2CA
100
AcDbEntity
  8
0
100
AcDbLine
 62
9
  6
CONTINUOUS
 10
20.1641865659
 20
3.7637301969
 11
20.1641865659
 21
10.1455625526
  0
LINE
  5
2CB
100
AcDbEntity
  8
0
100
AcDbLine
 62
6
  6
CONTINUOUS
 10
20.2493294776
 20
19.4017454618
 11
20.2493294776
 21
18.5075472876
  0
LINE
  5
2CC
100
AcDbEntity
  8
0
100
AcDbLine
 62
9
  6
CONTINUOUS
 10
20.2495172859
 20
18.5040798067
 11
20.2495172859
 21
19.4052129428
  0
LINE
  5
2CD
100
AcDbEntity
  8
0
100
AcDbLine
 62
9
  6
CONTINUOUS
 10
20.2901893321
 20
3.5467254328
 11
20.2901893321
 21
10.3625673166
  0
LINE
  5
2CE
100
AcDbEntity
  8
0
100
AcDbLine
 62
6
  6
CONTINUOUS
 10
15.9750810242
 20
16.7076753043
 11
15.3443417754
 21
17.3384145532
  0
LINE
  5
2CF
100
AcDbEntity
  8
0
100
AcDbLine
 62
7
  6
CONTINUOUS
 10
15.5098074526
 20
17.5293306936
 11
15.5125177211
 21
17.5266204252
  0
LINE
  5
2D0
100
AcDbEntity
  8
0
100
AcDbLine
 62
7
  6
CONTINUOUS
 10
15.5070897351
 20
17.5320484111
 11
15.5079964694
 21
17.5311416769
  0
LINE
  5
2D1
100
AcDbEntity
  8
0
100
AcDbLine
 62
7
  6
CONTINUOUS
 10
15.8465649408
 20
17.1925732055
 11
15.8638664613
 21
17.175271685
  0
LINE
  5
2D2
100
AcDbEntity
  8
0
100
AcDbLine
 62
7
  6
CONTINUOUS
 10
15.8810968159
 20
17.1580413304
 11
15.8982087774
 21
17.1409293689
  0
LINE
  5
2D3
100
AcDbEntity
  8
0
100
AcDbLine
 62
7
  6
CONTINUOUS
 10
15.9803696125
 20
17.0587685338
 11
15.9914744358
 21
17.0476637105
  0
LINE
  5
2D4
100
AcDbEntity
  8
0
100
AcDbLine
 62
7
  6
CONTINUOUS
 10
16.0469252305
 20
16.9922129158
 11
16.0528215364
 21
16.9863166099
  0
LINE
  5
2D5
100
AcDbEntity
  8
0
100
AcDbLine
 62
7
  6
CONTINUOUS
 10
16.0932407205
 20
16.9458974258
 11
16.1004435352
 21
16.9386946111
  0
LINE
  5
2D6
100
AcDbEntity
  8
0
100
AcDbLine
 62
7
  6
CONTINUOUS
 10
16.1123220084
 20
16.9268161378
 11
16.1200630852
 21
16.9190750611
  0
LINE
  5
2D7
100
AcDbEntity
  8
0
100
AcDbLine
 62
7
  6
CONTINUOUS
 10
16.1287257173
 20
16.910412429
 11
16.1365912226
 21
16.9025469236
  0
LINE
  5
2D8
100
AcDbEntity
  8
0
100
AcDbLine
 62
7
  6
CONTINUOUS
 10
16.1552006629
 20
16.8839374833
 11
16.1596847713
 21
16.879453375
  0
LINE
  5
2D9
100
AcDbEntity
  8
0
100
AcDbLine
 62
7
  6
CONTINUOUS
 10
16.1632868962
 20
16.87585125
 11
16.1659971647
 21
16.8731409816
  0
LINE
  5
2DA
100
AcDbEntity
  8
0
100
AcDbLine
 62
7
  6
CONTINUOUS
 10
16.1678081479
 20
16.8713299984
 11
16.1687148822
 21
16.8704232641
  0
LINE
  5
2DB
100
AcDbEntity
  8
0
100
AcDbLine
 62
6
  6
CONTINUOUS
 10
16.1688282818
 20
16.8703098645
 11
16.1687148822
 21
16.8704232641
  0
LINE
  5
2DC
100
AcDbEntity
  8
0
100
AcDbLine
 62
6
  6
CONTINUOUS
 10
16.1632868962
 20
16.87585125
 11
16.1596847713
 21
16.879453375
  0
LINE
  5
2DD
100
AcDbEntity
  8
0
100
AcDbLine
 62
6
  6
CONTINUOUS
 10
16.1678081479
 20
16.8713299984
 11
16.1659971647
 21
16.8731409816
  0
LINE
  5
2DE
100
AcDbEntity
  8
0
100
AcDbLine
 62
6
  6
CONTINUOUS
 10
16.1552006629
 20
16.8839374833
 11
16.1365912226
 21
16.9025469236
  0
LINE
  5
2DF
100
AcDbEntity
  8
0
100
AcDbLine
 62
6
  6
CONTINUOUS
 10
16.1287257173
 20
16.910412429
 11
16.1200630852
 21
16.9190750611
  0
LINE
  5
2E0
100
AcDbEntity
  8
0
100
AcDbLine
 62
6
  6
CONTINUOUS
 10
16.1123220084
 20
16.9268161378
 11
16.1004435352
 21
16.9386946111
  0
LINE
  5
2E1
100
AcDbEntity
  8
0
100
AcDbLine
 62
6
  6
CONTINUOUS
 10
16.0932407205
 20
16.9458974258
 11
16.0528215364
 21
16.9863166099
  0
LINE
  5
2E2
100
AcDbEntity
  8
0
100
AcDbLine
 62
6
  6
CONTINUOUS
 10
16.0469252305
 20
16.9922129158
 11
15.9914744358
 21
17.0476637105
  0
LINE
  5
2E3
100
AcDbEntity
  8
0
100
AcDbLine
 62
6
  6
CONTINUOUS
 10
15.9803696125
 20
17.0587685338
 11
15.8982087774
 21
17.1409293689
  0
LINE
  5
2E4
100
AcDbEntity
  8
0
100
AcDbLine
 62
6
  6
CONTINUOUS
 10
15.8810968159
 20
17.1580413304
 11
15.8638664613
 21
17.175271685
  0
LINE
  5
2E5
100
AcDbEntity
  8
0
100
AcDbLine
 62
7
  6
CONTINUOUS
 10
15.8292396766
 20
17.2098984697
 11
15.811938156
 21
17.2271999903
  0
LINE
  5
2E6
100
AcDbEntity
  8
0
100
AcDbLine
 62
6
  6
CONTINUOUS
 10
15.8465649408
 20
17.1925732055
 11
15.8292396766
 21
17.2098984697
  0
LINE
  5
2E7
100
AcDbEntity
  8
0
100
AcDbLine
 62
6
  6
CONTINUOUS
 10
15.811938156
 20
17.2271999903
 11
15.7947078014
 21
17.2444303449
  0
LINE
  5
2E8
100
AcDbEntity
  8
0
100
AcDbLine
 62
7
  6
CONTINUOUS
 10
15.7947078014
 20
17.2444303449
 11
15.77759584
 21
17.2615423063
  0
LINE
  5
2E9
100
AcDbEntity
  8
0
100
AcDbLine
 62
6
  6
CONTINUOUS
 10
15.77759584
 20
17.2615423063
 11
15.6954350048
 21
17.3437031415
  0
LINE
  5
2EA
100
AcDbEntity
  8
0
100
AcDbLine
 62
7
  6
CONTINUOUS
 10
15.6954350048
 20
17.3437031415
 11
15.6799980814
 21
17.3591400649
  0
LINE
  5
2EB
100
AcDbEntity
  8
0
100
AcDbLine
 62
7
  6
CONTINUOUS
 10
15.6556061467
 20
17.3835319996
 11
15.6504637733
 21
17.388674373
  0
LINE
  5
2EC
100
AcDbEntity
  8
0
100
AcDbLine
 62
6
  6
CONTINUOUS
 10
15.6799980814
 20
17.3591400649
 11
15.6556061467
 21
17.3835319996
  0
LINE
  5
2ED
100
AcDbEntity
  8
0
100
AcDbLine
 62
6
  6
CONTINUOUS
 10
15.6504637733
 20
17.388674373
 11
15.5321665749
 21
17.5069715714
  0
LINE
  5
2EE
100
AcDbEntity
  8
0
100
AcDbLine
 62
7
  6
CONTINUOUS
 10
15.5206039544
 20
17.5185341919
 11
15.5161198461
 21
17.5230183002
  0
LINE
  5
2EF
100
AcDbEntity
  8
0
100
AcDbLine
 62
7
  6
CONTINUOUS
 10
15.5321665749
 20
17.5069715714
 11
15.5259577555
 21
17.5131803908
  0
LINE
  5
2F0
100
AcDbEntity
  8
0
100
AcDbLine
 62
6
  6
CONTINUOUS
 10
15.5161198461
 20
17.5230183002
 11
15.5125177211
 21
17.5266204252
  0
LINE
  5
2F1
100
AcDbEntity
  8
0
100
AcDbLine
 62
6
  6
CONTINUOUS
 10
15.5098074526
 20
17.5293306936
 11
15.5079964694
 21
17.5311416769
  0
LINE
  5
2F2
100
AcDbEntity
  8
0
100
AcDbLine
 62
6
  6
CONTINUOUS
 10
15.5259577555
 20
17.5131803908
 11
15.5206039544
 21
17.5185341919
  0
LINE
  5
2F3
100
AcDbEntity
  8
0
100
AcDbLine
 62
6
  6
CONTINUOUS
 10
15.5070897351
 20
17.5320484111
 11
15.5069763356
 21
17.5321618107
  0
LINE
  5
2F4
100
AcDbEntity
  8
0
100
AcDbLine
 62
7
  6
CONTINUOUS
 10
16.0811058076
 20
17.0146008812
 11
16.0752095018
 21
17.020497187
  0
LINE
  5
2F5
100
AcDbEntity
  8
0
100
AcDbLine
 62
7
  6
CONTINUOUS
 10
16.0197587071
 20
17.0759479817
 11
16.0086538838
 21
17.087052805
  0
LINE
  5
2F6
100
AcDbEntity
  8
0
100
AcDbLine
 62
7
  6
CONTINUOUS
 10
15.9264930486
 20
17.1692136402
 11
15.9093810872
 21
17.1863256016
  0
LINE
  5
2F7
100
AcDbEntity
  8
0
100
AcDbLine
 62
7
  6
CONTINUOUS
 10
15.8921507326
 20
17.2035559562
 11
15.874849212
 21
17.2208574768
  0
LINE
  5
2F8
100
AcDbEntity
  8
0
100
AcDbLine
 62
7
  6
CONTINUOUS
 10
15.8575239478
 20
17.238182741
 11
15.8402224273
 21
17.2554842615
  0
LINE
  5
2F9
100
AcDbEntity
  8
0
100
AcDbLine
 62
7
  6
CONTINUOUS
 10
15.8229920727
 20
17.2727146161
 11
15.8058801112
 21
17.2898265776
  0
LINE
  5
2FA
100
AcDbEntity
  8
0
100
AcDbLine
 62
7
  6
CONTINUOUS
 10
15.7237192761
 20
17.3719874127
 11
15.7082823526
 21
17.3874243362
  0
LINE
  5
2FB
100
AcDbEntity
  8
0
100
AcDbLine
 62
7
  6
CONTINUOUS
 10
16.149809263
 20
17.0024659683
 11
16.1558695844
 21
16.9964056469
  0
LINE
  5
2FC
100
AcDbEntity
  8
0
100
AcDbLine
 62
7
  6
CONTINUOUS
 10
16.1671956125
 20
16.9850796188
 11
16.1766316277
 21
16.9756436036
  0
LINE
  5
2FD
100
AcDbEntity
  8
0
100
AcDbLine
 62
6
  6
CONTINUOUS
 10
15.6483976918
 20
17.6735831669
 11
15.6485110914
 21
17.6734697674
  0
LINE
  5
2FE
100
AcDbEntity
  8
0
100
AcDbLine
 62
6
  6
CONTINUOUS
 10
15.6539390773
 20
17.6680417814
 11
15.6575412023
 21
17.6644396565
  0
LINE
  5
2FF
100
AcDbEntity
  8
0
100
AcDbLine
 62
6
  6
CONTINUOUS
 10
15.6494178256
 20
17.6725630331
 11
15.6512288089
 21
17.6707520499
  0
LINE
  5
300
100
AcDbEntity
  8
0
100
AcDbLine
 62
7
  6
CONTINUOUS
 10
15.6512288089
 20
17.6707520499
 11
15.6539390773
 21
17.6680417814
  0
LINE
  5
301
100
AcDbEntity
  8
0
100
AcDbLine
 62
7
  6
CONTINUOUS
 10
15.6485110914
 20
17.6734697674
 11
15.6494178256
 21
17.6725630331
  0
LINE
  5
302
100
AcDbEntity
  8
0
100
AcDbLine
 62
6
  6
CONTINUOUS
 10
15.9361291577
 20
17.3858517011
 11
15.9533595123
 21
17.3686213465
  0
LINE
  5
303
100
AcDbEntity
  8
0
100
AcDbLine
 62
6
  6
CONTINUOUS
 10
15.9706610328
 20
17.351319826
 11
15.987986297
 21
17.3339945617
  0
LINE
  5
304
100
AcDbEntity
  8
0
100
AcDbLine
 62
6
  6
CONTINUOUS
 10
16.0052878175
 20
17.3166930412
 11
16.0225181721
 21
17.2994626866
  0
LINE
  5
305
100
AcDbEntity
  8
0
100
AcDbLine
 62
7
  6
CONTINUOUS
 10
15.987986297
 20
17.3339945617
 11
16.0052878175
 21
17.3166930412
  0
LINE
  5
306
100
AcDbEntity
  8
0
100
AcDbLine
 62
7
  6
CONTINUOUS
 10
16.0225181721
 20
17.2994626866
 11
16.0396301336
 21
17.2823507252
  0
LINE
  5
307
100
AcDbEntity
  8
0
100
AcDbLine
 62
6
  6
CONTINUOUS
 10
16.0396301336
 20
17.2823507252
 11
16.1217909688
 21
17.20018989
  0
LINE
  5
308
100
AcDbEntity
  8
0
100
AcDbLine
 62
7
  6
CONTINUOUS
 10
16.1217909688
 20
17.20018989
 11
16.132895792
 21
17.1890850667
  0
LINE
  5
309
100
AcDbEntity
  8
0
100
AcDbLine
 62
6
  6
CONTINUOUS
 10
16.132895792
 20
17.1890850667
 11
16.1883465867
 21
17.133634272
  0
LINE
  5
30A
100
AcDbEntity
  8
0
100
AcDbLine
 62
7
  6
CONTINUOUS
 10
16.1883465867
 20
17.133634272
 11
16.1942428926
 21
17.1277379662
  0
LINE
  5
30B
100
AcDbEntity
  8
0
100
AcDbLine
 62
6
  6
CONTINUOUS
 10
16.2418648914
 20
17.0801159673
 11
16.2537433647
 21
17.0682374941
  0
LINE
  5
30C
100
AcDbEntity
  8
0
100
AcDbLine
 62
7
  6
CONTINUOUS
 10
16.2346620768
 20
17.087318782
 11
16.2418648914
 21
17.0801159673
  0
LINE
  5
30D
100
AcDbEntity
  8
0
100
AcDbLine
 62
6
  6
CONTINUOUS
 10
16.1942428926
 20
17.1277379662
 11
16.2346620768
 21
17.087318782
  0
LINE
  5
30E
100
AcDbEntity
  8
0
100
AcDbLine
 62
6
  6
CONTINUOUS
 10
16.2614844414
 20
17.0604964173
 11
16.2701470735
 21
17.0518337852
  0
LINE
  5
30F
100
AcDbEntity
  8
0
100
AcDbLine
 62
7
  6
CONTINUOUS
 10
16.2701470735
 20
17.0518337852
 11
16.2780125789
 21
17.0439682799
  0
LINE
  5
310
100
AcDbEntity
  8
0
100
AcDbLine
 62
7
  6
CONTINUOUS
 10
16.2537433647
 20
17.0682374941
 11
16.2614844414
 21
17.0604964173
  0
LINE
  5
311
100
AcDbEntity
  8
0
100
AcDbLine
 62
7
  6
CONTINUOUS
 10
16.2966220192
 20
17.0253588396
 11
16.3011061275
 21
17.0208747312
  0
LINE
  5
312
100
AcDbEntity
  8
0
100
AcDbLine
 62
6
  6
CONTINUOUS
 10
16.2780125789
 20
17.0439682799
 11
16.2966220192
 21
17.0253588396
  0
LINE
  5
313
100
AcDbEntity
  8
0
100
AcDbLine
 62
6
  6
CONTINUOUS
 10
16.3011061275
 20
17.0208747312
 11
16.3047082525
 21
17.0172726063
  0
LINE
  5
314
100
AcDbEntity
  8
0
100
AcDbLine
 62
6
  6
CONTINUOUS
 10
16.3074185209
 20
17.0145623378
 11
16.3092295042
 21
17.0127513546
  0
LINE
  5
315
100
AcDbEntity
  8
0
100
AcDbLine
 62
6
  6
CONTINUOUS
 10
16.3101362384
 20
17.0118446203
 11
16.310249638
 21
17.0117312207
  0
LINE
  5
316
100
AcDbEntity
  8
0
100
AcDbLine
 62
7
  6
CONTINUOUS
 10
16.3047082525
 20
17.0172726063
 11
16.3074185209
 21
17.0145623378
  0
LINE
  5
317
100
AcDbEntity
  8
0
100
AcDbLine
 62
7
  6
CONTINUOUS
 10
16.3092295042
 20
17.0127513546
 11
16.3101362384
 21
17.0118446203
  0
LINE
  5
318
100
AcDbEntity
  8
0
100
AcDbLine
 62
7
  6
CONTINUOUS
 10
15.9706610328
 20
17.351319826
 11
15.9533595123
 21
17.3686213465
  0
LINE
  5
319
100
AcDbEntity
  8
0
100
AcDbLine
 62
7
  6
CONTINUOUS
 10
15.9361291577
 20
17.3858517011
 11
15.9190171962
 21
17.4029636625
  0
LINE
  5
31A
100
AcDbEntity
  8
0
100
AcDbLine
 62
6
  6
CONTINUOUS
 10
15.9190171962
 20
17.4029636625
 11
15.836856361
 21
17.4851244977
  0
LINE
  5
31B
100
AcDbEntity
  8
0
100
AcDbLine
 62
7
  6
CONTINUOUS
 10
15.836856361
 20
17.4851244977
 11
15.8214194376
 21
17.5005614211
  0
LINE
  5
31C
100
AcDbEntity
  8
0
100
AcDbLine
 62
6
  6
CONTINUOUS
 10
15.8214194376
 20
17.5005614211
 11
15.797027503
 21
17.5249533558
  0
LINE
  5
31D
100
AcDbEntity
  8
0
100
AcDbLine
 62
7
  6
CONTINUOUS
 10
15.797027503
 20
17.5249533558
 11
15.7918851295
 21
17.5300957293
  0
LINE
  5
31E
100
AcDbEntity
  8
0
100
AcDbLine
 62
6
  6
CONTINUOUS
 10
15.7918851295
 20
17.5300957293
 11
15.6735879311
 21
17.6483929276
  0
LINE
  5
31F
100
AcDbEntity
  8
0
100
AcDbLine
 62
7
  6
CONTINUOUS
 10
15.6735879311
 20
17.6483929276
 11
15.6673791117
 21
17.654601747
  0
LINE
  5
320
100
AcDbEntity
  8
0
100
AcDbLine
 62
6
  6
CONTINUOUS
 10
15.6673791117
 20
17.654601747
 11
15.6620253106
 21
17.6599555481
  0
LINE
  5
321
100
AcDbEntity
  8
0
100
AcDbLine
 62
7
  6
CONTINUOUS
 10
15.6620253106
 20
17.6599555481
 11
15.6575412023
 21
17.6644396565
  0
LINE
  5
322
100
AcDbEntity
  8
0
100
AcDbLine
 62
6
  6
CONTINUOUS
 10
16.3936882387
 20
17.1262825188
 11
15.7629489899
 21
17.7570217676
  0
LINE
  5
323
100
AcDbEntity
  8
0
100
AcDbLine
 62
9
  6
CONTINUOUS
 10
20.3858410553
 20
17.8012511632
 11
20.3858410553
 21
20.1080415862
  0
LINE
  5
324
100
AcDbEntity
  8
0
100
AcDbLine
 62
9
  6
CONTINUOUS
 10
20.4161865799
 20
3.3296463747
 11
20.4161865799
 21
10.5796463747
  0
LINE
  5
325
100
AcDbEntity
  8
0
100
AcDbLine
 62
9
  6
CONTINUOUS
 10
20.4340133327
 20
17.7646463747
 11
20.4340133327
 21
20.1446463747
  0
LINE
  5
326
100
AcDbEntity
  8
0
100
AcDbLine
 62
6
  6
CONTINUOUS
 10
20.6661865799
 20
3.0796522661
 11
20.6661865799
 21
10.8296404833
  0
LINE
  5
327
100
AcDbEntity
  8
0
100
AcDbLine
 62
6
  6
CONTINUOUS
 10
20.6661865799
 20
17.7646463747
 11
20.6661865799
 21
20.1446463747
  0
LINE
  5
328
100
AcDbEntity
  8
0
100
AcDbLine
 62
6
  6
CONTINUOUS
 10
15.9833529769
 20
17.9212107656
 11
16.0737200754
 21
17.8308436672
  0
LINE
  5
329
100
AcDbEntity
  8
0
100
AcDbLine
 62
6
  6
CONTINUOUS
 10
16.5511244492
 20
17.3716421041
 11
16.0082184787
 21
17.9145480745
  0
LINE
  5
32A
100
AcDbEntity
  8
0
100
AcDbLine
 62
6
  6
CONTINUOUS
 10
16.5638434726
 20
17.3841809348
 11
16.0208474059
 21
17.9271770016
  0
LINE
  5
32B
100
AcDbEntity
  8
0
100
AcDbLine
 62
6
  6
CONTINUOUS
 10
16.5887089744
 20
17.3775182437
 11
16.0141847147
 21
17.9520425034
  0
LINE
  5
32C
100
AcDbEntity
  8
0
100
AcDbLine
 62
6
  6
CONTINUOUS
 10
15.9750810242
 20
16.7076753043
 11
15.8807499188
 21
16.7015432691
  0
LINE
  5
32D
100
AcDbEntity
  8
0
100
AcDbLine
 62
6
  6
CONTINUOUS
 10
16.1171556272
 20
16.9316497566
 11
16.1256178846
 21
16.9293873166
  0
LINE
  5
32E
100
AcDbEntity
  8
0
100
AcDbLine
 62
6
  6
CONTINUOUS
 10
16.1676632785
 20
16.9821574079
 11
16.1710135369
 21
16.9812616943
  0
LINE
  5
32F
100
AcDbEntity
  8
0
100
AcDbLine
 62
6
  6
CONTINUOUS
 10
16.137550223
 20
16.9902069282
 11
16.1489175892
 21
16.9871686651
  0
LINE
  5
330
100
AcDbEntity
  8
0
100
AcDbLine
 62
6
  6
CONTINUOUS
 10
16.3766060808
 20
17.1660699533
 11
16.3773116705
 21
17.1661209397
  0
LINE
  5
331
100
AcDbEntity
  8
0
100
AcDbLine
 62
6
  6
CONTINUOUS
 10
16.4263467415
 20
17.2158089388
 11
16.4270505301
 21
17.2158597994
  0
LINE
  5
332
100
AcDbEntity
  8
0
100
AcDbLine
 62
6
  6
CONTINUOUS
 10
16.4760945329
 20
17.2655513301
 11
16.4767925104
 21
17.2656017796
  0
LINE
  5
333
100
AcDbEntity
  8
0
100
AcDbLine
 62
6
  6
CONTINUOUS
 10
16.5258443956
 20
17.3153079355
 11
16.5265496272
 21
17.3153588964
  0
LINE
  5
334
100
AcDbEntity
  8
0
100
AcDbLine
 62
6
  6
CONTINUOUS
 10
16.5511244492
 20
17.3716421041
 11
16.5509407825
 21
17.3716306668
  0
LINE
  5
335
100
AcDbEntity
  8
0
100
AcDbLine
 62
6
  6
CONTINUOUS
 10
16.3456141873
 20
17.1743565702
 11
16.3766060804
 21
17.1660699529
  0
LINE
  5
336
100
AcDbEntity
  8
0
100
AcDbLine
 62
6
  6
CONTINUOUS
 10
16.3946197237
 20
17.2242921641
 11
16.4263467412
 21
17.2158089386
  0
LINE
  5
337
100
AcDbEntity
  8
0
100
AcDbLine
 62
6
  6
CONTINUOUS
 10
16.4464618206
 20
17.2734747807
 11
16.4760945192
 21
17.2655513164
  0
LINE
  5
338
100
AcDbEntity
  8
0
100
AcDbLine
 62
6
  6
CONTINUOUS
 10
16.4982736204
 20
17.322679977
 11
16.5258443948
 21
17.3153079346
  0
LINE
  5
339
100
AcDbEntity
  8
0
100
AcDbLine
 62
6
  6
CONTINUOUS
 10
16.5501276347
 20
17.371848068
 11
16.5509407826
 21
17.3716306665
  0
LINE
  5
33A
100
AcDbEntity
  8
0
100
AcDbLine
 62
6
  6
CONTINUOUS
 10
15.8245944365
 20
17.7202270743
 11
15.7918246542
 21
17.7289878808
  0
LINE
  5
33B
100
AcDbEntity
  8
0
100
AcDbLine
 62
6
  6
CONTINUOUS
 10
16.5638434726
 20
17.3841809348
 11
16.5887089744
 21
17.3775182437
  0
LINE
  5
33C
100
AcDbEntity
  8
0
100
AcDbLine
 62
9
  6
CONTINUOUS
 10
17.3660118427
 20
18.1548211119
 11
16.791487583
 21
18.7293453716
  0
LINE
  5
33D
100
AcDbEntity
  8
0
100
AcDbLine
 62
6
  6
CONTINUOUS
 10
15.7918246545
 20
17.7289878812
 11
15.7910759668
 21
17.7289337555
  0
LINE
  5
33E
100
AcDbEntity
  8
0
100
AcDbLine
 62
6
  6
CONTINUOUS
 10
15.8430271127
 20
17.7801959517
 11
15.8422845491
 21
17.7801423378
  0
LINE
  5
33F
100
AcDbEntity
  8
0
100
AcDbLine
 62
6
  6
CONTINUOUS
 10
15.8944004165
 20
17.8315660731
 11
15.8936543449
 21
17.8315121335
  0
LINE
  5
340
100
AcDbEntity
  8
0
100
AcDbLine
 62
6
  6
CONTINUOUS
 10
15.9456429068
 20
17.8828060166
 11
15.944894092
 21
17.8827518806
  0
LINE
  5
341
100
AcDbEntity
  8
0
100
AcDbLine
 62
6
  6
CONTINUOUS
 10
20.4340133327
 20
17.7646463747
 11
20.6661865799
 21
17.7646463747
  0
LINE
  5
342
100
AcDbEntity
  8
0
100
AcDbLine
 62
6
  6
CONTINUOUS
 10
15.8738856395
 20
17.7719458658
 11
15.8430271062
 21
17.7801959452
  0
LINE
  5
343
100
AcDbEntity
  8
0
100
AcDbLine
 62
6
  6
CONTINUOUS
 10
15.9228991476
 20
17.823946878
 11
15.8944004196
 21
17.8315660762
  0
LINE
  5
344
100
AcDbEntity
  8
0
100
AcDbLine
 62
6
  6
CONTINUOUS
 10
15.9721386124
 20
17.8757223145
 11
15.9456429066
 21
17.8828060164
  0
LINE
  5
345
100
AcDbEntity
  8
0
100
AcDbLine
 62
6
  6
CONTINUOUS
 10
15.9833529769
 20
17.9212107656
 11
16.0082184787
 21
17.9145480745
  0
LINE
  5
346
100
AcDbEntity
  8
0
100
AcDbLine
 62
6
  6
CONTINUOUS
 10
20.2493294776
 20
18.5483963747
 11
18.3161865799
 21
18.5483963747
  0
LINE
  5
347
100
AcDbEntity
  8
0
100
AcDbLine
 62
6
  6
CONTINUOUS
 10
20.2493294776
 20
19.3608963747
 11
18.3161865799
 21
19.3608963747
  0
LINE
  5
348
100
AcDbEntity
  8
0
100
AcDbLine
 62
6
  6
CONTINUOUS
 10
20.4340133327
 20
20.1446463747
 11
20.6661865799
 21
20.1446463747
  0
ARC
  5
349
100
AcDbEntity
  8
0
100
AcDbCircle
 62
6
  6
CONTINUOUS
 10
8.9137176956
 20
10.017868265
 40
10.0102437531
100
AcDbArc
 50
47.2064319463
 51
47.3289272887
  0
ARC
  5
34A
100
AcDbEntity
  8
0
100
AcDbCircle
 62
6
  6
CONTINUOUS
 10
9.0164380068
 20
10.1207261189
 40
10.0077333316
100
AcDbArc
 50
47.2063533928
 51
47.3291814008
  0
ARC
  5
34B
100
AcDbEntity
  8
0
100
AcDbCircle
 62
6
  6
CONTINUOUS
 10
8.9673065373
 20
10.071705798
 40
10.0057070329
100
AcDbArc
 50
47.2063322719
 51
47.3293645313
  0
ARC
  5
34C
100
AcDbEntity
  8
0
100
AcDbCircle
 62
7
  6
CONTINUOUS
 10
9.3219821194
 20
10.4509473846
 40
9.5667620295
100
AcDbArc
 50
47.2035609215
 51
47.3319799612
  0
ARC
  5
34D
100
AcDbEntity
  8
0
100
AcDbCircle
 62
6
  6
CONTINUOUS
 10
9.2715728605
 20
10.4005458248
 40
9.566617401
100
AcDbArc
 50
47.203521584
 51
47.3320131835
  0
ARC
  5
34E
100
AcDbEntity
  8
0
100
AcDbCircle
 62
6
  6
CONTINUOUS
 10
9.2227978838
 20
10.3519123228
 40
9.5640650668
100
AcDbArc
 50
47.2034915849
 51
47.3322051348
  0
ARC
  5
34F
100
AcDbEntity
  8
0
100
AcDbCircle
 62
6
  6
CONTINUOUS
 10
16.5795184176
 20
11.4316909154
 40
6.0
100
AcDbArc
 50
107.2327833658
 51
136.0000286727
  0
ARC
  5
350
100
AcDbEntity
  8
0
100
AcDbCircle
 62
6
  6
CONTINUOUS
 10
10.0683573864
 20
17.9428519465
 40
6.0
100
AcDbArc
 50
313.9999713273
 51
342.7672166342
  0
ARC
  5
351
100
AcDbEntity
  8
0
100
AcDbCircle
 62
7
  6
CONTINUOUS
 10
15.25200948
 20
16.2159838248
 40
1.277653988
100
AcDbArc
 50
40.9929134165
 51
41.3965467034
  0
ARC
  5
352
100
AcDbEntity
  8
0
100
AcDbCircle
 62
6
  6
CONTINUOUS
 10
15.3130110436
 20
16.6763445725
 40
0.5105
100
AcDbArc
 50
343.0871208563
 51
356.2806955227
  0
ARC
  5
353
100
AcDbEntity
  8
0
100
AcDbCircle
 62
6
  6
CONTINUOUS
 10
15.3130110436
 20
16.6763445725
 40
0.5105
100
AcDbArc
 50
93.7193044773
 51
106.9128791437
  0
ARC
  5
354
100
AcDbEntity
  8
0
100
AcDbCircle
 62
6
  6
CONTINUOUS
 10
14.3105516613
 20
15.6738851902
 40
0.4215
100
AcDbArc
 50
45.0000581738
 51
198.2826938665
  0
ARC
  5
355
100
AcDbEntity
  8
0
100
AcDbCircle
 62
7
  6
CONTINUOUS
 10
14.3105518258
 20
15.6738847495
 40
0.4214991511
100
AcDbArc
 50
251.7510967397
 51
45.0000581738
  0
ARC
  5
356
100
AcDbEntity
  8
0
100
AcDbCircle
 62
6
  6
CONTINUOUS
 10
14.5478484156
 20
15.91159072
 40
0.4050454957
100
AcDbArc
 50
222.9186019997
 51
225.040887318
  0
ARC
  5
357
100
AcDbEntity
  8
0
100
AcDbCircle
 62
6
  6
CONTINUOUS
 10
14.5482571821
 20
15.9111819354
 40
0.4050454829
100
AcDbArc
 50
224.9591126484
 51
227.0813980339
  0
ARC
  5
358
100
AcDbEntity
  8
0
100
AcDbCircle
 62
7
  6
CONTINUOUS
 10
14.3105516613
 20
15.6738851902
 40
0.4
100
AcDbArc
 50
253.0081428451
 51
45.0
  0
ARC
  5
359
100
AcDbEntity
  8
0
100
AcDbCircle
 62
6
  6
CONTINUOUS
 10
14.3105516613
 20
15.6738851902
 40
0.4
100
AcDbArc
 50
45.0
 51
196.9918571549
  0
ARC
  5
35A
100
AcDbEntity
  8
0
100
AcDbCircle
 62
7
  6
CONTINUOUS
 10
14.3078795547
 20
15.6712352373
 40
0.1286106231
100
AcDbArc
 50
44.993021292
 51
63.4665977342
  0
ARC
  5
35B
100
AcDbEntity
  8
0
100
AcDbCircle
 62
7
  6
CONTINUOUS
 10
14.3079118139
 20
15.6712213225
 40
0.1285976519
100
AcDbArc
 50
26.5342858411
 51
45.0075675219
  0
ARC
  5
35C
100
AcDbEntity
  8
0
100
AcDbCircle
 62
6
  6
CONTINUOUS
 10
14.3105516613
 20
15.6738851902
 40
0.1175
100
AcDbArc
 50
63.8317403358
 51
26.1682617768
  0
ARC
  5
35D
100
AcDbEntity
  8
0
100
AcDbCircle
 62
7
  6
CONTINUOUS
 10
14.3105516613
 20
15.6738851902
 40
0.1175
100
AcDbArc
 50
26.1682617768
 51
63.8317403358
  0
CIRCLE
  5
35E
100
AcDbEntity
  8
0
100
AcDbCircle
 62
9
  6
CONTINUOUS
 10
14.3105516613
 20
15.6738851902
 40
0.1
  0
ARC
  5
35F
100
AcDbEntity
  8
0
100
AcDbCircle
 62
6
  6
CONTINUOUS
 10
15.8848042019
 20
16.6391749054
 40
0.0625
100
AcDbArc
 50
93.7193044773
 51
176.2806955227
  0
ARC
  5
360
100
AcDbEntity
  8
0
100
AcDbCircle
 62
9
  6
CONTINUOUS
 10
14.3105516613
 20
15.6738851902
 40
0.06
100
AcDbArc
 50
149.4775121859
 51
210.5224878141
  0
ARC
  5
361
100
AcDbEntity
  8
0
100
AcDbCircle
 62
9
  6
CONTINUOUS
 10
14.3105516613
 20
15.6738851902
 40
0.06
100
AcDbArc
 50
239.4775121859
 51
300.5224878141
  0
ARC
  5
362
100
AcDbEntity
  8
0
100
AcDbCircle
 62
9
  6
CONTINUOUS
 10
14.3105516613
 20
15.6738851902
 40
0.06
100
AcDbArc
 50
59.4775121859
 51
120.5224878141
  0
ARC
  5
363
100
AcDbEntity
  8
0
100
AcDbCircle
 62
9
  6
CONTINUOUS
 10
14.3105516613
 20
15.6738851902
 40
0.06
100
AcDbArc
 50
329.4775121859
 51
30.5224878141
  0
ARC
  5
364
100
AcDbEntity
  8
0
100
AcDbCircle
 62
7
  6
CONTINUOUS
 10
14.2751963222
 20
15.6738851902
 40
0.01
100
AcDbArc
 50
315.0
 51
45.0
  0
ARC
  5
365
100
AcDbEntity
  8
0
100
AcDbCircle
 62
7
  6
CONTINUOUS
 10
14.3105516613
 20
15.6385298512
 40
0.01
100
AcDbArc
 50
45.0
 51
135.0
  0
ARC
  5
366
100
AcDbEntity
  8
0
100
AcDbCircle
 62
7
  6
CONTINUOUS
 10
14.3105516613
 20
15.7092405293
 40
0.01
100
AcDbArc
 50
225.0
 51
315.0
  0
ARC
  5
367
100
AcDbEntity
  8
0
100
AcDbCircle
 62
7
  6
CONTINUOUS
 10
14.3459070004
 20
15.6738851902
 40
0.01
100
AcDbArc
 50
135.0
 51
225.0
  0
ARC
  5
368
100
AcDbEntity
  8
0
100
AcDbCircle
 62
6
  6
CONTINUOUS
 10
16.680538256
 20
17.6120820046
 40
0.8098740727
100
AcDbArc
 50
229.0170483649
 51
229.5769074897
  0
ARC
  5
369
100
AcDbEntity
  8
0
100
AcDbCircle
 62
6
  6
CONTINUOUS
 10
16.6048563218
 20
17.532306384
 40
0.7712692826
100
AcDbArc
 50
229.0150138968
 51
229.6957339414
  0
ARC
  5
36A
100
AcDbEntity
  8
0
100
AcDbCircle
 62
6
  6
CONTINUOUS
 10
16.6174852489
 20
17.5449353111
 40
0.7712692825
100
AcDbArc
 50
229.0150138968
 51
229.6957339414
  0
ARC
  5
36B
100
AcDbEntity
  8
0
100
AcDbCircle
 62
6
  6
CONTINUOUS
 10
16.6615148368
 20
17.5879272075
 40
0.7613472002
100
AcDbArc
 50
228.9997751872
 51
229.7354853741
  0
ARC
  5
36C
100
AcDbEntity
  8
0
100
AcDbCircle
 62
6
  6
CONTINUOUS
 10
16.5702224857
 20
17.4826967442
 40
0.6398443522
100
AcDbArc
 50
229.584428851
 51
229.7512120754
  0
ARC
  5
36D
100
AcDbEntity
  8
0
100
AcDbCircle
 62
7
  6
CONTINUOUS
 10
16.424654539
 20
17.2930791916
 40
0.3988713131
100
AcDbArc
 50
230.2686283793
 51
230.7063773974
  0
ARC
  5
36E
100
AcDbEntity
  8
0
100
AcDbCircle
 62
7
  6
CONTINUOUS
 10
16.4555958072
 20
17.3200617395
 40
0.3802735564
100
AcDbArc
 50
230.2956935976
 51
230.6341387774
  0
ARC
  5
36F
100
AcDbEntity
  8
0
100
AcDbCircle
 62
7
  6
CONTINUOUS
 10
15.9394834247
 20
16.8044157528
 40
0.3727066721
100
AcDbArc
 50
39.2069619099
 51
39.5677828096
  0
ARC
  5
370
100
AcDbEntity
  8
0
100
AcDbCircle
 62
7
  6
CONTINUOUS
 10
16.450823137
 20
17.31391642
 40
0.3594242012
100
AcDbArc
 50
230.4360508345
 51
230.7998636253
  0
ARC
  5
371
100
AcDbEntity
  8
0
100
AcDbCircle
 62
7
  6
CONTINUOUS
 10
16.2561888808
 20
17.082202206
 40
0.1289463339
100
AcDbArc
 50
232.8055883473
 51
233.0216980116
  0
ARC
  5
372
100
AcDbEntity
  8
0
100
AcDbCircle
 62
6
  6
CONTINUOUS
 10
15.2758413765
 20
17.2481377308
 40
0.0625
100
AcDbArc
 50
273.7193044773
 51
356.2806955227
  0
ARC
  5
373
100
AcDbEntity
  8
0
100
AcDbCircle
 62
6
  6
CONTINUOUS
 10
19.1435608169
 20
6.2533853501
 40
1.52
100
AcDbArc
 50
86.2419535375
 51
101.5898335018
  0
ARC
  5
374
100
AcDbEntity
  8
0
100
AcDbCircle
 62
6
  6
CONTINUOUS
 10
19.1435608169
 20
7.6559073993
 40
1.52
100
AcDbArc
 50
258.4101664982
 51
273.7580464625
  0
ARC
  5
375
100
AcDbEntity
  8
0
100
AcDbCircle
 62
6
  6
CONTINUOUS
 10
19.0792715038
 20
6.5668608423
 40
1.2
100
AcDbArc
 50
101.5898335018
 51
130.5151811264
  0
ARC
  5
376
100
AcDbEntity
  8
0
100
AcDbCircle
 62
6
  6
CONTINUOUS
 10
19.0792715038
 20
7.3424319071
 40
1.2
100
AcDbArc
 50
229.4848188736
 51
258.4101664982
  0
ARC
  5
377
100
AcDbEntity
  8
0
100
AcDbCircle
 62
6
  6
CONTINUOUS
 10
18.0398322987
 20
7.7832350195
 40
0.4
100
AcDbArc
 50
280.0
 51
310.5151811264
  0
ARC
  5
378
100
AcDbEntity
  8
0
100
AcDbCircle
 62
6
  6
CONTINUOUS
 10
18.0398322987
 20
6.1260577299
 40
0.4
100
AcDbArc
 50
49.4848188736
 51
80.0
  0
ARC
  5
379
100
AcDbEntity
  8
0
100
AcDbCircle
 62
6
  6
CONTINUOUS
 10
19.2656679199
 20
8.112379394
 40
0.343
100
AcDbArc
 50
266.2419535375
 51
320.9887457037
  0
ARC
  5
37A
100
AcDbEntity
  8
0
100
AcDbCircle
 62
6
  6
CONTINUOUS
 10
19.2656679199
 20
5.7969133554
 40
0.343
100
AcDbArc
 50
39.0112542963
 51
93.7580464625
  0
ARC
  5
37B
100
AcDbEntity
  8
0
100
AcDbCircle
 62
6
  6
CONTINUOUS
 10
20.4141975292
 20
3.7638140227
 40
0.2500109774
100
AcDbArc
 50
180.0192106228
 51
240.2635604814
  0
ARC
  5
37C
100
AcDbEntity
  8
0
100
AcDbCircle
 62
6
  6
CONTINUOUS
 10
20.4141975292
 20
10.1454787267
 40
0.2500109774
100
AcDbArc
 50
119.7364395186
 51
179.9807893772
  0
ARC
  5
37D
100
AcDbEntity
  8
0
100
AcDbCircle
 62
6
  6
CONTINUOUS
 10
20.6661865799
 20
3.3296463747
 40
0.25
100
AcDbArc
 50
180.0
 51
270.0
  0
ARC
  5
37E
100
AcDbEntity
  8
0
100
AcDbCircle
 62
6
  6
CONTINUOUS
 10
20.1661865799
 20
3.3296463747
 40
0.25
100
AcDbArc
 50
0.0
 51
60.2635604814
  0
ARC
  5
37F
100
AcDbEntity
  8
0
100
AcDbCircle
 62
6
  6
CONTINUOUS
 10
19.9141865799
 20
3.7636463747
 40
0.25
100
AcDbArc
 50
0.0192106228
 51
60.2642868924
  0
ARC
  5
380
100
AcDbEntity
  8
0
100
AcDbCircle
 62
6
  6
CONTINUOUS
 10
20.1621865799
 20
4.1978076351
 40
0.25
100
AcDbArc
 50
180.0
 51
240.2642868924
  0
ARC
  5
381
100
AcDbEntity
  8
0
100
AcDbCircle
 62
6
  6
CONTINUOUS
 10
20.6661865799
 20
10.5796463747
 40
0.25
100
AcDbArc
 50
90.0
 51
180.0
  0
ARC
  5
382
100
AcDbEntity
  8
0
100
AcDbCircle
 62
6
  6
CONTINUOUS
 10
20.1661865799
 20
10.5796463747
 40
0.25
100
AcDbArc
 50
299.7364395186
 51
360.0
  0
ARC
  5
383
100
AcDbEntity
  8
0
100
AcDbCircle
 62
6
  6
CONTINUOUS
 10
19.9141865799
 20
10.1456463747
 40
0.25
100
AcDbArc
 50
299.7357131076
 51
359.9807893772
  0
ARC
  5
384
100
AcDbEntity
  8
0
100
AcDbCircle
 62
6
  6
CONTINUOUS
 10
20.1621865799
 20
9.7114851143
 40
0.25
100
AcDbArc
 50
119.7357131076
 51
180.0
  0
ARC
  5
385
100
AcDbEntity
  8
0
100
AcDbCircle
 62
6
  6
CONTINUOUS
 10
19.8981865799
 20
7.9996463747
 40
0.125
100
AcDbArc
 50
90.0
 51
151.6423634237
  0
ARC
  5
386
100
AcDbEntity
  8
0
100
AcDbCircle
 62
6
  6
CONTINUOUS
 10
19.8981865799
 20
5.9096463747
 40
0.125
100
AcDbArc
 50
208.3576365763
 51
270.0
  0
ARC
  5
387
100
AcDbEntity
  8
0
100
AcDbCircle
 62
6
  6
CONTINUOUS
 10
17.9821865799
 20
7.2876966035
 40
0.078
100
AcDbArc
 50
100.0000007151
 51
180.0000027488
  0
ARC
  5
388
100
AcDbEntity
  8
0
100
AcDbCircle
 62
6
  6
CONTINUOUS
 10
17.9821865799
 20
6.6215961459
 40
0.078
100
AcDbArc
 50
179.9999972512
 51
259.9999992849
  0
ARC
  5
389
100
AcDbEntity
  8
0
100
AcDbCircle
 62
6
  6
CONTINUOUS
 10
19.7416652896
 20
7.9486974328
 40
0.078
100
AcDbArc
 50
93.291697165
 51
143.2265724874
  0
ARC
  5
38A
100
AcDbEntity
  8
0
100
AcDbCircle
 62
6
  6
CONTINUOUS
 10
19.6490846444
 20
7.8938819654
 40
0.078
100
AcDbArc
 50
98.03157335
 51
149.0556893899
  0
ARC
  5
38B
100
AcDbEntity
  8
0
100
AcDbCircle
 62
6
  6
CONTINUOUS
 10
19.7416652896
 20
5.9605953166
 40
0.078
100
AcDbArc
 50
216.7734275126
 51
266.708302835
  0
ARC
  5
38C
100
AcDbEntity
  8
0
100
AcDbCircle
 62
6
  6
CONTINUOUS
 10
19.6490846444
 20
6.015410784
 40
0.078
100
AcDbArc
 50
210.9443106101
 51
261.96842665
  0
ARC
  5
38D
100
AcDbEntity
  8
0
100
AcDbCircle
 62
6
  6
CONTINUOUS
 10
19.7336265799
 20
8.0884664535
 40
0.062
100
AcDbArc
 50
273.291697165
 51
331.6423634237
  0
ARC
  5
38E
100
AcDbEntity
  8
0
100
AcDbCircle
 62
6
  6
CONTINUOUS
 10
19.6295240158
 20
8.032508737
 40
0.062
100
AcDbArc
 50
278.03157335
 51
323.2265724874
  0
ARC
  5
38F
100
AcDbEntity
  8
0
100
AcDbCircle
 62
6
  6
CONTINUOUS
 10
19.5290111953
 20
7.965870623
 40
0.062
100
AcDbArc
 50
287.0467181651
 51
329.0556893899
  0
ARC
  5
390
100
AcDbEntity
  8
0
100
AcDbCircle
 62
6
  6
CONTINUOUS
 10
19.7336265799
 20
5.8208262959
 40
0.062
100
AcDbArc
 50
28.3576365763
 51
86.708302835
  0
ARC
  5
391
100
AcDbEntity
  8
0
100
AcDbCircle
 62
6
  6
CONTINUOUS
 10
19.6295240158
 20
5.8767840124
 40
0.062
100
AcDbArc
 50
36.7734275126
 51
81.96842665
  0
ARC
  5
392
100
AcDbEntity
  8
0
100
AcDbCircle
 62
6
  6
CONTINUOUS
 10
19.5290111953
 20
5.9434221265
 40
0.062
100
AcDbArc
 50
30.9443106101
 51
72.9532818349
  0
ARC
  5
393
100
AcDbEntity
  8
0
100
AcDbCircle
 62
6
  6
CONTINUOUS
 10
19.5562742722
 20
7.876956481
 40
0.031
100
AcDbArc
 50
107.0467181651
 51
140.9887457037
  0
ARC
  5
394
100
AcDbEntity
  8
0
100
AcDbCircle
 62
6
  6
CONTINUOUS
 10
19.5562742722
 20
6.0323362684
 40
0.031
100
AcDbArc
 50
219.0112542963
 51
252.9532818349
  0
ARC
  5
395
100
AcDbEntity
  8
0
100
AcDbCircle
 62
6
  6
CONTINUOUS
 10
18.3161865799
 20
17.2046463747
 40
2.15625
100
AcDbArc
 50
90.0
 51
135.0
  0
ARC
  5
396
100
AcDbEntity
  8
0
100
AcDbCircle
 62
6
  6
CONTINUOUS
 10
18.3161865799
 20
17.2046463747
 40
1.34375
100
AcDbArc
 50
90.0
 51
135.0
  0
ARC
  5
397
100
AcDbEntity
  8
0
100
AcDbCircle
 62
6
  6
CONTINUOUS
 10
17.5300194357
 20
18.6427482108
 40
2.1025438086
100
AcDbArc
 50
228.2386798435
 51
228.4709030495
  0
ARC
  5
398
100
AcDbEntity
  8
0
100
AcDbCircle
 62
6
  6
CONTINUOUS
 10
17.4788588153
 20
18.5915108189
 40
2.1015645892
100
AcDbArc
 50
228.2372390835
 51
228.4729032542
  0
ARC
  5
399
100
AcDbEntity
  8
0
100
AcDbCircle
 62
7
  6
CONTINUOUS
 10
17.0703747069
 20
18.0350499206
 40
1.3232588177
100
AcDbArc
 50
228.4915172433
 51
228.8837322753
  0
ARC
  5
39A
100
AcDbEntity
  8
0
100
AcDbCircle
 62
7
  6
CONTINUOUS
 10
16.9999133046
 20
17.9641744299
 40
1.2828047247
100
AcDbArc
 50
228.6063087777
 51
228.9885424127
  0
ARC
  5
39B
100
AcDbEntity
  8
0
100
AcDbCircle
 62
7
  6
CONTINUOUS
 10
17.0059594786
 20
17.9639888529
 40
1.2143057322
100
AcDbArc
 50
228.5885198351
 51
229.003099318
  0
ARC
  5
39C
100
AcDbEntity
  8
0
100
AcDbCircle
 62
6
  6
CONTINUOUS
 10
20.4340133327
 20
17.8146463747
 40
0.05
100
AcDbArc
 50
195.5395943691
 51
269.9999999739
  0
ARC
  5
39D
100
AcDbEntity
  8
0
100
AcDbCircle
 62
6
  6
CONTINUOUS
 10
20.2793294776
 20
18.5074314074
 40
0.03
100
AcDbArc
 50
180.0
 51
186.4144772219
  0
ARC
  5
39E
100
AcDbEntity
  8
0
100
AcDbCircle
 62
7
  6
CONTINUOUS
 10
17.6417159036
 20
18.7612800368
 40
2.1851248096
100
AcDbArc
 50
228.2426940568
 51
228.4668460029
  0
ARC
  5
39F
100
AcDbEntity
  8
0
100
AcDbCircle
 62
6
  6
CONTINUOUS
 10
17.5405455242
 20
18.6600891482
 40
2.1848904474
100
AcDbArc
 50
228.243055932
 51
228.4665268341
  0
ARC
  5
3A0
100
AcDbEntity
  8
0
100
AcDbCircle
 62
7
  6
CONTINUOUS
 10
17.5885444444
 20
18.7077443435
 40
2.1810918621
100
AcDbArc
 50
228.2545860797
 51
228.4580057332
  0
ARC
  5
3A1
100
AcDbEntity
  8
0
100
AcDbCircle
 62
7
  6
CONTINUOUS
 10
17.5822808848
 20
18.6951937714
 40
2.1051574184
100
AcDbArc
 50
228.2509171673
 51
228.4616743126
  0
ARC
  5
3A2
100
AcDbEntity
  8
0
100
AcDbCircle
 62
6
  6
CONTINUOUS
 10
20.4340133327
 20
20.0946463747
 40
0.05
100
AcDbArc
 50
90.0000000261
 51
164.4604056309
  0
ARC
  5
3A3
100
AcDbEntity
  8
0
100
AcDbCircle
 62
6
  6
CONTINUOUS
 10
20.2793294776
 20
19.401861342
 40
0.03
100
AcDbArc
 50
173.5855227781
 51
180.0
  0
ARC
  5
3A4
100
AcDbEntity
  8
0
100
AcDbCircle
 62
6
  6
CONTINUOUS
 10
24.7213459957
 20
19.0068202869
 40
4.5
100
AcDbArc
 50
186.4144816961
 51
195.539595478
  0
ARC
  5
3A5
100
AcDbEntity
  8
0
100
AcDbCircle
 62
6
  6
CONTINUOUS
 10
24.7213459957
 20
18.9024724625
 40
4.5
100
AcDbArc
 50
164.460404522
 51
173.5855183039
  0
LINE
  5
3A6
100
AcDbEntity
  8
0
100
AcDbLine
 62
7
  6
CONTINUOUS
 10
16.2317854131
 20
17.0290729864
 11
16.2236558468
 21
17.0353831569
  0
LINE
  5
3A7
100
AcDbEntity
  8
0
100
AcDbLine
 62
7
  6
CONTINUOUS
 10
16.1603689575
 20
17.0915508439
 11
16.1541536741
 21
17.0972606462
  0
LINE
  5
3A8
100
AcDbEntity
  8
0
100
AcDbLine
 62
7
  6
CONTINUOUS
 10
16.096033096
 20
17.1512284212
 11
16.0841779526
 21
17.1623218055
  0
LINE
  5
3A9
100
AcDbEntity
  8
0
100
AcDbLine
 62
7
  6
CONTINUOUS
 10
15.9997120342
 20
17.2417789083
 11
15.9819163251
 21
17.2585748553
  0
LINE
  5
3AA
100
AcDbEntity
  8
0
100
AcDbLine
 62
7
  6
CONTINUOUS
 10
15.9640996415
 20
17.2753996275
 11
15.9462973785
 21
17.2922161022
  0
LINE
  5
3AB
100
AcDbEntity
  8
0
100
AcDbLine
 62
7
  6
CONTINUOUS
 10
15.9283922593
 20
17.3091315081
 11
15.9106265238
 21
17.3259134902
  0
LINE
  5
3AC
100
AcDbEntity
  8
0
100
AcDbLine
 62
7
  6
CONTINUOUS
 10
15.8927216518
 20
17.3428215589
 11
15.8749678159
 21
17.3595780098
  0
LINE
  5
3AD
100
AcDbEntity
  8
0
100
AcDbLine
 62
7
  6
CONTINUOUS
 10
15.7906062706
 20
17.4389376531
 11
15.7739089801
 21
17.454556136
  0
LINE
  5
3AE
100
AcDbEntity
  8
0
100
AcDbLine
 62
7
  6
CONTINUOUS
 10
15.748870038
 20
17.4778839132
 11
15.7438649588
 21
17.4825301401
  0
LINE
  5
3AF
100
AcDbEntity
  8
0
100
AcDbLine
 62
7
  6
CONTINUOUS
 10
15.7347711689
 20
17.4739640624
 11
15.7398398249
 21
17.4692490176
  0
LINE
  5
3B0
100
AcDbEntity
  8
0
100
AcDbLine
 62
7
  6
CONTINUOUS
 10
15.7651638934
 20
17.4456078152
 11
15.7815855244
 21
17.4302177166
  0
LINE
  5
3B1
100
AcDbEntity
  8
0
100
AcDbLine
 62
7
  6
CONTINUOUS
 10
15.8660359717
 20
17.3506357574
 11
15.8838201076
 21
17.3338229116
  0
LINE
  5
3B2
100
AcDbEntity
  8
0
100
AcDbLine
 62
7
  6
CONTINUOUS
 10
15.9016178561
 20
17.3169884423
 11
15.9194080858
 21
17.3001559314
  0
LINE
  5
3B3
100
AcDbEntity
  8
0
100
AcDbLine
 62
7
  6
CONTINUOUS
 10
15.9372976927
 20
17.2832276886
 11
15.9550445931
 21
17.2664361919
  0
LINE
  5
3B4
100
AcDbEntity
  8
0
100
AcDbLine
 62
7
  6
CONTINUOUS
 10
15.9729470756
 20
17.2495027005
 11
15.9906822358
 21
17.2327362226
  0
LINE
  5
3B5
100
AcDbEntity
  8
0
100
AcDbLine
 62
7
  6
CONTINUOUS
 10
16.0749445279
 20
17.1533314249
 11
16.0870237556
 21
17.1420068207
  0
LINE
  5
3B6
100
AcDbEntity
  8
0
100
AcDbLine
 62
7
  6
CONTINUOUS
 10
16.1449940957
 20
17.0880646283
 11
16.1511471981
 21
17.0823980956
  0
LINE
  5
3B7
100
AcDbEntity
  8
0
100
AcDbLine
 62
7
  6
CONTINUOUS
 10
16.2143997063
 20
17.0260678303
 11
16.2225673527
 21
17.0196879665
  0
LINE
  5
3B8
100
AcDbEntity
  8
0
100
AcDbLine
 62
7
  6
CONTINUOUS
 10
15.7848248825
 20
17.5234900489
 11
15.7898244956
 21
17.5188383611
  0
LINE
  5
3B9
100
AcDbEntity
  8
0
100
AcDbLine
 62
7
  6
CONTINUOUS
 10
15.8148373629
 20
17.4954845208
 11
15.8315181989
 21
17.4798495943
  0
LINE
  5
3BA
100
AcDbEntity
  8
0
100
AcDbLine
 62
7
  6
CONTINUOUS
 10
15.9158033598
 20
17.400413555
 11
15.9335419424
 21
17.3836418485
  0
LINE
  5
3BB
100
AcDbEntity
  8
0
100
AcDbLine
 62
7
  6
CONTINUOUS
 10
15.9514315627
 20
17.3667185272
 11
15.9691822368
 21
17.349921489
  0
LINE
  5
3BC
100
AcDbEntity
  8
0
100
AcDbLine
 62
7
  6
CONTINUOUS
 10
15.987099515
 20
17.3329650783
 11
16.0041452127
 21
17.3168350595
  0
LINE
  5
3BD
100
AcDbEntity
  8
0
100
AcDbLine
 62
7
  6
CONTINUOUS
 10
16.0041452127
 20
17.3168350595
 11
16.0048729519
 21
17.3161464942
  0
LINE
  5
3BE
100
AcDbEntity
  8
0
100
AcDbLine
 62
7
  6
CONTINUOUS
 10
16.1720514364
 20
16.9843884127
 11
16.1782380596
 21
16.9794849898
  0
LINE
  5
3BF
100
AcDbEntity
  8
0
100
AcDbLine
 62
7
  6
CONTINUOUS
 10
16.2282817814
 20
17.040012384
 11
16.2343626158
 21
17.0322023914
  0
LINE
  5
3C0
100
AcDbEntity
  8
0
100
AcDbLine
 62
6
  6
CONTINUOUS
 10
16.1263622686
 20
16.9294413572
 11
16.1256178112
 21
16.9293873891
  0
LINE
  5
3C1
100
AcDbEntity
  8
0
100
AcDbLine
 62
7
  6
CONTINUOUS
 10
15.7750545575
 20
17.5135338187
 11
15.7803006173
 21
17.5087557654
  0
LINE
  5
3C2
100
AcDbEntity
  8
0
100
AcDbLine
 62
7
  6
CONTINUOUS
 10
15.9068905217
 20
17.3912529226
 11
15.9247464011
 21
17.3745210776
  0
LINE
  5
3C3
100
AcDbEntity
  8
0
100
AcDbLine
 62
7
  6
CONTINUOUS
 10
15.9424724282
 20
17.3578979506
 11
15.9603899501
 21
17.3410875855
  0
LINE
  5
3C4
100
AcDbEntity
  8
0
100
AcDbLine
 62
7
  6
CONTINUOUS
 10
16.1222733939
 20
17.1776597389
 11
16.1107740276
 21
17.1882894775
  0
LINE
  5
3C5
100
AcDbEntity
  8
0
100
AcDbLine
 62
7
  6
CONTINUOUS
 10
15.9783065091
 20
17.3242755856
 11
15.9962254363
 21
17.3074639024
  0
LINE
  5
3C6
100
AcDbEntity
  8
0
100
AcDbLine
 62
7
  6
CONTINUOUS
 10
16.0139460964
 20
17.2908458076
 11
16.0318080145
 21
17.2741083039
  0
LINE
  5
3C7
100
AcDbEntity
  8
0
100
AcDbLine
 62
7
  6
CONTINUOUS
 10
16.1171040189
 20
17.194586633
 11
16.1283015134
 21
17.1842355405
  0
LINE
  5
3C8
100
AcDbEntity
  8
0
100
AcDbLine
 62
7
  6
CONTINUOUS
 10
16.0665793428
 20
17.1440947926
 11
16.0780787091
 21
17.1334650541
  0
SPLINE
  5
3C9
100
AcDbEntity
  8
0
100
AcDbSpline
 62
7
  6
CONTINUOUS
 70
0
 71
3
 72
21
 73
17
 74
15
 42
0.0000001
 43
0.0000001
 44
0.0000000001
 12
-0.0037366811
 22
-0.0066415281
 32
0.0
 13
0.0068393496
 23
-0.0033609492
 33
0.0
 40
0.0
 40
0.0
 40
0.0
 40
0.0
 40
0.1580345125
 40
0.3290785073
 40
0.5001395768
 40
0.6597172425
 40
0.7971204964
 40
0.854680763
 40
0.9034067753
 40
0.9241539484
 40
0.9424030788
 40
0.9581251915
 40
0.9713030882
 40
0.9819432647
 40
0.9901064039
 40
1.0
 40
1.0
 40
1.0
 40
1.0
 10
14.3653366332
 20
15.786297436
 30
0.0
 10
14.3651397917
 20
15.7859475725
 30
0.0
 10
14.3647427401
 20
15.7852118097
 30
0.0
 10
14.3641672757
 20
15.7840790493
 30
0.0
 10
14.3636183357
 20
15.7829288136
 30
0.0
 10
14.3631335615
 20
15.7818430977
 30
0.0
 10
14.362791869
 20
15.781009545
 30
0.0
 10
14.3625779334
 20
15.7804286097
 30
0.0
 10
14.3624758624
 20
15.7801223951
 30
0.0
 10
14.3624133666
 20
15.7799084643
 30
0.0
 10
14.3623784445
 20
15.7797739394
 30
0.0
 10
14.3623529354
 20
15.7796567614
 30
0.0
 10
14.3623366002
 20
15.7795579406
 30
0.0
 10
14.3623298954
 20
15.7794759044
 30
0.0
 10
14.3623314092
 20
15.7794056848
 30
0.0
 10
14.3623476318
 20
15.7793528553
 30
0.0
 10
14.362370187
 20
15.7793417714
 30
0.0
 11
14.3653366332
 21
15.786297436
 31
0.0
 11
14.3647626829
 21
15.7852386911
 31
0.0
 11
14.3641721194
 21
15.7840767049
 31
0.0
 11
14.3636109433
 21
15.7829001005
 31
0.0
 11
14.3631167672
 21
15.7817889693
 31
0.0
 11
14.3627232337
 21
15.780818648
 31
0.0
 11
14.3625724971
 21
15.7804067208
 31
0.0
 11
14.3624564937
 21
15.7800539875
 31
0.0
 11
14.3624124061
 21
15.7799021541
 31
0.0
 11
14.3623777845
 21
15.7797674643
 31
0.0
 11
14.3623526529
 21
15.7796503187
 31
0.0
 11
14.3623370354
 21
15.7795511178
 31
0.0
 11
14.362330956
 21
15.7794702621
 31
0.0
 11
14.3623344388
 21
15.7794081521
 31
0.0
 11
14.362370187
 21
15.7793417714
 31
0.0
  0
SPLINE
  5
3CA
100
AcDbEntity
  8
0
100
AcDbSpline
 62
7
  6
CONTINUOUS
 70
0
 71
3
 72
21
 73
17
 74
15
 42
0.0000001
 43
0.0000001
 44
0.0000000001
 12
-0.0066415668
 22
-0.0037374838
 32
0.0
 13
-0.003366147
 23
0.0068372691
 33
0.0
 40
0.0
 40
0.0
 40
0.0
 40
0.0
 40
0.1580208944
 40
0.3290548747
 40
0.5001102217
 40
0.6596864223
 40
0.7970922389
 40
0.854655212
 40
0.9033848202
 40
0.9241341148
 40
0.9423855766
 40
0.9581102264
 40
0.9712908638
 40
0.9819339823
 40
0.9901002489
 40
1.0
 40
1.0
 40
1.0
 40
1.0
 10
14.4229635467
 20
15.7286700538
 30
0.0
 10
14.4226137112
 20
15.728473187
 30
0.0
 10
14.4218779874
 20
15.7280760903
 30
0.0
 10
14.4207452569
 20
15.7275005742
 30
0.0
 10
14.4195950118
 20
15.7269515889
 30
0.0
 10
14.4185092518
 20
15.7264667782
 30
0.0
 10
14.4176756415
 20
15.7261250671
 30
0.0
 10
14.4170946484
 20
15.7259111227
 30
0.0
 10
14.4167883934
 20
15.7258090478
 30
0.0
 10
14.4165744288
 20
15.7257465502
 30
0.0
 10
14.4164398777
 20
15.7257116269
 30
0.0
 10
14.4163226733
 20
15.7256861173
 30
0.0
 10
14.4162238252
 20
15.7256697827
 30
0.0
 10
14.4161417628
 20
15.725663078
 30
0.0
 10
14.4160715057
 20
15.7256645978
 30
0.0
 10
14.4160186555
 20
15.7256808171
 30
0.0
 10
14.4160075475
 20
15.7257033795
 30
0.0
 11
14.4229635467
 21
15.7286700538
 31
0.0
 11
14.4219048753
 21
15.7280960439
 31
0.0
 11
14.4207429203
 21
15.7275054262
 31
0.0
 11
14.4195663057
 21
15.726944203
 31
0.0
 11
14.4184551285
 21
15.7264499899
 31
0.0
 11
14.4174847325
 21
15.7260564323
 31
0.0
 11
14.41707276
 21
15.7259056881
 31
0.0
 11
14.4167199776
 21
15.7257896795
 31
0.0
 11
14.4165681186
 21
15.7257455902
 31
0.0
 11
14.4164334028
 21
15.7257109674
 31
0.0
 11
14.4163162306
 21
15.7256858354
 31
0.0
 11
14.4162170028
 21
15.7256702182
 31
0.0
 11
14.41613612
 21
15.7256641399
 31
0.0
 11
14.4160739828
 21
15.7256676246
 31
0.0
 11
14.4160075475
 21
15.7257033795
 31
0.0
  0
SPLINE
  5
3CB
100
AcDbEntity
  8
0
100
AcDbSpline
 62
6
  6
CONTINUOUS
 70
0
 71
3
 72
9
 73
5
 74
3
 42
0.0000001
 43
0.0000001
 44
0.0000000001
 12
-0.0000441785
 22
-0.0000768545
 32
0.0
 13
-0.0000626102
 23
-0.000062756
 33
0.0
 40
0.0
 40
0.0
 40
0.0
 40
0.0
 40
0.254149959
 40
1.0
 40
1.0
 40
1.0
 40
1.0
 10
16.1264158755
 20
16.9295117797
 30
0.0
 10
16.1264121328
 20
16.9295052689
 30
0.0
 10
16.1263966208
 20
16.9294801125
 30
0.0
 10
16.1263778346
 20
16.9294569594
 30
0.0
 10
16.1263622686
 20
16.9294413572
 30
0.0
 11
16.1264158755
 21
16.9295117797
 31
0.0
 11
16.1264040366
 21
16.9294926113
 31
0.0
 11
16.1263622686
 21
16.9294413572
 31
0.0
  0
SPLINE
  5
3CC
100
AcDbEntity
  8
0
100
AcDbSpline
 62
9
  6
CONTINUOUS
 70
0
 71
3
 72
32
 73
28
 74
26
 42
0.0000001
 43
0.0000001
 44
0.0000000001
 12
0.1718351016
 22
0.1559600685
 32
0.0
 13
0.1640896783
 23
-0.1640896783
 33
0.0
 40
0.0
 40
0.0
 40
0.0
 40
0.0
 40
0.0193010532
 40
0.0388352776
 40
0.0587494657
 40
0.0791775132
 40
0.1002392834
 40
0.1220404196
 40
0.1681859495
 40
0.1926998665
 40
0.2182209371
 40
0.2447715276
 40
0.2723632696
 40
0.300999044
 40
0.3306746409
 40
0.3613801379
 40
0.3931010024
 40
0.4258131476
 40
0.4594763952
 40
0.4940449075
 40
0.529469463
 40
0.6026697392
 40
0.6786481348
 40
0.7569311255
 40
0.8369703043
 40
0.9181882693
 40
1.0
 40
1.0
 40
1.0
 40
1.0
 10
13.7961107477
 20
15.4371955155
 30
0.0
 10
13.7972162805
 20
15.4381989134
 30
0.0
 10
13.7995477839
 20
15.4401031201
 30
0.0
 10
13.8033471762
 20
15.4426094462
 30
0.0
 10
13.8074506403
 20
15.4447727762
 30
0.0
 10
13.8118464617
 20
15.4465889017
 30
0.0
 10
13.8165241413
 20
15.4480543606
 30
0.0
 10
13.823248092
 20
15.4495642726
 30
0.0
 10
13.8303920121
 20
15.4503015949
 30
0.0
 10
13.8378345348
 20
15.4503376697
 30
0.0
 10
13.843753174
 20
15.4500059962
 30
0.0
 10
13.8498795817
 20
15.4493173086
 30
0.0
 10
13.8561998945
 20
15.4482744894
 30
0.0
 10
13.862699182
 20
15.4468801558
 30
0.0
 10
13.869362751
 20
15.4451369212
 30
0.0
 10
13.8761758104
 20
15.4430474388
 30
0.0
 10
13.8831230152
 20
15.4406141855
 30
0.0
 10
13.8901880702
 20
15.4378415601
 30
0.0
 10
13.8973549583
 20
15.4347387347
 30
0.0
 10
13.9046066188
 20
15.4313145052
 30
0.0
 10
13.9144729737
 20
15.4262772939
 30
0.0
 10
13.926896577
 20
15.4192203927
 30
0.0
 10
13.9417073632
 20
15.4097075096
 30
0.0
 10
13.9564380189
 20
15.3991361774
 30
0.0
 10
13.9709593438
 20
15.3876160977
 30
0.0
 10
13.985137292
 20
15.3752574355
 30
0.0
 10
13.9942602373
 20
15.3665434066
 30
0.0
 10
13.9987350574
 20
15.3620685864
 30
0.0
 11
13.7961107477
 21
15.4371955155
 31
0.0
 11
13.7995782507
 21
15.4400305664
 31
0.0
 11
13.8033599519
 21
15.4425300583
 31
0.0
 11
13.807445469
 21
15.4446897905
 31
0.0
 11
13.8118244194
 21
15.4465055623
 31
0.0
 11
13.8164864206
 21
15.4479731729
 31
0.0
 11
13.8214210902
 21
15.4490884216
 31
0.0
 11
13.8320668719
 21
15.4502450785
 31
0.0
 11
13.8377554068
 21
15.4502807738
 31
0.0
 11
13.8436688867
 21
15.4499564916
 31
0.0
 11
13.8497923367
 21
15.4492748439
 31
0.0
 11
13.8561107818
 21
15.4482384426
 31
0.0
 11
13.862609247
 21
15.4468498998
 31
0.0
 11
13.8692727572
 21
15.4451118273
 31
0.0
 11
13.8760863375
 21
15.4430268371
 31
0.0
 11
13.883035008
 21
15.4405975547
 31
0.0
 11
13.8901030787
 21
15.4378285608
 31
0.0
 11
13.8972734125
 21
15.4347284226
 31
0.0
 11
13.9045286959
 21
15.4313061929
 31
0.0
 11
13.9118516154
 21
15.4275709246
 31
0.0
 11
13.9266311082
 21
15.4191974831
 31
0.0
 11
13.9414733828
 21
15.4096805219
 31
0.0
 11
13.9562405499
 21
15.3991003064
 31
0.0
 11
13.9707967998
 21
15.3875634676
 31
0.0
 11
13.9850067599
 21
15.3751821721
 31
0.0
 11
13.9987350574
 21
15.3620685864
 31
0.0
  0
SPLINE
  5
3CD
100
AcDbEntity
  8
0
100
AcDbSpline
 62
6
  6
CONTINUOUS
 70
0
 71
3
 72
14
 73
10
 74
8
 42
0.0000001
 43
0.0000001
 44
0.0000000001
 12
-0.0073428314
 22
0.0019651006
 32
0.0
 13
-0.0060891455
 23
0.0045498463
 33
0.0
 40
0.0
 40
0.0
 40
0.0
 40
0.0
 40
0.0641348352
 40
0.1451001033
 40
0.2433756982
 40
0.3592083612
 40
0.4927317617
 40
0.6440187852
 40
1.0
 40
1.0
 40
1.0
 40
1.0
 10
16.1256178112
 20
16.9293873891
 30
0.0
 10
16.1254608341
 20
16.9294293996
 30
0.0
 10
16.1251141731
 20
16.9295553464
 30
0.0
 10
16.1245558407
 20
16.9298178746
 30
0.0
 10
16.1238996112
 20
16.930176925
 30
0.0
 10
16.123145683
 20
16.9306326809
 30
0.0
 10
16.1222940512
 20
16.9311853957
 30
0.0
 10
16.1209542622
 20
16.9321026807
 30
0.0
 10
16.1199158795
 20
16.9328606627
 30
0.0
 10
16.119193339
 20
16.9334005492
 30
0.0
 11
16.1256178112
 21
16.9293873891
 31
0.0
 11
16.125157076
 21
16.9295467103
 31
0.0
 11
16.1245981188
 21
16.9298042535
 31
0.0
 11
16.1239411471
 21
16.9301598112
 31
0.0
 11
16.1231863686
 21
16.9306131757
 31
0.0
 11
16.1223339908
 21
16.9311641395
 31
0.0
 11
16.1213842212
 21
16.9318124951
 31
0.0
 11
16.119193339
 21
16.9334005492
 31
0.0
  0
LINE
  5
3CE
100
AcDbEntity
  8
0
100
AcDbLine
 62
6
  6
CONTINUOUS
 10
16.0558716429
 20
16.9887644599
 11
16.0500102289
 21
16.9941315519
  0
LINE
  5
3CF
100
AcDbEntity
  8
0
100
AcDbLine
 62
6
  6
CONTINUOUS
 10
15.9919007864
 20
17.0479812709
 11
15.9807189202
 21
17.058431463
  0
LINE
  5
3D0
100
AcDbEntity
  8
0
100
AcDbLine
 62
6
  6
CONTINUOUS
 10
16.106112787
 20
17.0395157642
 11
16.1003676705
 21
17.0447769546
  0
LINE
  5
3D1
100
AcDbEntity
  8
0
100
AcDbLine
 62
6
  6
CONTINUOUS
 10
16.0426234996
 20
17.0982881432
 11
16.0310948838
 21
17.1090622991
  0
LINE
  5
3D2
100
AcDbEntity
  8
0
100
AcDbLine
 62
6
  6
CONTINUOUS
 10
15.9462450426
 20
17.1888129689
 11
15.9286984309
 21
17.2053637395
  0
LINE
  5
3D3
100
AcDbEntity
  8
0
100
AcDbLine
 62
6
  6
CONTINUOUS
 10
15.9108615292
 20
17.2221978414
 11
15.8930496889
 21
17.2390139252
  0
LINE
  5
3D4
100
AcDbEntity
  8
0
100
AcDbLine
 62
6
  6
CONTINUOUS
 10
15.8751785548
 20
17.2558878557
 11
15.8573919995
 21
17.2726800719
  0
LINE
  5
3D5
100
AcDbEntity
  8
0
100
AcDbLine
 62
6
  6
CONTINUOUS
 10
15.8395359782
 20
17.2895322219
 11
15.8219446581
 21
17.3061251496
  0
LINE
  5
3D6
100
AcDbEntity
  8
0
100
AcDbLine
 62
6
  6
CONTINUOUS
 10
15.73704602
 20
17.385921152
 11
15.721060438
 21
17.4008543496
  0
LINE
  5
3D7
100
AcDbEntity
  8
0
100
AcDbLine
 62
6
  6
CONTINUOUS
 10
15.6958673545
 20
17.4242870605
 11
15.6907164551
 21
17.4290587018
  0
SPLINE
  5
3D8
100
AcDbEntity
  8
0
100
AcDbSpline
 62
6
  6
CONTINUOUS
 70
0
 71
3
 72
36
 73
32
 74
30
 42
0.0000001
 43
0.0000001
 44
0.0000000001
 12
0.2683544908
 22
-0.2538780102
 32
0.0
 13
0.3567419423
 23
-0.0959341616
 33
0.0
 40
0.0
 40
0.0
 40
0.0
 40
0.0
 40
0.0975190293
 40
0.1934606681
 40
0.2870550424
 40
0.3775544085
 40
0.4642378006
 40
0.5464041219
 40
0.6234070583
 40
0.6946189997
 40
0.7594819141
 40
0.789369059
 40
0.8174747981
 40
0.8437464655
 40
0.8681353175
 40
0.8905927386
 40
0.9110703165
 40
0.9295253173
 40
0.9459273743
 40
0.9602483381
 40
0.9724611155
 40
0.9777690775
 40
0.9825414581
 40
0.9867779767
 40
0.9904791745
 40
0.9936465271
 40
0.9962832019
 40
0.9974045525
 40
0.9983962093
 40
0.9992602682
 40
1.0
 40
1.0
 40
1.0
 40
1.0
 10
16.104429872
 20
17.4155427085
 30
0.0
 10
16.1131530952
 20
17.4072900628
 30
0.0
 10
16.130460275
 20
17.3909201972
 30
0.0
 10
16.1561514821
 20
17.3666423669
 30
0.0
 10
16.1812310668
 20
17.3429758381
 30
0.0
 10
16.2055039533
 20
17.3201155653
 30
0.0
 10
16.2287809192
 20
17.2982504039
 30
0.0
 10
16.2508818264
 20
17.2775606947
 30
0.0
 10
16.2716340842
 20
17.258218094
 30
0.0
 10
16.2908781005
 20
17.2403824953
 30
0.0
 10
16.3059173998
 20
17.2265453595
 30
0.0
 10
16.3170887057
 20
17.2163439938
 30
0.0
 10
16.3247709548
 20
17.2093690797
 30
0.0
 10
16.3319737056
 20
17.2028733331
 30
0.0
 10
16.3386837259
 20
17.1968698539
 30
0.0
 10
16.3448881103
 20
17.191371388
 30
0.0
 10
16.3505744452
 20
17.1863902072
 30
0.0
 10
16.3557318982
 20
17.1819371255
 30
0.0
 10
16.3603510609
 20
17.1780209531
 30
0.0
 10
16.3644238593
 20
17.1746495044
 30
0.0
 10
16.3674833848
 20
17.1721968822
 30
0.0
 10
16.3696557477
 20
17.1705184731
 30
0.0
 10
16.3710661857
 20
17.169460665
 30
0.0
 10
16.3723349028
 20
17.1685440332
 30
0.0
 10
16.3734615121
 20
17.1677686753
 30
0.0
 10
16.3744456625
 20
17.1671347452
 30
0.0
 10
16.3751817059
 20
17.1667031405
 30
0.0
 10
16.375700543
 20
17.1664329165
 30
0.0
 10
16.3760324821
 20
17.1662770019
 30
0.0
 10
16.3763286729
 20
17.1661565201
 30
0.0
 10
16.3765166612
 20
17.1660950638
 30
0.0
 10
16.3766046256
 20
17.1660714086
 30
0.0
 11
16.104429872
 21
17.4155427085
 31
0.0
 11
16.1306032707
 21
17.3907887139
 31
0.0
 11
16.1563644449
 21
17.3664468998
 31
0.0
 11
16.181512198
 21
17.3427184562
 31
0.0
 11
16.2058511042
 21
17.3197988036
 31
0.0
 11
16.2291927165
 21
17.2978763848
 31
0.0
 11
16.2513537499
 21
17.2771344757
 31
0.0
 11
16.2721651901
 21
17.2577420678
 31
0.0
 11
16.2914628548
 21
17.2398633248
 31
0.0
 11
16.3091006893
 21
17.2236443424
 31
0.0
 11
16.317254355
 21
17.2162000986
 31
0.0
 11
16.3249421791
 21
17.2092217021
 31
0.0
 11
16.3321503095
 21
17.2027229898
 31
0.0
 11
16.3388658929
 21
17.1967167923
 31
0.0
 11
16.3450760776
 21
17.191215939
 31
0.0
 11
16.3507680188
 21
17.1862332521
 31
0.0
 11
16.3559303028
 21
17.1817801499
 31
0.0
 11
16.3605546804
 21
17.1778649461
 31
0.0
 11
16.3646333261
 21
17.1744955384
 31
0.0
 11
16.3681584145
 21
17.1716798247
 31
0.0
 11
16.3697109295
 21
17.1704820708
 31
0.0
 11
16.3711222727
 21
17.16942554
 31
0.0
 11
16.3723920248
 21
17.1685106233
 31
0.0
 11
16.3735198347
 21
17.1677376395
 31
0.0
 11
16.3745053511
 21
17.1671069073
 31
0.0
 11
16.3753482225
 21
17.1666187456
 31
0.0
 11
16.3757160567
 21
17.1664282283
 31
0.0
 11
16.3760480978
 21
17.1662734731
 31
0.0
 11
16.3763443021
 21
17.16615452
 31
0.0
 11
16.3766046256
 21
17.1660714086
 31
0.0
  0
SPLINE
  5
3D9
100
AcDbEntity
  8
0
100
AcDbSpline
 62
6
  6
CONTINUOUS
 70
0
 71
3
 72
9
 73
5
 74
3
 42
0.0000001
 43
0.0000001
 44
0.0000000001
 12
0.0000564333
 22
0.0000564333
 32
0.0
 13
0.0000687393
 23
0.0000405505
 33
0.0
 40
0.0
 40
0.0
 40
0.0
 40
0.0
 40
0.7461769755
 40
1.0
 40
1.0
 40
1.0
 40
1.0
 10
15.8276646432
 20
17.7655224318
 30
0.0
 10
15.8276786796
 20
17.7655364683
 30
0.0
 10
15.8276994182
 20
17.7655534822
 30
0.0
 10
15.8277219223
 20
17.7655676782
 30
0.0
 10
15.8277277382
 20
17.7655711091
 30
0.0
 11
15.8276646432
 21
17.7655224318
 31
0.0
 11
15.8277106119
 21
17.7655602901
 31
0.0
 11
15.8277277382
 21
17.7655711091
 31
0.0
  0
SPLINE
  5
3DA
100
AcDbEntity
  8
0
100
AcDbSpline
 62
6
  6
CONTINUOUS
 70
0
 71
3
 72
69
 73
65
 74
63
 42
0.0000001
 43
0.0000001
 44
0.0000000001
 12
0.7005504386
 22
0.4132663943
 32
0.0
 13
0.7854549544
 23
-0.2112357553
 33
0.0
 40
0.0
 40
0.0
 40
0.0
 40
0.0
 40
0.0004039861
 40
0.0006830623
 40
0.0010232573
 40
0.0014282752
 40
0.0019002547
 40
0.0024405037
 40
0.0030498582
 40
0.0044778141
 40
0.0061868589
 40
0.008178148
 40
0.0104521325
 40
0.0130087924
 40
0.0158470412
 40
0.0189651394
 40
0.022361237
 40
0.0299796567
 40
0.038686452
 40
0.0484649764
 40
0.0592929815
 40
0.0711432534
 40
0.0839882937
 40
0.0978004998
 40
0.1125492225
 40
0.1447101583
 40
0.18017441
 40
0.2186143668
 40
0.2596710573
 40
0.3029662048
 40
0.348092844
 40
0.3946345183
 40
0.4421565245
 40
0.4902196204
 40
0.538378274
 40
0.5861859086
 40
0.6331996005
 40
0.6789792098
 40
0.7231009131
 40
0.7651524481
 40
0.8047429748
 40
0.8415067001
 40
0.8750995285
 40
0.8906112923
 40
0.9052165877
 40
0.9188804571
 40
0.9315737386
 40
0.9432681258
 40
0.9539353938
 40
0.9635483398
 40
0.9720868811
 40
0.9795344494
 40
0.9828441033
 40
0.9858750631
 40
0.9886254773
 40
0.9910937016
 40
0.9932791319
 40
0.9951819239
 40
0.9968027061
 40
0.9981429683
 40
0.9987089035
 40
0.9992062079
 40
0.9996359835
 40
1.0
 40
1.0
 40
1.0
 40
1.0
 10
15.8277277382
 20
17.7655711091
 30
0.0
 10
15.8278220757
 20
17.7656267604
 30
0.0
 10
15.8280210988
 20
17.7656421374
 30
0.0
 10
15.8282923129
 20
17.7655964028
 30
0.0
 10
15.8285602023
 20
17.7655180508
 30
0.0
 10
15.8288678698
 20
17.7653988494
 30
0.0
 10
15.8292174117
 20
17.7652386017
 30
0.0
 10
15.8296083053
 20
17.7650371973
 30
0.0
 10
15.8302178143
 20
17.7646950843
 30
0.0
 10
15.8310812198
 20
17.7641592951
 30
0.0
 10
15.8322348332
 20
17.7633828542
 30
0.0
 10
15.8335536843
 20
17.7624422236
 30
0.0
 10
15.835037322
 20
17.7613376536
 30
0.0
 10
15.8366850429
 20
17.7600694337
 30
0.0
 10
15.8384959561
 20
17.7586383689
 30
0.0
 10
15.8404689284
 20
17.7570455501
 30
0.0
 10
15.8434292635
 20
17.7546128028
 30
0.0
 10
15.8475218941
 20
17.7511717175
 30
0.0
 10
15.8528904648
 20
17.7465600461
 30
0.0
 10
15.8588764171
 20
17.7413320744
 30
0.0
 10
15.8654666951
 20
17.7355007602
 30
0.0
 10
15.8726462415
 20
17.7290810004
 30
0.0
 10
15.8803989946
 20
17.7220886341
 30
0.0
 10
15.8887082842
 20
17.7145401249
 30
0.0
 10
15.9008601627
 20
17.7034332688
 30
0.0
 10
15.9172859497
 20
17.6883013849
 30
0.0
 10
15.9383627571
 20
17.6687384821
 30
0.0
 10
15.9611469008
 20
17.6474699696
 30
0.0
 10
15.9854338855
 20
17.6247001577
 30
0.0
 10
16.0110037659
 20
17.6006481814
 30
0.0
 10
16.0376260655
 20
17.5755446435
 30
0.0
 10
16.065059164
 20
17.5496305635
 30
0.0
 10
16.0930556205
 20
17.5231535025
 30
0.0
 10
16.1213622317
 20
17.4963663743
 30
0.0
 10
16.1497236461
 20
17.4695244928
 30
0.0
 10
16.1778838029
 20
17.4428838723
 30
0.0
 10
16.2055875521
 20
17.416699371
 30
0.0
 10
16.2325842583
 20
17.3912216638
 30
0.0
 10
16.2586289188
 20
17.366695317
 30
0.0
 10
16.2834861132
 20
17.3433556299
 30
0.0
 10
16.3069314069
 20
17.3214266916
 30
0.0
 10
16.3287532365
 20
17.3011194253
 30
0.0
 10
16.3458487381
 20
17.2853163018
 30
0.0
 10
16.3585729382
 20
17.273634899
 30
0.0
 10
16.3673380982
 20
17.2656306679
 30
0.0
 10
16.3755622407
 20
17.2581672635
 30
0.0
 10
16.3832274145
 20
17.2512623795
 30
0.0
 10
16.3903169653
 20
17.2449324862
 30
0.0
 10
16.3968145478
 20
17.2391936991
 30
0.0
 10
16.4027054163
 20
17.2340606992
 30
0.0
 10
16.4079768355
 20
17.2295459235
 30
0.0
 10
16.4119876808
 20
17.2261868422
 30
0.0
 10
16.4148818837
 20
17.2238207173
 30
0.0
 10
16.4168044121
 20
17.2222782579
 30
0.0
 10
16.4185644216
 20
17.2208979782
 30
0.0
 10
16.4201608835
 20
17.2196808983
 30
0.0
 10
16.4215929689
 20
17.2186276517
 30
0.0
 10
16.422860085
 20
17.2177383934
 30
0.0
 10
16.4239617963
 20
17.2170133428
 30
0.0
 10
16.4247820705
 20
17.2165208439
 30
0.0
 10
16.4253570831
 20
17.2162139683
 30
0.0
 10
16.4257219865
 20
17.2160383778
 30
0.0
 10
16.4260453664
 20
17.2159039056
 30
0.0
 10
16.4262499753
 20
17.2158360306
 30
0.0
 10
16.4263452815
 20
17.2158103995
 30
0.0
 11
15.8277277382
 21
17.7655711091
 31
0.0
 11
15.8280512053
 21
17.7656288915
 31
0.0
 11
15.8282756716
 21
17.7655951353
 31
0.0
 11
15.8285418869
 21
17.7655196801
 31
0.0
 11
15.8288497968
 21
17.7654025755
 31
0.0
 11
15.8291993466
 21
17.7652438709
 31
0.0
 11
15.8295904818
 21
17.7650436159
 31
0.0
 11
15.8300231478
 21
17.76480186
 31
0.0
 11
15.8310128541
 21
17.7641940436
 31
0.0
 11
15.8321680289
 21
17.7634208176
 31
0.0
 11
15.8334882357
 21
17.7624825783
 31
0.0
 11
15.834973038
 21
17.7613797218
 31
0.0
 11
15.836621955
 21
17.7601126912
 31
0.0
 11
15.8384340383
 21
17.7586824275
 31
0.0
 11
15.8404080589
 21
17.7570901699
 31
0.0
 11
15.8425427841
 21
17.7553371619
 31
0.0
 11
15.8472894169
 21
17.7513538677
 31
0.0
 11
15.8526640745
 21
17.7467424921
 31
0.0
 11
15.8586567328
 21
17.7415131411
 31
0.0
 11
15.8652542681
 21
17.7356789665
 31
0.0
 11
15.8724407719
 21
17.7292558566
 31
0.0
 11
15.8802002365
 21
17.7222597974
 31
0.0
 11
15.8885166387
 21
17.7147067901
 31
0.0
 11
15.8973722366
 21
17.7066145647
 31
0.0
 11
15.9166167049
 21
17.6888968041
 31
0.0
 11
15.9377624981
 21
17.6692777272
 31
0.0
 11
15.9606208468
 21
17.6479461303
 31
0.0
 11
15.9849850196
 21
17.6251087276
 31
0.0
 11
16.0106372423
 21
17.6009832687
 31
0.0
 11
16.0373432754
 21
17.5758039595
 31
0.0
 11
16.0648634563
 21
17.5498104414
 31
0.0
 11
16.0929476611
 21
17.5232528506
 31
0.0
 11
16.1213431734
 21
17.4963839275
 31
0.0
 11
16.1497936769
 21
17.4694600373
 31
0.0
 11
16.1780422541
 21
17.4427381438
 31
0.0
 11
16.2058340583
 21
17.4164730852
 31
0.0
 11
16.2329158233
 21
17.3909180973
 31
0.0
 11
16.2590436556
 21
17.3663170479
 31
0.0
 11
16.2839802878
 21
17.3429071808
 31
0.0
 11
16.3075007382
 21
17.3209134524
 31
0.0
 11
16.3293943777
 21
17.3005464636
 31
0.0
 11
16.3494629988
 21
17.2820044447
 31
0.0
 11
16.3587578459
 21
17.2734729172
 31
0.0
 11
16.3675308606
 21
17.2654632566
 31
0.0
 11
16.3757618482
 21
17.2579956615
 31
0.0
 11
16.3834339141
 21
17.2510870032
 31
0.0
 11
16.3905306209
 21
17.2447536917
 31
0.0
 11
16.3970355315
 21
17.2390121365
 31
0.0
 11
16.4029327313
 21
17.2338782338
 31
0.0
 11
16.4082103345
 21
17.2293639171
 31
0.0
 11
16.4128583285
 21
17.2254792781
 31
0.0
 11
16.4149430965
 21
17.2237762381
 31
0.0
 11
16.4168667113
 21
17.222234398
 31
0.0
 11
16.4186279227
 21
17.220855018
 31
0.0
 11
16.4202255308
 21
17.2196393047
 31
0.0
 11
16.4216588237
 21
17.2185879475
 31
0.0
 11
16.4229273631
 21
17.2177013452
 31
0.0
 11
16.4240307138
 21
17.2169798936
 31
0.0
 11
16.4249684405
 21
17.2164239883
 31
0.0
 11
16.425375059
 21
17.2162082392
 31
0.0
 11
16.4257401082
 21
17.216034025
 31
0.0
 11
16.4260635338
 21
17.2159013953
 31
0.0
 11
16.4263452815
 21
17.2158103995
 31
0.0
  0
SPLINE
  5
3DB
100
AcDbEntity
  8
0
100
AcDbSpline
 62
6
  6
CONTINUOUS
 70
0
 71
3
 72
70
 73
66
 74
64
 42
0.0000001
 43
0.0000001
 44
0.0000000001
 12
-0.5752365258
 22
-0.5752365257
 32
0.0
 13
-0.7856056599
 23
0.211229421
 33
0.0
 40
0.0
 40
0.0
 40
0.0
 40
0.0
 40
0.0001756724
 40
0.0003795297
 40
0.0006303091
 40
0.0009382349
 40
0.0013087773
 40
0.0017450116
 40
0.0022487719
 40
0.0028212088
 40
0.0041747412
 40
0.0058093095
 40
0.0077265159
 40
0.0099270578
 40
0.0124111227
 40
0.0151780134
 40
0.0182261005
 40
0.021553583
 40
0.0290390872
 40
0.0376188747
 40
0.0472765578
 40
0.0579908348
 40
0.0697344958
 40
0.0824798461
 40
0.0961991019
 40
0.110862315
 40
0.1428749081
 40
0.1782197091
 40
0.2165705016
 40
0.2575664453
 40
0.3008293306
 40
0.3459510604
 40
0.3925140926
 40
0.4400821561
 40
0.4882138479
 40
0.536460985
 40
0.5843738797
 40
0.6315070648
 40
0.6774180734
 40
0.721679865
 40
0.7638777376
 40
0.8036178077
 40
0.8405326503
 40
0.8742759913
 40
0.8898617871
 40
0.9045397609
 40
0.9182745542
 40
0.9310367485
 40
0.9427978251
 40
0.9535293511
 40
0.9632038774
 40
0.9718010677
 40
0.9793042358
 40
0.9826405168
 40
0.9856973081
 40
0.9884727522
 40
0.9909651883
 40
0.9931739815
 40
0.9950993068
 40
0.9967418243
 40
0.9981030687
 40
0.9986792311
 40
0.9991865953
 40
0.9996262655
 40
1.0
 40
1.0
 40
1.0
 40
1.0
 10
16.44252251
 20
17.2313317792
 30
0.0
 10
16.4424888256
 20
17.2312980948
 30
0.0
 10
16.4423985826
 20
17.2312418767
 30
0.0
 10
16.4422282306
 20
17.231209844
 30
0.0
 10
16.4420205392
 20
17.2312203126
 30
0.0
 10
16.4417732074
 20
17.2312718402
 30
0.0
 10
16.4414850061
 20
17.2313642215
 30
0.0
 10
16.4411553952
 20
17.2314977062
 30
0.0
 10
16.4407841742
 20
17.2316724191
 30
0.0
 10
16.4402003372
 20
17.2319780948
 30
0.0
 10
16.4393686551
 20
17.2324695995
 30
0.0
 10
16.43825297
 20
17.2331942798
 30
0.0
 10
16.4369713043
 20
17.2340837083
 30
0.0
 10
16.4355240973
 20
17.235137667
 30
0.0
 10
16.4339119767
 20
17.236355985
 30
0.0
 10
16.43213579
 20
17.237737984
 30
0.0
 10
16.4301965917
 20
17.2392826293
 30
0.0
 10
16.4272788483
 20
17.2416522065
 30
0.0
 10
16.4232373349
 20
17.2450170654
 30
0.0
 10
16.4179278388
 20
17.2495409026
 30
0.0
 10
16.4119969034
 20
17.2546848962
 30
0.0
 10
16.4054574402
 20
17.2604363236
 30
0.0
 10
16.398324383
 20
17.266780393
 30
0.0
 10
16.3906139053
 20
17.2737011892
 30
0.0
 10
16.3823426284
 20
17.2811822875
 30
0.0
 10
16.3702319309
 20
17.292207117
 30
0.0
 10
16.3538470316
 20
17.3072477785
 30
0.0
 10
16.3328069483
 20
17.3267153955
 30
0.0
 10
16.3100423307
 20
17.3479058246
 30
0.0
 10
16.2857577684
 20
17.3706145671
 30
0.0
 10
16.2601739281
 20
17.3946219778
 30
0.0
 10
16.2335217455
 20
17.4196969773
 30
0.0
 10
16.2060436651
 20
17.4455978127
 30
0.0
 10
16.1779881282
 20
17.4720759709
 30
0.0
 10
16.1496096449
 20
17.4988772932
 30
0.0
 10
16.121165178
 20
17.5257449347
 30
0.0
 10
16.0929124623
 20
17.552421266
 30
0.0
 10
16.0651082611
 20
17.5786498782
 30
0.0
 10
16.0380048481
 20
17.6041785311
 30
0.0
 10
16.0118488216
 20
17.6287610905
 30
0.0
 10
15.9868773784
 20
17.6521605993
 30
0.0
 10
15.9633163665
 20
17.6741515528
 30
0.0
 10
15.9413787475
 20
17.6945216999
 30
0.0
 10
15.924186937
 20
17.7103767563
 30
0.0
 10
15.9113866317
 20
17.7220989386
 30
0.0
 10
15.9025659835
 20
17.7301330249
 30
0.0
 10
15.894287576
 20
17.7376252947
 30
0.0
 10
15.8865695435
 20
17.7445578876
 30
0.0
 10
15.8794286846
 20
17.7509141998
 30
0.0
 10
15.8728814904
 20
17.7566779832
 30
0.0
 10
15.8669428588
 20
17.7618344106
 30
0.0
 10
15.8616256645
 20
17.7663709113
 30
0.0
 10
15.8575777481
 20
17.7697466604
 30
0.0
 10
15.854654918
 20
17.7721250961
 30
0.0
 10
15.8527119026
 20
17.7736762856
 30
0.0
 10
15.850931981
 20
17.7750647963
 30
0.0
 10
15.8493162015
 20
17.7762895888
 30
0.0
 10
15.8478654075
 20
17.7773500087
 30
0.0
 10
15.8465802043
 20
17.7782458912
 30
0.0
 10
15.8454610306
 20
17.7789770167
 30
0.0
 10
15.8446265183
 20
17.7794740248
 30
0.0
 10
15.8440404528
 20
17.7797841985
 30
0.0
 10
15.8436675334
 20
17.779962166
 30
0.0
 10
15.8433362975
 20
17.7800988634
 30
0.0
 10
15.8431265042
 20
17.7801681009
 30
0.0
 10
15.8430286349
 20
17.7801944155
 30
0.0
 11
16.44252251
 21
17.2313317792
 31
0.0
 11
16.4424026423
 21
17.2312539638
 31
0.0
 11
16.4422407208
 21
17.2312181289
 31
0.0
 11
16.442036801
 21
17.2312242246
 31
0.0
 11
16.4417909383
 21
17.2312722007
 31
0.0
 11
16.4415031881
 21
17.2313620073
 31
0.0
 11
16.4411736058
 21
17.2314935943
 31
0.0
 11
16.4408022468
 21
17.2316669118
 31
0.0
 11
16.4403891666
 21
17.2318819097
 31
0.0
 11
16.4394380642
 21
17.2324367468
 31
0.0
 11
16.4383207418
 21
17.2331577053
 31
0.0
 11
16.437037643
 21
17.2340443851
 31
0.0
 11
16.4355892109
 21
17.2350963861
 31
0.0
 11
16.4339758984
 21
17.2363132983
 31
0.0
 11
16.4321984925
 21
17.2376943541
 31
0.0
 11
16.4302582001
 21
17.2392383377
 31
0.0
 11
16.4281562544
 21
17.2409440051
 31
0.0
 11
16.423472336
 21
17.2448354147
 31
0.0
 11
16.4181566037
 21
17.24935863
 31
0.0
 11
16.4122189997
 21
17.2545036232
 31
0.0
 11
16.4056721461
 21
17.260257739
 31
0.0
 11
16.3985319874
 21
17.2666050633
 31
0.0
 11
16.3908146749
 21
17.2735294796
 31
0.0
 11
16.3825363608
 21
17.28101487
 31
0.0
 11
16.3737144052
 21
17.2890439005
 31
0.0
 11
16.3545237431
 21
17.3066487055
 31
0.0
 11
16.3334146449
 21
17.3261719111
 31
0.0
 11
16.3105751682
 21
17.3474254764
 31
0.0
 11
16.2862132126
 21
17.3702015805
 31
0.0
 11
16.2605465978
 21
17.3942824833
 31
0.0
 11
16.2338102901
 21
17.4194332917
 31
0.0
 11
16.206244652
 21
17.4454137074
 31
0.0
 11
16.1781007879
 21
17.4719726635
 31
0.0
 11
16.1496327373
 21
17.498856151
 31
0.0
 11
16.121098429
 21
17.5258062622
 31
0.0
 11
16.092756657
 21
17.5525642263
 31
0.0
 11
16.0648638093
 21
17.5788737163
 31
0.0
 11
16.0376745667
 21
17.6044801304
 31
0.0
 11
16.0114347539
 21
17.6291377294
 31
0.0
 11
15.9863831249
 21
17.6526078487
 31
0.0
 11
15.9627464845
 21
17.6746637534
 31
0.0
 11
15.9407364585
 21
17.6950938613
 31
0.0
 11
15.9205525769
 21
17.7136986553
 31
0.0
 11
15.9112011238
 21
17.7222608623
 31
0.0
 11
15.9023725115
 21
17.7303004181
 31
0.0
 11
15.8940871774
 21
17.7377968901
 31
0.0
 11
15.8863621763
 21
17.7447332544
 31
0.0
 11
15.8792140806
 21
17.7510929734
 31
0.0
 11
15.8726594628
 21
17.7568595091
 31
0.0
 11
15.8667143974
 21
17.7620168132
 31
0.0
 11
15.8613909378
 21
17.7665527909
 31
0.0
 11
15.8566991907
 21
17.7704572607
 31
0.0
 11
15.8545933637
 21
17.7721695024
 31
0.0
 11
15.8526492503
 21
17.7737200537
 31
0.0
 11
15.850868112
 21
17.7751076437
 31
0.0
 11
15.849251168
 21
17.7763310465
 31
0.0
 11
15.8477991606
 21
17.7773895427
 31
0.0
 11
15.8465125343
 21
17.7782827293
 31
0.0
 11
15.8453917287
 21
17.779010208
 31
0.0
 11
15.8444371837
 21
17.7795715807
 31
0.0
 11
15.8440223964
 21
17.7797898529
 31
0.0
 11
15.8436493392
 21
17.7799664493
 31
0.0
 11
15.843318067
 21
17.7801013201
 31
0.0
 11
15.8430286349
 21
17.7801944155
 31
0.0
  0
SPLINE
  5
3DC
100
AcDbEntity
  8
0
100
AcDbSpline
 62
6
  6
CONTINUOUS
 70
0
 71
3
 72
9
 73
5
 74
3
 42
0.0000001
 43
0.0000001
 44
0.0000000001
 12
0.0000566598
 22
0.0000566598
 32
0.0
 13
0.00006902
 23
0.0000407051
 33
0.0
 40
0.0
 40
0.0
 40
0.0
 40
0.0
 40
0.7461727505
 40
1.0
 40
1.0
 40
1.0
 40
1.0
 10
15.927120794
 20
17.8649785827
 30
0.0
 10
15.9271348867
 20
17.8649926753
 30
0.0
 10
15.9271557096
 20
17.8650097567
 30
0.0
 10
15.9271783055
 20
17.8650240072
 30
0.0
 10
15.9271841452
 20
17.8650274513
 30
0.0
 11
15.927120794
 21
17.8649785827
 31
0.0
 11
15.9271669488
 21
17.8650165905
 31
0.0
 11
15.9271841452
 21
17.8650274513
 31
0.0
  0
SPLINE
  5
3DD
100
AcDbEntity
  8
0
100
AcDbSpline
 62
6
  6
CONTINUOUS
 70
0
 71
3
 72
69
 73
65
 74
63
 42
0.0000001
 43
0.0000001
 44
0.0000000001
 12
0.700601528
 22
0.4131855713
 32
0.0
 13
0.7854568673
 23
-0.211239975
 33
0.0
 40
0.0
 40
0.0
 40
0.0
 40
0.0
 40
0.0004045725
 40
0.0006838971
 40
0.0010243143
 40
0.0014295329
 40
0.0019016955
 40
0.0024421126
 40
0.0030516222
 40
0.0044798533
 40
0.0061891317
 40
0.0081806148
 40
0.0104547543
 40
0.0130115304
 40
0.0158498634
 40
0.0189680214
 40
0.0223641614
 40
0.0299826414
 40
0.0386895086
 40
0.0484681576
 40
0.0592963035
 40
0.0711466955
 40
0.0839918025
 40
0.0978039932
 40
0.1125526713
 40
0.1447133762
 40
0.1801770239
 40
0.2186162169
 40
0.2596717227
 40
0.3029654312
 40
0.3480904794
 40
0.3946305713
 40
0.4421512801
 40
0.4902135099
 40
0.5383714549
 40
0.5861781845
 40
0.6331908221
 40
0.6789694149
 40
0.7230900984
 40
0.7651406201
 40
0.8047302731
 40
0.8414936
 40
0.8750869772
 40
0.8905992387
 40
0.905205061
 40
0.9188695446
 40
0.931563545
 40
0.9432587118
 40
0.9539267765
 40
0.963540547
 40
0.9720800181
 40
0.9795285948
 40
0.9828387734
 40
0.9858702665
 40
0.9886212194
 40
0.9910899899
 40
0.9932759867
 40
0.9951793659
 40
0.9968007561
 40
0.9981416474
 40
0.9987079053
 40
0.9992055377
 40
0.9996356464
 40
1.0
 40
1.0
 40
1.0
 40
1.0
 10
15.9271841452
 20
17.8650274513
 30
0.0
 10
15.9272786266
 20
17.8650831724
 30
0.0
 10
15.9274778445
 20
17.8650987074
 30
0.0
 10
15.9277493835
 20
17.8650531062
 30
0.0
 10
15.9280174958
 20
17.8649748736
 30
0.0
 10
15.9283253888
 20
17.8648557913
 30
0.0
 10
15.9286751527
 20
17.8646956658
 30
0.0
 10
15.9290662674
 20
17.8644943863
 30
0.0
 10
15.9296760713
 20
17.8641524617
 30
0.0
 10
15.9305398413
 20
17.8636169094
 30
0.0
 10
15.9316938779
 20
17.8628407463
 30
0.0
 10
15.9330131412
 20
17.8619004108
 30
0.0
 10
15.9344971784
 20
17.8607961545
 30
0.0
 10
15.936145286
 20
17.8595282665
 30
0.0
 10
15.9379565747
 20
17.8580975495
 30
0.0
 10
15.9399299149
 20
17.8565050911
 30
0.0
 10
15.9428907496
 20
17.8540728605
 30
0.0
 10
15.9469840082
 20
17.8506324178
 30
0.0
 10
15.9523533382
 20
17.8460214837
 30
0.0
 10
15.9583400835
 20
17.8407942369
 30
0.0
 10
15.9649311815
 20
17.8349636436
 30
0.0
 10
15.9721115513
 20
17.8285446189
 30
0.0
 10
15.9798651094
 20
17.8215530192
 30
0.0
 10
15.9881751825
 20
17.8140053094
 30
0.0
 10
16.0003280856
 20
17.8028996029
 30
0.0
 10
16.0167550542
 20
17.787769234
 30
0.0
 10
16.0378331567
 20
17.7682082105
 30
0.0
 10
16.0606184147
 20
17.7469417406
 30
0.0
 10
16.084906359
 20
17.7241741189
 30
0.0
 10
16.1104770288
 20
17.7001244643
 30
0.0
 10
16.137100028
 20
17.6750232981
 30
0.0
 10
16.1645338336
 20
17.6491115331
 30
0.0
 10
16.1925311104
 20
17.6226366147
 30
0.0
 10
16.2208386762
 20
17.595851423
 30
0.0
 10
16.2492010822
 20
17.5690113618
 30
0.0
 10
16.2773621515
 20
17.5423725543
 30
0.0
 10
16.3050667089
 20
17.5161898818
 30
0.0
 10
16.3320641542
 20
17.4907139831
 30
0.0
 10
16.3581095151
 20
17.4661893973
 30
0.0
 10
16.3829673857
 20
17.4428514016
 30
0.0
 10
16.4064134242
 20
17.4209239966
 30
0.0
 10
16.4282362589
 20
17.4006179399
 30
0.0
 10
16.4453328177
 20
17.3848155769
 30
0.0
 10
16.4580580482
 20
17.3731345733
 30
0.0
 10
16.4668240463
 20
17.3651305374
 30
0.0
 10
16.4750490555
 20
17.3576672778
 30
0.0
 10
16.4827151296
 20
17.3507624817
 30
0.0
 10
16.4898056015
 20
17.3444326339
 30
0.0
 10
16.4963041111
 20
17.3386938658
 30
0.0
 10
16.5021959226
 20
17.333560852
 30
0.0
 10
16.5074683081
 20
17.3290460143
 30
0.0
 10
16.511479987
 20
17.3256868586
 30
0.0
 10
16.5143748688
 20
17.3233206575
 30
0.0
 10
16.5162979038
 20
17.3217781235
 30
0.0
 10
16.5180584195
 20
17.320397765
 30
0.0
 10
16.5196553894
 20
17.3191806008
 30
0.0
 10
16.5210879858
 20
17.3181272601
 30
0.0
 10
16.5223556186
 20
17.3172378967
 30
0.0
 10
16.5234578519
 20
17.3165127304
 30
0.0
 10
16.524278566
 20
17.3160201355
 30
0.0
 10
16.5248539313
 20
17.3157131788
 30
0.0
 10
16.5252190998
 20
17.315537521
 30
0.0
 10
16.5255427456
 20
17.3154029799
 30
0.0
 10
16.5257475315
 20
17.3153350598
 30
0.0
 10
16.5258429262
 20
17.3153094044
 30
0.0
 11
15.9271841452
 21
17.8650274513
 31
0.0
 11
15.9275080574
 21
17.8650854611
 31
0.0
 11
15.9277327463
 21
17.8650518214
 31
0.0
 11
15.9279991841
 21
17.8649764849
 31
0.0
 11
15.9283073158
 21
17.8648595012
 31
0.0
 11
15.9286570868
 21
17.8647009202
 31
0.0
 11
15.929048442
 21
17.8645007916
 31
0.0
 11
15.9294813267
 21
17.864259165
 31
0.0
 11
15.9304714654
 21
17.8636516169
 31
0.0
 11
15.931627064
 21
17.8628786738
 31
0.0
 11
15.932947684
 21
17.8619407334
 31
0.0
 11
15.9344328868
 21
17.8608381935
 31
0.0
 11
15.93608219
 21
17.8595714982
 31
0.0
 11
15.9378946482
 21
17.8581415856
 31
0.0
 11
15.939869036
 21
17.8565496912
 31
0.0
 11
15.9420041243
 21
17.8547970553
 31
0.0
 11
15.9467514854
 21
17.8508145181
 31
0.0
 11
15.9521268984
 21
17.8462038936
 31
0.0
 11
15.9581203613
 21
17.8409752669
 31
0.0
 11
15.9647187273
 21
17.8351418109
 31
0.0
 11
15.9719060638
 21
17.8287194339
 31
0.0
 11
15.9796663415
 21
17.821724139
 31
0.0
 11
15.987983518
 21
17.8141719426
 31
0.0
 11
15.99683988
 21
17.8060805428
 31
0.0
 11
16.01608581
 21
17.7883645077
 31
0.0
 11
16.0372328654
 21
17.7687473601
 31
0.0
 11
16.0600923921
 21
17.7474177704
 31
0.0
 11
16.084457499
 21
17.7245825966
 31
0.0
 11
16.1101104997
 21
17.7004594876
 31
0.0
 11
16.136817208
 21
17.6752825874
 31
0.0
 11
16.1643380483
 21
17.6492914424
 31
0.0
 11
16.192423051
 21
17.6227360278
 31
0.0
 11
16.2208195787
 21
17.595868997
 31
0.0
 11
16.2492711499
 21
17.5689468675
 31
0.0
 11
16.2775206367
 21
17.542226802
 31
0.0
 11
16.3053132181
 21
17.5159636128
 31
0.0
 11
16.3323957366
 21
17.4904104318
 31
0.0
 11
16.3585242726
 21
17.4658111505
 31
0.0
 11
16.3834615607
 21
17.4424030054
 31
0.0
 11
16.4069826966
 21
17.42041088
 31
0.0
 11
16.4288772519
 21
17.4000451927
 31
0.0
 11
16.448947294
 21
17.3815039084
 31
0.0
 11
16.4582429636
 21
17.3729726109
 31
0.0
 11
16.4670168053
 21
17.3649631567
 31
0.0
 11
16.475248657
 21
17.3574957107
 31
0.0
 11
16.4829216334
 21
17.350587134
 31
0.0
 11
16.4900192716
 21
17.3442538621
 31
0.0
 11
16.4965251091
 21
17.3385123304
 31
0.0
 11
16.5024232369
 21
17.3333784292
 31
0.0
 11
16.5077018139
 21
17.328864049
 31
0.0
 11
16.5123508114
 21
17.3249792973
 31
0.0
 11
16.5144360865
 21
17.3232761884
 31
0.0
 11
16.516360209
 21
17.3217342739
 31
0.0
 11
16.5181219265
 21
17.3203548163
 31
0.0
 11
16.5197200399
 21
17.3191390214
 31
0.0
 11
16.5211538439
 21
17.3180875711
 31
0.0
 11
16.5224229
 21
17.3172008646
 31
0.0
 11
16.5235267722
 21
17.3164792983
 31
0.0
 11
16.5244650246
 21
17.3159232685
 31
0.0
 11
16.5248719071
 21
17.3157074538
 31
0.0
 11
16.5252372212
 21
17.3155331718
 31
0.0
 11
16.5255609124
 21
17.3154004722
 31
0.0
 11
16.5258429262
 21
17.3153094044
 31
0.0
  0
SPLINE
  5
3DE
100
AcDbEntity
  8
0
100
AcDbSpline
 62
6
  6
CONTINUOUS
 70
0
 71
3
 72
70
 73
66
 74
64
 42
0.0000001
 43
0.0000001
 44
0.0000000001
 12
-0.5752277449
 22
-0.5752277449
 32
0.0
 13
-0.7856009328
 23
0.211199175
 33
0.0
 40
0.0
 40
0.0
 40
0.0
 40
0.0
 40
0.0001748512
 40
0.0003779944
 40
0.0006281885
 40
0.0009356342
 40
0.0013057758
 40
0.0017416694
 40
0.0022451356
 40
0.0028173162
 40
0.0041704268
 40
0.0058046694
 40
0.0077216311
 40
0.0099220016
 40
0.0124059755
 40
0.0151729511
 40
0.0182212854
 40
0.0215491295
 40
0.0290355117
 40
0.037616073
 40
0.0472741676
 40
0.0579895244
 40
0.0697347381
 40
0.0824814046
 40
0.0962010327
 40
0.1108642309
 40
0.1428776591
 40
0.1782214614
 40
0.2165723455
 40
0.2575684907
 40
0.3008333046
 40
0.3459580551
 40
0.3925245105
 40
0.4400957213
 40
0.4882277175
 40
0.5364727987
 40
0.5843813084
 40
0.6315087227
 40
0.6774153712
 40
0.721673542
 40
0.7638705925
 40
0.8036099955
 40
0.8405256193
 40
0.8742682619
 40
0.8898533536
 40
0.9045312967
 40
0.9182658807
 40
0.9310270091
 40
0.9427869406
 40
0.9535180239
 40
0.9631930615
 40
0.9717906216
 40
0.9792942469
 40
0.9826308997
 40
0.9856882174
 40
0.9884643866
 40
0.9909577554
 40
0.9931675745
 40
0.9950940065
 40
0.9967377134
 40
0.9981002337
 40
0.9986770684
 40
0.9991851288
 40
0.99962552
 40
1.0
 40
1.0
 40
1.0
 40
1.0
 10
16.4937826742
 20
17.2825919434
 30
0.0
 10
16.4937491478
 20
17.282558417
 30
0.0
 10
16.4936591766
 20
17.2825025237
 30
0.0
 10
16.4934893114
 20
17.2824710278
 30
0.0
 10
16.4932821391
 20
17.2824819999
 30
0.0
 10
16.4930353241
 20
17.2825340209
 30
0.0
 10
16.4927476367
 20
17.2826268936
 30
0.0
 10
16.4924185377
 20
17.2827608735
 30
0.0
 10
16.492047828
 20
17.2829360866
 30
0.0
 10
16.4914646845
 20
17.2832424925
 30
0.0
 10
16.4906338736
 20
17.2837348962
 30
0.0
 10
16.4895192108
 20
17.2844606142
 30
0.0
 10
16.488238562
 20
17.2853511091
 30
0.0
 10
16.4867923609
 20
17.2864061661
 30
0.0
 10
16.485181207
 20
17.2876256301
 30
0.0
 10
16.4834059383
 20
17.2890088578
 30
0.0
 10
16.4814675953
 20
17.2905548166
 30
0.0
 10
16.4785509695
 20
17.2929263168
 30
0.0
 10
16.4745108647
 20
17.2962935913
 30
0.0
 10
16.4692031316
 20
17.3008201934
 30
0.0
 10
16.4632739698
 20
17.3059669842
 30
0.0
 10
16.4567362288
 20
17.3117214167
 30
0.0
 10
16.4496047792
 20
17.3180686839
 30
0.0
 10
16.4418960976
 20
17.3249925587
 30
0.0
 10
16.4336269434
 20
17.3324764255
 30
0.0
 10
16.4215194352
 20
17.3435048661
 30
0.0
 10
16.4051389746
 20
17.3585497867
 30
0.0
 10
16.3841040663
 20
17.3780223213
 30
0.0
 10
16.3613448791
 20
17.3992176048
 30
0.0
 10
16.3370651593
 20
17.4219316632
 30
0.0
 10
16.3114856137
 20
17.4459449079
 30
0.0
 10
16.2848370589
 20
17.47102626
 30
0.0
 10
16.2573623018
 20
17.4969335714
 30
0.0
 10
16.2293105564
 20
17.5234176041
 30
0.0
 10
16.2009368036
 20
17.5502236179
 30
0.0
 10
16.172498417
 20
17.5770944028
 30
0.0
 10
16.1442528031
 20
17.6037725676
 30
0.0
 10
16.1164559282
 20
17.6300023589
 30
0.0
 10
16.0893594818
 20
17.6555321401
 30
0.0
 10
16.0632091197
 20
17.6801164404
 30
0.0
 10
16.0382423514
 20
17.7035181474
 30
0.0
 10
16.0146847335
 20
17.7255117347
 30
0.0
 10
15.992750156
 20
17.7458842527
 30
0.0
 10
15.9755605831
 20
17.7617409607
 30
0.0
 10
15.9627620198
 20
17.7734640773
 30
0.0
 10
15.9539425429
 20
17.7814987989
 30
0.0
 10
15.9456652631
 20
17.7889915331
 30
0.0
 10
15.9379484257
 20
17.7959242376
 30
0.0
 10
15.9308086808
 20
17.8022804998
 30
0.0
 10
15.9242621676
 20
17.8080444137
 30
0.0
 10
15.9183238282
 20
17.8132011763
 30
0.0
 10
15.9130065942
 20
17.8177380259
 30
0.0
 10
15.908958521
 20
17.8211139701
 30
0.0
 10
15.9060354168
 20
17.8234925605
 30
0.0
 10
15.9040920402
 20
17.8250439425
 30
0.0
 10
15.9023116132
 20
17.8264327124
 30
0.0
 10
15.9006952019
 20
17.8276578251
 30
0.0
 10
15.8992436598
 20
17.8287185845
 30
0.0
 10
15.897957623
 20
17.8296148056
 30
0.0
 10
15.8968375338
 20
17.8303462649
 30
0.0
 10
15.8960021991
 20
17.8308435281
 30
0.0
 10
15.8954154381
 20
17.8311538992
 30
0.0
 10
15.895041972
 20
17.8313320223
 30
0.0
 10
15.89471017
 20
17.8314688717
 30
0.0
 10
15.8944999927
 20
17.8315382026
 30
0.0
 10
15.8944019288
 20
17.8315645659
 30
0.0
 11
16.4937826742
 21
17.2825919434
 31
0.0
 11
16.4936632916
 21
17.2825146118
 31
0.0
 11
16.4935018604
 21
17.2824792637
 31
0.0
 11
16.4932984353
 21
17.2824858494
 31
0.0
 11
16.4930530714
 21
17.282534319
 31
0.0
 11
16.4927658234
 21
17.282624623
 31
0.0
 11
16.4924367463
 21
17.2827567114
 31
0.0
 11
16.4920658948
 21
17.2829305346
 31
0.0
 11
16.4916533239
 21
17.2831460429
 31
0.0
 11
16.4907032433
 21
17.2837019154
 31
0.0
 11
16.4895869435
 21
17.2844239311
 31
0.0
 11
16.4883048634
 21
17.2853116918
 31
0.0
 11
16.4868574421
 21
17.2863647997
 31
0.0
 11
16.4852451221
 21
17.2875828527
 31
0.0
 11
16.4834686332
 21
17.2889651442
 31
0.0
 11
16.4815291881
 21
17.290510454
 31
0.0
 11
16.4794280462
 21
17.2922175125
 31
0.0
 11
16.4747457098
 21
17.2961117973
 31
0.0
 11
16.4694316991
 21
17.3006378416
 31
0.0
 11
16.4634961014
 21
17.3057854771
 31
0.0
 11
16.4569509332
 21
17.3115426384
 31
0.0
 11
16.4498122438
 21
17.3178932964
 31
0.0
 11
16.4420965883
 21
17.3248209248
 31
0.0
 11
16.4338205216
 21
17.3323089974
 31
0.0
 11
16.4250010807
 21
17.3403405018
 31
0.0
 11
16.4058150677
 21
17.3579507899
 31
0.0
 11
16.3847117871
 21
17.3774784414
 31
0.0
 11
16.3618775601
 21
17.3987370571
 31
0.0
 11
16.3375208075
 21
17.4215182201
 31
0.0
 11
16.3118583823
 21
17.445605095
 31
0.0
 11
16.2851255895
 21
17.4707624075
 31
0.0
 11
16.2575631675
 21
17.4967494517
 31
0.0
 11
16.2294226021
 21
17.5233147721
 31
0.0
 11
16.2009594023
 21
17.5502028857
 31
0.0
 11
16.1724311962
 21
17.5771561488
 31
0.0
 11
16.1440967238
 21
17.603915781
 31
0.0
 11
16.1162117772
 21
17.6302259521
 31
0.0
 11
16.0890293671
 21
17.6558336154
 31
0.0
 11
16.0627956528
 21
17.6804925998
 31
0.0
 11
16.0377481642
 21
17.7039653934
 31
0.0
 11
16.0141151982
 21
17.7260237167
 31
0.0
 11
15.9921076182
 21
17.7464567197
 31
0.0
 11
15.9719266263
 21
17.7650631917
 31
0.0
 11
15.9625766641
 21
17.7736258921
 31
0.0
 11
15.9537490462
 21
17.7816662321
 31
0.0
 11
15.9454646946
 21
17.7891632819
 31
0.0
 11
15.9377410474
 21
17.7960996189
 31
0.0
 11
15.9305942244
 21
17.8024591472
 31
0.0
 11
15.9240403431
 21
17.8082257733
 31
0.0
 11
15.9180953311
 21
17.8133835902
 31
0.0
 11
15.9127718751
 21
17.8179198712
 31
0.0
 11
15.9080799445
 21
17.8218245564
 31
0.0
 11
15.9059738904
 21
17.8235369325
 31
0.0
 11
15.9040294248
 21
17.825087668
 31
0.0
 11
15.9022477832
 21
17.8264755158
 31
0.0
 11
15.9006301791
 21
17.8276992524
 31
0.0
 11
15.89917742
 21
17.8287580876
 31
0.0
 11
15.8978899593
 21
17.8296516091
 31
0.0
 11
15.8967682383
 21
17.8303794172
 31
0.0
 11
15.8958126986
 21
17.8309411125
 31
0.0
 11
15.8953973847
 21
17.8311595429
 31
0.0
 11
15.8950237816
 21
17.8313362952
 31
0.0
 11
15.8946919446
 21
17.8314713195
 31
0.0
 11
15.8944019288
 21
17.8315645659
 31
0.0
  0
SPLINE
  5
3DF
100
AcDbEntity
  8
0
100
AcDbSpline
 62
6
  6
CONTINUOUS
 70
0
 71
3
 72
9
 73
5
 74
3
 42
0.0000001
 43
0.0000001
 44
0.0000000001
 12
0.0000567772
 22
0.0000567772
 32
0.0
 13
0.0000691304
 23
0.0000408448
 33
0.0
 40
0.0
 40
0.0
 40
0.0
 40
0.0
 40
0.746203358
 40
1.0
 40
1.0
 40
1.0
 40
1.0
 10
15.8774733031
 20
17.8153310918
 30
0.0
 10
15.8774874256
 20
17.8153452142
 30
0.0
 10
15.8775082846
 20
17.8153623372
 30
0.0
 10
15.8775309171
 20
17.8153766336
 30
0.0
 10
15.8775367654
 20
17.815380089
 30
0.0
 11
15.8774733031
 21
17.8153310918
 31
0.0
 11
15.8775195432
 21
17.8153691948
 31
0.0
 11
15.8775367654
 21
17.815380089
 31
0.0
  0
SPLINE
  5
3E0
100
AcDbEntity
  8
0
100
AcDbSpline
 62
6
  6
CONTINUOUS
 70
0
 71
3
 72
69
 73
65
 74
63
 42
0.0000001
 43
0.0000001
 44
0.0000000001
 12
0.7002698766
 22
0.4137453258
 32
0.0
 13
0.7854575207
 23
-0.2112334679
 33
0.0
 40
0.0
 40
0.0
 40
0.0
 40
0.0
 40
0.0004053087
 40
0.0006849036
 40
0.0010255544
 40
0.001430986
 40
0.0019033516
 40
0.0024439691
 40
0.0030536816
 40
0.0044823399
 40
0.006192091
 40
0.0081841054
 40
0.0104588442
 40
0.0130163277
 40
0.0158555814
 40
0.0189748454
 40
0.0223722355
 40
0.0299934798
 40
0.0387031816
 40
0.0484846091
 40
0.0593165762
 40
0.0711714131
 40
0.0840208119
 40
0.0978363865
 40
0.1125884821
 40
0.1447571036
 40
0.1802263672
 40
0.2186721286
 40
0.259733907
 40
0.3030357043
 40
0.3481699016
 40
0.3947197732
 40
0.442249775
 40
0.4903182415
 40
0.5384794082
 40
0.5862857581
 40
0.6332952322
 40
0.6790704448
 40
0.7231868088
 40
0.7652342308
 40
0.8048197381
 40
0.8415792382
 40
0.8751664607
 40
0.8906748988
 40
0.9052770794
 40
0.9189371928
 40
0.931625637
 40
0.9433147575
 40
0.9539769815
 40
0.9635852678
 40
0.9721186212
 40
0.9795607046
 40
0.9828676031
 40
0.9858958508
 40
0.9886436346
 40
0.9911093172
 40
0.9932922124
 40
0.9951924589
 40
0.9968106731
 40
0.9981483314
 40
0.9987129465
 40
0.9992089169
 40
0.9996373439
 40
1.0
 40
1.0
 40
1.0
 40
1.0
 10
15.8775367654
 20
17.815380089
 30
0.0
 10
15.8776313739
 20
17.8154359872
 30
0.0
 10
15.8778308312
 20
17.8154518754
 30
0.0
 10
15.8781027685
 20
17.8154065292
 30
0.0
 10
15.8783711421
 20
17.8153285077
 30
0.0
 10
15.8786792981
 20
17.8152096105
 30
0.0
 10
15.8790293222
 20
17.8150496525
 30
0.0
 10
15.8794206977
 20
17.8148485202
 30
0.0
 10
15.8800308624
 20
17.8145067797
 30
0.0
 10
15.880895087
 20
17.8139713914
 30
0.0
 10
15.882049661
 20
17.8131953335
 30
0.0
 10
15.883369474
 20
17.8122550225
 30
0.0
 10
15.8848540835
 20
17.8111507038
 30
0.0
 10
15.8865028157
 20
17.809882641
 30
0.0
 10
15.8883147912
 20
17.8084516021
 30
0.0
 10
15.8902888933
 20
17.8068586781
 30
0.0
 10
15.893250851
 20
17.804425635
 30
0.0
 10
15.8973455048
 20
17.8009839756
 30
0.0
 10
15.9027164086
 20
17.7963714015
 30
0.0
 10
15.9087048213
 20
17.7911421905
 30
0.0
 10
15.9152977325
 20
17.7853091442
 30
0.0
 10
15.9224800841
 20
17.7788872466
 30
0.0
 10
15.9302354153
 20
17.7718927264
 30
0.0
 10
15.9385469723
 20
17.7643421987
 30
0.0
 10
15.950701629
 20
17.7532325274
 30
0.0
 10
15.9671301466
 20
17.7380970996
 30
0.0
 10
15.9882097985
 20
17.7185297892
 30
0.0
 10
16.0109958278
 20
17.6972568713
 30
0.0
 10
16.0352847401
 20
17.6744820487
 30
0.0
 10
16.0608565427
 20
17.6504243617
 30
0.0
 10
16.0874810993
 20
17.6253142395
 30
0.0
 10
16.1149164547
 20
17.5993930441
 30
0.0
 10
16.1429144827
 20
17.5729090066
 30
0.0
 10
16.1712213519
 20
17.5461157564
 30
0.0
 10
16.1995809957
 20
17.5192692701
 30
0.0
 10
16.2277373339
 20
17.4926256623
 30
0.0
 10
16.2554357858
 20
17.4664393356
 30
0.0
 10
16.2824262511
 20
17.4409604029
 30
0.0
 10
16.3084646516
 20
17.4164327654
 30
0.0
 10
16.333315352
 20
17.3930917795
 30
0.0
 10
16.3567543944
 20
17.3711613515
 30
0.0
 10
16.3785696351
 20
17.3508528151
 30
0.0
 10
16.3956594638
 20
17.3350487317
 30
0.0
 10
16.4083788372
 20
17.3233668423
 30
0.0
 10
16.4171401836
 20
17.3153624947
 30
0.0
 10
16.4253602362
 20
17.3078992693
 30
0.0
 10
16.4330209413
 20
17.3009950041
 30
0.0
 10
16.4401057977
 20
17.2946659872
 30
0.0
 10
16.4465987443
 20
17.2889280535
 30
0.0
 10
16.4524849936
 20
17.283795872
 30
0.0
 10
16.4577517649
 20
17.2792820367
 30
0.0
 10
16.461758606
 20
17.2759238279
 30
0.0
 10
16.4646495827
 20
17.2735584354
 30
0.0
 10
16.4665697572
 20
17.272016542
 30
0.0
 10
16.4683274715
 20
17.270636792
 30
0.0
 10
16.4699216882
 20
17.269420207
 30
0.0
 10
16.4713515713
 20
17.2683674484
 30
0.0
 10
16.4726165052
 20
17.2674786858
 30
0.0
 10
16.4737160489
 20
17.2667541443
 30
0.0
 10
16.4745345154
 20
17.2662620517
 30
0.0
 10
16.475108091
 20
17.2659555088
 30
0.0
 10
16.4754719214
 20
17.2657801891
 30
0.0
 10
16.4757942292
 20
17.2656459916
 30
0.0
 10
16.4759981257
 20
17.2655782956
 30
0.0
 10
16.476093076
 20
17.2655527605
 30
0.0
 11
15.8775367654
 21
17.815380089
 31
0.0
 11
15.8778611914
 21
17.8154386223
 31
0.0
 11
15.8780861369
 21
17.8154052143
 31
0.0
 11
15.8783528315
 21
17.8153300894
 31
0.0
 11
15.8786612207
 21
17.8152132973
 31
0.0
 11
15.8790112499
 21
17.8150548874
 31
0.0
 11
15.8794028646
 21
17.8148549096
 31
0.0
 11
15.8798360103
 21
17.8146134134
 31
0.0
 11
15.880826677
 21
17.8140060646
 31
0.0
 11
15.8819828138
 21
17.8132332379
 31
0.0
 11
15.8833039847
 21
17.8122953306
 31
0.0
 11
15.8847897538
 21
17.8111927397
 31
0.0
 11
15.8864396597
 21
17.8099258891
 31
0.0
 11
15.8882528146
 21
17.8084956553
 31
0.0
 11
15.8902279752
 21
17.8069032916
 31
0.0
 11
15.8923638875
 21
17.8051500626
 31
0.0
 11
15.8971129507
 21
17.8011660685
 31
0.0
 11
15.9024899715
 21
17.7965537914
 31
0.0
 11
15.9084848737
 21
17.7913233926
 31
0.0
 11
15.915085151
 21
17.7854874233
 31
0.0
 11
15.9222746319
 21
17.7790620392
 31
0.0
 11
15.9300368418
 21
17.7720636944
 31
0.0
 11
15.9383553056
 21
17.7645088434
 31
0.0
 11
15.9472128519
 21
17.7564146421
 31
0.0
 11
15.9664614189
 21
17.7386920144
 31
0.0
 11
15.9876093501
 21
17.7190691502
 31
0.0
 11
16.0104699148
 21
17.6977329019
 31
0.0
 11
16.0348355523
 21
17.6748908975
 31
0.0
 11
16.0604898352
 21
17.6507596156
 31
0.0
 11
16.0871981743
 21
17.625573667
 31
0.0
 11
16.1147207708
 21
17.599572869
 31
0.0
 11
16.1428070235
 21
17.5730078486
 31
0.0
 11
16.1712028255
 21
17.5461327448
 31
0.0
 11
16.1996517359
 21
17.5192040658
 31
0.0
 11
16.2278963155
 21
17.4924793361
 31
0.0
 11
16.2556822574
 21
17.4662129406
 31
0.0
 11
16.2827579304
 21
17.4406565822
 31
0.0
 11
16.3088790413
 21
17.4160546087
 31
0.0
 11
16.3338096001
 21
17.3926430447
 31
0.0
 11
16.3573234264
 21
17.3706481013
 31
0.0
 11
16.3792108973
 21
17.3502794262
 31
0.0
 11
16.3992725692
 21
17.3317365125
 31
0.0
 11
16.4085636477
 21
17.3232048365
 31
0.0
 11
16.4173330205
 21
17.3151949041
 31
0.0
 11
16.4255600071
 21
17.3077274077
 31
0.0
 11
16.4332274652
 21
17.300819477
 31
0.0
 11
16.4403193375
 21
17.294487149
 31
0.0
 11
16.4468195672
 21
17.2887464605
 31
0.0
 11
16.4527123363
 21
17.2836132135
 31
0.0
 11
16.4579852355
 21
17.279099865
 31
0.0
 11
16.4626283962
 21
17.2752163782
 31
0.0
 11
16.4647107597
 21
17.2735139279
 31
0.0
 11
16.4666320107
 21
17.271972657
 31
0.0
 11
16.4683909231
 21
17.2705938033
 31
0.0
 11
16.469986304
 21
17.2693785698
 31
0.0
 11
16.4714173973
 21
17.2683276935
 31
0.0
 11
16.4726837571
 21
17.267441581
 31
0.0
 11
16.4737849442
 21
17.2667206319
 31
0.0
 11
16.4747205193
 21
17.2661652458
 31
0.0
 11
16.475126065
 21
17.2659497637
 31
0.0
 11
16.475490043
 21
17.2657758221
 31
0.0
 11
16.4758123983
 21
17.2656434711
 31
0.0
 11
16.476093076
 21
17.2655527605
 31
0.0
  0
SPLINE
  5
3E1
100
AcDbEntity
  8
0
100
AcDbSpline
 62
9
  6
CONTINUOUS
 70
0
 71
3
 72
22
 73
18
 74
16
 42
0.0000001
 43
0.0000001
 44
0.0000000001
 12
0.1726648931
 22
0.1902755285
 32
0.0
 13
0.0946551437
 23
0.2388688884
 33
0.0
 40
0.0
 40
0.0
 40
0.0
 40
0.0
 40
0.0614944937
 40
0.1231955373
 40
0.1851021589
 40
0.2472023801
 40
0.3094811965
 40
0.3719207507
 40
0.4971795195
 40
0.5599633696
 40
0.6228171442
 40
0.6857137149
 40
0.7486308641
 40
0.8115463253
 40
0.8744336423
 40
0.937262389
 40
1.0
 40
1.0
 40
1.0
 40
1.0
 10
14.2399777335
 20
15.3424627611
 30
0.0
 10
14.2435170468
 20
15.3463630602
 30
0.0
 10
14.2504710623
 20
15.3543016898
 30
0.0
 10
14.2605225256
 20
15.3665644763
 30
0.0
 10
14.270225932
 20
15.379169825
 30
0.0
 10
14.2795968236
 20
15.3920850336
 30
0.0
 10
14.2886428011
 20
15.4052851689
 30
0.0
 10
14.3002889183
 20
15.4232523784
 30
0.0
 10
14.3112915391
 20
15.441679839
 30
0.0
 10
14.3216918653
 20
15.4604849084
 30
0.0
 10
14.3292118133
 20
15.4747756337
 30
0.0
 10
14.3364550344
 20
15.4892210521
 30
0.0
 10
14.3434348243
 20
15.503801342
 30
0.0
 10
14.3501650552
 20
15.5184974702
 30
0.0
 10
14.3566610807
 20
15.5332902576
 30
0.0
 10
14.3629290692
 20
15.5481644939
 30
0.0
 10
14.3669611559
 20
15.5581347982
 30
0.0
 10
14.3689406351
 20
15.5631301527
 30
0.0
 11
14.2399777335
 21
15.3424627611
 31
0.0
 11
14.2503935693
 21
15.3543439233
 31
0.0
 11
14.2604481827
 21
15.3666010149
 31
0.0
 11
14.2701556433
 21
15.3792015838
 31
0.0
 11
14.2795294656
 21
15.3921138075
 31
0.0
 11
14.28857803
 21
15.4053116876
 31
0.0
 11
14.2973069383
 21
15.4187723775
 31
0.0
 11
14.3138294497
 21
15.446391433
 31
0.0
 11
14.3216398254
 21
15.4605062599
 31
0.0
 11
14.3291631415
 21
15.4747964662
 31
0.0
 11
14.336409961
 21
15.4892411598
 31
0.0
 11
14.3433933431
 21
15.5038209015
 31
0.0
 11
14.350127518
 21
15.5185169335
 31
0.0
 11
14.3566260542
 21
15.5333107751
 31
0.0
 11
14.3628959822
 21
15.5481866153
 31
0.0
 11
14.3689406351
 21
15.5631301527
 31
0.0
  0
SPLINE
  5
3E2
100
AcDbEntity
  8
0
100
AcDbSpline
 62
9
  6
CONTINUOUS
 70
0
 71
3
 72
35
 73
31
 74
29
 42
0.0000001
 43
0.0000001
 44
0.0000000001
 12
0.1879358521
 22
0.2071377179
 32
0.0
 13
-0.1977692422
 23
0.1977706893
 33
0.0
 40
0.0
 40
0.0
 40
0.0
 40
0.0
 40
0.0190514915
 40
0.0383413345
 40
0.0580213041
 40
0.0782303907
 40
0.0990926871
 40
0.1207176351
 40
0.166588486
 40
0.1909944043
 40
0.2164260318
 40
0.2429087743
 40
0.2704563546
 40
0.2990723227
 40
0.3287532424
 40
0.3594895648
 40
0.391258492
 40
0.4240256887
 40
0.4577522157
 40
0.4923951997
 40
0.5279064993
 40
0.6013186348
 40
0.6391153758
 40
0.6775558186
 40
0.7165768155
 40
0.7561112341
 40
0.7960860245
 40
0.8364267854
 40
0.9179173959
 40
1.0
 40
1.0
 40
1.0
 40
1.0
 10
13.5006280653
 20
14.5278666724
 30
0.0
 10
13.5018215514
 20
14.5291820999
 30
0.0
 10
13.5040850536
 20
14.5319586262
 30
0.0
 10
13.5070573793
 20
14.5364886719
 30
0.0
 10
13.509614714
 20
14.5413874018
 30
0.0
 10
13.5117513367
 20
14.5466413357
 30
0.0
 10
13.5134626859
 20
14.5522382168
 30
0.0
 10
13.5152053319
 20
14.5602974711
 30
0.0
 10
13.5160068226
 20
14.5688640214
 30
0.0
 10
13.5159723799
 20
14.5777899697
 30
0.0
 10
13.5155138787
 20
14.5848951096
 30
0.0
 10
13.5146249086
 20
14.5922531792
 30
0.0
 10
13.5133079518
 20
14.5998481219
 30
0.0
 10
13.5115656786
 20
14.6076622975
 30
0.0
 10
13.509400839
 20
14.6156782098
 30
0.0
 10
13.506815813
 20
14.6238771544
 30
0.0
 10
13.5038173277
 20
14.632240154
 30
0.0
 10
13.5004145676
 20
14.6407477669
 30
0.0
 10
13.4966163677
 20
14.6493797248
 30
0.0
 10
13.4924317479
 20
14.6581156178
 30
0.0
 10
13.4862829423
 20
14.6700061236
 30
0.0
 10
13.4794668183
 20
14.6818754628
 30
0.0
 10
13.4720417652
 20
14.6936885771
 30
0.0
 10
13.4660885076
 20
14.7026357427
 30
0.0
 10
13.4598181381
 20
14.7115620918
 30
0.0
 10
13.4532451714
 20
14.7204465793
 30
0.0
 10
13.4463872839
 20
14.7292693748
 30
0.0
 10
13.436854904
 20
14.7409625199
 30
0.0
 10
13.4243407569
 20
14.7552825425
 30
0.0
 10
13.4137987305
 20
14.7663099436
 30
0.0
 10
13.4083875924
 20
14.7717211213
 30
0.0
 11
13.5006280653
 21
14.5278666724
 31
0.0
 11
13.5039970736
 21
14.5319949421
 31
0.0
 11
13.5069608679
 21
14.5365031162
 31
0.0
 11
13.5095137493
 21
14.5413795687
 31
0.0
 11
13.5116500644
 21
14.5466125588
 31
0.0
 11
13.5133642885
 21
14.5521900247
 31
0.0
 11
13.5146509192
 21
14.5580998489
 31
0.0
 11
13.5159221293
 21
14.570866286
 31
0.0
 11
13.5159052485
 21
14.5776923312
 31
0.0
 11
13.5154556619
 21
14.5847910542
 31
0.0
 11
13.514575197
 21
14.5921454683
 31
0.0
 11
13.5132660537
 21
14.5997381874
 31
0.0
 11
13.5115308354
 21
14.6075513916
 31
0.0
 11
13.5093721656
 21
14.6155672393
 31
0.0
 11
13.5067929058
 21
14.6237677958
 31
0.0
 11
13.5037993825
 21
14.6321337673
 31
0.0
 11
13.5004005437
 21
14.6406448317
 31
0.0
 11
13.4966054025
 21
14.6492806417
 31
0.0
 11
13.4924231697
 21
14.6580208189
 31
0.0
 11
13.4878641985
 21
14.6668448068
 31
0.0
 11
13.4776591224
 21
14.6846617264
 31
0.0
 11
13.4720355671
 21
14.6936131886
 31
0.0
 11
13.4660814234
 21
14.7025652878
 31
0.0
 11
13.4598096192
 21
14.7114969307
 31
0.0
 11
13.4532348632
 21
14.7203872269
 31
0.0
 11
13.4463745656
 21
14.7292155945
 31
0.0
 11
13.439246313
 21
14.7379615121
 31
0.0
 11
13.4242521017
 21
14.7551268848
 31
0.0
 11
13.4083875924
 21
14.7717211213
 31
0.0
  0
SPLINE
  5
3E3
100
AcDbEntity
  8
0
100
AcDbSpline
 62
6
  6
CONTINUOUS
 70
0
 71
3
 72
34
 73
30
 74
28
 42
0.0000001
 43
0.0000001
 44
0.0000000001
 12
-0.0942416185
 22
0.0873706935
 32
0.0
 13
-0.0910064074
 23
-0.09073563
 33
0.0
 40
0.0
 40
0.0
 40
0.0
 40
0.0
 40
0.2230450448
 40
0.3255438246
 40
0.4215888509
 40
0.5108701458
 40
0.5931716628
 40
0.6683079961
 40
0.7360945111
 40
0.796353581
 40
0.8489486991
 40
0.8723356526
 40
0.893763097
 40
0.9132173503
 40
0.9306854605
 40
0.9461558118
 40
0.9596238651
 40
0.9710935135
 40
0.9805743567
 40
0.9845753593
 40
0.988088731
 40
0.9911215013
 40
0.9936849864
 40
0.9957984559
 40
0.9974970676
 40
0.9982118402
 40
0.9988534867
 40
0.9994412462
 40
1.0
 40
1.0
 40
1.0
 40
1.0
 10
16.0737200754
 20
17.8308436672
 30
0.0
 10
16.0667133667
 20
17.8373395339
 30
0.0
 10
16.0564707669
 20
17.8468033192
 30
0.0
 10
16.0431605879
 20
17.8590094595
 30
0.0
 10
16.0340494381
 20
17.8673164454
 30
0.0
 10
16.0255509639
 20
17.8750111685
 30
0.0
 10
16.0176870224
 20
17.882072124
 30
0.0
 10
16.0104756421
 20
17.8884814806
 30
0.0
 10
16.0039337792
 20
17.8942225624
 30
0.0
 10
15.9980768292
 20
17.8992798342
 30
0.0
 10
15.993619892
 20
17.9030479373
 30
0.0
 10
15.990403513
 20
17.9057063174
 30
0.0
 10
15.9882663248
 20
17.9074418584
 30
0.0
 10
15.9863096501
 20
17.9089972888
 30
0.0
 10
15.9845349395
 20
17.9103712833
 30
0.0
 10
15.9829434605
 20
17.9115626782
 30
0.0
 10
15.9815361766
 20
17.9125708588
 30
0.0
 10
15.9803137086
 20
17.9133954698
 30
0.0
 10
15.9794044947
 20
17.9139584036
 30
0.0
 10
15.9787677885
 20
17.9143117152
 30
0.0
 10
15.9783642299
 20
17.9145152173
 30
0.0
 10
15.9780070094
 20
17.9146728047
 30
0.0
 10
15.977695821
 20
17.9147846962
 30
0.0
 10
15.9774304194
 20
17.9148510954
 30
0.0
 10
15.9772359262
 20
17.914869789
 30
0.0
 10
15.97710524
 20
17.9148573371
 30
0.0
 10
15.9770241553
 20
17.9148365627
 30
0.0
 10
15.9769544349
 20
17.9148035904
 30
0.0
 10
15.9769153973
 20
17.9147729457
 30
0.0
 10
15.9768984472
 20
17.9147560461
 30
0.0
 11
16.0737200754
 21
17.8308436672
 31
0.0
 11
16.0526614452
 21
17.8502896528
 31
0.0
 11
16.0429524048
 21
17.8591914723
 31
0.0
 11
16.0338303705
 21
17.8675061972
 31
0.0
 11
16.0253237827
 21
17.8752057078
 31
0.0
 11
16.0174524182
 21
17.882270228
 31
0.0
 11
16.0102332632
 21
17.8886826688
 31
0.0
 11
16.0036833027
 21
17.8944259421
 31
0.0
 11
15.9978189958
 21
17.8994834986
 31
0.0
 11
15.9926532638
 21
17.9038424098
 31
0.0
 11
15.9903359456
 21
17.9057562997
 31
0.0
 11
15.9881975688
 21
17.9074912409
 31
0.0
 11
15.9862395656
 21
17.9090458044
 31
0.0
 11
15.9844633683
 21
17.9104185616
 31
0.0
 11
15.982870389
 21
17.9116081036
 31
0.0
 11
15.9814615532
 21
17.912613506
 31
0.0
 11
15.9802372843
 21
17.9134343449
 31
0.0
 11
15.9791979823
 21
17.914070219
 31
0.0
 11
15.9787478189
 21
17.914318669
 31
0.0
 11
15.9783440474
 21
17.9145207274
 31
0.0
 11
15.9779867177
 21
17.914676344
 31
0.0
 11
15.9776758798
 21
17.9147854687
 31
0.0
 11
15.9774115838
 21
17.9148480514
 31
0.0
 11
15.9771938797
 21
17.914864042
 31
0.0
 11
15.9771025152
 21
17.9148545496
 31
0.0
 11
15.9770228175
 21
17.9148333903
 31
0.0
 11
15.9769547928
 21
17.9148005579
 31
0.0
 11
15.9768984472
 21
17.9147560461
 31
0.0
  0
SPLINE
  5
3E4
100
AcDbEntity
  8
0
100
AcDbSpline
 62
6
  6
CONTINUOUS
 70
0
 71
3
 72
20
 73
16
 74
14
 42
0.0000001
 43
0.0000001
 44
0.0000000001
 12
-0.0059178589
 22
-0.0059316416
 32
0.0
 13
-0.0067120851
 23
0.0050153105
 33
0.0
 40
0.0
 40
0.0
 40
0.0
 40
0.0
 40
0.0085136775
 40
0.0174145201
 40
0.0376196356
 40
0.0626227634
 40
0.0934548726
 40
0.1306573891
 40
0.1745311542
 40
0.2252539666
 40
0.2829363884
 40
0.4194294385
 40
0.5843570551
 40
0.7778622504
 40
1.0
 40
1.0
 40
1.0
 40
1.0
 10
16.1389911957
 20
16.9420702843
 30
0.0
 10
16.1389744015
 20
16.942053451
 30
0.0
 10
16.1389361043
 20
16.9420227432
 30
0.0
 10
16.138841562
 20
16.9419753953
 30
0.0
 10
16.1386901418
 20
16.9419481331
 30
0.0
 10
16.1384771721
 20
16.941961731
 30
0.0
 10
16.13822269
 20
16.9420177127
 30
0.0
 10
16.1379257312
 20
16.9421163669
 30
0.0
 10
16.137585618
 20
16.942257806
 30
0.0
 10
16.137202197
 20
16.9424422157
 30
0.0
 10
16.1365985278
 20
16.942764132
 30
0.0
 10
16.1357379557
 20
16.9432803139
 30
0.0
 10
16.1345827343
 20
16.9440397998
 30
0.0
 10
16.1332548511
 20
16.9449707327
 30
0.0
 10
16.1323192686
 20
16.9456581131
 30
0.0
 10
16.1318222661
 20
16.9460294764
 30
0.0
 11
16.1389911957
 21
16.9420702843
 31
0.0
 11
16.138935649
 21
16.9420255268
 31
0.0
 11
16.1388691943
 21
16.9419916772
 31
0.0
 11
16.1387035477
 21
16.9419567152
 31
0.0
 11
16.1384942308
 21
16.9419654234
 31
0.0
 11
16.1382412558
 21
16.9420177898
 31
0.0
 11
16.1379446809
 21
16.9421137562
 31
0.0
 11
16.1376045673
 21
16.9422532612
 31
0.0
 11
16.1372209761
 21
16.9424362438
 31
0.0
 11
16.1367939686
 21
16.9426626426
 31
0.0
 11
16.1358099495
 21
16.9432454446
 31
0.0
 11
16.1346529993
 21
16.9440011776
 31
0.0
 11
16.1333236076
 21
16.9449293521
 31
0.0
 11
16.1318222661
 21
16.9460294764
 31
0.0
  0
LINE
  5
3E5
100
AcDbEntity
  8
0
100
AcDbLine
 62
6
  6
CONTINUOUS
 10
16.06850057
 20
17.001393387
 11
16.062639156
 21
17.006760479
  0
LINE
  5
3E6
100
AcDbEntity
  8
0
100
AcDbLine
 62
6
  6
CONTINUOUS
 10
16.0045443821
 20
17.0605965028
 11
15.9933480321
 21
17.0710602173
  0
LINE
  5
3E7
100
AcDbEntity
  8
0
100
AcDbLine
 62
6
  6
CONTINUOUS
 10
15.9084273736
 20
17.1508766747
 11
15.8908126015
 21
17.1674917177
  0
LINE
  5
3E8
100
AcDbEntity
  8
0
100
AcDbLine
 62
6
  6
CONTINUOUS
 10
15.8729474897
 20
17.1843524504
 11
15.8551755748
 21
17.201130847
  0
LINE
  5
3E9
100
AcDbEntity
  8
0
100
AcDbLine
 62
6
  6
CONTINUOUS
 10
15.8373055185
 20
17.2180037597
 11
15.8194810118
 21
17.2348318003
  0
LINE
  5
3EA
100
AcDbEntity
  8
0
100
AcDbLine
 62
6
  6
CONTINUOUS
 10
15.8016555908
 20
17.2516550663
 11
15.7841342853
 21
17.2681819763
  0
LINE
  5
3EB
100
AcDbEntity
  8
0
100
AcDbLine
 62
6
  6
CONTINUOUS
 10
15.6993155527
 20
17.3479037439
 11
15.6830606394
 21
17.3630885546
  0
LINE
  5
3EC
100
AcDbEntity
  8
0
100
AcDbLine
 62
6
  6
CONTINUOUS
 10
15.6582211272
 20
17.3861927858
 11
15.6525835092
 21
17.3914152751
  0
LINE
  5
3ED
100
AcDbEntity
  8
0
100
AcDbLine
 62
6
  6
CONTINUOUS
 10
15.7245477156
 20
17.4630255222
 11
15.72979046
 21
17.4582504903
  0
LINE
  5
3EE
100
AcDbEntity
  8
0
100
AcDbLine
 62
6
  6
CONTINUOUS
 10
15.8563821601
 20
17.3407460186
 11
15.8742410202
 21
17.3240113788
  0
LINE
  5
3EF
100
AcDbEntity
  8
0
100
AcDbLine
 62
6
  6
CONTINUOUS
 10
15.8919638949
 20
17.3073912062
 11
15.909882235
 21
17.2905800722
  0
LINE
  5
3F0
100
AcDbEntity
  8
0
100
AcDbLine
 62
6
  6
CONTINUOUS
 10
15.6740115558
 20
17.4125438405
 11
15.6793045209
 21
17.407723081
  0
LINE
  5
3F1
100
AcDbEntity
  8
0
100
AcDbLine
 62
6
  6
CONTINUOUS
 10
15.805877802
 20
17.2902353403
 11
15.8237303973
 21
17.2735065716
  0
LINE
  5
3F2
100
AcDbEntity
  8
0
100
AcDbLine
 62
6
  6
CONTINUOUS
 10
15.841457589
 20
17.2568823525
 11
15.8593747633
 21
17.2400723137
  0
LINE
  5
3F3
100
AcDbEntity
  8
0
100
AcDbLine
 62
6
  6
CONTINUOUS
 10
16.0253150177
 20
17.2679640164
 11
16.0076921178
 21
17.2844776141
  0
LINE
  5
3F4
100
AcDbEntity
  8
0
100
AcDbLine
 62
6
  6
CONTINUOUS
 10
15.9898577564
 20
17.3012023337
 11
15.9719874172
 21
17.3179684436
  0
LINE
  5
3F5
100
AcDbEntity
  8
0
100
AcDbLine
 62
6
  6
CONTINUOUS
 10
15.9277927323
 20
17.2737737586
 11
15.9456630714
 21
17.2570076487
  0
LINE
  5
3F6
100
AcDbEntity
  8
0
100
AcDbLine
 62
6
  6
CONTINUOUS
 10
15.9634974329
 20
17.2402829292
 11
15.9811203328
 21
17.2237693314
  0
LINE
  5
3F7
100
AcDbEntity
  8
0
100
AcDbLine
 62
6
  6
CONTINUOUS
 10
15.8772912924
 20
17.223260342
 11
15.8952103288
 21
17.2064485565
  0
LINE
  5
3F8
100
AcDbEntity
  8
0
100
AcDbLine
 62
6
  6
CONTINUOUS
 10
15.9129305674
 20
17.1898308569
 11
15.930792958
 21
17.1730929105
  0
LINE
  5
3F9
100
AcDbEntity
  8
0
100
AcDbLine
 62
6
  6
CONTINUOUS
 10
16.0160900002
 20
17.093570281
 11
16.0272899265
 21
17.083216947
  0
SPLINE
  5
3FA
100
AcDbEntity
  8
0
100
AcDbSpline
 62
9
  6
CONTINUOUS
 70
0
 71
3
 72
8
 73
4
 74
2
 42
0.0000001
 43
0.0000001
 44
0.0000000001
 12
-0.0000145921
 22
-0.0000175019
 32
0.0
 13
-0.0000145921
 23
-0.0000175019
 33
0.0
 40
0.0
 40
0.0
 40
0.0
 40
0.0
 40
1.0
 40
1.0
 40
1.0
 40
1.0
 10
16.5514442007
 20
17.3717861859
 30
0.0
 10
16.5514393367
 20
17.3717803519
 30
0.0
 10
16.5514344727
 20
17.371774518
 30
0.0
 10
16.5514296086
 20
17.371768684
 30
0.0
 11
16.5514442007
 21
17.3717861859
 31
0.0
 11
16.5514296086
 21
17.371768684
 31
0.0
  0
LINE
  5
3FB
100
AcDbEntity
  8
0
100
AcDbLine
 62
6
  6
CONTINUOUS
 10
15.9540769199
 20
17.3347747571
 11
15.9361585798
 21
17.3515858911
  0
LINE
  5
3FC
100
AcDbEntity
  8
0
100
AcDbLine
 62
6
  6
CONTINUOUS
 10
15.9184357051
 20
17.3682060637
 11
15.9005768451
 21
17.3849407036
  0
LINE
  5
3FD
100
AcDbEntity
  8
0
100
AcDbLine
 62
6
  6
CONTINUOUS
 10
15.7739851449
 20
17.5024451752
 11
15.7687424005
 21
17.5072202071
  0
LINE
  5
3FE
100
AcDbEntity
  8
0
100
AcDbLine
 62
6
  6
CONTINUOUS
 10
15.9035694475
 20
17.284266998
 11
15.8856522732
 21
17.3010770368
  0
LINE
  5
3FF
100
AcDbEntity
  8
0
100
AcDbLine
 62
6
  6
CONTINUOUS
 10
15.8679250815
 20
17.3177012558
 11
15.8500724862
 21
17.3344300245
  0
LINE
  5
400
100
AcDbEntity
  8
0
100
AcDbLine
 62
6
  6
CONTINUOUS
 10
15.7234992051
 20
17.4519177651
 11
15.7182062399
 21
17.4567385246
  0
LINE
  5
401
100
AcDbEntity
  8
0
100
AcDbLine
 62
6
  6
CONTINUOUS
 10
15.8530615944
 20
17.2337595336
 11
15.8351428386
 21
17.2505710561
  0
LINE
  5
402
100
AcDbEntity
  8
0
100
AcDbLine
 62
6
  6
CONTINUOUS
 10
15.8174215171
 20
17.2671897712
 11
15.7995603267
 21
17.2839265931
  0
LINE
  5
403
100
AcDbEntity
  8
0
100
AcDbLine
 62
6
  6
CONTINUOUS
 10
15.672955609
 20
17.4014428985
 11
15.6677507495
 21
17.4061834389
  0
SPLINE
  5
404
100
AcDbEntity
  8
0
100
AcDbSpline
 62
6
  6
CONTINUOUS
 70
0
 71
3
 72
9
 73
5
 74
3
 42
0.0000001
 43
0.0000001
 44
0.0000000001
 12
-0.0000607855
 22
-0.0000607855
 32
0.0
 13
-0.0000741708
 23
-0.0000434562
 33
0.0
 40
0.0
 40
0.0
 40
0.0
 40
0.0
 40
0.247621828
 40
1.0
 40
1.0
 40
1.0
 40
1.0
 10
16.5450656471
 20
17.3338749164
 30
0.0
 10
16.5450606299
 20
17.3338698991
 30
0.0
 10
16.5450397123
 20
17.3338502996
 30
0.0
 10
16.5450162096
 20
17.3338334937
 30
0.0
 10
16.5449976081
 20
17.3338225952
 30
0.0
 11
16.5450656471
 21
17.3338749164
 31
0.0
 11
16.5450501121
 21
17.3338603638
 31
0.0
 11
16.5449976081
 21
17.3338225952
 31
0.0
  0
SPLINE
  5
405
100
AcDbEntity
  8
0
100
AcDbSpline
 62
6
  6
CONTINUOUS
 70
0
 71
3
 72
69
 73
65
 74
63
 42
0.0000001
 43
0.0000001
 44
0.0000000001
 12
-0.7018213012
 22
-0.4111927208
 32
0.0
 13
-0.7855115333
 23
0.2111971203
 33
0.0
 40
0.0
 40
0.0
 40
0.0
 40
0.0
 40
0.0004143701
 40
0.0006978043
 40
0.0010418522
 40
0.0014503052
 40
0.0019253737
 40
0.0024684191
 40
0.003080317
 40
0.004512705
 40
0.0062254398
 40
0.0082197712
 40
0.0104962105
 40
0.0130547767
 40
0.0158944184
 40
0.0190134351
 40
0.0224100103
 40
0.0300281749
 40
0.0387332719
 40
0.0485088142
 40
0.0593325574
 40
0.0711772629
 40
0.0840154072
 40
0.0978193685
 40
0.1125587051
 40
0.1446976455
 40
0.180135644
 40
0.2185462356
 40
0.2595704269
 40
0.3028310942
 40
0.3479225243
 40
0.3944295045
 40
0.4419183445
 40
0.4899505751
 40
0.5380810046
 40
0.5858632404
 40
0.6328551856
 40
0.6786177476
 40
0.7227275614
 40
0.7647731086
 40
0.8043642411
 40
0.8411364821
 40
0.8747469201
 40
0.8902706868
 40
0.9048899249
 40
0.918569697
 40
0.9312808823
 40
0.9429951688
 40
0.9536843305
 40
0.9633211788
 40
0.9718856582
 40
0.9793612161
 40
0.9826856458
 40
0.9857319106
 40
0.9884981698
 40
0.9909827835
 40
0.9931851392
 40
0.9951054212
 40
0.9967442984
 40
0.9981033136
 40
0.9986788919
 40
0.9991860244
 40
0.9996258113
 40
1.0
 40
1.0
 40
1.0
 40
1.0
 10
16.5449976081
 20
17.3338225952
 30
0.0
 10
16.5449006702
 20
17.3337657998
 30
0.0
 10
16.5446982334
 20
17.333747751
 30
0.0
 10
16.5444213313
 20
17.3337911949
 30
0.0
 10
16.5441495997
 20
17.3338674949
 30
0.0
 10
16.5438380823
 20
17.3339846375
 30
0.0
 10
16.5434847851
 20
17.33414277
 30
0.0
 10
16.5430901859
 20
17.3343420092
 30
0.0
 10
16.5424757812
 20
17.33468086
 30
0.0
 10
16.5416063713
 20
17.3352125638
 30
0.0
 10
16.5404458362
 20
17.3359842572
 30
0.0
 10
16.5391202781
 20
17.3369199083
 30
0.0
 10
16.5376301489
 20
17.33801927
 30
0.0
 10
16.5359761503
 20
17.3392820591
 30
0.0
 10
16.5341591691
 20
17.340707475
 30
0.0
 10
16.5321803304
 20
17.3422944347
 30
0.0
 10
16.529212311
 20
17.3447186258
 30
0.0
 10
16.5251105857
 20
17.3481487136
 30
0.0
 10
16.519731893
 20
17.352747122
 30
0.0
 10
16.5137364355
 20
17.3579611671
 30
0.0
 10
16.5071372619
 20
17.3637778948
 30
0.0
 10
16.4999494577
 20
17.37018239
 30
0.0
 10
16.4921891152
 20
17.3771587955
 30
0.0
 10
16.4838728838
 20
17.3846906716
 30
0.0
 10
16.4717125318
 20
17.3957736472
 30
0.0
 10
16.4552777352
 20
17.4108744748
 30
0.0
 10
16.434192116
 20
17.4303992431
 30
0.0
 10
16.4114009976
 20
17.4516277519
 30
0.0
 10
16.387108441
 20
17.4743560728
 30
0.0
 10
16.3615339912
 20
17.498365539
 30
0.0
 10
16.3349074312
 20
17.5234262075
 30
0.0
 10
16.3074697348
 20
17.5492977156
 30
0.0
 10
16.2794677815
 20
17.5757330608
 30
0.0
 10
16.2511543943
 20
17.6024797245
 30
0.0
 10
16.2227847062
 20
17.6292826317
 30
0.0
 10
16.1946145449
 20
17.6558860132
 30
0.0
 10
16.1668986921
 20
17.682035392
 30
0.0
 10
16.1398873612
 20
17.7074805246
 30
0.0
 10
16.1138251432
 20
17.731977254
 30
0.0
 10
16.0889471336
 20
17.7552906404
 30
0.0
 10
16.065477254
 20
17.7771970909
 30
0.0
 10
16.0436264679
 20
17.797486256
 30
0.0
 10
16.0265035077
 20
17.8132767668
 30
0.0
 10
16.0137548258
 20
17.8249503453
 30
0.0
 10
16.0049698941
 20
17.832950702
 30
0.0
 10
15.9967249172
 20
17.840411304
 30
0.0
 10
15.989037847
 20
17.8473144662
 30
0.0
 10
15.9819253402
 20
17.8536437175
 30
0.0
 10
15.9754037539
 20
17.8593829353
 30
0.0
 10
15.9694878376
 20
17.864517431
 30
0.0
 10
15.9641903381
 20
17.8690347639
 30
0.0
 10
15.9601568832
 20
17.872396297
 30
0.0
 10
15.9572440414
 20
17.8747648052
 30
0.0
 10
15.9553073116
 20
17.876309665
 30
0.0
 10
15.9535328546
 20
17.8776925956
 30
0.0
 10
15.9519217076
 20
17.8789125669
 30
0.0
 10
15.9504747053
 20
17.8799689337
 30
0.0
 10
15.9491924451
 20
17.8808615344
 30
0.0
 10
15.9480753614
 20
17.8815901517
 30
0.0
 10
15.9472420652
 20
17.882085549
 30
0.0
 10
15.9466565587
 20
17.8823948399
 30
0.0
 10
15.9462837243
 20
17.8825724265
 30
0.0
 10
15.9459523584
 20
17.8827089338
 30
0.0
 10
15.9457424217
 20
17.8827781338
 30
0.0
 10
15.9456444452
 20
17.8828044763
 30
0.0
 11
16.5449976081
 21
17.3338225952
 31
0.0
 11
16.5446662341
 21
17.3337609892
 31
0.0
 11
16.5444378858
 21
17.3337927584
 31
0.0
 11
16.5441678365
 21
17.3338661762
 31
0.0
 11
16.5438561413
 21
17.3339811927
 31
0.0
 11
16.5435028551
 21
17.3341377583
 31
0.0
 11
16.5431080329
 21
17.3343358232
 31
0.0
 11
16.5426717296
 21
17.3345753378
 31
0.0
 11
16.5416748997
 21
17.3351785169
 31
0.0
 11
16.5405128051
 21
17.3359468979
 31
0.0
 11
16.5391858855
 21
17.3368800829
 31
0.0
 11
16.5376945808
 21
17.3379776742
 31
0.0
 11
16.5360393752
 21
17.3392392263
 31
0.0
 11
16.5342212151
 21
17.3406638003
 31
0.0
 11
16.5322413201
 21
17.3422501652
 31
0.0
 11
16.5301009137
 21
17.343997086
 31
0.0
 11
16.5253434597
 21
17.347967656
 31
0.0
 11
16.5199586395
 21
17.3525656314
 31
0.0
 11
16.5139564123
 21
17.3577809639
 31
0.0
 11
16.5073499215
 21
17.3636004826
 31
0.0
 11
16.5001551087
 21
17.3700082723
 31
0.0
 11
16.4923880112
 21
17.3769883241
 31
0.0
 11
16.4840646757
 21
17.3845246193
 31
0.0
 11
16.4752027345
 21
17.3925995424
 31
0.0
 11
16.4559472577
 21
17.4102810164
 31
0.0
 11
16.4347927004
 21
17.4298615461
 31
0.0
 11
16.4119272043
 21
17.4511529601
 31
0.0
 11
16.3875575473
 21
17.4739485094
 31
0.0
 11
16.3619008662
 21
17.4980310841
 31
0.0
 11
16.3351906954
 21
17.5231671676
 31
0.0
 11
16.3076659978
 21
17.5491178059
 31
0.0
 11
16.2795763355
 21
17.5756334246
 31
0.0
 11
16.2511740035
 21
17.60246171
 31
0.0
 11
16.2227151521
 21
17.6293464823
 31
0.0
 11
16.1944566227
 21
17.6560308731
 31
0.0
 11
16.1666528078
 21
17.6822605007
 31
0.0
 11
16.1395563903
 21
17.7077827092
 31
0.0
 11
16.1134110251
 21
17.7323538776
 31
0.0
 11
16.0884535806
 21
17.7557371754
 31
0.0
 11
16.0649086593
 21
17.7777080158
 31
0.0
 11
16.0429861392
 21
17.7980565093
 31
0.0
 11
16.0228835669
 21
17.8165850679
 31
0.0
 11
16.0135699796
 21
17.8251116243
 31
0.0
 11
16.0047771684
 21
17.8331173718
 31
0.0
 11
15.9965253241
 21
17.8405821191
 31
0.0
 11
15.9888313258
 21
17.8474890119
 31
0.0
 11
15.9817116228
 21
17.8538216288
 31
0.0
 11
15.9751826646
 21
17.8595635483
 31
0.0
 11
15.9692603725
 21
17.8646988681
 31
0.0
 11
15.9639566349
 21
17.8692156504
 31
0.0
 11
15.9592814813
 21
17.8731037852
 31
0.0
 11
15.9571827546
 21
17.8748089534
 31
0.0
 11
15.9552449311
 21
17.8763531721
 31
0.0
 11
15.9534692633
 21
17.8777351787
 31
0.0
 11
15.9518569591
 21
17.878953758
 31
0.0
 11
15.9504087493
 21
17.8800082017
 31
0.0
 11
15.949125074
 21
17.8808981099
 31
0.0
 11
15.9480063697
 21
17.881623087
 31
0.0
 11
15.9470530726
 21
17.8821827375
 31
0.0
 11
15.9466385881
 21
17.8824004416
 31
0.0
 11
15.946265619
 21
17.8825766658
 31
0.0
 11
15.9459342198
 21
17.8827113605
 31
0.0
 11
15.9456444452
 21
17.8828044763
 31
0.0
  0
LINE
  5
406
100
AcDbEntity
  8
0
100
AcDbLine
 62
6
  6
CONTINUOUS
 10
16.0093061565
 20
17.2520206368
 11
15.9918267919
 21
17.2685079974
  0
LINE
  5
407
100
AcDbEntity
  8
0
100
AcDbLine
 62
6
  6
CONTINUOUS
 10
15.9740242535
 20
17.2853096724
 11
15.9561785641
 21
17.302157716
  0
LINE
  5
408
100
AcDbEntity
  8
0
100
AcDbLine
 62
6
  6
CONTINUOUS
 10
15.9383124842
 20
17.3190268755
 11
15.9205181947
 21
17.3358263934
  0
LINE
  5
409
100
AcDbEntity
  8
0
100
AcDbLine
 62
6
  6
CONTINUOUS
 10
15.9026896403
 20
17.3526526225
 11
15.8850335989
 21
17.3693065864
  0
LINE
  5
40A
100
AcDbEntity
  8
0
100
AcDbLine
 62
6
  6
CONTINUOUS
 10
15.8000812229
 20
17.4491525057
 11
15.7843805797
 21
17.4638196575
  0
LINE
  5
40B
100
AcDbEntity
  8
0
100
AcDbLine
 62
6
  6
CONTINUOUS
 10
15.7588275589
 20
17.4875870967
 11
15.7537275319
 21
17.4923113983
  0
SPLINE
  5
40C
100
AcDbEntity
  8
0
100
AcDbSpline
 62
6
  6
CONTINUOUS
 70
0
 71
3
 72
9
 73
5
 74
3
 42
0.0000001
 43
0.0000001
 44
0.0000000001
 12
-0.0000605152
 22
-0.0000605152
 32
0.0
 13
-0.0000737936
 23
-0.0000433437
 33
0.0
 40
0.0
 40
0.0
 40
0.0
 40
0.0
 40
0.2476426769
 40
1.0
 40
1.0
 40
1.0
 40
1.0
 10
16.3912472391
 20
17.1800565084
 30
0.0
 10
16.3912422437
 20
17.180051513
 30
0.0
 10
16.3912214221
 20
17.1800319977
 30
0.0
 10
16.3911980381
 20
17.1800152502
 30
0.0
 10
16.3911795317
 20
17.1800043802
 30
0.0
 11
16.3912472391
 21
17.1800565084
 31
0.0
 11
16.3912317739
 21
17.1800420171
 31
0.0
 11
16.3911795317
 21
17.1800043802
 31
0.0
  0
SPLINE
  5
40D
100
AcDbEntity
  8
0
100
AcDbSpline
 62
6
  6
CONTINUOUS
 70
0
 71
3
 72
69
 73
65
 74
63
 42
0.0000001
 43
0.0000001
 44
0.0000000001
 12
-0.7013714713
 22
-0.4119605565
 32
0.0
 13
-0.7855201132
 23
0.2111672148
 33
0.0
 40
0.0
 40
0.0
 40
0.0
 40
0.0
 40
0.0004141738
 40
0.000697468
 40
0.0010413666
 40
0.0014496682
 40
0.0019245874
 40
0.0024674884
 40
0.0030792486
 40
0.0045113879
 40
0.0062239178
 40
0.0082180968
 40
0.0104944439
 40
0.0130530124
 40
0.0158928284
 40
0.0190121593
 40
0.0224091471
 40
0.0300282668
 40
0.0387342148
 40
0.0485103741
 40
0.0593354716
 40
0.0711819187
 40
0.0840215465
 40
0.097826104
 40
0.1125659326
 40
0.144706724
 40
0.1801455619
 40
0.2185588557
 40
0.2595860296
 40
0.3028514993
 40
0.3479484595
 40
0.3944611887
 40
0.4419550375
 40
0.4899889598
 40
0.5381185068
 40
0.5858976619
 40
0.6328853624
 40
0.6786449534
 40
0.722752129
 40
0.7647973388
 40
0.8043874292
 40
0.84115943
 40
0.8747672659
 40
0.8902891256
 40
0.9049070297
 40
0.9185851142
 40
0.9312936097
 40
0.943005011
 40
0.9536919017
 40
0.963327353
 40
0.9718902519
 40
0.97936424
 40
0.9826879823
 40
0.9857336743
 40
0.9884995125
 40
0.9909838565
 40
0.9931859763
 40
0.9951060443
 40
0.99674473
 40
0.9981035769
 40
0.99867908
 40
0.9991861434
 40
0.9996258676
 40
1.0
 40
1.0
 40
1.0
 40
1.0
 10
16.3911795317
 20
17.1800043802
 30
0.0
 10
16.3910827018
 20
17.1799475058
 30
0.0
 10
16.3908803516
 20
17.1799293048
 30
0.0
 10
16.3906035629
 20
17.1799726214
 30
0.0
 10
16.390331923
 20
17.1800488109
 30
0.0
 10
16.3900204962
 20
17.1801658489
 30
0.0
 10
16.3896672849
 20
17.1803238791
 30
0.0
 10
16.3892727668
 20
17.1805230204
 30
0.0
 10
16.3886584567
 20
17.1808617461
 30
0.0
 10
16.3877891487
 20
17.1813933111
 30
0.0
 10
16.3866287136
 20
17.1821648601
 30
0.0
 10
16.3853032208
 20
17.1831003943
 30
0.0
 10
16.3838131112
 20
17.1841996739
 30
0.0
 10
16.3821590626
 20
17.1854624376
 30
0.0
 10
16.3803419556
 20
17.1868879112
 30
0.0
 10
16.3783629094
 20
17.1884750055
 30
0.0
 10
16.3753945175
 20
17.1908994653
 30
0.0
 10
16.3712923088
 20
17.1943299183
 30
0.0
 10
16.3659130858
 20
17.1989287243
 30
0.0
 10
16.3599170077
 20
17.2041432298
 30
0.0
 10
16.3533170803
 20
17.2099606333
 30
0.0
 10
16.346128357
 20
17.2163659727
 30
0.0
 10
16.3383672467
 20
17.2233430839
 30
0.0
 10
16.3300504672
 20
17.2308754041
 30
0.0
 10
16.3178894973
 20
17.2419589006
 30
0.0
 10
16.301454084
 20
17.2570603535
 30
0.0
 10
16.2803673456
 20
17.2765860922
 30
0.0
 10
16.2575749476
 20
17.2978158519
 30
0.0
 10
16.23328028
 20
17.3205461097
 30
0.0
 10
16.2077032002
 20
17.3445580821
 30
0.0
 10
16.1810734546
 20
17.3696217621
 30
0.0
 10
16.1536325327
 20
17.3954963219
 30
0.0
 10
16.125628128
 20
17.4219340236
 30
0.0
 10
16.0973135745
 20
17.4486817862
 30
0.0
 10
16.0689443283
 20
17.4754843007
 30
0.0
 10
16.0407757784
 20
17.5020861835
 30
0.0
 10
16.0130619305
 20
17.5282336547
 30
0.0
 10
15.9860525535
 20
17.5536769996
 30
0.0
 10
15.9599914715
 20
17.5781726171
 30
0.0
 10
15.9351142767
 20
17.6014853118
 30
0.0
 10
15.9116446696
 20
17.6233914408
 30
0.0
 10
15.8897946666
 20
17.6436799296
 30
0.0
 10
15.8726726226
 20
17.6594695565
 30
0.0
 10
15.8599250735
 20
17.6711420426
 30
0.0
 10
15.8511411415
 20
17.6791415236
 30
0.0
 10
15.8428973242
 20
17.6866011098
 30
0.0
 10
15.8352116925
 20
17.6935029366
 30
0.0
 10
15.8281007396
 20
17.6998307432
 30
0.0
 10
15.8215804611
 20
17.7055687659
 30
0.0
 10
15.8156656365
 20
17.710702356
 30
0.0
 10
15.810369072
 20
17.715218892
 30
0.0
 10
15.8063364088
 20
17.7185797551
 30
0.0
 10
15.8034241577
 20
17.7209477772
 30
0.0
 10
15.8014877839
 20
17.7224923549
 30
0.0
 10
15.7997136017
 20
17.723875083
 30
0.0
 10
15.7981026691
 20
17.7250949234
 30
0.0
 10
15.7966558329
 20
17.7261511888
 30
0.0
 10
15.7953737203
 20
17.7270436989
 30
0.0
 10
15.7942567682
 20
17.7277722348
 30
0.0
 10
15.7934235718
 20
17.7282675706
 30
0.0
 10
15.7928381375
 20
17.7285768176
 30
0.0
 10
15.7924653513
 20
17.7287543754
 30
0.0
 10
15.7921340296
 20
17.7288908568
 30
0.0
 10
15.7919241213
 20
17.7289600405
 30
0.0
 10
15.7918261584
 20
17.7289863754
 30
0.0
 11
16.3911795317
 21
17.1800043802
 31
0.0
 11
16.3908483639
 21
17.1799425379
 31
0.0
 11
16.3906201146
 21
17.1799741929
 31
0.0
 11
16.3903501608
 21
17.1800474995
 31
0.0
 11
16.3900385569
 21
17.1801624085
 31
0.0
 11
16.3896853574
 21
17.1803188706
 31
0.0
 11
16.3892906166
 21
17.1805168365
 31
0.0
 11
16.3888543889
 21
17.1807562568
 31
0.0
 11
16.3878576904
 21
17.1813592638
 31
0.0
 11
16.386695697
 21
17.1821274972
 31
0.0
 11
16.3853688437
 21
17.1830605626
 31
0.0
 11
16.3838775657
 21
17.1841580657
 31
0.0
 11
16.3822223277
 21
17.1854195806
 31
0.0
 11
16.380404033
 21
17.1868442153
 31
0.0
 11
16.3784239213
 21
17.1884307208
 31
0.0
 11
16.3762832404
 21
17.190177839
 31
0.0
 11
16.371525163
 21
17.1941488808
 31
0.0
 11
16.3661397848
 21
17.1987472757
 31
0.0
 11
16.3601371441
 21
17.2039629051
 31
0.0
 11
16.3535298201
 21
17.209783153
 31
0.0
 11
16.3463339554
 21
17.2161919009
 31
0.0
 11
16.3385659593
 21
17.223172768
 31
0.0
 11
16.3302422409
 21
17.2307093735
 31
0.0
 11
16.3213799839
 21
17.2387845558
 31
0.0
 11
16.3021233944
 21
17.2564670688
 31
0.0
 11
16.2809683115
 21
17.2760480631
 31
0.0
 11
16.2581012024
 21
17.2973409997
 31
0.0
 11
16.2337297534
 21
17.320138216
 31
0.0
 11
16.2080702175
 21
17.3442234901
 31
0.0
 11
16.1813567623
 21
17.3693626814
 31
0.0
 11
16.1538286526
 21
17.3953165528
 31
0.0
 11
16.1257360245
 21
17.4218350009
 31
0.0
 11
16.0973326787
 21
17.4486642535
 31
0.0
 11
16.0688743408
 21
17.4755485605
 31
0.0
 11
16.0406176235
 21
17.5022312568
 31
0.0
 11
16.0128163034
 21
17.5284585331
 31
0.0
 11
15.9857216403
 21
17.5539791143
 31
0.0
 11
15.9595778182
 21
17.5785488248
 31
0.0
 11
15.9346205724
 21
17.6019319653
 31
0.0
 11
15.9110762435
 21
17.6239022285
 31
0.0
 11
15.8891538598
 21
17.6442506099
 31
0.0
 11
15.8690528102
 21
17.6627777233
 31
0.0
 11
15.8597403485
 21
17.6713032241
 31
0.0
 11
15.8509483456
 21
17.679308259
 31
0.0
 11
15.8426975234
 21
17.6867721006
 31
0.0
 11
15.8350051302
 21
17.6936775161
 31
0.0
 11
15.8278871484
 21
17.700008546
 31
0.0
 11
15.8213595585
 21
17.7057492326
 31
0.0
 11
15.8154381317
 21
17.7108838237
 31
0.0
 11
15.8101353712
 21
17.7153997771
 31
0.0
 11
15.8054611916
 21
17.7192870924
 31
0.0
 11
15.803362896
 21
17.7209919072
 31
0.0
 11
15.8014254371
 21
17.7225358384
 31
0.0
 11
15.7996500455
 21
17.7239176446
 31
0.0
 11
15.7980379282
 21
17.7251361094
 31
0.0
 11
15.7965898819
 21
17.7261904538
 31
0.0
 11
15.7953063543
 21
17.7270802712
 31
0.0
 11
15.7941877818
 21
17.7278051669
 31
0.0
 11
15.7932346007
 21
17.728364746
 31
0.0
 11
15.7928201683
 21
17.7285824184
 31
0.0
 11
15.7924472474
 21
17.7287586137
 31
0.0
 11
15.7921158926
 21
17.7288932825
 31
0.0
 11
15.7918261584
 21
17.7289863754
 31
0.0
  0
SPLINE
  5
40E
100
AcDbEntity
  8
0
100
AcDbSpline
 62
6
  6
CONTINUOUS
 70
0
 71
3
 72
19
 73
15
 74
13
 42
0.0000001
 43
0.0000001
 44
0.0000000001
 12
-0.005769698
 22
-0.0057808205
 32
0.0
 13
-0.0065521063
 23
0.0048761875
 33
0.0
 40
0.0
 40
0.0
 40
0.0
 40
0.0
 40
0.0175215684
 40
0.0378876421
 40
0.0630008639
 40
0.0939009302
 40
0.1311461871
 40
0.1750454066
 40
0.2257791398
 40
0.2834592756
 40
0.4199090667
 40
0.5847398098
 40
0.7780879171
 40
1.0
 40
1.0
 40
1.0
 40
1.0
 10
16.1894986834
 20
16.9925780998
 30
0.0
 10
16.1894649853
 20
16.9925443368
 30
0.0
 10
16.1893744443
 20
16.9924880427
 30
0.0
 10
16.1892033395
 20
16.992456556
 30
0.0
 10
16.188994536
 20
16.992468082
 30
0.0
 10
16.1887455871
 20
16.9925212343
 30
0.0
 10
16.1884552055
 20
16.9926158692
 30
0.0
 10
16.1881228192
 20
16.992752239
 30
0.0
 10
16.1877482309
 20
16.9929304615
 30
0.0
 10
16.1871587103
 20
16.9932420207
 30
0.0
 10
16.1863185994
 20
16.9937423513
 30
0.0
 10
16.185191247
 20
16.9944792555
 30
0.0
 10
16.1838958651
 20
16.9953829932
 30
0.0
 10
16.1829833757
 20
16.9960505701
 30
0.0
 10
16.1824987118
 20
16.9964112651
 30
0.0
 11
16.1894986834
 21
16.9925780998
 31
0.0
 11
16.1893785988
 21
16.992500259
 31
0.0
 11
16.1892160695
 21
16.9924648629
 31
0.0
 11
16.1890110801
 21
16.9924719269
 31
0.0
 11
16.1887636152
 21
16.9925214664
 31
0.0
 11
16.1884736685
 21
16.9926134877
 31
0.0
 11
16.1881412886
 21
16.9927479422
 31
0.0
 11
16.1877665439
 21
16.9929247616
 31
0.0
 11
16.1873495027
 21
16.9931438773
 31
0.0
 11
16.1863888047
 21
16.9937087245
 31
0.0
 11
16.185259742
 21
16.9944419364
 31
0.0
 11
16.183962862
 21
16.9953429657
 31
0.0
 11
16.1824987118
 21
16.9964112651
 31
0.0
  0
LINE
  5
40F
100
AcDbEntity
  8
0
100
AcDbLine
 62
6
  6
CONTINUOUS
 10
16.1187417141
 20
17.0521446913
 11
16.1129965976
 21
17.0574058818
  0
LINE
  5
410
100
AcDbEntity
  8
0
100
AcDbLine
 62
6
  6
CONTINUOUS
 10
16.0552524267
 20
17.1109170703
 11
16.0437238109
 21
17.1216912262
  0
LINE
  5
411
100
AcDbEntity
  8
0
100
AcDbLine
 62
6
  6
CONTINUOUS
 10
15.9588739697
 20
17.201441896
 11
15.941327358
 21
17.2179926667
  0
LINE
  5
412
100
AcDbEntity
  8
0
100
AcDbLine
 62
6
  6
CONTINUOUS
 10
15.9234904563
 20
17.2348267685
 11
15.9056786161
 21
17.2516428523
  0
LINE
  5
413
100
AcDbEntity
  8
0
100
AcDbLine
 62
6
  6
CONTINUOUS
 10
15.8878074819
 20
17.2685167828
 11
15.8700209266
 21
17.285308999
  0
LINE
  5
414
100
AcDbEntity
  8
0
100
AcDbLine
 62
6
  6
CONTINUOUS
 10
15.8521649053
 20
17.302161149
 11
15.8345735852
 21
17.3187540767
  0
LINE
  5
415
100
AcDbEntity
  8
0
100
AcDbLine
 62
6
  6
CONTINUOUS
 10
15.7496749471
 20
17.3985500791
 11
15.7336893651
 21
17.4134832768
  0
LINE
  5
416
100
AcDbEntity
  8
0
100
AcDbLine
 62
6
  6
CONTINUOUS
 10
15.7084962816
 20
17.4369159876
 11
15.7033453822
 21
17.4416876289
  0
SPLINE
  5
417
100
AcDbEntity
  8
0
100
AcDbSpline
 62
9
  6
CONTINUOUS
 70
0
 71
3
 72
33
 73
29
 74
27
 42
0.0000001
 43
0.0000001
 44
0.0000000001
 12
-0.1097942333
 22
0.1098842823
 32
0.0
 13
0.0678042607
 23
0.1397566149
 33
0.0
 40
0.0
 40
0.0
 40
0.0
 40
0.0
 40
0.0377489532
 40
0.0754212748
 40
0.1128474437
 40
0.1498659212
 40
0.1863911506
 40
0.22237159
 40
0.2577495889
 40
0.2924846881
 40
0.3600334279
 40
0.3928665977
 40
0.4250770819
 40
0.4877729841
 40
0.5183431233
 40
0.5484348148
 40
0.6073488516
 40
0.6362702604
 40
0.664886575
 40
0.6932396208
 40
0.7213716443
 40
0.7493237006
 40
0.7771359153
 40
0.8048518311
 40
0.8325176233
 40
0.887875343
 40
0.9435812074
 40
1.0
 40
1.0
 40
1.0
 40
1.0
 10
14.2255909132
 20
15.5889244422
 30
0.0
 10
14.2242093741
 20
15.5903071144
 30
0.0
 10
14.2215111642
 20
15.5931324391
 30
0.0
 10
14.2176655152
 20
15.5975339895
 30
0.0
 10
14.2140408135
 20
15.6020710871
 30
0.0
 10
14.2106577265
 20
15.6067177793
 30
0.0
 10
14.2075246779
 20
15.6114469495
 30
0.0
 10
14.2046427058
 20
15.6162341516
 30
0.0
 10
14.2020117484
 20
15.6210585348
 30
0.0
 10
14.1988654922
 20
15.6274562974
 30
0.0
 10
14.1961671683
 20
15.6339212101
 30
0.0
 10
14.193910705
 20
15.6404067874
 30
0.0
 10
14.1919843621
 20
15.6467356979
 30
0.0
 10
14.1904549199
 20
15.6530579815
 30
0.0
 10
14.1893119525
 20
15.6593434258
 30
0.0
 10
14.1884313575
 20
15.6654731294
 30
0.0
 10
14.1878978
 20
15.6715624997
 30
0.0
 10
14.1877031787
 20
15.6775900694
 30
0.0
 10
14.1877192848
 20
15.6820383689
 30
0.0
 10
14.1878931404
 20
15.6864423061
 30
0.0
 10
14.1882219252
 20
15.6908029107
 30
0.0
 10
14.188702761
 20
15.6951211769
 30
0.0
 10
14.1893324608
 20
15.6993984546
 30
0.0
 10
14.1901105102
 20
15.7036362516
 30
0.0
 10
14.1913464933
 20
15.7092364111
 30
0.0
 10
14.1932688743
 20
15.71616458
 30
0.0
 10
14.196181209
 20
15.7243403866
 30
0.0
 10
14.1985265681
 20
15.729658024
 30
0.0
 10
14.199801713
 20
15.7322863238
 30
0.0
 11
14.2255909132
 21
15.5889244422
 31
0.0
 11
14.221540483
 21
15.5931644788
 31
0.0
 11
14.2176901727
 21
15.5975712402
 31
0.0
 11
14.2140623121
 21
15.6021140385
 31
0.0
 11
14.2106777296
 21
15.6067627646
 31
0.0
 11
14.2075439117
 21
15.6114924516
 31
0.0
 11
14.2046613587
 21
15.6162808256
 31
0.0
 11
14.2020304994
 21
15.6211056484
 31
0.0
 11
14.1996494741
 21
15.6259474878
 31
0.0
 11
14.1956080817
 21
15.6356307325
 31
0.0
 11
14.1939322248
 21
15.6404477162
 31
0.0
 11
14.1924756957
 21
15.6452344761
 31
0.0
 11
14.1901865543
 21
15.6547005642
 31
0.0
 11
14.1893368079
 21
15.6593725654
 31
0.0
 11
14.188672506
 21
15.6639994488
 31
0.0
 11
14.1878748453
 21
15.6731161012
 31
0.0
 11
14.1877296906
 21
15.6776062968
 31
0.0
 11
14.1877460043
 21
15.6820514159
 31
0.0
 11
14.1879199342
 21
15.686452234
 31
0.0
 11
14.1882485548
 21
15.6908097814
 31
0.0
 11
14.1887289476
 21
15.69512509
 31
0.0
 11
14.1893583888
 21
15.6993992338
 31
0.0
 11
14.1901360699
 21
15.703633698
 31
0.0
 11
14.1910622719
 21
15.7078302017
 31
0.0
 11
14.193361501
 21
15.7161161732
 31
0.0
 11
14.1962664668
 21
15.7242671204
 31
0.0
 11
14.199801713
 21
15.7322863238
 31
0.0
  0
SPLINE
  5
418
100
AcDbEntity
  8
0
100
AcDbSpline
 62
9
  6
CONTINUOUS
 70
0
 71
3
 72
30
 73
26
 74
24
 42
0.0000001
 43
0.0000001
 44
0.0000000001
 12
-0.1397110584
 22
-0.0678328188
 32
0.0
 13
-0.1098612082
 23
0.1097769834
 33
0.0
 40
0.0
 40
0.0
 40
0.0
 40
0.0
 40
0.0564288065
 40
0.1121420184
 40
0.1398515764
 40
0.1675196754
 40
0.1951916738
 40
0.222913301
 40
0.2507303402
 40
0.278687514
 40
0.3351750549
 40
0.4515628897
 40
0.481656497
 40
0.5122286503
 40
0.5749375448
 40
0.639966661
 40
0.707525773
 40
0.7422630503
 40
0.7776369256
 40
0.8136175667
 40
0.8501429403
 40
0.8871556459
 40
0.9245762887
 40
0.9622478444
 40
1.0
 40
1.0
 40
1.0
 40
1.0
 10
14.3689407754
 20
15.5631300543
 30
0.0
 10
14.366312866
 20
15.5618541459
 30
0.0
 10
14.3609955713
 20
15.5595087283
 30
0.0
 10
14.3541685772
 20
15.5570786613
 30
0.0
 10
14.3486536437
 20
15.5554439745
 30
0.0
 10
14.3444899672
 20
15.554368404
 30
0.0
 10
14.340290044
 20
15.5534417193
 30
0.0
 10
14.3360521875
 20
15.5526637872
 30
0.0
 10
14.3317747913
 20
15.5520347321
 30
0.0
 10
14.3259974708
 20
15.5513920641
 30
0.0
 10
14.3156107214
 20
15.5507974998
 30
0.0
 10
14.3050707306
 20
15.5513426102
 30
0.0
 10
14.2959974557
 20
15.5526475663
 30
0.0
 10
14.2897123316
 20
15.5537920549
 30
0.0
 10
14.2817379754
 20
15.5557210129
 30
0.0
 10
14.2721173054
 20
15.5588620303
 30
0.0
 10
14.2641140719
 20
15.5622035283
 30
0.0
 10
14.2577170348
 20
15.5653495627
 30
0.0
 10
14.252893683
 20
15.5679800697
 30
0.0
 10
14.24810781
 20
15.5708619047
 30
0.0
 10
14.2433799658
 20
15.5739945358
 30
0.0
 10
14.2387343056
 20
15.5773762596
 30
0.0
 10
14.2341984958
 20
15.5809998809
 30
0.0
 10
14.2297981433
 20
15.5848450316
 30
0.0
 10
14.2269734124
 20
15.5875430029
 30
0.0
 10
14.2255909132
 20
15.5889244422
 30
0.0
 11
14.3689407754
 21
15.5631300543
 31
0.0
 11
14.3609218809
 21
15.5595942403
 31
0.0
 11
14.3527707635
 21
15.5566910848
 31
0.0
 11
14.348644773
 21
15.5554678216
 31
0.0
 11
14.3444842269
 21
15.5543932759
 31
0.0
 11
14.3402875027
 21
15.553467261
 31
0.0
 11
14.3360529011
 21
15.5526897931
 31
0.0
 11
14.3317787225
 21
15.5520608885
 31
0.0
 11
14.3274633625
 21
15.5515809779
 31
0.0
 11
14.3187047847
 21
15.5510790487
 31
0.0
 11
14.3006527269
 21
15.5520075967
 31
0.0
 11
14.2960264954
 21
15.5526724941
 31
0.0
 11
14.2913552144
 21
15.5535230765
 31
0.0
 11
14.2818890207
 21
15.5558127598
 31
0.0
 11
14.27228759
 21
15.5589453048
 31
0.0
 11
14.2626050496
 21
15.562987566
 31
0.0
 11
14.2577638678
 21
15.5653684505
 31
0.0
 11
14.2529405762
 21
15.5679986731
 31
0.0
 11
14.2481532896
 21
15.5708811037
 31
0.0
 11
14.2434246043
 21
15.5740145884
 31
0.0
 11
14.2387772986
 21
15.5773978054
 31
0.0
 11
14.2342359766
 21
15.581024429
 31
0.0
 11
14.2298303261
 21
15.5848741974
 31
0.0
 11
14.2255909132
 21
15.5889244422
 31
0.0
  0
SPLINE
  5
419
100
AcDbEntity
  8
0
100
AcDbSpline
 62
9
  6
CONTINUOUS
 70
0
 71
3
 72
32
 73
28
 74
26
 42
0.0000001
 43
0.0000001
 44
0.0000000001
 12
0.1640896783
 22
-0.1640896783
 32
0.0
 13
-0.1559600685
 23
-0.1718351016
 33
0.0
 40
0.0
 40
0.0
 40
0.0
 40
0.0
 40
0.0818117307
 40
0.1630296957
 40
0.2430688745
 40
0.3213518652
 40
0.3973302608
 40
0.470530537
 40
0.5059550925
 40
0.5405236048
 40
0.5741868524
 40
0.6068989976
 40
0.6386198621
 40
0.6693253591
 40
0.699000956
 40
0.7276367304
 40
0.7552284724
 40
0.7817790629
 40
0.8073001335
 40
0.8318140505
 40
0.8779595804
 40
0.8997607166
 40
0.9208224868
 40
0.9412505343
 40
0.9611647224
 40
0.9806989468
 40
1.0
 40
1.0
 40
1.0
 40
1.0
 10
13.9987350574
 20
15.3620685864
 30
0.0
 10
14.0032098776
 20
15.3575937662
 30
0.0
 10
14.0119239065
 20
15.348470821
 30
0.0
 10
14.0242825687
 20
15.3342928727
 30
0.0
 10
14.0358026484
 20
15.3197715478
 30
0.0
 10
14.0463739806
 20
15.3050408922
 30
0.0
 10
14.0558868638
 20
15.2902301059
 30
0.0
 10
14.062943765
 20
15.2778065027
 30
0.0
 10
14.0679809763
 20
15.2679401477
 30
0.0
 10
14.0714052057
 20
15.2606884872
 30
0.0
 10
14.0745080311
 20
15.2535215991
 30
0.0
 10
14.0772806565
 20
15.2464565441
 30
0.0
 10
14.0797139098
 20
15.2395093393
 30
0.0
 10
14.0818033922
 20
15.23269628
 30
0.0
 10
14.0835466269
 20
15.2260327109
 30
0.0
 10
14.0849409605
 20
15.2195334234
 30
0.0
 10
14.0859837797
 20
15.2132131106
 30
0.0
 10
14.0866724672
 20
15.2070867029
 30
0.0
 10
14.0870041407
 20
15.2011680637
 30
0.0
 10
14.0869680659
 20
15.193725541
 30
0.0
 10
14.0862307436
 20
15.1865816209
 30
0.0
 10
14.0847208316
 20
15.1798576703
 30
0.0
 10
14.0832553728
 20
15.1751799907
 30
0.0
 10
14.0814392473
 20
15.1707841693
 30
0.0
 10
14.0792759173
 20
15.1666807052
 30
0.0
 10
14.0767695912
 20
15.1628813129
 30
0.0
 10
14.0748653844
 20
15.1605498094
 30
0.0
 10
14.0738619866
 20
15.1594442766
 30
0.0
 11
13.9987350574
 21
15.3620685864
 31
0.0
 11
14.0118486432
 21
15.3483402889
 31
0.0
 11
14.0242299387
 21
15.3341303287
 31
0.0
 11
14.0357667774
 21
15.3195740788
 31
0.0
 11
14.046346993
 21
15.3048069118
 31
0.0
 11
14.0558639541
 21
15.2899646371
 31
0.0
 11
14.0642373956
 21
15.2751851443
 31
0.0
 11
14.0679726639
 21
15.2678622249
 31
0.0
 11
14.0713948936
 21
15.2606069415
 31
0.0
 11
14.0744950318
 21
15.2534366077
 31
0.0
 11
14.0772640258
 21
15.2463685369
 31
0.0
 11
14.0796933082
 21
15.2394198665
 31
0.0
 11
14.0817782983
 21
15.2326062862
 31
0.0
 11
14.0835163708
 21
15.225942776
 31
0.0
 11
14.0849049137
 21
15.2194443108
 31
0.0
 11
14.0859413149
 21
15.2131258657
 31
0.0
 11
14.0866229626
 21
15.2070024156
 31
0.0
 11
14.0869472448
 21
15.2010889357
 31
0.0
 11
14.0869115495
 21
15.1954004009
 31
0.0
 11
14.0857548926
 21
15.1847546191
 31
0.0
 11
14.0846396439
 21
15.1798199496
 31
0.0
 11
14.0831720333
 21
15.1751579483
 31
0.0
 11
14.0813562616
 21
15.170778998
 31
0.0
 11
14.0791965294
 21
15.1666934809
 31
0.0
 11
14.0766970375
 21
15.1629117796
 31
0.0
 11
14.0738619866
 21
15.1594442766
 31
0.0
  0
SPLINE
  5
41A
100
AcDbEntity
  8
0
100
AcDbSpline
 62
9
  6
CONTINUOUS
 70
0
 71
3
 72
34
 73
30
 74
28
 42
0.0000001
 43
0.0000001
 44
0.0000000001
 12
0.087483382
 22
0.1714758674
 32
0.0
 13
0.1735830907
 23
-0.0832239499
 33
0.0
 40
0.0
 40
0.0
 40
0.0
 40
0.0
 40
0.0252297226
 40
0.051437129
 40
0.078551812
 40
0.1065117421
 40
0.1352405647
 40
0.1646521014
 40
0.1946676231
 40
0.2252080599
 40
0.2875081483
 40
0.3191347461
 40
0.3509951428
 40
0.3830383683
 40
0.4152174129
 40
0.4475014314
 40
0.4798670014
 40
0.5122909756
 40
0.5447546125
 40
0.5772489687
 40
0.6097661769
 40
0.6422983916
 40
0.6748399335
 40
0.707387232
 40
0.7399364163
 40
0.805008902
 40
0.870074479
 40
0.9351210778
 40
1.0
 40
1.0
 40
1.0
 40
1.0
 10
14.1998039586
 20
15.7322872539
 30
0.0
 10
14.2005396858
 20
15.7337293501
 30
0.0
 10
14.2021011771
 20
15.7366384756
 30
0.0
 10
14.2046697147
 20
15.7409770974
 30
0.0
 10
14.2075191273
 20
15.7453476782
 30
0.0
 10
14.210656631
 20
15.7497172442
 30
0.0
 10
14.2140820385
 20
15.7540545376
 30
0.0
 10
14.2177908002
 20
15.7583285166
 30
0.0
 10
14.2217791555
 20
15.7625056066
 30
0.0
 10
14.2274936396
 20
15.7679395497
 30
0.0
 10
14.2336771967
 20
15.7730185534
 30
0.0
 10
14.2402781186
 20
15.7776679012
 30
0.0
 10
14.2454595096
 20
15.7809483957
 30
0.0
 10
14.2508269614
 20
15.7839870087
 30
0.0
 10
14.2563634199
 20
15.7867668533
 30
0.0
 10
14.26204994
 20
15.7892767518
 30
0.0
 10
14.2678681186
 20
15.7915084528
 30
0.0
 10
14.2738004945
 20
15.7934533813
 30
0.0
 10
14.2798300607
 20
15.7951036445
 30
0.0
 10
14.2859395091
 20
15.7964557388
 30
0.0
 10
14.2921124363
 20
15.7975062592
 30
0.0
 10
14.2983326716
 20
15.798251581
 30
0.0
 10
14.3045839688
 20
15.7986893643
 30
0.0
 10
14.3108504381
 20
15.798819765
 30
0.0
 10
14.3192025026
 20
15.7985839014
 30
0.0
 10
14.3296056258
 20
15.7975186572
 30
0.0
 10
14.3418994348
 20
15.7950228086
 30
0.0
 10
14.3538748325
 20
15.7913311991
 30
0.0
 10
14.3615772716
 20
15.788099327
 30
0.0
 10
14.3653312329
 20
15.7862995003
 30
0.0
 11
14.1998039586
 21
15.7322872539
 31
0.0
 11
14.2021004719
 21
15.7365667924
 31
0.0
 11
14.204670411
 21
15.7409081539
 31
0.0
 11
14.2075213073
 21
15.7452804705
 31
0.0
 11
14.2106601841
 21
15.7496528033
 31
0.0
 11
14.214087337
 21
15.7539932758
 31
0.0
 11
14.2177982959
 21
15.7582693474
 31
0.0
 11
14.2217883573
 21
15.7624485236
 31
0.0
 11
14.2260481951
 21
15.7665004142
 31
0.0
 11
14.2353166304
 21
15.7741113736
 31
0.0
 11
14.2402935989
 21
15.7776179468
 31
0.0
 11
14.2454753996
 21
15.7808989926
 31
0.0
 11
14.2508434523
 21
15.7839376251
 31
0.0
 11
14.2563792242
 21
15.7867175067
 31
0.0
 11
14.2620646272
 21
15.7892273814
 31
0.0
 11
14.2678818135
 21
15.7914587481
 31
0.0
 11
14.2738129382
 21
15.7934031342
 31
0.0
 11
14.2798404937
 21
15.7950532326
 31
0.0
 11
14.2859479306
 21
15.7964050501
 31
0.0
 11
14.2921188689
 21
15.7974551788
 31
0.0
 11
14.2983369325
 21
15.7982002352
 31
0.0
 11
14.3045859472
 21
15.798638107
 31
0.0
 11
14.3108500344
 21
15.7987685421
 31
0.0
 11
14.3171133389
 21
15.7985914369
 31
0.0
 11
14.3295748309
 21
15.7973155974
 31
0.0
 11
14.3418495323
 21
15.7948226202
 31
0.0
 11
14.3538157141
 21
15.7911345019
 31
0.0
 11
14.3653312329
 21
15.7862995003
 31
0.0
  0
SPLINE
  5
41B
100
AcDbEntity
  8
0
100
AcDbSpline
 62
9
  6
CONTINUOUS
 70
0
 71
3
 72
23
 73
19
 74
17
 42
0.0000001
 43
0.0000001
 44
0.0000000001
 12
-0.238917366
 22
-0.0945603105
 32
0.0
 13
-0.190276313
 23
-0.1726791383
 33
0.0
 40
0.0
 40
0.0
 40
0.0
 40
0.0
 40
0.0627390089
 40
0.1255662041
 40
0.1570042671
 40
0.1884536443
 40
0.2513705104
 40
0.3142888859
 40
0.3771859306
 40
0.4400396113
 40
0.5028245899
 40
0.5655184172
 40
0.628099395
 40
0.690539908
 40
0.7528159856
 40
0.8149101307
 40
0.876809976
 40
1.0
 40
1.0
 40
1.0
 40
1.0
 10
14.1998039586
 20
15.7322872539
 30
0.0
 10
14.1948074791
 20
15.7303097138
 30
0.0
 10
14.1848379383
 20
15.7262744998
 30
0.0
 10
14.1724495825
 20
15.721042404
 30
0.0
 10
14.1625770174
 20
15.7167444759
 30
0.0
 10
14.152728532
 20
15.7123727124
 30
0.0
 10
14.1404773463
 20
15.7067688159
 30
0.0
 10
14.125891592
 20
15.6997983864
 30
0.0
 10
14.1114433605
 20
15.6925588278
 30
0.0
 10
14.0971543937
 20
15.6850340389
 30
0.0
 10
14.0830415665
 20
15.6772195584
 30
0.0
 10
14.0691234933
 20
15.6691093349
 30
0.0
 10
14.0554195597
 20
15.6606983152
 30
0.0
 10
14.0419533857
 20
15.6519769246
 30
0.0
 10
14.028749811
 20
15.642936307
 30
0.0
 10
14.0158332047
 20
15.6335678983
 30
0.0
 10
13.9990589723
 20
15.6206481212
 30
0.0
 10
13.9869460417
 20
15.6103981196
 30
0.0
 10
13.9791326605
 20
15.6033073372
 30
0.0
 11
14.1998039586
 21
15.7322872539
 31
0.0
 11
14.1848603664
 21
15.7262400805
 31
0.0
 11
14.1699884565
 21
15.7199602205
 31
0.0
 11
14.1625817938
 21
15.7167360217
 31
0.0
 11
14.1551960503
 21
15.7134570158
 31
0.0
 11
14.1404966234
 21
15.7067278523
 31
0.0
 11
14.125912064
 21
15.6997523265
 31
0.0
 11
14.1114649103
 21
15.6925087157
 31
0.0
 11
14.0971760237
 21
15.6849815758
 31
0.0
 11
14.0830638559
 21
15.6771644823
 31
0.0
 11
14.0691466722
 21
15.6690517094
 31
0.0
 11
14.05544397
 21
15.6606369809
 31
0.0
 11
14.04197965
 21
15.6519120539
 31
0.0
 11
14.0287785964
 21
15.6428682464
 31
0.0
 11
14.0158658189
 21
15.6334967714
 31
0.0
 11
14.003268256
 21
15.6237872325
 31
0.0
 11
13.9791326605
 21
15.6033073372
 31
0.0
  0
SPLINE
  5
41C
100
AcDbEntity
  8
0
100
AcDbSpline
 62
9
  6
CONTINUOUS
 70
0
 71
3
 72
42
 73
38
 74
36
 42
0.0000001
 43
0.0000001
 44
0.0000000001
 12
-0.6424370837
 22
0.1276703645
 32
0.0
 13
0.0813568488
 23
-0.6499278357
 33
0.0
 40
0.0
 40
0.0
 40
0.0
 40
0.0
 40
0.0678570147
 40
0.1023358235
 40
0.1370460782
 40
0.171892047
 40
0.2067823631
 40
0.2416297261
 40
0.2763495909
 40
0.3108614026
 40
0.3450903917
 40
0.3620781391
 40
0.3789705493
 40
0.4124371556
 40
0.4454354837
 40
0.477918537
 40
0.50985089
 40
0.5412072012
 40
0.5719739808
 40
0.6021536877
 40
0.6317606007
 40
0.6608259791
 40
0.6894001655
 40
0.7175540499
 40
0.7453791827
 40
0.7729743557
 40
0.7867238874
 40
0.8004594213
 40
0.814196664
 40
0.8279520094
 40
0.84174264
 40
0.855586436
 40
0.883489099
 40
0.9117822029
 40
0.9405732094
 40
0.9699531486
 40
1.0
 40
1.0
 40
1.0
 40
1.0
 10
14.4433382715
 20
15.8066718005
 30
0.0
 10
14.428806984
 20
15.8095595771
 30
0.0
 10
14.4068088027
 20
15.8135156345
 30
0.0
 10
14.3772024772
 20
15.8178624122
 30
0.0
 10
14.354655087
 20
15.8206307851
 30
0.0
 10
14.331954436
 20
15.822829691
 30
0.0
 10
14.3091705387
 20
15.8243903449
 30
0.0
 10
14.2863781272
 20
15.8252834884
 30
0.0
 10
14.2636513708
 20
15.8254838261
 30
0.0
 10
14.2410645849
 20
15.8249566365
 30
0.0
 10
14.2223740898
 20
15.8238731408
 30
0.0
 10
14.2075579758
 20
15.8225926259
 30
0.0
 10
14.1929354745
 20
15.8210386802
 30
0.0
 10
14.1748984587
 20
15.8185687269
 30
0.0
 10
14.1536332774
 20
15.8147202993
 30
0.0
 10
14.1328929275
 20
15.8099728128
 30
0.0
 10
14.1127572037
 20
15.8043007125
 30
0.0
 10
14.0933064741
 20
15.7976821907
 30
0.0
 10
14.0746221374
 20
15.7900982019
 30
0.0
 10
14.0567888709
 20
15.7815308349
 30
0.0
 10
14.0398852774
 20
15.7719813011
 30
0.0
 10
14.0239920571
 20
15.7614497279
 30
0.0
 10
14.0091896878
 20
15.7499401015
 30
0.0
 10
13.9955579247
 20
15.737459543
 30
0.0
 10
13.9831821542
 20
15.7240203431
 30
0.0
 10
13.9739598735
 20
15.712032963
 30
0.0
 10
13.9672957769
 20
15.7020181513
 30
0.0
 10
13.9626602391
 20
15.694299574
 30
0.0
 10
13.9583899366
 20
15.6863717662
 30
0.0
 10
13.9544926474
 20
15.678240691
 30
0.0
 10
13.9509761539
 20
15.6699123133
 30
0.0
 10
13.9467961455
 20
15.6585259005
 30
0.0
 10
13.9425610664
 20
15.6438060547
 30
0.0
 10
13.9391217476
 20
15.6255455165
 30
0.0
 10
13.937351703
 20
15.6067239869
 30
0.0
 10
13.9372732372
 20
15.5874392538
 30
0.0
 10
13.9383527217
 20
15.5744906627
 30
0.0
 10
13.9391675607
 20
15.5679812343
 30
0.0
 11
14.4433382715
 21
15.8066718005
 31
0.0
 11
14.3995856016
 21
15.814493694
 31
0.0
 11
14.3772405026
 21
15.8177673134
 31
0.0
 11
14.354673874
 21
15.8205309182
 31
0.0
 11
14.3319551763
 21
15.8227220156
 31
0.0
 11
14.3091551676
 21
15.8242797527
 31
0.0
 11
14.2863474673
 21
15.8251689275
 31
0.0
 11
14.2636067719
 21
15.8253619864
 31
0.0
 11
14.2410079228
 21
15.8248244964
 31
0.0
 11
14.2186262493
 21
15.823514268
 31
0.0
 11
14.2075407486
 21
15.8225544381
 31
0.0
 11
14.1965383034
 21
15.8213839548
 31
0.0
 11
14.1748218882
 21
15.8183987666
 31
0.0
 11
14.1535558429
 21
15.8145365984
 31
0.0
 11
14.1328192962
 21
15.8097741453
 31
0.0
 11
14.1126916192
 21
15.8040870644
 31
0.0
 11
14.093253822
 21
15.7974540129
 31
0.0
 11
14.0745885355
 21
15.7898566444
 31
0.0
 11
14.056778017
 21
15.7812806414
 31
0.0
 11
14.0399029661
 21
15.7717253857
 31
0.0
 11
14.0240437165
 21
15.7611933862
 31
0.0
 11
14.0092800104
 21
15.7496901177
 31
0.0
 11
13.9956909787
 21
15.7372241154
 31
0.0
 11
13.9833542078
 21
15.7238087642
 31
0.0
 11
13.972341126
 21
15.7094765659
 31
0.0
 11
13.9673528012
 21
15.7019783226
 31
0.0
 11
13.9627213771
 21
15.6942652239
 31
0.0
 11
13.9584547808
 21
15.6863432118
 31
0.0
 11
13.954560843
 21
15.6782183801
 31
0.0
 11
13.9510473943
 21
15.6698968227
 31
0.0
 11
13.9479222245
 21
15.6613846976
 31
0.0
 11
13.9428617366
 21
15.6438230158
 31
0.0
 11
13.9394223242
 21
15.6256129927
 31
0.0
 11
13.937642798
 21
15.6068390299
 31
0.0
 11
13.9375505977
 21
15.5875953877
 31
0.0
 11
13.9391675607
 21
15.5679812343
 31
0.0
  0
SPLINE
  5
41D
100
AcDbEntity
  8
0
100
AcDbSpline
 62
9
  6
CONTINUOUS
 70
0
 71
3
 72
12
 73
8
 74
6
 42
0.0000001
 43
0.0000001
 44
0.0000000001
 12
-0.0780822731
 22
-0.0200849634
 32
0.0
 13
-0.0777858045
 23
-0.0212041448
 33
0.0
 40
0.0
 40
0.0
 40
0.0
 40
0.0
 40
0.2456138295
 40
0.4318610412
 40
0.6197439247
 40
0.8091584071
 40
1.0
 40
1.0
 40
1.0
 40
1.0
 10
14.4433382715
 20
15.8066718005
 30
0.0
 10
14.4369455762
 20
15.8050274189
 30
0.0
 10
14.4257027844
 20
15.8021460833
 30
0.0
 10
14.4095725106
 20
15.7979966438
 30
0.0
 10
14.3949132095
 20
15.7941914439
 30
0.0
 10
14.3801490554
 20
15.7902991579
 30
0.0
 10
14.3702794885
 20
15.7876483778
 30
0.0
 10
14.3653312329
 20
15.7862995003
 30
0.0
 11
14.4433382715
 21
15.8066718005
 31
0.0
 11
14.4241581151
 21
15.8017467115
 31
0.0
 11
14.4096164407
 21
15.7980023243
 31
0.0
 11
14.3949554645
 21
15.7941925532
 31
0.0
 11
14.3801891436
 21
15.7902976034
 31
0.0
 11
14.3653312329
 21
15.7862995003
 31
0.0
  0
SPLINE
  5
41E
100
AcDbEntity
  8
0
100
AcDbSpline
 62
9
  6
CONTINUOUS
 70
0
 71
3
 72
31
 73
27
 74
25
 42
0.0000001
 43
0.0000001
 44
0.0000000001
 12
0.0831990666
 22
-0.1736085348
 32
0.0
 13
-0.1714926121
 23
-0.08747738
 33
0.0
 40
0.0
 40
0.0
 40
0.0
 40
0.0
 40
0.0648897444
 40
0.1299705121
 40
0.1950738737
 40
0.260171321
 40
0.2927310018
 40
0.3252903051
 40
0.3578444361
 40
0.3903883686
 40
0.4229175753
 40
0.4554255812
 40
0.5203082947
 40
0.5526762381
 40
0.5849656789
 40
0.6171449914
 40
0.6491796693
 40
0.7126348448
 40
0.7439604045
 40
0.7749245424
 40
0.8054519686
 40
0.8354572416
 40
0.8935453364
 40
0.9214888688
 40
0.9485891656
 40
1.0
 40
1.0
 40
1.0
 40
1.0
 10
14.4229639105
 20
15.7286701677
 30
0.0
 10
14.4247634992
 20
15.7249150299
 30
0.0
 10
14.4279958347
 20
15.7172091696
 30
0.0
 10
14.4316910174
 20
15.7052284908
 30
0.0
 10
14.4341878748
 20
15.6929276121
 30
0.0
 10
14.4352517833
 20
15.6825189489
 30
0.0
 10
14.4354864668
 20
15.6741632653
 30
0.0
 10
14.4353540711
 20
15.6678941785
 30
0.0
 10
14.4349143854
 20
15.6616402862
 30
0.0
 10
14.4341683637
 20
15.6554174497
 30
0.0
 10
14.4331166664
 20
15.6492416838
 30
0.0
 10
14.4313112974
 20
15.6410997405
 30
0.0
 10
14.4289089922
 20
15.6331100041
 30
0.0
 10
14.4259294844
 20
15.6253467312
 30
0.0
 10
14.4234159442
 20
15.6196606687
 30
0.0
 10
14.4206341901
 20
15.6141248724
 30
0.0
 10
14.4165975317
 20
15.6069926855
 30
0.0
 10
14.4120646323
 20
15.6002149369
 30
0.0
 10
14.4070956219
 20
15.5938540489
 30
0.0
 10
14.403200926
 20
15.5893442878
 30
0.0
 10
14.3991504411
 20
15.5850903675
 30
0.0
 10
14.3936428008
 20
15.5798326595
 30
0.0
 10
14.3878973236
 20
15.5750757609
 30
0.0
 10
14.381997784
 20
15.5708413467
 30
0.0
 10
14.3762733804
 20
15.5671101589
 30
0.0
 10
14.3718794945
 20
15.5646292477
 30
0.0
 10
14.3689406351
 20
15.5631301527
 30
0.0
 11
14.4229639105
 21
15.7286701677
 31
0.0
 11
14.4277990568
 21
15.7171515924
 31
0.0
 11
14.4314902879
 21
15.705178657
 31
0.0
 11
14.4339845165
 21
15.6928959779
 31
0.0
 11
14.4352590297
 21
15.6804287224
 31
0.0
 11
14.4354350594
 21
15.6741629691
 31
0.0
 11
14.4353028307
 21
15.6678962112
 31
0.0
 11
14.4348632345
 21
15.6616444904
 31
0.0
 11
14.4341172085
 21
15.6554238716
 31
0.0
 11
14.4330657027
 21
15.6492504226
 31
0.0
 11
14.4317110716
 21
15.6431405118
 31
0.0
 11
14.4281127922
 21
15.6311791246
 31
0.0
 11
14.4258797837
 21
15.6253616563
 31
0.0
 11
14.423366688
 21
15.6196761048
 31
0.0
 11
14.4205849866
 21
15.6141407504
 31
0.0
 11
14.4175466473
 21
15.6087739739
 31
0.0
 11
14.4107559209
 21
15.5986192504
 31
0.0
 11
14.4070428322
 21
15.593867243
 31
0.0
 11
14.4031466122
 21
15.5893557352
 31
0.0
 11
14.3990940484
 21
15.585099482
 31
0.0
 11
14.3949151902
 21
15.581111415
 31
0.0
 11
14.3863014625
 21
15.5739798434
 31
0.0
 11
14.3819307492
 21
15.5708435396
 31
0.0
 11
14.3775601302
 21
15.5679945056
 31
0.0
 11
14.3689406351
 21
15.5631301527
 31
0.0
  0
SPLINE
  5
41F
100
AcDbEntity
  8
0
100
AcDbSpline
 62
9
  6
CONTINUOUS
 70
0
 71
3
 72
9
 73
5
 74
3
 42
0.0000001
 43
0.0000001
 44
0.0000000001
 12
0.0212025766
 22
0.0777811335
 32
0.0
 13
0.0200824627
 23
0.0780778373
 33
0.0
 40
0.0
 40
0.0
 40
0.0
 40
0.0
 40
0.5056830795
 40
1.0
 40
1.0
 40
1.0
 40
1.0
 10
14.4229639105
 20
15.7286701677
 30
0.0
 10
14.4265378386
 20
15.7417810354
 30
0.0
 10
14.4333784194
 20
15.7677698018
 30
0.0
 10
14.4400292378
 20
15.7938067351
 30
0.0
 10
14.4433382715
 20
15.8066718005
 30
0.0
 11
14.4229639105
 21
15.7286701677
 31
0.0
 11
14.4334076454
 21
15.7680775113
 31
0.0
 11
14.4433382715
 21
15.8066718005
 31
0.0
  0
SPLINE
  5
420
100
AcDbEntity
  8
0
100
AcDbSpline
 62
9
  6
CONTINUOUS
 70
0
 71
3
 72
40
 73
36
 74
34
 42
0.0000001
 43
0.0000001
 44
0.0000000001
 12
0.650120394
 22
-0.0821832732
 32
0.0
 13
-0.1277277106
 23
0.6427256406
 33
0.0
 40
0.0
 40
0.0
 40
0.0
 40
0.0
 40
0.0300447279
 40
0.0594258481
 40
0.0882180109
 40
0.116512866
 40
0.1444184613
 40
0.1720506176
 40
0.1995414495
 40
0.2132781816
 40
0.2270274837
 40
0.2546202541
 40
0.2824432806
 40
0.3105975649
 40
0.339171749
 40
0.3682339457
 40
0.3978361247
 40
0.4280120779
 40
0.4587771932
 40
0.4901324008
 40
0.5220628992
 40
0.5545441794
 40
0.5875416599
 40
0.6210081804
 40
0.6379006829
 40
0.6548886206
 40
0.6891184037
 40
0.72363152
 40
0.7583531094
 40
0.7932025651
 40
0.8280952376
 40
0.8629437399
 40
0.8976566308
 40
0.9321380874
 40
1.0
 40
1.0
 40
1.0
 40
1.0
 10
14.2043453841
 20
15.3025387602
 30
0.0
 10
14.2108562809
 20
15.3017157022
 30
0.0
 10
14.2238090003
 20
15.3006190596
 30
0.0
 10
14.2431025775
 20
15.3006705787
 30
0.0
 10
14.2619356723
 20
15.3024162074
 30
0.0
 10
14.2802108375
 20
15.3058331194
 30
0.0
 10
14.297841981
 20
15.3108801981
 30
0.0
 10
14.3147479746
 20
15.3175195889
 30
0.0
 10
14.3281850756
 20
15.3243320433
 30
0.0
 10
14.3384906815
 20
15.3305039295
 30
0.0
 10
14.34851715
 20
15.3371600865
 30
0.0
 10
14.3605177572
 20
15.3463745786
 30
0.0
 10
14.3739730205
 20
15.3587436502
 30
0.0
 10
14.3864735812
 20
15.3723676834
 30
0.0
 10
14.398004368
 20
15.3871636165
 30
0.0
 10
14.4085516032
 20
15.4030548628
 30
0.0
 10
14.4181119915
 20
15.4199594976
 30
0.0
 10
14.4266894932
 20
15.4377952398
 30
0.0
 10
14.4342875545
 20
15.4564820201
 30
0.0
 10
14.4409212151
 20
15.4759363238
 30
0.0
 10
14.446603936
 20
15.4960778412
 30
0.0
 10
14.451357881
 20
15.5168255405
 30
0.0
 10
14.455213145
 20
15.5380987178
 30
0.0
 10
14.4576897344
 20
15.5561428956
 30
0.0
 10
14.4592479484
 20
15.5707716346
 30
0.0
 10
14.460531934
 20
15.5855943925
 30
0.0
 10
14.4616188999
 20
15.6042936154
 30
0.0
 10
14.4621498525
 20
15.6268913021
 30
0.0
 10
14.4619521266
 20
15.6496294205
 30
0.0
 10
14.4610605299
 20
15.6724334951
 30
0.0
 10
14.4595013263
 20
15.6952293066
 30
0.0
 10
14.4573024245
 20
15.7179419084
 30
0.0
 10
14.4545337002
 20
15.7405012568
 30
0.0
 10
14.4501854554
 20
15.7701232038
 30
0.0
 10
14.4462275538
 20
15.7921329368
 30
0.0
 10
14.4433382715
 20
15.8066718005
 30
0.0
 11
14.2043453841
 21
15.3025387602
 31
0.0
 11
14.2239648683
 21
15.3008960023
 31
0.0
 11
14.2432180363
 21
15.3009618338
 31
0.0
 11
14.2620035711
 21
15.3027168852
 31
0.0
 11
14.2802274838
 21
15.3061337023
 31
0.0
 11
14.2978055853
 21
15.3111737373
 31
0.0
 11
14.3146593005
 21
15.3177936146
 31
0.0
 11
14.3307281611
 21
15.32593714
 31
0.0
 11
14.3384511508
 21
15.3305614532
 31
0.0
 11
14.3459580909
 21
15.3355437271
 31
0.0
 11
14.3603060551
 21
15.346547018
 31
0.0
 11
14.373737691
 21
15.3588761238
 31
0.0
 11
14.3862237121
 21
15.3724583731
 31
0.0
 11
14.3977474626
 21
15.387216763
 31
0.0
 11
14.4082950081
 21
15.403073444
 31
0.0
 11
14.4178614464
 21
15.4199486051
 31
0.0
 11
14.4264482296
 21
15.437761055
 31
0.0
 11
14.4340593423
 21
15.4564293387
 31
0.0
 11
14.4407067434
 21
15.4758712186
 31
0.0
 11
14.4464044942
 21
15.4960043783
 31
0.0
 11
14.4511741366
 21
15.5167478863
 31
0.0
 11
14.4550432875
 21
15.5380219652
 31
0.0
 11
14.4580359597
 21
15.5597472325
 31
0.0
 11
14.4592096456
 21
15.5707543952
 31
0.0
 11
14.460172117
 21
15.5818448087
 31
0.0
 11
14.4614866725
 21
15.6042368371
 31
0.0
 11
14.4620278101
 21
15.6268466107
 31
0.0
 11
14.4618373869
 21
15.6495986734
 31
0.0
 11
14.4609499252
 21
15.6724180725
 31
0.0
 11
14.4593934149
 21
15.6952300014
 31
0.0
 11
14.4572025019
 21
15.7179606839
 31
0.0
 11
14.4544384732
 21
15.7405392891
 31
0.0
 11
14.4511637792
 21
15.7628962362
 31
0.0
 11
14.4433382715
 21
15.8066718005
 31
0.0
  0
SPLINE
  5
421
100
AcDbEntity
  8
0
100
AcDbSpline
 62
9
  6
CONTINUOUS
 70
0
 71
3
 72
61
 73
57
 74
55
 42
0.0000001
 43
0.0000001
 44
0.0000000001
 12
0.3164550091
 22
-0.3164523558
 32
0.0
 13
-0.3164511167
 23
0.3164562481
 33
0.0
 40
0.0
 40
0.0
 40
0.0
 40
0.0
 40
0.0410965536
 40
0.081889397
 40
0.1020802101
 40
0.1220842125
 40
0.1418633619
 40
0.1613810327
 40
0.199492974
 40
0.2361693899
 40
0.2539031895
 40
0.2711987201
 40
0.2880305065
 40
0.3043745814
 40
0.3355160088
 40
0.3503010967
 40
0.3645553034
 40
0.3782783037
 40
0.3914722308
 40
0.4041436302
 40
0.4163052656
 40
0.4391859254
 40
0.4500014539
 40
0.4604603663
 40
0.4706199584
 40
0.4805445896
 40
0.490306411
 40
0.4951524757
 40
0.4999880829
 40
0.5096670221
 40
0.5194294682
 40
0.5293534671
 40
0.5395108991
 40
0.5499672265
 40
0.5607812989
 40
0.5720051739
 40
0.5836831411
 40
0.595846185
 40
0.6085155382
 40
0.6217056352
 40
0.6354252308
 40
0.6496782566
 40
0.6644648218
 40
0.6956142542
 40
0.7119581254
 40
0.7287877888
 40
0.7638120544
 40
0.8004935957
 40
0.8193882737
 40
0.8386104938
 40
0.8581287659
 40
0.8779095435
 40
0.8979152629
 40
0.9181073219
 40
0.958902425
 40
1.0
 40
1.0
 40
1.0
 40
1.0
 10
13.2359406724
 20
14.5992742014
 30
0.0
 10
13.2402757425
 20
14.5949391676
 30
0.0
 10
13.249116314
 20
14.5865011798
 30
0.0
 10
13.2606093767
 20
14.5765022792
 30
0.0
 10
13.2699990734
 20
14.5688982518
 30
0.0
 10
13.2770854714
 20
14.5634353049
 30
0.0
 10
13.2842233921
 20
14.5582079338
 30
0.0
 10
13.2937115264
 20
14.5516240623
 30
0.0
 10
13.3055777093
 20
14.5440537028
 30
0.0
 10
13.3176153562
 20
14.5372840345
 30
0.0
 10
13.3271693787
 20
14.5324698444
 30
0.0
 10
13.3341860265
 20
14.5292077593
 30
0.0
 10
13.3411170648
 20
14.5262624881
 30
0.0
 10
13.3500763293
 20
14.5228252677
 30
0.0
 10
13.3589342301
 20
14.5199863681
 30
0.0
 10
13.3676473981
 20
14.517812964
 30
0.0
 10
13.3739038826
 20
14.5165551703
 30
0.0
 10
13.3799803426
 20
14.5156431093
 30
0.0
 10
13.3858620354
 20
14.515079669
 30
0.0
 10
13.3915348644
 20
14.5148683027
 30
0.0
 10
13.3986531773
 20
14.5150563239
 30
0.0
 10
13.4054680469
 20
14.5159403621
 30
0.0
 10
13.4118536086
 20
14.5175832892
 30
0.0
 10
13.416283852
 20
14.519139364
 30
0.0
 10
13.4204330187
 20
14.5210383583
 30
0.0
 10
13.4242896051
 20
14.5232775232
 30
0.0
 10
13.4272577416
 20
14.5254305908
 30
0.0
 10
13.4294650117
 20
14.5273141928
 30
0.0
 10
13.4315605051
 20
14.5293034683
 30
0.0
 10
13.4339856958
 20
14.5320029293
 30
0.0
 10
13.4365626773
 20
14.5355547385
 30
0.0
 10
13.4388042282
 20
14.5394097654
 30
0.0
 10
13.4407062306
 20
14.5435566604
 30
0.0
 10
13.4422643868
 20
14.5479850664
 30
0.0
 10
13.4434741442
 20
14.5526849293
 30
0.0
 10
13.4443310563
 20
14.5576462681
 30
0.0
 10
13.4448304139
 20
14.5628578587
 30
0.0
 10
13.4449745147
 20
14.5683064388
 30
0.0
 10
13.4447654376
 20
14.5739781654
 30
0.0
 10
13.4442050316
 20
14.5798589023
 30
0.0
 10
13.4432951338
 20
14.5859344053
 30
0.0
 10
13.4420377808
 20
14.5921905359
 30
0.0
 10
13.4398629802
 20
14.6009046763
 30
0.0
 10
13.4370203025
 20
14.6097627289
 30
0.0
 10
13.4335848378
 20
14.6187235788
 30
0.0
 10
13.4296076101
 20
14.6280897443
 30
0.0
 10
13.4238304524
 20
14.6399774057
 30
0.0
 10
13.4172005254
 20
14.6517639715
 30
0.0
 10
13.4113339494
 20
14.6612568311
 30
0.0
 10
13.4066184666
 20
14.6684475297
 30
0.0
 10
13.401641073
 20
14.6756208433
 30
0.0
 10
13.3964130842
 20
14.6827589807
 30
0.0
 10
13.3909496229
 20
14.6898458605
 30
0.0
 10
13.383345165
 20
14.6992362051
 30
0.0
 10
13.3733458309
 20
14.7107297913
 30
0.0
 10
13.3649075084
 20
14.719570718
 30
0.0
 10
13.3605723839
 20
14.7239059128
 30
0.0
 11
13.2359406724
 21
14.5992742014
 31
0.0
 11
13.2492446156
 21
14.586574861
 31
0.0
 11
13.263020376
 21
14.5745950723
 31
0.0
 11
13.2700432285
 21
14.5689091362
 31
0.0
 11
13.2771342697
 21
14.5634443811
 31
0.0
 11
13.2842768059
 21
14.5582157138
 31
0.0
 11
13.2914539052
 21
14.5532371558
 31
0.0
 11
13.305841446
 21
14.544076484
 31
0.0
 11
13.3201573696
 21
14.5360471152
 31
0.0
 11
13.3272462462
 21
14.5324784655
 31
0.0
 11
13.334266556
 21
14.5292184291
 31
0.0
 11
13.3412008791
 21
14.5262759881
 31
0.0
 11
13.3480316876
 21
14.5236602329
 31
0.0
 11
13.3613144213
 21
14.5194407642
 31
0.0
 11
13.367735741
 21
14.5178442345
 31
0.0
 11
13.373990912
 21
14.5165922758
 31
0.0
 11
13.3800652928
 21
14.515686803
 31
0.0
 11
13.3859437583
 21
14.5151306112
 31
0.0
 11
13.3916109682
 21
14.5149268871
 31
0.0
 11
13.3970515815
 21
14.5150788191
 31
0.0
 11
13.4071990072
 21
14.5164515273
 31
0.0
 11
13.4118849535
 21
14.5176641599
 31
0.0
 11
13.4162990244
 21
14.5192214072
 31
0.0
 11
13.4204308635
 21
14.5211190041
 31
0.0
 11
13.4242694744
 21
14.5233534805
 31
0.0
 11
13.4278037876
 21
14.5259214568
 31
0.0
 11
13.4294533734
 21
14.5273294514
 31
0.0
 11
13.4310228547
 21
14.5288194287
 31
0.0
 11
13.4339188505
 21
14.5320406647
 31
0.0
 11
13.4364872762
 21
14.535574997
 31
0.0
 11
13.4387237943
 21
14.5394120911
 31
0.0
 11
13.440624026
 21
14.5435416551
 31
0.0
 11
13.4421831735
 21
14.5479538281
 31
0.0
 11
13.4433961953
 21
14.5526390005
 31
0.0
 11
13.444258047
 21
14.5575875657
 31
0.0
 11
13.4447646217
 21
14.5627892338
 31
0.0
 11
13.4449162439
 21
14.5682304864
 31
0.0
 11
13.4447145451
 21
14.5738968524
 31
0.0
 11
13.4441611574
 21
14.5797738609
 31
0.0
 11
13.4432578
 21
14.5858470161
 31
0.0
 11
13.4420064078
 21
14.5921017615
 31
0.0
 11
13.4404089486
 21
14.5985235314
 31
0.0
 11
13.4361858639
 21
14.611808875
 31
0.0
 11
13.4335712521
 21
14.6186400236
 31
0.0
 11
13.4306308291
 21
14.6255741707
 31
0.0
 11
13.4238030152
 21
14.6396834394
 31
0.0
 11
13.415771718
 21
14.6540009114
 31
0.0
 11
13.4113279415
 21
14.6611951229
 31
0.0
 11
13.4066118182
 21
14.6683897427
 31
0.0
 11
13.4016333303
 21
14.6755672181
 31
0.0
 11
13.3964040434
 21
14.6827102038
 31
0.0
 11
13.3909387164
 21
14.6898017744
 31
0.0
 11
13.3852524458
 21
14.6968250734
 31
0.0
 11
13.37327202
 21
14.71060162
 31
0.0
 11
13.3605723839
 21
14.7239059128
 31
0.0
  0
SPLINE
  5
422
100
AcDbEntity
  8
0
100
AcDbSpline
 62
9
  6
CONTINUOUS
 70
0
 71
3
 72
60
 73
56
 74
54
 42
0.0000001
 43
0.0000001
 44
0.0000000001
 12
-0.3164539876
 22
0.3164513239
 32
0.0
 13
0.3164501407
 23
-0.3164551708
 33
0.0
 40
0.0
 40
0.0
 40
0.0
 40
0.0
 40
0.0410967491
 40
0.0818898515
 40
0.1020807938
 40
0.122084944
 40
0.1418642326
 40
0.1613819957
 40
0.1994942208
 40
0.236170983
 40
0.2539048276
 40
0.2712003428
 40
0.2880321743
 40
0.304376442
 40
0.3355183424
 40
0.3503033844
 40
0.3645574403
 40
0.3782802921
 40
0.3914741969
 40
0.4041457258
 40
0.4163076459
 40
0.4391883674
 40
0.4500037206
 40
0.4604624968
 40
0.47062208
 40
0.4805467929
 40
0.4903087144
 40
0.4999870404
 40
0.5096659661
 40
0.5194284681
 40
0.5293526243
 40
0.5395102502
 40
0.5499666964
 40
0.5607807621
 40
0.572004479
 40
0.5836823349
 40
0.5958455637
 40
0.6085152728
 40
0.6217057092
 40
0.6354254638
 40
0.6496784641
 40
0.6644648535
 40
0.6956140282
 40
0.7119581238
 40
0.7287880375
 40
0.7638123244
 40
0.8004936242
 40
0.8193883105
 40
0.8386105839
 40
0.8581288445
 40
0.8779095621
 40
0.8979152346
 40
0.9181072829
 40
0.9589023601
 40
1.0
 40
1.0
 40
1.0
 40
1.0
 10
13.3605723839
 20
14.7239059128
 30
0.0
 10
13.3562373071
 20
14.728240953
 30
0.0
 10
13.3473967106
 20
14.7366789553
 30
0.0
 10
13.3359036236
 20
14.7466778854
 30
0.0
 10
13.3265138916
 20
14.7542819341
 30
0.0
 10
13.3194274676
 20
14.7597449012
 30
0.0
 10
13.3122895354
 20
14.7649723039
 30
0.0
 10
13.3028013466
 20
14.7715561671
 30
0.0
 10
13.2909350856
 20
14.7791265152
 30
0.0
 10
13.2788974382
 20
14.7858962965
 30
0.0
 10
13.2693433857
 20
14.7907104772
 30
0.0
 10
13.2623267175
 20
14.793972486
 30
0.0
 10
13.2553956421
 20
14.7969176922
 30
0.0
 10
13.2464363121
 20
14.8003549421
 30
0.0
 10
13.2375784196
 20
14.80319408
 30
0.0
 10
13.228865221
 20
14.805367424
 30
0.0
 10
13.2226087853
 20
14.8066250986
 30
0.0
 10
13.2165323701
 20
14.8075369984
 30
0.0
 10
13.2106506957
 20
14.8081003555
 30
0.0
 10
13.2049778296
 20
14.8083117118
 30
0.0
 10
13.1978594666
 20
14.8081239676
 30
0.0
 10
13.1910445529
 20
14.8072400369
 30
0.0
 10
13.1846591136
 20
14.8055968647
 30
0.0
 10
13.1802290031
 20
14.8040405681
 30
0.0
 10
13.1760799493
 20
14.8021415096
 30
0.0
 10
13.1722232469
 20
14.7999021702
 30
0.0
 10
13.1686707718
 20
14.7973257475
 30
0.0
 10
13.1654353625
 20
14.7944149395
 30
0.0
 10
13.1625270859
 20
14.7911772794
 30
0.0
 10
13.1599500907
 20
14.7876252426
 30
0.0
 10
13.157708806
 20
14.7837700598
 30
0.0
 10
13.1558069307
 20
14.7796230388
 30
0.0
 10
13.1542487708
 20
14.7751946093
 30
0.0
 10
13.1530389195
 20
14.7704947966
 30
0.0
 10
13.1521817922
 20
14.7655335544
 30
0.0
 10
13.1516823283
 20
14.7603219972
 30
0.0
 10
13.1515384082
 20
14.7548733616
 30
0.0
 10
13.1517477225
 20
14.7492015315
 30
0.0
 10
13.1523083094
 20
14.7433207054
 30
0.0
 10
13.1532182332
 20
14.7372451574
 30
0.0
 10
13.1544755176
 20
14.7309890414
 30
0.0
 10
13.1566501272
 20
14.7222749551
 30
0.0
 10
13.1594927017
 20
14.7134169241
 30
0.0
 10
13.1629283794
 20
14.7044561533
 30
0.0
 10
13.1669057784
 20
14.6950900183
 30
0.0
 10
13.1726828299
 20
14.6832023539
 30
0.0
 10
13.1793126626
 20
14.6714158169
 30
0.0
 10
13.1851792657
 20
14.6619230476
 30
0.0
 10
13.1898947841
 20
14.6547323973
 30
0.0
 10
13.1948721419
 20
14.6475590972
 30
0.0
 10
13.2001000846
 20
14.6404209833
 30
0.0
 10
13.205563517
 20
14.6333341398
 30
0.0
 10
13.2131679515
 20
14.6239438429
 30
0.0
 10
13.223167251
 20
14.6124502866
 30
0.0
 10
13.2316055544
 20
14.6036093882
 30
0.0
 10
13.2359406724
 20
14.5992742014
 30
0.0
 11
13.3605723839
 21
14.7239059128
 31
0.0
 11
13.3472684179
 21
14.7366052696
 31
0.0
 11
13.3334926154
 21
14.7485850964
 31
0.0
 11
13.3264697392
 21
14.7542710483
 31
0.0
 11
13.3193786701
 21
14.7597358281
 31
0.0
 11
13.3122361113
 21
14.7649645214
 31
0.0
 11
13.3050589893
 21
14.7699430693
 31
0.0
 11
13.2906713722
 21
14.7791037548
 31
0.0
 11
13.2763553861
 21
14.7871332202
 31
0.0
 11
13.2692665059
 21
14.7907018501
 31
0.0
 11
13.2622461967
 21
14.793961812
 31
0.0
 11
13.2553118536
 21
14.796904195
 31
0.0
 11
13.2484809908
 21
14.7995199832
 31
0.0
 11
13.2351981494
 21
14.8037396627
 31
0.0
 11
13.2287768614
 21
14.8053361462
 31
0.0
 11
13.2225217561
 21
14.8065879835
 31
0.0
 11
13.2164474412
 21
14.8074933123
 31
0.0
 11
13.2105689973
 21
14.8080494223
 31
0.0
 11
13.2049017484
 21
14.808253166
 31
0.0
 11
13.1994610209
 21
14.808101392
 31
0.0
 11
13.1893135896
 21
14.8067287668
 31
0.0
 11
13.1846277793
 21
14.8055159847
 31
0.0
 11
13.1802138523
 21
14.8039585585
 31
0.0
 11
13.1760820837
 21
14.8020608529
 31
0.0
 11
13.1722434514
 21
14.7998263693
 31
0.0
 11
13.1687090283
 21
14.797258492
 31
0.0
 11
13.1654898016
 21
14.794360694
 31
0.0
 11
13.1625938223
 21
14.7911394701
 31
0.0
 11
13.1600255482
 21
14.7876050143
 31
0.0
 11
13.1577892175
 21
14.7837677461
 31
0.0
 11
13.1558891067
 21
14.7796380473
 31
0.0
 11
13.1543299619
 21
14.775225833
 31
0.0
 11
13.153116845
 21
14.7705407045
 31
0.0
 11
13.1522548241
 21
14.7655922571
 31
0.0
 11
13.151748171
 21
14.7603906638
 31
0.0
 11
13.1515966843
 21
14.7549493424
 31
0.0
 11
13.1517986021
 21
14.7492828431
 31
0.0
 11
13.1523521605
 21
14.7434057174
 31
0.0
 11
13.1532555587
 21
14.7373325164
 31
0.0
 11
13.1545068869
 21
14.731077791
 31
0.0
 11
13.1561042152
 21
14.7246560917
 31
0.0
 11
13.1603271881
 21
14.711370881
 31
0.0
 11
13.1629419544
 21
14.7045397094
 31
0.0
 11
13.1658825177
 21
14.6976055268
 31
0.0
 11
13.1727102929
 21
14.6834962852
 31
0.0
 11
13.1807414694
 21
14.6691789305
 31
0.0
 11
13.1851852698
 21
14.6619847617
 31
0.0
 11
13.189901427
 21
14.6547901688
 31
0.0
 11
13.1948798887
 21
14.6476127161
 31
0.0
 11
13.2001091272
 21
14.6404697639
 31
0.0
 11
13.2055744212
 21
14.633378231
 31
0.0
 11
13.2112606749
 21
14.6263549621
 31
0.0
 11
13.2232410546
 21
14.6125784694
 31
0.0
 11
13.2359406724
 21
14.5992742014
 31
0.0
  0
SPLINE
  5
423
100
AcDbEntity
  8
0
100
AcDbSpline
 62
9
  6
CONTINUOUS
 70
0
 71
3
 72
34
 73
30
 74
28
 42
0.0000001
 43
0.0000001
 44
0.0000000001
 12
-0.1977319596
 22
0.1977318757
 32
0.0
 13
-0.2071798846
 23
-0.1878092595
 33
0.0
 40
0.0
 40
0.0
 40
0.0
 40
0.0
 40
0.0820739238
 40
0.1635540397
 40
0.2438525459
 40
0.322393312
 40
0.3608318765
 40
0.3986251392
 40
0.4357105105
 40
0.4720335119
 40
0.5075423552
 40
0.542186817
 40
0.5759175201
 40
0.6086876474
 40
0.6404545119
 40
0.6711862088
 40
0.7008670261
 40
0.7294870848
 40
0.7570420168
 40
0.7835343013
 40
0.8089751047
 40
0.8333864442
 40
0.8792584238
 40
0.9008884546
 40
0.9217574007
 40
0.9419727866
 40
0.9616573881
 40
0.9809491513
 40
1.0
 40
1.0
 40
1.0
 40
1.0
 10
13.4083876016
 20
14.7717211305
 30
0.0
 10
13.4029780557
 20
14.7771306742
 30
0.0
 10
13.391953906
 20
14.7876694815
 30
0.0
 10
13.3748335434
 20
14.8026319524
 30
0.0
 10
13.3573077574
 20
14.8165956493
 30
0.0
 10
13.342392047
 20
14.8273640874
 30
0.0
 10
13.3303816572
 20
14.8353588836
 30
0.0
 10
13.321438755
 20
14.8409818542
 30
0.0
 10
13.3125168317
 20
14.8462606286
 30
0.0
 10
13.3036371299
 20
14.8511849755
 30
0.0
 10
13.2948201947
 20
14.8557449076
 30
0.0
 10
13.2860866343
 20
14.8599305699
 30
0.0
 10
13.2774569386
 20
14.86373141
 30
0.0
 10
13.2689517461
 20
14.8671367564
 30
0.0
 10
13.2605910728
 20
14.8701357376
 30
0.0
 10
13.2523940561
 20
14.8727192681
 30
0.0
 10
13.2443800373
 20
14.8748846549
 30
0.0
 10
13.236566837
 20
14.8766289997
 30
0.0
 10
13.2289720799
 20
14.8779496264
 30
0.0
 10
13.2216136112
 20
14.8788435628
 30
0.0
 10
13.2145079359
 20
14.8793071709
 30
0.0
 10
13.2055821236
 20
14.879346873
 30
0.0
 10
13.1970163444
 20
14.8785437442
 30
0.0
 10
13.1889565088
 20
14.8768063615
 30
0.0
 10
13.1833574699
 20
14.8751003034
 30
0.0
 10
13.1781004131
 20
14.8729700206
 30
0.0
 10
13.1731980892
 20
14.8704192823
 30
0.0
 10
13.1686647771
 20
14.8674527564
 30
0.0
 10
13.1658868215
 20
14.8651917724
 30
0.0
 10
13.1645711706
 20
14.8639991304
 30
0.0
 11
13.4083876016
 21
14.7717211305
 31
0.0
 11
13.3917983902
 21
14.7875809921
 31
0.0
 11
13.3746389952
 21
14.8025709206
 31
0.0
 11
13.3570707565
 21
14.816554909
 31
0.0
 11
13.3392549388
 21
14.8293985632
 31
0.0
 11
13.3303060176
 21
14.8353528015
 31
0.0
 11
13.3213578478
 21
14.8409759458
 31
0.0
 11
13.3124314007
 21
14.8462545056
 31
0.0
 11
13.3035472535
 21
14.8511779599
 31
0.0
 11
13.2947259045
 21
14.8557363795
 31
0.0
 11
13.2859878811
 21
14.8599197518
 31
0.0
 11
13.2773539134
 21
14.8637174757
 31
0.0
 11
13.2688448179
 21
14.8671186989
 31
0.0
 11
13.2604814049
 21
14.8701125864
 31
0.0
 11
13.2522836047
 21
14.8726907862
 31
0.0
 11
13.2442695736
 21
14.8748499496
 31
0.0
 11
13.2364572551
 21
14.8765873287
 31
0.0
 11
13.2288645922
 21
14.8779001674
 31
0.0
 11
13.2215095066
 21
14.8787854703
 31
0.0
 11
13.2144098963
 21
14.8792399663
 31
0.0
 11
13.207583658
 21
14.8792603692
 31
0.0
 11
13.194819157
 21
14.8779914426
 31
0.0
 11
13.1889082989
 21
14.8767083542
 31
0.0
 11
13.1833284786
 21
14.8749992911
 31
0.0
 11
13.1780922674
 21
14.872869094
 31
0.0
 11
13.1732122508
 21
14.8703225215
 31
0.0
 11
13.1687010211
 21
14.8673642936
 31
0.0
 11
13.1645711706
 21
14.8639991304
 31
0.0
  0
SPLINE
  5
424
100
AcDbEntity
  8
0
100
AcDbSpline
 62
6
  6
CONTINUOUS
 70
0
 71
3
 72
69
 73
65
 74
63
 42
0.0000001
 43
0.0000001
 44
0.0000000001
 12
0.7302639149
 22
-0.1947814569
 32
0.0
 13
0.533060666
 23
0.5357905633
 33
0.0
 40
0.0
 40
0.0
 40
0.0
 40
0.0
 40
0.0003946301
 40
0.000854931
 40
0.0013827131
 40
0.001979168
 40
0.0033810076
 40
0.0050644088
 40
0.0070303351
 40
0.0092786925
 40
0.0118088777
 40
0.0146199844
 40
0.0210803711
 40
0.0286498813
 40
0.037314317
 40
0.0470517255
 40
0.0578387801
 40
0.0696519448
 40
0.0824667686
 40
0.0962523752
 40
0.1109747386
 40
0.1265997623
 40
0.160417583
 40
0.1973886388
 40
0.237169401
 40
0.2793909133
 40
0.3236573671
 40
0.3695598859
 40
0.4166679226
 40
0.4645453403
 40
0.5127452723
 40
0.5608190478
 40
0.6083206957
 40
0.6548063914
 40
0.6998460348
 40
0.7430194987
 40
0.7839259569
 40
0.8221871533
 40
0.8574445041
 40
0.8893770161
 40
0.9039994603
 40
0.9176819595
 40
0.9303944295
 40
0.9421068554
 40
0.9527897594
 40
0.9624197146
 40
0.9709777432
 40
0.9784453032
 40
0.9817645497
 40
0.9848045475
 40
0.9875638658
 40
0.9900419685
 40
0.9922385696
 40
0.9941537056
 40
0.9957879599
 40
0.9971429183
 40
0.9977167729
 40
0.998222479
 40
0.9986612764
 40
0.9990351447
 40
0.9993473888
 40
0.9996038488
 40
0.9998151871
 40
1.0
 40
1.0
 40
1.0
 40
1.0
 10
15.8245955278
 20
17.720225978
 30
0.0
 10
15.8246915892
 20
17.7202003558
 30
0.0
 10
15.8248967676
 20
17.7201338164
 30
0.0
 10
15.8252199194
 20
17.7200032778
 30
0.0
 10
15.8255817715
 20
17.7198343319
 30
0.0
 10
15.8261469479
 20
17.7195415065
 30
0.0
 10
15.8269483732
 20
17.719073527
 30
0.0
 10
15.8280194037
 20
17.7183859223
 30
0.0
 10
15.8292446919
 20
17.7175451682
 30
0.0
 10
15.8306234071
 20
17.7165518931
 30
0.0
 10
15.832154689
 20
17.7154066823
 30
0.0
 10
15.8345100405
 20
17.7135920787
 30
0.0
 10
15.8378242933
 20
17.7109426357
 30
0.0
 10
15.842233094
 20
17.7073021702
 30
0.0
 10
15.8472286611
 20
17.7030764391
 30
0.0
 10
15.852799872
 20
17.6982766299
 30
0.0
 10
15.8589338579
 20
17.6929150479
 30
0.0
 10
15.865617533
 20
17.6870045309
 30
0.0
 10
15.8728364642
 20
17.6805591111
 30
0.0
 10
15.8805745993
 20
17.6735948811
 30
0.0
 10
15.8888141817
 20
17.6661295952
 30
0.0
 10
15.9007629022
 20
17.6552418278
 30
0.0
 10
15.9168000979
 20
17.64051902
 30
0.0
 10
15.937252718
 20
17.621607444
 30
0.0
 10
15.9592041204
 20
17.6011984753
 30
0.0
 10
15.9824564148
 20
17.5794895871
 30
0.0
 10
16.0068002818
 20
17.5566899945
 30
0.0
 10
16.0320152363
 20
17.5330196101
 30
0.0
 10
16.0578739746
 20
17.5087058693
 30
0.0
 10
16.0841421791
 20
17.4839826824
 30
0.0
 10
16.1105825048
 20
17.459087383
 30
0.0
 10
16.1369558004
 20
17.4342589912
 30
0.0
 10
16.1630233962
 20
17.4097359244
 30
0.0
 10
16.1885500649
 20
17.3857534467
 30
0.0
 10
16.2133049755
 20
17.3625420234
 30
0.0
 10
16.2370650661
 20
17.340324616
 30
0.0
 10
16.259616414
 20
17.3193149107
 30
0.0
 10
16.280755791
 20
17.299715424
 30
0.0
 10
16.3002945382
 20
17.2817149851
 30
0.0
 10
16.3155113013
 20
17.2678127789
 30
0.0
 10
16.3267601692
 20
17.257626225
 30
0.0
 10
16.334443303
 20
17.2507158879
 30
0.0
 10
16.3416070043
 20
17.2443244369
 30
0.0
 10
16.3482350963
 20
17.2384679098
 30
0.0
 10
16.3543126271
 20
17.2331613103
 30
0.0
 10
16.3598263677
 20
17.2284175255
 30
0.0
 10
16.3647648777
 20
17.2242475767
 30
0.0
 10
16.3685261769
 20
17.2211481874
 30
0.0
 10
16.3712428221
 20
17.2189677548
 30
0.0
 10
16.3730487235
 20
17.2175477888
 30
0.0
 10
16.3747034712
 20
17.2162786499
 30
0.0
 10
16.3762063406
 20
17.2151609165
 30
0.0
 10
16.3775567569
 20
17.2141950111
 30
0.0
 10
16.3787541545
 20
17.2133811568
 30
0.0
 10
16.3797980084
 20
17.2127197038
 30
0.0
 10
16.3805773262
 20
17.2122731036
 30
0.0
 10
16.3811252686
 20
17.2119972011
 30
0.0
 10
16.3814743698
 20
17.211840443
 30
0.0
 10
16.3817849117
 20
17.2117219534
 30
0.0
 10
16.382057091
 20
17.211641646
 30
0.0
 10
16.3822914236
 20
17.2115993648
 30
0.0
 10
16.38248907
 20
17.2115954153
 30
0.0
 10
16.3826518185
 20
17.211631335
 30
0.0
 10
16.3827380981
 20
17.2116871956
 30
0.0
 10
16.382770937
 20
17.2117202026
 30
0.0
 11
15.8245955278
 21
17.720225978
 31
0.0
 11
15.824879862
 21
17.7201359078
 31
0.0
 11
15.8252030026
 21
17.7200070295
 31
0.0
 11
15.8255649425
 21
17.7198393498
 31
0.0
 11
15.8259656751
 21
17.7196328756
 31
0.0
 11
15.8268834896
 21
17.7191035721
 31
0.0
 11
15.8279561755
 21
17.7184193897
 31
0.0
 11
15.8291829554
 21
17.7175811057
 31
0.0
 11
15.830562979
 21
17.7165895706
 31
0.0
 11
15.8320953957
 21
17.7154456346
 31
0.0
 11
15.8337793554
 21
17.7141501483
 31
0.0
 11
15.8375985016
 21
17.7111079259
 31
0.0
 11
15.8420136086
 21
17.7074697123
 31
0.0
 11
15.8470162311
 21
17.7032439531
 31
0.0
 11
15.8525940693
 21
17.6984429479
 31
0.0
 11
15.8587342689
 21
17.6930795509
 31
0.0
 11
15.8654239756
 21
17.6871666166
 31
0.0
 11
15.8726499182
 21
17.680717416
 31
0.0
 11
15.8803954366
 21
17.6737486092
 31
0.0
 11
15.8886422216
 21
17.6662785055
 31
0.0
 11
15.897371953
 21
17.658325425
 31
0.0
 11
15.9162050339
 21
17.641045555
 31
0.0
 11
15.9367246563
 21
17.6220790217
 31
0.0
 11
15.9587468831
 21
17.6016097626
 31
0.0
 11
15.9820742753
 21
17.5798352163
 31
0.0
 11
16.006495099
 21
17.556967117
 31
0.0
 11
16.031790676
 21
17.5332241425
 31
0.0
 11
16.0577307703
 21
17.508836529
 31
0.0
 11
16.0840821763
 21
17.484037482
 31
0.0
 11
16.1106059624
 21
17.459065933
 31
0.0
 11
16.1370622374
 21
17.4341617734
 31
0.0
 11
16.1632125514
 21
17.409563453
 31
0.0
 11
16.1888195942
 21
17.3855082819
 31
0.0
 11
16.213653379
 21
17.3622262471
 31
0.0
 11
16.2374892266
 21
17.3399420277
 31
0.0
 11
16.2601127421
 21
17.3188700186
 31
0.0
 11
16.2813215463
 21
17.2992125992
 31
0.0
 11
16.3009236998
 21
17.2811617087
 31
0.0
 11
16.3187472459
 21
17.264889304
 31
0.0
 11
16.3269400164
 21
17.2574720587
 31
0.0
 11
16.3346297779
 21
17.2505577918
 31
0.0
 11
16.3418003288
 21
17.2441627053
 31
0.0
 11
16.3484354672
 21
17.2383030009
 31
0.0
 11
16.354519226
 21
17.2329946457
 31
0.0
 11
16.3600388011
 21
17.2282504438
 31
0.0
 11
16.3649836577
 21
17.2240809302
 31
0.0
 11
16.3693433101
 21
17.2204965904
 31
0.0
 11
16.371300408
 21
17.2189271374
 31
0.0
 11
16.3731072821
 21
17.2175079006
 31
0.0
 11
16.3747629601
 21
17.2162398524
 31
0.0
 11
16.3762668789
 21
17.2151235558
 31
0.0
 11
16.3776185012
 21
17.2141595481
 31
0.0
 11
16.3788172896
 21
17.2133483667
 31
0.0
 11
16.3798627068
 21
17.212690549
 31
0.0
 11
16.3807542152
 21
17.2121866325
 31
0.0
 11
16.3811420858
 21
17.211992555
 31
0.0
 11
16.3814912777
 21
17.2118371543
 31
0.0
 11
16.3818017238
 21
17.2117204976
 31
0.0
 11
16.3820733568
 21
17.211642652
 31
0.0
 11
16.3823061097
 21
17.2116036846
 31
0.0
 11
16.3824999407
 21
17.2116036373
 31
0.0
 11
16.3826548723
 21
17.2116424874
 31
0.0
 11
16.382770937
 21
17.2117202026
 31
0.0
  0
SPLINE
  5
425
100
AcDbEntity
  8
0
100
AcDbSpline
 62
9
  6
CONTINUOUS
 70
0
 71
3
 72
19
 73
15
 74
13
 42
0.0000001
 43
0.0000001
 44
0.0000000001
 12
0.0092627546
 22
-0.0006643747
 32
0.0
 13
-0.0041490851
 23
-0.0083081352
 33
0.0
 40
0.0
 40
0.0
 40
0.0
 40
0.0
 40
0.1354440428
 40
0.278032039
 40
0.4209487424
 40
0.4908440924
 40
0.5587826978
 40
0.686565889
 40
0.7459467856
 40
0.802047997
 40
0.8550168062
 40
0.9052663918
 40
0.9533486361
 40
1.0
 40
1.0
 40
1.0
 40
1.0
 10
14.199798675
 20
15.7322791605
 30
0.0
 10
14.20021687
 20
15.7322491653
 30
0.0
 10
14.2010696603
 20
15.7320931092
 30
0.0
 10
14.2022970258
 20
15.7316384559
 30
0.0
 10
14.2032514683
 20
15.7310786147
 30
0.0
 10
14.2039370999
 20
15.730542794
 30
0.0
 10
14.2045355898
 20
15.7299778988
 30
0.0
 10
14.2050286049
 20
15.7293513707
 30
0.0
 10
14.2053811876
 20
15.7286840415
 30
0.0
 10
14.2055613778
 20
15.7281926976
 30
0.0
 10
14.205657481
 20
15.7277067611
 30
0.0
 10
14.2056698722
 20
15.7272361261
 30
0.0
 10
14.2055994042
 20
15.7267902857
 30
0.0
 10
14.2054963019
 20
15.7265131226
 30
0.0
 10
14.2054317817
 20
15.7263839273
 30
0.0
 11
14.199798675
 21
15.7322791605
 31
0.0
 11
14.2010377502
 21
15.7320628889
 31
0.0
 11
14.2022796767
 21
15.7316035486
 31
0.0
 11
14.2034242088
 21
15.7309316003
 31
0.0
 11
14.2039351821
 21
15.7305313257
 31
0.0
 11
14.2043931873
 21
15.7300974071
 31
0.0
 11
14.2051186415
 21
15.7291583171
 31
0.0
 11
14.2053743479
 21
15.7286697433
 31
0.0
 11
14.2055512677
 21
15.7281797162
 31
0.0
 11
14.2056449509
 21
15.7276968222
 31
0.0
 11
14.2056554658
 21
15.7272302954
 31
0.0
 11
14.2055840101
 21
15.7267895317
 31
0.0
 11
14.2054317817
 21
15.7263839273
 31
0.0
  0
SPLINE
  5
426
100
AcDbEntity
  8
0
100
AcDbSpline
 62
9
  6
CONTINUOUS
 70
0
 71
3
 72
19
 73
15
 74
13
 42
0.0000001
 43
0.0000001
 44
0.0000000001
 12
-0.0006639692
 22
0.0092628067
 32
0.0
 13
-0.0083081603
 23
-0.0041490861
 33
0.0
 40
0.0
 40
0.0
 40
0.0
 40
0.0
 40
0.1354444924
 40
0.2780307938
 40
0.4209446932
 40
0.4908386065
 40
0.558775964
 40
0.6865577181
 40
0.7459385859
 40
0.8020403202
 40
0.8550102662
 40
0.9052615748
 40
0.9533460423
 40
1.0
 40
1.0
 40
1.0
 40
1.0
 10
14.3689407508
 20
15.5631300512
 30
0.0
 10
14.3689107739
 20
15.5635482499
 30
0.0
 10
14.3687547548
 20
15.5644010457
 30
0.0
 10
14.3683001474
 20
15.5656284188
 30
0.0
 10
14.3677403378
 20
15.5665828626
 30
0.0
 10
14.3672045371
 20
15.5672684911
 30
0.0
 10
14.3666396552
 20
15.567866979
 30
0.0
 10
14.3660131317
 20
15.5683599908
 30
0.0
 10
14.3653458005
 20
15.5687125676
 30
0.0
 10
14.3648544481
 20
15.5688927535
 30
0.0
 10
14.3643684984
 20
15.5689888506
 30
0.0
 10
14.3638978462
 20
15.5690012341
 30
0.0
 10
14.3634519857
 20
15.568930757
 30
0.0
 10
14.3631748086
 20
15.5688276478
 30
0.0
 10
14.3630456057
 20
15.5687631241
 30
0.0
 11
14.3689407508
 21
15.5631300512
 31
0.0
 11
14.3687245299
 21
15.5643691427
 31
0.0
 11
14.3682652366
 21
15.5656110732
 31
0.0
 11
14.3675933281
 21
15.5667556022
 31
0.0
 11
14.3671930688
 21
15.5672665727
 31
0.0
 11
14.3667591617
 21
15.567724575
 31
0.0
 11
14.3658200805
 21
15.5684500235
 31
0.0
 11
14.3653315037
 21
15.5687057265
 31
0.0
 11
14.3648414685
 21
15.5688826421
 31
0.0
 11
14.3643585614
 21
15.5689763197
 31
0.0
 11
14.3638920173
 21
15.5689868274
 31
0.0
 11
14.3634512331
 21
15.568915363
 31
0.0
 11
14.3630456057
 21
15.5687631241
 31
0.0
  0
SPLINE
  5
427
100
AcDbEntity
  8
0
100
AcDbSpline
 62
6
  6
CONTINUOUS
 70
0
 71
3
 72
70
 73
66
 74
64
 42
0.0000001
 43
0.0000001
 44
0.0000000001
 12
0.53488934
 22
0.533967477
 32
0.0
 13
0.7300847266
 23
-0.1954588563
 33
0.0
 40
0.0
 40
0.0
 40
0.0
 40
0.0
 40
0.0001853844
 40
0.0003974031
 40
0.0006544898
 40
0.0009671984
 40
0.0013413985
 40
0.0017804942
 40
0.0022865762
 40
0.0028609995
 40
0.0042181352
 40
0.00585647
 40
0.0077772728
 40
0.0099805614
 40
0.0124657963
 40
0.0152321105
 40
0.0182784323
 40
0.0216035555
 40
0.0290848986
 40
0.0376626416
 40
0.0473151999
 40
0.0580192687
 40
0.0697513252
 40
0.0824871458
 40
0.0961964285
 40
0.1108451821
 40
0.1428246373
 40
0.1781353944
 40
0.2164419895
 40
0.2573940802
 40
0.3006055733
 40
0.3456771381
 40
0.3921878281
 40
0.4397044812
 40
0.4877858356
 40
0.535983112
 40
0.583848723
 40
0.6309375262
 40
0.6768100921
 40
0.7210429541
 40
0.7632208267
 40
0.8029569435
 40
0.8398775705
 40
0.8736444961
 40
0.8892463732
 40
0.9039425792
 40
0.9177012534
 40
0.9304923075
 40
0.9422857201
 40
0.9530518575
 40
0.9627666462
 40
0.9714110148
 40
0.9789663871
 40
0.9823300728
 40
0.9854148374
 40
0.9882190669
 40
0.9907421494
 40
0.9929837603
 40
0.9949438731
 40
0.9966229615
 40
0.9980224036
 40
0.9986182355
 40
0.9991456248
 40
0.9996056473
 40
1.0
 40
1.0
 40
1.0
 40
1.0
 10
15.8364423006
 20
17.7327979608
 30
0.0
 10
15.836475354
 20
17.7328309572
 30
0.0
 10
15.8365620499
 20
17.732886729
 30
0.0
 10
15.836725276
 20
17.7329225845
 30
0.0
 10
15.8369233632
 20
17.7329186687
 30
0.0
 10
15.8371580814
 20
17.7328765169
 30
0.0
 10
15.8374305999
 20
17.7327963786
 30
0.0
 10
15.8377414758
 20
17.7326780484
 30
0.0
 10
15.838090965
 20
17.7325213848
 30
0.0
 10
15.8386397401
 20
17.7322453807
 30
0.0
 10
15.8394206385
 20
17.7317980604
 30
0.0
 10
15.8404669814
 20
17.7311349129
 30
0.0
 10
15.8416676913
 20
17.7303185591
 30
0.0
 10
15.8430219707
 20
17.7293496093
 30
0.0
 10
15.844528941
 20
17.7282285953
 30
0.0
 10
15.8461877203
 20
17.7269562392
 30
0.0
 10
15.8479974461
 20
17.7255333046
 30
0.0
 10
15.850719297
 20
17.7233488868
 30
0.0
 10
15.8544883362
 20
17.7202432713
 30
0.0
 10
15.8594374825
 20
17.7160639866
 30
0.0
 10
15.8649631737
 20
17.7113095445
 30
0.0
 10
15.8710526972
 20
17.7059923677
 30
0.0
 10
15.8776929765
 20
17.7001251957
 30
0.0
 10
15.8848697231
 20
17.6937219314
 30
0.0
 10
15.8925670303
 20
17.6867985176
 30
0.0
 10
15.9038344422
 20
17.6765948432
 30
0.0
 10
15.9190748531
 20
17.6626711407
 30
0.0
 10
15.9386402986
 20
17.6446453972
 30
0.0
 10
15.9598064193
 20
17.625021136
 30
0.0
 10
15.9823813841
 20
17.6039889752
 30
0.0
 10
16.0061627316
 20
17.5817515552
 30
0.0
 10
16.0309350537
 20
17.5585236149
 30
0.0
 10
16.0564748955
 20
17.5345285767
 30
0.0
 10
16.0825512707
 20
17.5099972266
 30
0.0
 10
16.1089282363
 20
17.4851652852
 30
0.0
 10
16.135367377
 20
17.460271133
 30
0.0
 10
16.1616295103
 20
17.4355537586
 30
0.0
 10
16.1874771217
 20
17.4112504948
 30
0.0
 10
16.2126770852
 20
17.3875944932
 30
0.0
 10
16.237001306
 20
17.3648133122
 30
0.0
 10
16.2602314267
 20
17.3431255581
 30
0.0
 10
16.2821573443
 20
17.3227403991
 30
0.0
 10
16.3025831856
 20
17.303853933
 30
0.0
 10
16.3185975062
 20
17.2891525022
 30
0.0
 10
16.3305275833
 20
17.2782816978
 30
0.0
 10
16.3387530673
 20
17.2708294176
 30
0.0
 10
16.3464769868
 20
17.2638783013
 30
0.0
 10
16.353682792
 20
17.257444798
 30
0.0
 10
16.3603542599
 20
17.2515449509
 30
0.0
 10
16.3664762934
 20
17.2461938966
 30
0.0
 10
16.3720355372
 20
17.2414047076
 30
0.0
 10
16.3770204175
 20
17.2371885254
 30
0.0
 10
16.3808207885
 20
17.234049953
 30
0.0
 10
16.3835690473
 20
17.231837657
 30
0.0
 10
16.3853990272
 20
17.2303936494
 30
0.0
 10
16.3870779951
 20
17.2291003502
 30
0.0
 10
16.3886051858
 20
17.2279583805
 30
0.0
 10
16.3899800144
 20
17.2269681781
 30
0.0
 10
16.391201914
 20
17.2261299937
 30
0.0
 10
16.3922703525
 20
17.2254441898
 30
0.0
 10
16.3930701132
 20
17.224977033
 30
0.0
 10
16.3936344014
 20
17.2246843629
 30
0.0
 10
16.393995855
 20
17.2245153351
 30
0.0
 10
16.3943186817
 20
17.2243846316
 30
0.0
 10
16.3945236645
 20
17.2243179437
 30
0.0
 10
16.3946196348
 20
17.2242922505
 30
0.0
 11
15.8364423006
 21
17.7327979608
 31
0.0
 11
15.8365589409
 21
17.7328755922
 31
0.0
 11
15.8367144171
 21
17.7329143859
 31
0.0
 11
15.8369087222
 21
17.7329143488
 31
0.0
 11
15.8371418494
 21
17.7328754876
 31
0.0
 11
15.8374137919
 21
17.7327978094
 31
0.0
 11
15.8377245427
 21
17.7326813209
 31
0.0
 11
15.8380740949
 21
17.7325260291
 31
0.0
 11
15.8384624417
 21
17.7323319408
 31
0.0
 11
15.8393554917
 21
17.7318274023
 31
0.0
 11
15.8404034967
 21
17.7311679012
 31
0.0
 11
15.8416057307
 21
17.7303541635
 31
0.0
 11
15.8429613434
 21
17.7293870395
 31
0.0
 11
15.8444694844
 21
17.7282673796
 31
0.0
 11
15.8461293034
 21
17.7269960342
 31
0.0
 11
15.84793995
 21
17.7255738537
 31
0.0
 11
15.8499005737
 21
17.7240016884
 31
0.0
 11
15.8542683502
 21
17.7204108062
 31
0.0
 11
15.8592244873
 21
17.7162315331
 31
0.0
 11
15.8647568637
 21
17.7114759903
 31
0.0
 11
15.8708526253
 21
17.7061570321
 31
0.0
 11
15.8774989178
 21
17.7002875127
 31
0.0
 11
15.8846825868
 21
17.6938805864
 31
0.0
 11
15.8923872759
 21
17.6869526096
 31
0.0
 11
15.9005946922
 21
17.6795218753
 31
0.0
 11
15.9184444093
 21
17.6632254312
 31
0.0
 11
15.9380760783
 21
17.6451469136
 31
0.0
 11
15.9593100015
 21
17.6254660203
 31
0.0
 11
15.9819586469
 21
17.6043702832
 31
0.0
 11
16.0058154435
 21
17.5820662731
 31
0.0
 11
16.0306667958
 21
17.5587675856
 31
0.0
 11
16.0562875863
 21
17.5346993383
 31
0.0
 11
16.0824461899
 21
17.510093156
 31
0.0
 11
16.1089066665
 21
17.485184979
 31
0.0
 11
16.1354290642
 21
17.460214759
 31
0.0
 11
16.1617740703
 21
17.4354218088
 31
0.0
 11
16.1877036748
 21
17.4110441384
 31
0.0
 11
16.2129829109
 21
17.3873167146
 31
0.0
 11
16.2373853279
 21
17.3644659882
 31
0.0
 11
16.2606888201
 21
17.3427140647
 31
0.0
 11
16.2826864884
 21
17.3222678434
 31
0.0
 11
16.3031783385
 21
17.3033273187
 31
0.0
 11
16.3219832763
 21
17.2860735846
 31
0.0
 11
16.3307001218
 21
17.2781322953
 31
0.0
 11
16.3389323796
 21
17.2706755633
 31
0.0
 11
16.3466629258
 21
17.2637205126
 31
0.0
 11
16.3538755586
 21
17.2572833449
 31
0.0
 11
16.3605540764
 21
17.2513802618
 31
0.0
 11
16.3666824333
 21
17.2460273092
 31
0.0
 11
16.3722474863
 21
17.2412376302
 31
0.0
 11
16.3772386615
 21
17.2370217986
 31
0.0
 11
16.3816454733
 21
17.2333903001
 31
0.0
 11
16.3836264663
 21
17.2317969524
 31
0.0
 11
16.3854574386
 21
17.2303536178
 31
0.0
 11
16.3871373287
 21
17.2290613578
 31
0.0
 11
16.3886655462
 21
17.2279207629
 31
0.0
 11
16.3900415538
 21
17.2269323703
 31
0.0
 11
16.391264814
 21
17.2260967174
 31
0.0
 11
16.3923347897
 21
17.2254143416
 31
0.0
 11
16.3932509432
 21
17.2248857803
 31
0.0
 11
16.3936511688
 21
17.2246793479
 31
0.0
 11
16.3940127374
 21
17.2245115708
 31
0.0
 11
16.3943355818
 21
17.2243825159
 31
0.0
 11
16.3946196348
 21
17.2242922505
 31
0.0
  0
SPLINE
  5
428
100
AcDbEntity
  8
0
100
AcDbSpline
 62
6
  6
CONTINUOUS
 70
0
 71
3
 72
11
 73
7
 74
5
 42
0.0000001
 43
0.0000001
 44
0.0000000001
 12
-0.020665648
 22
-0.0217505896
 32
0.0
 13
-0.0217505896
 23
-0.020665648
 33
0.0
 40
0.0
 40
0.0
 40
0.0
 40
0.0
 40
0.249963476
 40
0.5000000009
 40
0.7500365254
 40
1.0
 40
1.0
 40
1.0
 40
1.0
 10
14.3673877668
 20
15.6382622881
 30
0.0
 10
14.3656658811
 20
15.6364500038
 30
0.0
 10
14.3621907292
 20
15.6328542024
 30
0.0
 10
14.3569135324
 20
15.6275233191
 30
0.0
 10
14.3515826491
 20
15.6222461223
 30
0.0
 10
14.3479868477
 20
15.6187709704
 30
0.0
 10
14.3461745634
 20
15.6170490847
 30
0.0
 11
14.3673877668
 21
15.6382622881
 31
0.0
 11
14.362180538
 21
15.6328652377
 31
0.0
 11
14.3569045838
 21
15.6275322677
 31
0.0
 11
14.3515716138
 21
15.6222563135
 31
0.0
 11
14.3461745634
 21
15.6170490847
 31
0.0
  0
LINE
  5
429
100
AcDbEntity
  8
0
100
AcDbLine
 62
6
  6
CONTINUOUS
 10
14.3569045838
 20
15.7202381127
 11
14.3673877668
 21
15.7095080924
  0
SPLINE
  5
42A
100
AcDbEntity
  8
0
100
AcDbSpline
 62
6
  6
CONTINUOUS
 70
0
 71
3
 72
70
 73
66
 74
64
 42
0.0000001
 43
0.0000001
 44
0.0000000001
 12
0.733504884
 22
-0.1965524836
 32
0.0
 13
0.538044717
 23
0.5358826141
 33
0.0
 40
0.0
 40
0.0
 40
0.0
 40
0.0
 40
0.0003938193
 40
0.0008533845
 40
0.0013804103
 40
0.0019759895
 40
0.0033753239
 40
0.0050549431
 40
0.0070163549
 40
0.0092601637
 40
0.0117864741
 40
0.0145950314
 40
0.0176845857
 40
0.0210531911
 40
0.0286192606
 40
0.0372762747
 40
0.0470066287
 40
0.0577910392
 40
0.0696028976
 40
0.0824131201
 40
0.0961925266
 40
0.1109116732
 40
0.1265365286
 40
0.160348682
 40
0.197316782
 40
0.2370968405
 40
0.2793165923
 40
0.3235858989
 40
0.3694889604
 40
0.416601528
 40
0.4644825113
 40
0.5126872338
 40
0.5607671977
 40
0.6082736389
 40
0.6547665543
 40
0.699811615
 40
0.742991304
 40
0.7839045248
 40
0.8221693921
 40
0.8574349043
 40
0.8893681887
 40
0.9039947931
 40
0.9176815068
 40
0.9303942941
 40
0.942105472
 40
0.952790431
 40
0.9624247192
 40
0.9709841898
 40
0.9784493956
 40
0.9817676781
 40
0.984807802
 40
0.987568428
 40
0.9900483499
 40
0.9922465649
 40
0.9941623964
 40
0.9957958898
 40
0.9971490434
 40
0.9977218323
 40
0.9982264809
 40
0.9986643103
 40
0.9990373694
 40
0.999349009
 40
0.9996050282
 40
0.9998158983
 40
1.0
 40
1.0
 40
1.0
 40
1.0
 10
15.8738860637
 20
17.7719454473
 30
0.0
 10
15.8739823532
 20
17.7719196453
 30
0.0
 10
15.8741880483
 20
17.7718526488
 30
0.0
 10
15.8745120325
 20
17.7717213132
 30
0.0
 10
15.8748748732
 20
17.7715514226
 30
0.0
 10
15.8754415264
 20
17.7712571583
 30
0.0
 10
15.8762448693
 20
17.770787334
 30
0.0
 10
15.877318379
 20
17.7700974707
 30
0.0
 10
15.8785464777
 20
17.7692540906
 30
0.0
 10
15.8799287018
 20
17.7682574865
 30
0.0
 10
15.881464542
 20
17.7671078503
 30
0.0
 10
15.8831533074
 20
17.7658056692
 30
0.0
 10
15.88499411
 20
17.764351784
 30
0.0
 10
15.887758539
 20
17.7621246389
 30
0.0
 10
15.8915813366
 20
17.7589652575
 30
0.0
 10
15.8965960238
 20
17.7547210901
 30
0.0
 10
15.9021890951
 20
17.74989979
 30
0.0
 10
15.9083485849
 20
17.744512848
 30
0.0
 10
15.9150607968
 20
17.7385739218
 30
0.0
 10
15.9223102752
 20
17.7320983285
 30
0.0
 10
15.9300810994
 20
17.725101837
 30
0.0
 10
15.9383564704
 20
17.7176010433
 30
0.0
 10
15.9503579794
 20
17.7066606582
 30
0.0
 10
15.9664671152
 20
17.691866663
 30
0.0
 10
15.9870118941
 20
17.672863424
 30
0.0
 10
16.0090632513
 20
17.6523549819
 30
0.0
 10
16.0324228127
 20
17.6305395242
 30
0.0
 10
16.0568791705
 20
17.6076277767
 30
0.0
 10
16.0822120384
 20
17.5838401555
 30
0.0
 10
16.1081917117
 20
17.5594058282
 30
0.0
 10
16.134583635
 20
17.5345594376
 30
0.0
 10
16.1611487502
 20
17.5095397759
 30
0.0
 10
16.1876466881
 20
17.4845870676
 30
0.0
 10
16.2138379755
 20
17.4599407659
 30
0.0
 10
16.2394855185
 20
17.4358376351
 30
0.0
 10
16.2643579627
 20
17.4125090275
 30
0.0
 10
16.2882307482
 20
17.3901791913
 30
0.0
 10
16.3108886562
 20
17.3690630005
 30
0.0
 10
16.3321284339
 20
17.3493635729
 30
0.0
 10
16.3517585543
 20
17.3312714486
 30
0.0
 10
16.3670471873
 20
17.3172979113
 30
0.0
 10
16.3783486434
 20
17.3070586393
 30
0.0
 10
16.386068022
 20
17.3001119435
 30
0.0
 10
16.3932646282
 20
17.2936876573
 30
0.0
 10
16.3999227634
 20
17.2878012815
 30
0.0
 10
16.4060283602
 20
17.2824666072
 30
0.0
 10
16.411567883
 20
17.2776968025
 30
0.0
 10
16.4165287225
 20
17.2735043895
 30
0.0
 10
16.4203062073
 20
17.270389004
 30
0.0
 10
16.4230340586
 20
17.2681974032
 30
0.0
 10
16.4248478123
 20
17.266769587
 30
0.0
 10
16.4265101823
 20
17.2654927669
 30
0.0
 10
16.428020232
 20
17.2643677788
 30
0.0
 10
16.4293770072
 20
17.2633954208
 30
0.0
 10
16.4305795824
 20
17.2625762606
 30
0.0
 10
16.4316273301
 20
17.2619108751
 30
0.0
 10
16.4324091175
 20
17.2614618581
 30
0.0
 10
16.432958501
 20
17.2611845534
 30
0.0
 10
16.4333083818
 20
17.2610270087
 30
0.0
 10
16.4336195877
 20
17.2609078511
 30
0.0
 10
16.433892363
 20
17.2608269469
 30
0.0
 10
16.4341272545
 20
17.2607840932
 30
0.0
 10
16.4343254252
 20
17.2607795383
 30
0.0
 10
16.4344886758
 20
17.2608148016
 30
0.0
 10
16.4345754102
 20
17.2608702938
 30
0.0
 10
16.4346084285
 20
17.2609031795
 30
0.0
 11
15.8738860637
 21
17.7719454473
 31
0.0
 11
15.8741710503
 21
17.7718547869
 31
0.0
 11
15.8744950497
 21
17.7717251123
 31
0.0
 11
15.8748580034
 21
17.7715564819
 31
0.0
 11
15.8752598527
 21
17.7713489544
 31
0.0
 11
15.876180004
 21
17.7708174422
 31
0.0
 11
15.8772550351
 21
17.7701310443
 31
0.0
 11
15.8784844774
 21
17.7692902292
 31
0.0
 11
15.8798678623
 21
17.7682954654
 31
0.0
 11
15.8814047213
 21
17.7671472216
 31
0.0
 11
15.8830945526
 21
17.7658459994
 31
0.0
 11
15.8849364181
 21
17.7643927367
 31
0.0
 11
15.8869290731
 21
17.7627886784
 31
0.0
 11
15.8913617463
 21
17.7591331791
 31
0.0
 11
15.8963825625
 21
17.7548895105
 31
0.0
 11
15.9019815118
 21
17.7500676819
 31
0.0
 11
15.9081478567
 21
17.7446784297
 31
0.0
 11
15.9148670289
 21
17.7387363217
 31
0.0
 11
15.9221232036
 21
17.7322571821
 31
0.0
 11
15.9299005553
 21
17.7252568359
 31
0.0
 11
15.9381831525
 21
17.717751214
 31
0.0
 11
15.9469526231
 21
17.709758688
 31
0.0
 11
15.9658688256
 21
17.69239628
 31
0.0
 11
15.9864810187
 21
17.6733377519
 31
0.0
 11
16.0086041457
 21
17.6527681564
 31
0.0
 11
16.0320380526
 21
17.6308876438
 31
0.0
 11
16.0565730468
 21
17.6079059033
 31
0.0
 11
16.081985692
 21
17.584046368
 31
0.0
 11
16.1080480425
 21
17.5595369807
 31
0.0
 11
16.1345231243
 21
17.5346147131
 31
0.0
 11
16.1611720478
 21
17.509518452
 31
0.0
 11
16.1877538757
 21
17.484489133
 31
0.0
 11
16.2140275257
 21
17.4597678364
 31
0.0
 11
16.2397566144
 21
17.4355909441
 31
0.0
 11
16.2647077916
 21
17.4121918051
 31
0.0
 11
16.2886567147
 21
17.3897947609
 31
0.0
 11
16.3113878273
 21
17.3686153672
 31
0.0
 11
16.3326958409
 21
17.348858912
 31
0.0
 11
16.3523919825
 21
17.3307141681
 31
0.0
 11
16.3702970983
 21
17.3143602893
 31
0.0
 11
16.3785292696
 21
17.3069036763
 31
0.0
 11
16.3862560752
 21
17.2999523891
 31
0.0
 11
16.3934591122
 21
17.2935248305
 31
0.0
 11
16.4001233574
 21
17.2876360238
 31
0.0
 11
16.4062353891
 21
17.2822993909
 31
0.0
 11
16.4117817953
 21
17.277528344
 31
0.0
 11
16.4167492114
 21
17.2733362475
 31
0.0
 11
16.421126617
 21
17.2697341224
 31
0.0
 11
16.4230916583
 21
17.2681567067
 31
0.0
 11
16.42490636
 21
17.2667296207
 31
0.0
 11
16.4265697984
 21
17.2654537883
 31
0.0
 11
16.4280810496
 21
17.2643301335
 31
0.0
 11
16.4294391897
 21
17.2633595801
 31
0.0
 11
16.4306432948
 21
17.262543052
 31
0.0
 11
16.4316925328
 21
17.2618813814
 31
0.0
 11
16.432586591
 21
17.261374881
 31
0.0
 11
16.4329753871
 21
17.2611798602
 31
0.0
 11
16.4333253395
 21
17.2610236807
 31
0.0
 11
16.433636432
 21
17.2609063588
 31
0.0
 11
16.4339086485
 21
17.2608279105
 31
0.0
 11
16.4341419725
 21
17.2607883522
 31
0.0
 11
16.434336388
 21
17.2607877001
 31
0.0
 11
16.4344918788
 21
17.2608259705
 31
0.0
 11
16.4346084285
 21
17.2609031795
 31
0.0
  0
SPLINE
  5
42B
100
AcDbEntity
  8
0
100
AcDbSpline
 62
6
  6
CONTINUOUS
 70
0
 71
3
 72
69
 73
65
 74
63
 42
0.0000001
 43
0.0000001
 44
0.0000000001
 12
0.7375296221
 22
-0.1967820519
 32
0.0
 13
0.5384344907
 23
0.5410743189
 33
0.0
 40
0.0
 40
0.0
 40
0.0
 40
0.0
 40
0.000391111
 40
0.0008479146
 40
0.0013722223
 40
0.0019652209
 40
0.0033601753
 40
0.0050368841
 40
0.006996432
 40
0.0092386726
 40
0.0117629519
 40
0.0145683154
 40
0.0210175176
 40
0.0285759551
 40
0.0372299857
 40
0.0469579237
 40
0.0577361239
 40
0.0695407344
 40
0.0823473297
 40
0.0961257025
 40
0.1108416081
 40
0.1264606717
 40
0.1602679316
 40
0.1972316258
 40
0.2370070029
 40
0.2792260932
 40
0.3234922764
 40
0.3693970004
 40
0.416509446
 40
0.4643932028
 40
0.5126014295
 40
0.5606850241
 40
0.6081978392
 40
0.6546959219
 40
0.699748471
 40
0.7429357001
 40
0.7838556183
 40
0.8221305779
 40
0.8574007751
 40
0.8893455846
 40
0.9039739225
 40
0.9176616597
 40
0.9303789627
 40
0.9420960664
 40
0.9527835284
 40
0.9624171914
 40
0.9709782286
 40
0.97844837
 40
0.9817688281
 40
0.9848100101
 40
0.9875702652
 40
0.9900489971
 40
0.992245946
 40
0.9941611691
 40
0.9957952601
 40
0.9971497971
 40
0.9977233312
 40
0.9982286311
 40
0.998666919
 40
0.9990401463
 40
0.9993515748
 40
0.9996069561
 40
0.9998168756
 40
1.0
 40
1.0
 40
1.0
 40
1.0
 10
15.9229003546
 20
17.8239456666
 30
0.0
 10
15.9229965066
 20
17.823920012
 30
0.0
 10
15.9232019945
 20
17.8238532344
 30
0.0
 10
15.9235257579
 20
17.8237220597
 30
0.0
 10
15.9238886042
 20
17.8235521033
 30
0.0
 10
15.9244559046
 20
17.8232572251
 30
0.0
 10
15.9252609399
 20
17.822785679
 30
0.0
 10
15.9263374682
 20
17.8220925521
 30
0.0
 10
15.9275698881
 20
17.8212446374
 30
0.0
 10
15.9289573803
 20
17.8202425742
 30
0.0
 10
15.9304990505
 20
17.8190869711
 30
0.0
 10
15.932871424
 20
17.8172554098
 30
0.0
 10
15.936210715
 20
17.8145809529
 30
0.0
 10
15.9406541252
 20
17.8109059252
 30
0.0
 10
15.9456904061
 20
17.8066395054
 30
0.0
 10
15.9513084281
 20
17.8017929
 30
0.0
 10
15.9574951477
 20
17.7963786136
 30
0.0
 10
15.9642372461
 20
17.790409721
 30
0.0
 10
15.9715202247
 20
17.7839003306
 30
0.0
 10
15.9793279313
 20
17.776866575
 30
0.0
 10
15.9876424849
 20
17.7693263748
 30
0.0
 10
15.9997012155
 20
17.7583287139
 30
0.0
 10
16.0158878276
 20
17.7434566749
 30
0.0
 10
16.0365328527
 20
17.7243528122
 30
0.0
 10
16.0586930887
 20
17.703735224
 30
0.0
 10
16.0821684256
 20
17.6818034689
 30
0.0
 10
16.1067475964
 20
17.6587688041
 30
0.0
 10
16.1322077592
 20
17.6348534422
 30
0.0
 10
16.1583193163
 20
17.6102871337
 30
0.0
 10
16.184845526
 20
17.5853062162
 30
0.0
 10
16.2115465485
 20
17.560150501
 30
0.0
 10
16.2381807531
 20
17.5350615026
 30
0.0
 10
16.2645069599
 20
17.5102801456
 30
0.0
 10
16.2902874076
 20
17.486044208
 30
0.0
 10
16.3152889023
 20
17.4625865643
 30
0.0
 10
16.3392858507
 20
17.4401326321
 30
0.0
 10
16.3620622099
 20
17.4188983152
 30
0.0
 10
16.3834123599
 20
17.3990884114
 30
0.0
 10
16.4031457709
 20
17.380893722
 30
0.0
 10
16.4185137533
 20
17.366840646
 30
0.0
 10
16.4298740919
 20
17.3565428851
 30
0.0
 10
16.437633164
 20
17.3495568317
 30
0.0
 10
16.4448674239
 20
17.343095045
 30
0.0
 10
16.4515606349
 20
17.3371736255
 30
0.0
 10
16.4576975996
 20
17.3318077793
 30
0.0
 10
16.4632649034
 20
17.3270106599
 30
0.0
 10
16.4682509297
 20
17.3227934306
 30
0.0
 10
16.4720480676
 20
17.3196584062
 30
0.0
 10
16.4747903903
 20
17.3174524584
 30
0.0
 10
16.4766132499
 20
17.3160156336
 30
0.0
 10
16.4782833726
 20
17.3147312297
 30
0.0
 10
16.4797999837
 20
17.31359987
 30
0.0
 10
16.4811625047
 20
17.3126219744
 30
0.0
 10
16.4823703842
 20
17.3117977496
 30
0.0
 10
16.4834231123
 20
17.3111275303
 30
0.0
 10
16.4842088508
 20
17.310674611
 30
0.0
 10
16.4847611604
 20
17.3103944418
 30
0.0
 10
16.4851129219
 20
17.3102350733
 30
0.0
 10
16.4854257313
 20
17.3101143582
 30
0.0
 10
16.4856997857
 20
17.3100322063
 30
0.0
 10
16.4859355968
 20
17.3099884438
 30
0.0
 10
16.4861343339
 20
17.3099833679
 30
0.0
 10
16.4862978609
 20
17.31001854
 30
0.0
 10
16.4863845116
 20
17.3100743185
 30
0.0
 10
16.4864173784
 20
17.3101073464
 30
0.0
 11
15.9229003546
 21
17.8239456666
 31
0.0
 11
15.9231849189
 21
17.8238553704
 31
0.0
 11
15.9235086756
 21
17.8237258802
 31
0.0
 11
15.9238716149
 21
17.8235572057
 31
0.0
 11
15.9242737271
 21
17.8233493566
 31
0.0
 11
15.9251954313
 21
17.8228161739
 31
0.0
 11
15.9262736082
 21
17.8221265117
 31
0.0
 11
15.9275075486
 21
17.8212810795
 31
0.0
 11
15.9288963716
 21
17.8202807581
 31
0.0
 11
15.9304391963
 21
17.8191264284
 31
0.0
 11
15.9321351418
 21
17.8178189714
 31
0.0
 11
15.9359828711
 21
17.8147481993
 31
0.0
 11
15.940432512
 21
17.8110754894
 31
0.0
 11
15.9454758494
 21
17.8068090569
 31
0.0
 11
15.951100614
 21
17.8019611709
 31
0.0
 11
15.9572936571
 21
17.7965449803
 31
0.0
 11
15.9640418301
 21
17.7905736338
 31
0.0
 11
15.9713317466
 21
17.7840605175
 31
0.0
 11
15.9791469449
 21
17.7770220935
 31
0.0
 11
15.9874688171
 21
17.7694769694
 31
0.0
 11
15.9962787118
 21
17.7614437968
 31
0.0
 11
16.0152865302
 21
17.7439893444
 31
0.0
 11
16.0359994161
 21
17.7248297202
 31
0.0
 11
16.0582309441
 21
17.7041513496
 31
0.0
 11
16.0817822444
 21
17.6821531022
 31
0.0
 11
16.106439037
 21
17.6590492579
 31
0.0
 11
16.1319806418
 21
17.6350604964
 31
0.0
 11
16.1581743827
 21
17.6104194937
 31
0.0
 11
16.1847845833
 21
17.5853619257
 31
0.0
 11
16.2115699456
 21
17.5601290901
 31
0.0
 11
16.2382879553
 21
17.5349635005
 31
0.0
 11
16.264697692
 21
17.5101060773
 31
0.0
 11
16.2905594124
 21
17.4857965631
 31
0.0
 11
16.3156404599
 21
17.4622676142
 31
0.0
 11
16.3397141022
 21
17.4397459624
 31
0.0
 11
16.3625631812
 21
17.4184487656
 31
0.0
 11
16.3839836328
 21
17.3985800874
 31
0.0
 11
16.4037809506
 21
17.3803344337
 31
0.0
 11
16.4217816703
 21
17.3638852687
 31
0.0
 11
16.4300557393
 21
17.3563869358
 31
0.0
 11
16.4378214444
 21
17.3493969393
 31
0.0
 11
16.4450625602
 21
17.3429315046
 31
0.0
 11
16.4517628617
 21
17.3370068565
 31
0.0
 11
16.4579062458
 21
17.3316390982
 31
0.0
 11
16.4634793914
 21
17.3268415506
 31
0.0
 11
16.4684717476
 21
17.3226247648
 31
0.0
 11
16.472872883
 21
17.318999172
 31
0.0
 11
16.474848483
 21
17.3174113328
 31
0.0
 11
16.4766723666
 21
17.3159752031
 31
0.0
 11
16.4783434363
 21
17.3146918804
 31
0.0
 11
16.4798610959
 21
17.3135619608
 31
0.0
 11
16.4812248241
 21
17.3125859656
 31
0.0
 11
16.4824340997
 21
17.311764416
 31
0.0
 11
16.4834884015
 21
17.3110978332
 31
0.0
 11
16.4843872082
 21
17.3105867384
 31
0.0
 11
16.4847781381
 21
17.310389662
 31
0.0
 11
16.4851299987
 21
17.310231653
 31
0.0
 11
16.485442725
 21
17.3101127766
 31
0.0
 11
16.4857162518
 21
17.310033098
 31
0.0
 11
16.4859505139
 21
17.3099926823
 31
0.0
 11
16.4861454511
 21
17.3099915897
 31
0.0
 11
16.4863010609
 21
17.3100298227
 31
0.0
 11
16.4864173784
 21
17.3101073464
 31
0.0
  0
SPLINE
  5
42C
100
AcDbEntity
  8
0
100
AcDbSpline
 62
6
  6
CONTINUOUS
 70
0
 71
3
 72
11
 73
7
 74
5
 42
0.0000001
 43
0.0000001
 44
0.0000000001
 12
0.0204078267
 22
0.0219973459
 32
0.0
 13
0.0219973459
 23
0.0204078267
 33
0.0
 40
0.0
 40
0.0
 40
0.0
 40
0.0
 40
0.2499314624
 40
0.4999999994
 40
0.7500685365
 40
1.0
 40
1.0
 40
1.0
 40
1.0
 10
14.2512247476
 20
15.7119989005
 30
0.0
 10
14.2529249336
 20
15.7138315101
 30
0.0
 10
14.2563669157
 20
15.7174601247
 30
0.0
 10
14.2616277747
 20
15.7228090768
 30
0.0
 10
14.2669767268
 20
15.7280699359
 30
0.0
 10
14.2706053414
 20
15.7315119179
 30
0.0
 10
14.2724379511
 20
15.7332121039
 30
0.0
 11
14.2512247476
 21
15.7119989005
 31
0.0
 11
14.2563821974
 21
15.7174433955
 31
0.0
 11
14.2616424596
 21
15.722794392
 31
0.0
 11
14.2669934561
 21
15.7280546542
 31
0.0
 11
14.2724379511
 21
15.7332121039
 31
0.0
  0
SPLINE
  5
42D
100
AcDbEntity
  8
0
100
AcDbSpline
 62
6
  6
CONTINUOUS
 70
0
 71
3
 72
70
 73
66
 74
64
 42
0.0000001
 43
0.0000001
 44
0.0000000001
 12
0.7408806236
 22
-0.1985103672
 32
0.0
 13
0.5433079123
 23
0.5414120213
 33
0.0
 40
0.0
 40
0.0
 40
0.0
 40
0.0
 40
0.000390206
 40
0.00084624
 40
0.0013698214
 40
0.0019620396
 40
0.003354877
 40
0.005028249
 40
0.0069836043
 40
0.0092214921
 40
0.0117419648
 40
0.0145447663
 40
0.0176288739
 40
0.0209923414
 40
0.0285488802
 40
0.0371970588
 40
0.0469189212
 40
0.0576953351
 40
0.0695002441
 40
0.0823042722
 40
0.0960779304
 40
0.1107915843
 40
0.126411822
 40
0.1602168862
 40
0.1971795277
 40
0.2369568531
 40
0.2791755259
 40
0.3234459788
 40
0.3693519175
 40
0.4164690321
 40
0.464356219
 40
0.5125683923
 40
0.5606570866
 40
0.608173287
 40
0.6546766035
 40
0.6997329167
 40
0.7429237899
 40
0.7838487318
 40
0.822124671
 40
0.8574011959
 40
0.8893445633
 40
0.9039757236
 40
0.9176669939
 40
0.9303842484
 40
0.9420991582
 40
0.9527873414
 40
0.9624246246
 40
0.9709870709
 40
0.9784544986
 40
0.9817735663
 40
0.9848143051
 40
0.9875754082
 40
0.9900556994
 40
0.9922542018
 40
0.9941702579
 40
0.9958038153
 40
0.9971566185
 40
0.9977290616
 40
0.99823324
 40
0.9986704594
 40
0.9990427454
 40
0.9993534139
 40
0.9996082194
 40
0.9998176004
 40
1.0
 40
1.0
 40
1.0
 40
1.0
 10
15.972138936
 20
17.8757219956
 30
0.0
 10
15.9722353014
 20
17.8756961756
 30
0.0
 10
15.9724412905
 20
17.8756289497
 30
0.0
 10
15.9727658787
 20
17.8754969597
 30
0.0
 10
15.9731297464
 20
17.8753260002
 30
0.0
 10
15.9736986514
 20
17.8750295316
 30
0.0
 10
15.9745058088
 20
17.8745558674
 30
0.0
 10
15.9755850822
 20
17.8738601515
 30
0.0
 10
15.9768205639
 20
17.8730093123
 30
0.0
 10
15.9782117627
 20
17.8720036685
 30
0.0
 10
15.9797581499
 20
17.8708434272
 30
0.0
 10
15.9814590707
 20
17.8695290533
 30
0.0
 10
15.9833136541
 20
17.8680613278
 30
0.0
 10
15.9860997821
 20
17.8658124545
 30
0.0
 10
15.9899536704
 20
17.8626219007
 30
0.0
 10
15.9950102636
 20
17.8583356896
 30
0.0
 10
16.0006513053
 20
17.8534663073
 30
0.0
 10
16.0068647772
 20
17.8480252866
 30
0.0
 10
16.0136368997
 20
17.8420263157
 30
0.0
 10
16.020952079
 20
17.835484897
 30
0.0
 10
16.0287940906
 20
17.8284170949
 30
0.0
 10
16.037146005
 20
17.8208396638
 30
0.0
 10
16.0492598564
 20
17.8097868035
 30
0.0
 10
16.0655213458
 20
17.7948402577
 30
0.0
 10
16.086262285
 20
17.7756406775
 30
0.0
 10
16.1085259763
 20
17.7549196665
 30
0.0
 10
16.1321122261
 20
17.7328773583
 30
0.0
 10
16.1568072884
 20
17.7097267318
 30
0.0
 10
16.1823886938
 20
17.6856904383
 30
0.0
 10
16.2086243252
 20
17.6610000444
 30
0.0
 10
16.2352771821
 20
17.6358926329
 30
0.0
 10
16.262105747
 20
17.610609476
 30
0.0
 10
16.288867118
 20
17.585393317
 30
0.0
 10
16.3153193092
 20
17.5604861245
 30
0.0
 10
16.3412227824
 20
17.5361271312
 30
0.0
 10
16.3663436386
 20
17.5125501848
 30
0.0
 10
16.3904550848
 20
17.489981845
 30
0.0
 10
16.4133394256
 20
17.4686393643
 30
0.0
 10
16.4347914246
 20
17.4487279522
 30
0.0
 10
16.4546173285
 20
17.4304402782
 30
0.0
 10
16.4700580436
 20
17.4163149013
 30
0.0
 10
16.4814715817
 20
17.405963785
 30
0.0
 10
16.4892673955
 20
17.3989408287
 30
0.0
 10
16.4965350437
 20
17.3924456584
 30
0.0
 10
16.5032586105
 20
17.3864940532
 30
0.0
 10
16.5094238497
 20
17.3810999461
 30
0.0
 10
16.515017232
 20
17.3762765121
 30
0.0
 10
16.5200259531
 20
17.3720363987
 30
0.0
 10
16.5238395635
 20
17.3688850864
 30
0.0
 10
16.526593163
 20
17.3666679164
 30
0.0
 10
16.5284238291
 20
17.3652233104
 30
0.0
 10
16.5301015401
 20
17.3639312743
 30
0.0
 10
16.5316253712
 20
17.3627926317
 30
0.0
 10
16.5329943804
 20
17.3618081689
 30
0.0
 10
16.5342076299
 20
17.3609784561
 30
0.0
 10
16.5352644313
 20
17.360304104
 30
0.0
 10
16.5360527703
 20
17.3598486521
 30
0.0
 10
16.5366065717
 20
17.3595670491
 30
0.0
 10
16.5369591068
 20
17.3594069067
 30
0.0
 10
16.5372725481
 20
17.3592855629
 30
0.0
 10
16.5375471414
 20
17.3592028775
 30
0.0
 10
16.5377834407
 20
17.3591586321
 30
0.0
 10
16.5379826276
 20
17.3591530591
 30
0.0
 10
16.5381465882
 20
17.3591876615
 30
0.0
 10
16.5382336479
 20
17.3592431058
 30
0.0
 10
16.538266681
 20
17.3592760236
 30
0.0
 11
15.972138936
 21
17.8757219956
 31
0.0
 11
15.9724241045
 21
17.8756311357
 31
0.0
 11
15.9727487129
 21
17.875500834
 31
0.0
 11
15.9731126993
 21
17.8753311524
 31
0.0
 11
15.9735160018
 21
17.8751221529
 31
0.0
 11
15.974440307
 21
17.8745864479
 31
0.0
 11
15.975521133
 21
17.8738942148
 31
0.0
 11
15.9767579839
 21
17.8730459491
 31
0.0
 11
15.9781503642
 21
17.8720421467
 31
0.0
 11
15.9796977782
 21
17.8708833031
 31
0.0
 11
15.981399723
 21
17.8695699211
 31
0.0
 11
15.9832553791
 21
17.8681028203
 31
0.0
 11
15.9852634916
 21
17.8664832557
 31
0.0
 11
15.9897319398
 21
17.8627918806
 31
0.0
 11
15.9947947756
 21
17.8585060881
 31
0.0
 11
16.0004417068
 21
17.8536361701
 31
0.0
 11
16.0066619771
 21
17.8481928829
 31
0.0
 11
16.0134411772
 21
17.842190636
 31
0.0
 11
16.0207631681
 21
17.8356455682
 31
0.0
 11
16.0286118006
 21
17.8285738288
 31
0.0
 11
16.0369708821
 21
17.8209916103
 31
0.0
 11
16.0458221944
 21
17.8129171311
 31
0.0
 11
16.0649170612
 21
17.7953758402
 31
0.0
 11
16.0857258238
 21
17.7761205333
 31
0.0
 11
16.1080621686
 21
17.7553375241
 31
0.0
 11
16.1317233556
 21
17.7332295524
 31
0.0
 11
16.1564979003
 21
17.7100081027
 31
0.0
 11
16.1821598579
 21
17.6858991199
 31
0.0
 11
16.208478963
 21
17.6611328693
 31
0.0
 11
16.2352158567
 21
17.6359487101
 31
0.0
 11
16.2621290301
 21
17.6105881508
 31
0.0
 11
16.2889751456
 21
17.5852945293
 31
0.0
 11
16.3155105652
 21
17.5603114835
 31
0.0
 11
16.3414963234
 21
17.5358779792
 31
0.0
 11
16.3666968417
 21
17.5122295945
 31
0.0
 11
16.390885028
 21
17.489593422
 31
0.0
 11
16.4138434917
 21
17.4681868522
 31
0.0
 11
16.4353642429
 21
17.4482178749
 31
0.0
 11
16.4552569378
 21
17.4298768342
 31
0.0
 11
16.4733401578
 21
17.4133451486
 31
0.0
 11
16.4816539023
 21
17.4058071266
 31
0.0
 11
16.489457221
 21
17.3987795003
 31
0.0
 11
16.4967314803
 21
17.3922809036
 31
0.0
 11
16.5034611577
 21
17.386326859
 31
0.0
 11
16.5096328244
 21
17.3809307952
 31
0.0
 11
16.5152330906
 21
17.376106102
 31
0.0
 11
16.5202485795
 21
17.3718661564
 31
0.0
 11
16.5246677713
 21
17.368222478
 31
0.0
 11
16.5266513059
 21
17.366626689
 31
0.0
 11
16.5284829177
 21
17.3651828153
 31
0.0
 11
16.5301616953
 21
17.3638917683
 31
0.0
 11
16.5316867274
 21
17.3627544594
 31
0.0
 11
16.5330571025
 21
17.3617718001
 31
0.0
 11
16.5342719092
 21
17.3609447016
 31
0.0
 11
16.53533027
 21
17.3602740417
 31
0.0
 11
16.5362317536
 21
17.3597602515
 31
0.0
 11
16.5366236302
 21
17.3595622189
 31
0.0
 11
16.536976245
 21
17.3594034461
 31
0.0
 11
16.5372895848
 21
17.3592839466
 31
0.0
 11
16.5375636357
 21
17.359203734
 31
0.0
 11
16.5377983844
 21
17.3591628218
 31
0.0
 11
16.5379938172
 21
17.3591612236
 31
0.0
 11
16.5381499206
 21
17.3591989531
 31
0.0
 11
16.538266681
 21
17.3592760236
 31
0.0
  0
LINE
  5
42E
100
AcDbEntity
  8
0
100
AcDbLine
 62
6
  6
CONTINUOUS
 10
16.0714846108
 20
17.1274116313
 11
16.0602846845
 21
17.1377649653
  0
LINE
  5
42F
100
AcDbEntity
  8
0
100
AcDbLine
 62
6
  6
CONTINUOUS
 10
15.9749876422
 20
17.2172875947
 11
15.9571252516
 21
17.2340255411
  0
LINE
  5
430
100
AcDbEntity
  8
0
100
AcDbLine
 62
6
  6
CONTINUOUS
 10
15.939405013
 20
17.2506432407
 11
15.9214859766
 21
17.2674550262
  0
LINE
  5
431
100
AcDbEntity
  8
0
100
AcDbLine
 62
6
  6
CONTINUOUS
 10
14.3461745634
 20
15.7307212958
 11
14.3569045838
 21
15.7202381127
  0
SPLINE
  5
432
100
AcDbEntity
  8
0
100
AcDbSpline
 62
6
  6
CONTINUOUS
 70
0
 71
3
 72
69
 73
65
 74
63
 42
0.0000001
 43
0.0000001
 44
0.0000000001
 12
0.5363215263
 22
0.5376113541
 32
0.0
 13
0.7335917422
 23
-0.1962394033
 33
0.0
 40
0.0
 40
0.0
 40
0.0
 40
0.0
 40
0.0001845608
 40
0.0003959906
 40
0.0006528661
 40
0.0009656976
 40
0.0013402551
 40
0.0017798339
 40
0.0022864178
 40
0.0028612585
 40
0.0042185805
 40
0.0058558472
 40
0.0077748113
 40
0.0099762304
 40
0.012460319
 40
0.0152268434
 40
0.0182744543
 40
0.0216012682
 40
0.0290844761
 40
0.0376600154
 40
0.0473107676
 40
0.0580173444
 40
0.0697529586
 40
0.0824890076
 40
0.0961967914
 40
0.1108471228
 40
0.1428334219
 40
0.178144987
 40
0.2164596702
 40
0.2574146189
 40
0.3006337218
 40
0.3457105199
 40
0.392227523
 40
0.4397506956
 40
0.4878371892
 40
0.5360403674
 40
0.5839104776
 40
0.6310026771
 40
0.6768793825
 40
0.7211120977
 40
0.7632931466
 40
0.8030258078
 40
0.8399470732
 40
0.8737084259
 40
0.8893069881
 40
0.9040029283
 40
0.9177604234
 40
0.9305462935
 40
0.9423337498
 40
0.9530970419
 40
0.9628105565
 40
0.9714497546
 40
0.9789972867
 40
0.9854396294
 40
0.988242453
 40
0.9907644535
 40
0.9930044303
 40
0.9949615985
 40
0.9966365749
 40
0.9980313128
 40
0.9986247502
 40
0.9991498109
 40
0.9996076398
 40
1.0
 40
1.0
 40
1.0
 40
1.0
 10
15.8857353362
 20
17.7845183329
 30
0.0
 10
15.8857683309
 20
17.7845514069
 30
0.0
 10
15.8858551822
 20
17.7846072669
 30
0.0
 10
15.8860189231
 20
17.7846426645
 30
0.0
 10
15.886217757
 20
17.7846379855
 30
0.0
 10
15.8864535059
 20
17.7845948061
 30
0.0
 10
15.8867273086
 20
17.7845134091
 30
0.0
 10
15.8870396804
 20
17.7843936237
 30
0.0
 10
15.8873908276
 20
17.784235352
 30
0.0
 10
15.8879419881
 20
17.7839569824
 30
0.0
 10
15.8887259443
 20
17.7835066602
 30
0.0
 10
15.8897761416
 20
17.7828398968
 30
0.0
 10
15.8909810276
 20
17.7820195739
 30
0.0
 10
15.8923401728
 20
17.7810459461
 30
0.0
 10
15.8938530827
 20
17.7799191612
 30
0.0
 10
15.8955190481
 20
17.7786397136
 30
0.0
 10
15.8973371747
 20
17.7772084685
 30
0.0
 10
15.9000717288
 20
17.7750114393
 30
0.0
 10
15.9038575396
 20
17.7718891714
 30
0.0
 10
15.9088283859
 20
17.7676887438
 30
0.0
 10
15.9143785537
 20
17.7629102501
 30
0.0
 10
15.9204961141
 20
17.7575651681
 30
0.0
 10
15.9271674089
 20
17.7516671353
 30
0.0
 10
15.934377095
 20
17.7452313067
 30
0.0
 10
15.9421094887
 20
17.7382732594
 30
0.0
 10
15.9534294282
 20
17.7280174246
 30
0.0
 10
15.968741003
 20
17.7140227972
 30
0.0
 10
15.9883991832
 20
17.6959053573
 30
0.0
 10
16.0096644918
 20
17.6761820734
 30
0.0
 10
16.0323468949
 20
17.6550433695
 30
0.0
 10
16.0562406171
 20
17.632693904
 30
0.0
 10
16.0811307872
 20
17.6093487633
 30
0.0
 10
16.1067918396
 20
17.5852329904
 30
0.0
 10
16.1329919435
 20
17.5605783661
 30
0.0
 10
16.1594940154
 20
17.5356218241
 30
0.0
 10
16.186058134
 20
17.5106030725
 30
0.0
 10
16.212444101
 20
17.485762258
 30
0.0
 10
16.2384132766
 20
17.4613378486
 30
0.0
 10
16.263730782
 20
17.4375644799
 30
0.0
 10
16.2881685153
 20
17.4146702984
 30
0.0
 10
16.3115053252
 20
17.3928757997
 30
0.0
 10
16.3335321761
 20
17.372390247
 30
0.0
 10
16.3540499438
 20
17.3534117124
 30
0.0
 10
16.3701359708
 20
17.3386388064
 30
0.0
 10
16.3821187727
 20
17.3277154937
 30
0.0
 10
16.3903806895
 20
17.3202267083
 30
0.0
 10
16.3981383272
 20
17.3132417916
 30
0.0
 10
16.40537447
 20
17.306778063
 30
0.0
 10
16.4120734713
 20
17.3008508462
 30
0.0
 10
16.4182210515
 20
17.2954742135
 30
0.0
 10
16.4238032262
 20
17.2906618651
 30
0.0
 10
16.4288074862
 20
17.2864261412
 30
0.0
 10
16.4332231575
 20
17.2827772756
 30
0.0
 10
16.4365423722
 20
17.2801213387
 30
0.0
 10
16.4389010418
 20
17.2783022078
 30
0.0
 10
16.4404339315
 20
17.2771544793
 30
0.0
 10
16.441813444
 20
17.2761594643
 30
0.0
 10
16.4430387999
 20
17.2753177655
 30
0.0
 10
16.4441094413
 20
17.2746297406
 30
0.0
 10
16.4449103594
 20
17.2741614675
 30
0.0
 10
16.445475133
 20
17.2738683586
 30
0.0
 10
16.4458366915
 20
17.2736992142
 30
0.0
 10
16.4461595192
 20
17.2735684994
 30
0.0
 10
16.4463644751
 20
17.2735018464
 30
0.0
 10
16.4464604192
 20
17.2734761809
 30
0.0
 11
15.8857353362
 21
17.7845183329
 31
0.0
 11
15.8858519967
 21
17.7845960063
 31
0.0
 11
15.8860078823
 21
17.7846344532
 31
0.0
 11
15.8862029484
 21
17.7846337181
 31
0.0
 11
15.88643714
 21
17.7845938561
 31
0.0
 11
15.8867104018
 21
17.7845149225
 31
0.0
 11
15.8870226786
 21
17.7843969723
 31
0.0
 11
15.8873739152
 21
17.7842400609
 31
0.0
 11
15.8877640566
 21
17.7840442433
 31
0.0
 11
15.8886608326
 21
17.7835361103
 31
0.0
 11
15.8897125653
 21
17.7828730148
 31
0.0
 11
15.8909188132
 21
17.7820553981
 31
0.0
 11
15.8922791348
 21
17.7810837017
 31
0.0
 11
15.8937930889
 21
17.7799583668
 31
0.0
 11
15.8954601648
 21
17.7786799039
 31
0.0
 11
15.8972793581
 21
17.7772493176
 31
0.0
 11
15.8992494489
 21
17.7756678274
 31
0.0
 11
15.9036374406
 21
17.7720570179
 31
0.0
 11
15.9086143741
 21
17.7678572402
 31
0.0
 11
15.9141704842
 21
17.7630782589
 31
0.0
 11
15.9202949662
 21
17.757730878
 31
0.0
 11
15.9269731487
 21
17.751829768
 31
0.0
 11
15.9341894612
 21
17.745390499
 31
0.0
 11
15.9419283332
 21
17.738428641
 31
0.0
 11
15.9501739685
 21
17.7309599894
 31
0.0
 11
15.9681089061
 21
17.7145789266
 31
0.0
 11
15.9878309972
 21
17.696410583
 31
0.0
 11
16.0091668488
 21
17.6766283474
 31
0.0
 11
16.0319213165
 21
17.6554273606
 31
0.0
 11
16.0558922121
 21
17.6330098069
 31
0.0
 11
16.0808610957
 21
17.6095941233
 31
0.0
 11
16.1066036373
 21
17.5854046365
 31
0.0
 11
16.1328866426
 21
17.5606745381
 31
0.0
 11
16.1594721981
 21
17.5356417391
 31
0.0
 11
16.1861203637
 21
17.5105461776
 31
0.0
 11
16.2125895268
 21
17.485629464
 31
0.0
 11
16.2386407082
 21
17.4611305758
 31
0.0
 11
16.2640388175
 21
17.4372846022
 31
0.0
 11
16.2885536272
 21
17.4143217695
 31
0.0
 11
16.3119660659
 21
17.392461148
 31
0.0
 11
16.3340629046
 21
17.3719159663
 31
0.0
 11
16.3546489647
 21
17.3528814026
 31
0.0
 11
16.3735367573
 21
17.3355449457
 31
0.0
 11
16.3822914891
 21
17.3275658215
 31
0.0
 11
16.3905609714
 21
17.3200719067
 31
0.0
 11
16.3983258697
 21
17.3130825359
 31
0.0
 11
16.4055682436
 21
17.3066156494
 31
0.0
 11
16.4122735539
 21
17.3006857868
 31
0.0
 11
16.41842777
 21
17.2953069786
 31
0.0
 11
16.4240168614
 21
17.2904932556
 31
0.0
 11
16.4290272622
 21
17.2862581836
 31
0.0
 11
16.4334490998
 21
17.2826116355
 31
0.0
 11
16.4372742636
 21
17.2795617222
 31
0.0
 11
16.4389605616
 21
17.2782630347
 31
0.0
 11
16.4404946538
 21
17.2771165434
 31
0.0
 11
16.4418755277
 21
17.2761232607
 31
0.0
 11
16.4431022309
 21
17.275284139
 31
0.0
 11
16.444174299
 21
17.2745996428
 31
0.0
 11
16.445091504
 21
17.2740700001
 31
0.0
 11
16.4454919621
 21
17.2738633196
 31
0.0
 11
16.4458536195
 21
17.2736954373
 31
0.0
 11
16.446176448
 21
17.2735663817
 31
0.0
 11
16.4464604192
 21
17.2734761809
 31
0.0
  0
SPLINE
  5
433
100
AcDbEntity
  8
0
100
AcDbSpline
 62
6
  6
CONTINUOUS
 70
0
 71
3
 72
70
 73
66
 74
64
 42
0.0000001
 43
0.0000001
 44
0.0000000001
 12
0.5389317679
 22
0.5405811303
 32
0.0
 13
0.7375602161
 23
-0.1966731718
 33
0.0
 40
0.0
 40
0.0
 40
0.0
 40
0.0
 40
0.0001835476
 40
0.0003938583
 40
0.0006495179
 40
0.0009611157
 40
0.0013345244
 40
0.0017731519
 40
0.0022790981
 40
0.002853665
 40
0.0042113187
 40
0.0058496766
 40
0.0077699905
 40
0.0099725178
 40
0.0124569745
 40
0.0152227581
 40
0.0182690664
 40
0.021594966
 40
0.0290796747
 40
0.0376588761
 40
0.047311744
 40
0.0580171102
 40
0.069753267
 40
0.0824929135
 40
0.0962041623
 40
0.1108549234
 40
0.1428438376
 40
0.1781611913
 40
0.2164775407
 40
0.2574386657
 40
0.3006595708
 40
0.345741651
 40
0.392261391
 40
0.439788368
 40
0.4878784359
 40
0.5360841452
 40
0.5839576799
 40
0.6310519021
 40
0.6769305128
 40
0.721165432
 40
0.7633457769
 40
0.8030807889
 40
0.8399984197
 40
0.87376115
 40
0.8893572625
 40
0.9040494765
 40
0.9178050637
 40
0.9305913437
 40
0.9423763266
 40
0.9531342599
 40
0.9628430254
 40
0.9714807498
 40
0.9790259549
 40
0.9823832382
 40
0.9854619052
 40
0.9882609107
 40
0.990779334
 40
0.993016442
 40
0.9949717994
 40
0.9966454729
 40
0.99803844
 40
0.9986305309
 40
0.9991539085
 40
0.9996097855
 40
1.0
 40
1.0
 40
1.0
 40
1.0
 10
15.9347547289
 20
17.8365184771
 30
0.0
 10
15.9347877021
 20
17.8365515512
 30
0.0
 10
15.9348745377
 20
17.8366074061
 30
0.0
 10
15.935038302
 20
17.8366427561
 30
0.0
 10
15.9352372582
 20
17.8366379145
 30
0.0
 10
15.9354732822
 20
17.8365944077
 30
0.0
 10
15.9357475834
 20
17.8365124548
 30
0.0
 10
15.9360607454
 20
17.8363918203
 30
0.0
 10
15.936413025
 20
17.836232344
 30
0.0
 10
15.9369664467
 20
17.8359516636
 30
0.0
 10
15.9377540017
 20
17.8354975957
 30
0.0
 10
15.9388093178
 20
17.8348255268
 30
0.0
 10
15.9400202354
 20
17.8339990059
 30
0.0
 10
15.9413860573
 20
17.8330185503
 30
0.0
 10
15.9429060452
 20
17.8318845489
 30
0.0
 10
15.9445794606
 20
17.8305975837
 30
0.0
 10
15.9464055846
 20
17.8291582772
 30
0.0
 10
15.9491529543
 20
17.8269483883
 30
0.0
 10
15.9529575071
 20
17.8238070715
 30
0.0
 10
15.9579534753
 20
17.8195811134
 30
0.0
 10
15.9635313087
 20
17.814774647
 30
0.0
 10
15.9696790398
 20
17.8093993805
 30
0.0
 10
15.976383532
 20
17.8034679136
 30
0.0
 10
15.983629989
 20
17.7969949615
 30
0.0
 10
15.9914018517
 20
17.7899971193
 30
0.0
 10
16.0027790826
 20
17.7796838369
 30
0.0
 10
16.0181683621
 20
17.7656111251
 30
0.0
 10
16.0379263582
 20
17.74739323
 30
0.0
 10
16.059300703
 20
17.727560779
 30
0.0
 10
16.0820985258
 20
17.7063060094
 30
0.0
 10
16.1061148659
 20
17.6838338227
 30
0.0
 10
16.1311320237
 20
17.6603612162
 30
0.0
 10
16.1569245809
 20
17.636113782
 30
0.0
 10
16.1832586294
 20
17.6113249517
 30
0.0
 10
16.2098962105
 20
17.5862327098
 30
0.0
 10
16.2365961435
 20
17.5610780582
 30
0.0
 10
16.263116697
 20
17.5361025217
 30
0.0
 10
16.2892182454
 20
17.5115457312
 30
0.0
 10
16.3146645454
 20
17.4876436072
 30
0.0
 10
16.3392259785
 20
17.4646256854
 30
0.0
 10
16.3626810273
 20
17.4427132605
 30
0.0
 10
16.3848180533
 20
17.4221173959
 30
0.0
 10
16.4054388972
 20
17.4030363813
 30
0.0
 10
16.4216043511
 20
17.3881839518
 30
0.0
 10
16.4336460777
 20
17.377202025
 30
0.0
 10
16.4419476792
 20
17.3696738067
 30
0.0
 10
16.4497428904
 20
17.3626515412
 30
0.0
 10
16.4570140252
 20
17.3561528222
 30
0.0
 10
16.4637447028
 20
17.3501941131
 30
0.0
 10
16.469920247
 20
17.3447898576
 30
0.0
 10
16.4755276463
 20
17.3399526182
 30
0.0
 10
16.480554616
 20
17.3356944016
 30
0.0
 10
16.4843857952
 20
17.3325252399
 30
0.0
 10
16.4871551196
 20
17.3302922162
 30
0.0
 10
16.4889985047
 20
17.32883496
 30
0.0
 10
16.4906896795
 20
17.3275295483
 30
0.0
 10
16.4922278723
 20
17.3263766597
 30
0.0
 10
16.4936122934
 20
17.3253769354
 30
0.0
 10
16.4948421502
 20
17.3245308389
 30
0.0
 10
16.4959166883
 20
17.3238389518
 30
0.0
 10
16.496720325
 20
17.3233680044
 30
0.0
 10
16.4972867052
 20
17.3230734631
 30
0.0
 10
16.4976488924
 20
17.3229037556
 30
0.0
 10
16.4979719992
 20
17.3227728236
 30
0.0
 10
16.4981770499
 20
17.3227061991
 30
0.0
 10
16.4982729855
 20
17.3226806175
 30
0.0
 11
15.9347547289
 21
17.8365184771
 31
0.0
 11
15.9348713451
 21
17.8365961356
 31
0.0
 11
15.9350272229
 21
17.8366345308
 31
0.0
 11
15.935222374
 21
17.836633651
 31
0.0
 11
15.9354568104
 21
17.8365934842
 31
0.0
 11
15.935730544
 21
17.8365140188
 31
0.0
 11
15.9360435864
 21
17.8363952427
 31
0.0
 11
15.9363959488
 21
17.836237145
 31
0.0
 11
15.9367876036
 21
17.8360397533
 31
0.0
 11
15.9376884499
 21
17.8355274282
 31
0.0
 11
15.9387454224
 21
17.8348589703
 31
0.0
 11
15.9399578139
 21
17.8340350868
 31
0.0
 11
15.941324917
 21
17.8330564852
 31
0.0
 11
15.9428460243
 21
17.8319238727
 31
0.0
 11
15.9445204287
 21
17.8306379566
 31
0.0
 11
15.9463474226
 21
17.8291994444
 31
0.0
 11
15.9483262989
 21
17.8276090433
 31
0.0
 11
15.9527359686
 21
17.8239763042
 31
0.0
 11
15.9577387838
 21
17.8197503935
 31
0.0
 11
15.9633229268
 21
17.8149431288
 31
0.0
 11
15.96947658
 21
17.8095663277
 31
0.0
 11
15.9761877476
 21
17.8036319861
 31
0.0
 11
15.9834414841
 21
17.7971550496
 31
0.0
 11
15.9912204164
 21
17.7901528911
 31
0.0
 11
15.9995070996
 21
17.7826429557
 31
0.0
 11
16.0175325725
 21
17.7661709001
 31
0.0
 11
16.0373561928
 21
17.7479005929
 31
0.0
 11
16.058799732
 21
17.7280102626
 31
0.0
 11
16.0816716995
 21
17.7066913996
 31
0.0
 11
16.1057640624
 21
17.6841520365
 31
0.0
 11
16.130861491
 21
17.6606075031
 31
0.0
 11
16.1567352389
 21
17.6362865453
 31
0.0
 11
16.1831528535
 21
17.6114216153
 31
0.0
 11
16.2098744868
 21
17.586252561
 31
0.0
 11
16.2366585147
 21
17.5610210059
 31
0.0
 11
16.263263117
 21
17.5359687698
 31
0.0
 11
16.2894468349
 21
17.5113373112
 31
0.0
 11
16.3149740518
 21
17.4873622462
 31
0.0
 11
16.3396135701
 21
17.4642747719
 31
0.0
 11
16.3631434503
 21
17.4422968274
 31
0.0
 11
16.3853525779
 21
17.4216395271
 31
0.0
 11
16.4060398795
 21
17.4025039437
 31
0.0
 11
16.4250228357
 21
17.3850725965
 31
0.0
 11
16.4338198885
 21
17.377051307
 31
0.0
 11
16.442128492
 21
17.3695184394
 31
0.0
 11
16.4499308843
 21
17.3624917554
 31
0.0
 11
16.4572093035
 21
17.3559890169
 31
0.0
 11
16.4639463243
 21
17.3500276493
 31
0.0
 11
16.4701278427
 21
17.3446217564
 31
0.0
 11
16.4757416479
 21
17.3397835491
 31
0.0
 11
16.4807755509
 21
17.3355252163
 31
0.0
 11
16.485217397
 21
17.3318589125
 31
0.0
 11
16.4872129932
 21
17.330251077
 31
0.0
 11
16.4890572537
 21
17.3287945703
 31
0.0
 11
16.490749419
 21
17.3274901518
 31
0.0
 11
16.4922887297
 21
17.3263385809
 31
0.0
 11
16.4936744265
 21
17.325340617
 31
0.0
 11
16.49490575
 21
17.3244970194
 31
0.0
 11
16.4959819408
 21
17.3238085475
 31
0.0
 11
16.4969022396
 21
17.3232759606
 31
0.0
 11
16.4973036986
 21
17.3230683549
 31
0.0
 11
16.4976659729
 21
17.3228999322
 31
0.0
 11
16.4979890669
 21
17.322770688
 31
0.0
 11
16.4982729855
 21
17.3226806175
 31
0.0
  0
SPLINE
  5
434
100
AcDbEntity
  8
0
100
AcDbSpline
 62
6
  6
CONTINUOUS
 70
0
 71
3
 72
69
 73
65
 74
63
 42
0.0000001
 43
0.0000001
 44
0.0000000001
 12
0.5438960727
 22
0.5413706356
 32
0.0
 13
0.7410862768
 23
-0.1992391362
 33
0.0
 40
0.0
 40
0.0
 40
0.0
 40
0.0
 40
0.0001827904
 40
0.0003926671
 40
0.0006480953
 40
0.0009595132
 40
0.0013326666
 40
0.0017708597
 40
0.0022761054
 40
0.0028496959
 40
0.0042049784
 40
0.0058411782
 40
0.007760392
 40
0.0099628277
 40
0.0124477243
 40
0.0152139971
 40
0.0182603609
 40
0.0215853989
 40
0.029065362
 40
0.0376409917
 40
0.0472933466
 40
0.0579979024
 40
0.0697297051
 40
0.0824636595
 40
0.0961721959
 40
0.1108211802
 40
0.1427993048
 40
0.1781079664
 40
0.216412935
 40
0.2573611198
 40
0.3005693409
 40
0.345635115
 40
0.3921397889
 40
0.4396483339
 40
0.4877201339
 40
0.5359063258
 40
0.5837585403
 40
0.6308322422
 40
0.6766870091
 40
0.7209002159
 40
0.7630575859
 40
0.8027692522
 40
0.8396609607
 40
0.8733961197
 40
0.9036737341
 40
0.9174241951
 40
0.9302023705
 40
0.9419735249
 40
0.9527030843
 40
0.9623684173
 40
0.9709691006
 40
0.9785076964
 40
0.9818798372
 40
0.9849879664
 40
0.9878324009
 40
0.9904096913
 40
0.9927145375
 40
0.9947418509
 40
0.996486941
 40
0.9979458629
 40
0.9985672518
 40
0.9991164386
 40
0.9995937269
 40
1.0
 40
1.0
 40
1.0
 40
1.0
 10
15.9839975053
 20
17.8882944704
 30
0.0
 10
15.984030645
 20
17.8883274561
 30
0.0
 10
15.9841179868
 20
17.8883829915
 30
0.0
 10
15.9842824325
 20
17.8884175862
 30
0.0
 10
15.9844821958
 20
17.8884119065
 30
0.0
 10
15.984719164
 20
17.8883674592
 30
0.0
 10
15.9849945134
 20
17.8882844834
 30
0.0
 10
15.9853087905
 20
17.8881627673
 30
0.0
 10
15.9856622333
 20
17.8880021781
 30
0.0
 10
15.9862173738
 20
17.8877198667
 30
0.0
 10
15.9870075033
 20
17.8872633892
 30
0.0
 10
15.9880666629
 20
17.8865876176
 30
0.0
 10
15.9892825993
 20
17.8857561057
 30
0.0
 10
15.9906547146
 20
17.8847693776
 30
0.0
 10
15.9921820958
 20
17.8836280216
 30
0.0
 10
15.9938637371
 20
17.882332879
 30
0.0
 10
15.9956986538
 20
17.8808848345
 30
0.0
 10
15.9984583981
 20
17.8786626057
 30
0.0
 10
16.0022801378
 20
17.8755044817
 30
0.0
 10
16.0072993348
 20
17.871255462
 30
0.0
 10
16.0129041046
 20
17.866422038
 30
0.0
 10
16.0190816748
 20
17.8610169613
 30
0.0
 10
16.0258181204
 20
17.8550537772
 30
0.0
 10
16.0330990837
 20
17.848546592
 30
0.0
 10
16.0409086017
 20
17.8415111342
 30
0.0
 10
16.0523410145
 20
17.8311426452
 30
0.0
 10
16.0678053804
 20
17.8169953509
 30
0.0
 10
16.0876591948
 20
17.7986816456
 30
0.0
 10
16.1091376946
 20
17.7787453085
 30
0.0
 10
16.1320465047
 20
17.7573797729
 30
0.0
 10
16.1561793534
 20
17.7347911452
 30
0.0
 10
16.1813180714
 20
17.7111972662
 30
0.0
 10
16.2072351485
 20
17.6868253334
 30
0.0
 10
16.2336963367
 20
17.6619095716
 30
0.0
 10
16.2604617933
 20
17.6366895069
 30
0.0
 10
16.2872894327
 20
17.6114072453
 30
0.0
 10
16.3139363901
 20
17.586305525
 30
0.0
 10
16.340161195
 20
17.561625424
 30
0.0
 10
16.3657271903
 20
17.537603548
 30
0.0
 10
16.3904031262
 20
17.5144709913
 30
0.0
 10
16.413967347
 20
17.4924502327
 30
0.0
 10
16.4362056869
 20
17.4717537344
 30
0.0
 10
16.4569174442
 20
17.4525793593
 30
0.0
 10
16.4759199621
 20
17.4351111908
 30
0.0
 10
16.4906308861
 20
17.4217216152
 30
0.0
 10
16.501428436
 20
17.4119971244
 30
0.0
 10
16.5087330057
 20
17.405468184
 30
0.0
 10
16.5154873835
 20
17.3994833689
 30
0.0
 10
16.5216729348
 20
17.3940574088
 30
0.0
 10
16.5272791466
 20
17.3892010089
 30
0.0
 10
16.532307794
 20
17.3849249009
 30
0.0
 10
16.5361519829
 20
17.3817413295
 30
0.0
 10
16.538947693
 20
17.3794954211
 30
0.0
 10
16.5408247799
 20
17.3780235656
 30
0.0
 10
16.5425612609
 20
17.376702244
 30
0.0
 10
16.5441543379
 20
17.3755322242
 30
0.0
 10
16.545599558
 20
17.3745145514
 30
0.0
 10
16.5468921603
 20
17.3736505516
 30
0.0
 10
16.5480273838
 20
17.3729416279
 30
0.0
 10
16.5488783691
 20
17.3724575363
 30
0.0
 10
16.5494783603
 20
17.3721532274
 30
0.0
 10
16.5498615479
 20
17.3719772364
 30
0.0
 10
16.5502019539
 20
17.3718409991
 30
0.0
 10
16.5504172033
 20
17.3717710832
 30
0.0
 10
16.5505175644
 20
17.3717441014
 30
0.0
 11
15.9839975053
 21
17.8882944704
 31
0.0
 11
15.9841146257
 21
17.8883716683
 31
0.0
 11
15.984271201
 21
17.8884094093
 31
0.0
 11
15.9844672097
 21
17.8884077151
 31
0.0
 11
15.9847026302
 21
17.8883666073
 31
0.0
 11
15.9849774409
 21
17.8882861074
 31
0.0
 11
15.9852916202
 21
17.8881662369
 31
0.0
 11
15.9856451466
 21
17.8880070176
 31
0.0
 11
15.9860379985
 21
17.8878084709
 31
0.0
 11
15.9869415922
 21
17.8872934819
 31
0.0
 11
15.9880022288
 21
17.8866214424
 31
0.0
 11
15.9892196711
 21
17.8857925899
 31
0.0
 11
15.9905931818
 21
17.8848076615
 31
0.0
 11
15.9921217899
 21
17.8836676281
 31
0.0
 11
15.9938045234
 21
17.8823734618
 31
0.0
 11
15.99564041
 21
17.8809261349
 31
0.0
 11
15.9976284777
 21
17.8793266195
 31
0.0
 11
16.0020572676
 21
17.8756749116
 31
0.0
 11
16.0070829811
 21
17.8714262501
 31
0.0
 11
16.0126947671
 21
17.8665914861
 31
0.0
 11
16.0188789215
 21
17.8611843237
 31
0.0
 11
16.0256216229
 21
17.8552185843
 31
0.0
 11
16.0329090478
 21
17.8487080913
 31
0.0
 11
16.0407260785
 21
17.8416679624
 31
0.0
 11
16.0490540672
 21
17.8341168456
 31
0.0
 11
16.067165941
 21
17.8175586255
 31
0.0
 11
16.087086665
 21
17.7991914352
 31
0.0
 11
16.1086344646
 21
17.7791970488
 31
0.0
 11
16.1316174446
 21
17.7577673609
 31
0.0
 11
16.1558274517
 21
17.7351105263
 31
0.0
 11
16.1810459056
 21
17.7114451277
 31
0.0
 11
16.2070454798
 21
17.6869984879
 31
0.0
 11
16.2335899789
 21
17.6620067931
 31
0.0
 11
16.2604401969
 21
17.6367092559
 31
0.0
 11
16.2873524718
 21
17.611349572
 31
0.0
 11
16.314083394
 21
17.586171149
 31
0.0
 11
16.3403915755
 21
17.5614152592
 31
0.0
 11
16.3660378794
 21
17.5373209842
 31
0.0
 11
16.3907930183
 21
17.5141179821
 31
0.0
 11
16.4144322024
 21
17.4920314038
 31
0.0
 11
16.4367431563
 21
17.471272445
 31
0.0
 11
16.4575217342
 21
17.4520435746
 31
0.0
 11
16.4765862759
 21
17.4345292047
 31
0.0
 11
16.4937761835
 21
17.4188966627
 31
0.0
 11
16.5016178354
 21
17.4118357965
 31
0.0
 11
16.5089299593
 21
17.4053020143
 31
0.0
 11
16.5156920011
 21
17.399312563
 31
0.0
 11
16.5218834935
 21
17.393884653
 31
0.0
 11
16.5274928023
 21
17.3890317795
 31
0.0
 11
16.5325246146
 21
17.3847605728
 31
0.0
 11
16.5369853813
 21
17.3810769211
 31
0.0
 11
16.5390036385
 21
17.3794572685
 31
0.0
 11
16.5408815533
 21
17.3779867129
 31
0.0
 11
16.5426195323
 21
17.3766660513
 31
0.0
 11
16.5442145709
 21
17.3754966026
 31
0.0
 11
16.5456619365
 21
17.3744799498
 31
0.0
 11
16.5469568833
 21
17.3736176779
 31
0.0
 11
16.5480946653
 21
17.3729113721
 31
0.0
 11
16.5490705368
 21
17.3723626174
 31
0.0
 11
16.549496273
 21
17.372147817
 31
0.0
 11
16.5498797518
 21
17.3719729988
 31
0.0
 11
16.55022038
 21
17.3718383609
 31
0.0
 11
16.5505175644
 21
17.3717441014
 31
0.0
  0
LINE
  5
435
100
AcDbEntity
  8
0
100
AcDbLine
 62
6
  6
CONTINUOUS
 10
16.5509403215
 20
17.3716310603
 11
16.5508188496
 21
17.3716736788
  0
SPLINE
  5
436
100
AcDbEntity
  8
0
100
AcDbSpline
 62
6
  6
CONTINUOUS
 70
0
 71
3
 72
41
 73
37
 74
35
 42
0.0000001
 43
0.0000001
 44
0.0000000001
 12
-0.6114579786
 22
0.2543111704
 32
0.0
 13
-0.4768526371
 23
0.4595286645
 33
0.0
 40
0.0
 40
0.0
 40
0.0
 40
0.0
 40
0.000223998
 40
0.0004936599
 40
0.0011722559
 40
0.0020385795
 40
0.0030935744
 40
0.0043375422
 40
0.0057704807
 40
0.0092024772
 40
0.0133873804
 40
0.01832082
 40
0.023994536
 40
0.0303995526
 40
0.0375267972
 40
0.0453671377
 40
0.0539113676
 40
0.0631483162
 40
0.083643798
 40
0.1067391772
 40
0.1323171672
 40
0.160239035
 40
0.1903551638
 40
0.2225132303
 40
0.2565432648
 40
0.292267936
 40
0.3295076573
 40
0.3680702477
 40
0.4483761202
 40
0.5315723839
 40
0.6160027822
 40
0.7000066868
 40
0.7819424993
 40
0.8602229521
 40
0.9333957437
 40
1.0
 40
1.0
 40
1.0
 40
1.0
 10
16.5508188496
 20
17.3716736788
 30
0.0
 10
16.5507731944
 20
17.3716926672
 30
0.0
 10
16.5506745995
 20
17.3717393644
 30
0.0
 10
16.5504475486
 20
17.3718636626
 30
0.0
 10
16.5501091238
 20
17.3720785814
 30
0.0
 10
16.5496389548
 20
17.3724078177
 30
0.0
 10
16.5490791107
 20
17.3728260518
 30
0.0
 10
16.5484298017
 20
17.3733331052
 30
0.0
 10
16.5473803977
 20
17.3741800725
 30
0.0
 10
16.5458498693
 20
17.3754641728
 30
0.0
 10
16.5437546259
 20
17.3772767698
 30
0.0
 10
16.5413084031
 20
17.3794397154
 30
0.0
 10
16.5385148015
 20
17.3819494276
 30
0.0
 10
16.5353782205
 20
17.3848018717
 30
0.0
 10
16.5319030508
 20
17.3879927733
 30
0.0
 10
16.5280936858
 20
17.3915178462
 30
0.0
 10
16.5239548134
 20
17.3953724718
 30
0.0
 10
16.5177871238
 20
17.4011475702
 30
0.0
 10
16.5093024182
 20
17.4091476016
 30
0.0
 10
16.498227628
 20
17.4196586445
 30
0.0
 10
16.4859934684
 20
17.4313294082
 30
0.0
 10
16.472663318
 20
17.4440964788
 30
0.0
 10
16.4583060799
 20
17.457891082
 30
0.0
 10
16.4429955992
 20
17.4726396605
 30
0.0
 10
16.4268098716
 20
17.488264169
 30
0.0
 10
16.4098311839
 20
17.5046823568
 30
0.0
 10
16.3921453407
 20
17.5218085688
 30
0.0
 10
16.3674036524
 20
17.5457949627
 30
0.0
 10
16.3353999802
 20
17.5768650588
 30
0.0
 10
16.2961526106
 20
17.6150095385
 30
0.0
 10
16.2563296021
 20
17.653732994
 30
0.0
 10
16.2167051546
 20
17.6922615348
 30
0.0
 10
16.1780428014
 20
17.7298321448
 30
0.0
 10
16.1410734625
 20
17.7657142169
 30
0.0
 10
16.1064999547
 20
17.7992054195
 30
0.0
 10
16.0843068805
 20
17.8206414788
 30
0.0
 10
16.0737200754
 20
17.8308436672
 30
0.0
 11
16.5508188496
 21
17.3716736788
 31
0.0
 11
16.550684333
 21
17.3717362076
 31
0.0
 11
16.5505273049
 21
17.3718212534
 31
0.0
 11
16.5501458235
 21
17.3720587892
 31
0.0
 11
16.549674625
 21
17.3723860733
 31
0.0
 11
16.5491139292
 21
17.3728028925
 31
0.0
 11
16.5484639558
 21
17.3733090338
 31
0.0
 11
16.5477249243
 21
17.3739042841
 31
0.0
 11
16.5459805659
 21
17.3753612599
 31
0.0
 11
16.5438826133
 21
17.3771721136
 31
0.0
 11
16.5414334922
 21
17.3793344551
 31
0.0
 11
16.5386372862
 21
17.3818441921
 31
0.0
 11
16.5354983325
 21
17.3846969725
 31
0.0
 11
16.5320209684
 21
17.3878884438
 31
0.0
 11
16.5282095312
 21
17.3914142538
 31
0.0
 11
16.524068375
 21
17.3952700334
 31
0.0
 11
16.519602765
 21
17.3994505092
 31
0.0
 11
16.5097247901
 21
17.4087589534
 31
0.0
 11
16.4986293722
 21
17.4192858444
 31
0.0
 11
16.4863715581
 21
17.4309761575
 31
0.0
 11
16.4730163933
 21
17.4437648455
 31
0.0
 11
16.4586339917
 21
17.4575817807
 31
0.0
 11
16.4432957198
 21
17.4723555838
 31
0.0
 11
16.4270812015
 21
17.4880066249
 31
0.0
 11
16.410073502
 21
17.5044518356
 31
0.0
 11
16.3923567373
 21
17.5216070965
 31
0.0
 11
16.374020916
 21
17.5393823931
 31
0.0
 11
16.33586111
 21
17.5764240609
 31
0.0
 11
16.296349573
 21
17.6148213129
 31
0.0
 11
16.2562619501
 21
17.6537984676
 31
0.0
 11
16.2163758978
 21
17.6925777768
 31
0.0
 11
16.177460236
 21
17.7303904802
 31
0.0
 11
16.1402583264
 21
17.7664932265
 31
0.0
 11
16.1054499734
 21
17.800205466
 31
0.0
 11
16.0737200754
 21
17.8308436672
 31
0.0
  0
LINE
  5
437
100
AcDbEntity
  8
0
100
AcDbLine
 62
6
  6
CONTINUOUS
 10
16.0208844469
 20
17.0769893645
 11
16.0097479026
 21
17.0872842762
  0
LINE
  5
438
100
AcDbEntity
  8
0
100
AcDbLine
 62
6
  6
CONTINUOUS
 10
15.9244722093
 20
17.1667872278
 11
15.9066216833
 21
17.1835140594
  0
LINE
  5
439
100
AcDbEntity
  8
0
100
AcDbLine
 62
6
  6
CONTINUOUS
 10
15.8888954935
 20
17.2001373392
 11
15.8709781142
 21
17.2169475705
  0
LINE
  5
43A
100
AcDbEntity
  8
0
100
AcDbLine
 62
9
  6
CONTINUOUS
 10
16.5514170769
 20
17.3717554351
 11
16.55121614
 21
17.3716539699
  0
SPLINE
  5
43B
100
AcDbEntity
  8
0
100
AcDbSpline
 62
9
  6
CONTINUOUS
 70
0
 71
3
 72
9
 73
5
 74
3
 42
0.0000001
 43
0.0000001
 44
0.0000000001
 12
-0.0000905929
 22
-0.0000186867
 32
0.0
 13
-0.0000923243
 23
-0.0000056999
 33
0.0
 40
0.0
 40
0.0
 40
0.0
 40
0.0
 40
0.240037381
 40
1.0
 40
1.0
 40
1.0
 40
1.0
 10
16.55121614
 20
17.3716539699
 30
0.0
 10
16.5512088914
 20
17.3716524747
 30
0.0
 10
16.5511785703
 20
17.3716468484
 30
0.0
 10
16.5511478368
 20
17.371643548
 30
0.0
 10
16.5511244492
 20
17.3716421041
 30
0.0
 11
16.55121614
 21
17.3716539699
 31
0.0
 11
16.5511943113
 21
17.3716499077
 31
0.0
 11
16.5511244492
 21
17.3716421041
 31
0.0
  0
ENDSEC
  0
SECTION
  2
OBJECTS
  0
DICTIONARY
  5
C
100
AcDbDictionary
280
0
281
1
  3
ACAD_GROUP
350
D
  3
ACAD_MLINESTYLE
350
17
  3
ACAD_LAYOUT
350
1A
  3
ACAD_PLOTSETTINGS
350
19
  3
ACAD_PLOTSTYLENAME
350
E
  0
DICTIONARY
  5
D
102
{ACAD_REACTORS
330
C
102
}
100
AcDbDictionary
280
0
281
1
  0
ACDBDICTIONARYWDFLT
  5
E
102
{ACAD_REACTORS
330
C
102
}
100
AcDbDictionary
281
1
  3
Normal
350
F
100
AcDbDictionaryWithDefault
340
F
  0
DICTIONARY
  5
17
102
{ACAD_REACTORS
330
C
102
}
100
AcDbDictionary
280
0
281
1
  3
Standard
350
18
  0
DICTIONARY
  5
19
102
{ACAD_REACTORS
330
C
102
}
100
AcDbDictionary
281
1
  0
DICTIONARY
  5
1A
102
{ACAD_REACTORS
330
C
102
}
100
AcDbDictionary
281
1
  3
Model
350
43C
  3
Layout1
350
43D
  0
ACDBPLACEHOLDER
  5
F
102
{ACAD_REACTORS
330
E
102
}
  0
MLINESTYLE
  5
18
102
{ACAD_REACTORS
330
17
102
}
100
AcDbMlineStyle
  2
STANDARD
 70
0
  3

 62
256
 51
90.0
 52
90.0
 71
2
 49
0.5
 62
256
  6
BYLAYER
 49
-0.5
 62
256
  6
BYLAYER
  0
LAYOUT
  5
43C
102
{ACAD_REACTORS
330
1A
102
}
100
AcDbPlotSettings
  1

  2
none_device
  4
ISO_A1_(594.00_x_841.00_MM)
  6

 40
0.0
 41
0.0
 42
0.0
 43
0.0
 44
841.0
 45
594.0
 46
0.0
 47
0.0
 48
0.0
 49
0.0
140
0.0
141
0.0
142
1.0
143
1.0
 70
1024
 72
0
 73
0
 74
0
  7

 75
0
147
1.0
148
0.0
149
0.0
100
AcDbLayout
  1
Model
 70
0
 71
0
 10
0.0
 20
0.0
 11
33.1102362205
 21
23.3858267717
 12
0.0
 22
0.0
 32
0.0
 14
0.0
 24
0.0
 34
0.0
 15
0.0
 25
0.0
 35
0.0
146
0.0
 13
0.0
 23
0.0
 33
0.0
 16
1.0
 26
0.0
 36
0.0
 17
0.0
 27
1.0
 37
0.0
 76
0
330
204
345
0
346
0
  0
LAYOUT
  5
43D
102
{ACAD_REACTORS
330
1A
102
}
100
AcDbPlotSettings
  1

  2
none_device
  4
ISO_A1_(594.00_x_841.00_MM)
  6

 40
0.0
 41
0.0
 42
0.0
 43
0.0
 44
841.0
 45
594.0
 46
0.0
 47
0.0
 48
0.0
 49
0.0
140
0.0
141
0.0
142
1.0
143
1.0
 70
0
 72
0
 73
0
 74
0
  7

 75
0
147
1.0
148
0.0
149
0.0
100
AcDbLayout
  1
Layout1
 70
0
 71
1
 10
0.0
 20
0.0
 11
33.1102362205
 21
23.3858267717
 12
0.0
 22
0.0
 32
0.0
 14
0.0
 24
0.0
 34
0.0
 15
0.0
 25
0.0
 35
0.0
146
0.0
 13
0.0
 23
0.0
 33
0.0
 16
1.0
 26
0.0
 36
0.0
 17
0.0
 27
1.0
 37
0.0
 76
0
330
205
345
0
346
0
  0
ENDSEC
  0
EOF
