999
DXF file: 3-804bp_top.dxf
999
Pro/ENGINEER 2013150 by Parametric Technology Corporation
  0
SECTION
  2
HEADER
  9
$ACADVER
  1
AC1021
  9
$DWGCODEPAGE
  3
ANSI_1252
  9
$EXTMAX
 10
11.0
 20
8.5
 30
0.0
  9
$EXTMIN
 10
0.0
 20
0.0
 30
0.0
  9
$LIMMIN
 10
0.0
 20
0.0
  9
$LIMMAX
 10
11.0
 20
8.5
  9
$VIEWCTR
 10
5.5
 20
4.25
  9
$VIEWSIZE
 40
8.5
  9
$CLAYER
  8
0
  9
$LTSCALE
 40
0.605
  9
$CELTYPE
  6
BYLAYER
  9
$DIMSCALE
 40
1.0
  9
$DIMASZ
 40
0.1
  9
$DIMEXO
 40
0.0625
  9
$DIMDLI
 40
0.418
  9
$DIMEXE
 40
0.125
  9
$DIMCEN
 40
0.099
  9
$DIMLFAC
 40
1.0
  9
$DIMBLK
  1
_FILLED
  9
$DIMTXT
 40
0.08
  9
$DIMTOL
 70
1
  9
$DIMLIM
 70
0
  9
$DIMTFAC
 40
1.0
  9
$DIMTP
 40
0.001
  9
$DIMTM
 40
0.001
  9
$DIMGAP
 40
0.09
  9
$DIMDSEP
 70
46
  9
$PDMODE
 70
3
  9
$PDSIZE
 40
0.06
  9
$HANDSEED
  5
44B
  9
$TILEMODE
 70
1
  9
$MEASUREMENT
 70
0
  9
$INSUNITS
 70
1
  0
ENDSEC
  0
SECTION
  2
CLASSES
  0
CLASS
  1
ACDBDICTIONARYWDFLT
  2
AcDbDictionaryWithDefault
  3
AutoCAD 2000
 90
0
 91
1
280
0
281
0
  0
CLASS
  1
ACDBPLACEHOLDER
  2
AcDbPlaceHolder
  3
AutoCAD 2000
 90
0
 91
1
280
0
281
0
  0
CLASS
  1
LAYOUT
  2
AcDbLayout
  3
AutoCAD 2000
 90
0
 91
0
280
0
281
0
  0
ENDSEC
  0
SECTION
  2
TABLES
  0
TABLE
  2
VPORT
  5
8
100
AcDbSymbolTable
 70
2
  0
VPORT
  5
1F4
100
AcDbSymbolTableRecord
100
AcDbViewportTableRecord
  2
*ACTIVE
 70
0
 10
0.0
 20
0.0
 11
1.0
 21
1.0
 12
5.5
 22
4.25
 13
0.0
 23
0.0
 14
1.0
 24
1.0
 15
0.0
 25
0.0
 16
0.0
 26
0.0
 36
1.0
 17
0.0
 27
0.0
 37
0.0
 40
8.5
 41
1.2941176471
 42
50.0
 43
0.0
 44
0.0
 50
0.0
 51
0.0
 71
0
 72
100
 73
1
 74
1
 75
0
 76
0
 77
0
 78
0
  0
ENDTAB
  0
TABLE
  2
LTYPE
  5
5
100
AcDbSymbolTable
 70
6
  0
LTYPE
  5
14
100
AcDbSymbolTableRecord
100
AcDbLinetypeTableRecord
  2
BYBLOCK
 70
0
  3

 72
65
 73
0
 40
0.0
  0
LTYPE
  5
15
100
AcDbSymbolTableRecord
100
AcDbLinetypeTableRecord
  2
BYLAYER
 70
0
  3

 72
65
 73
0
 40
0.0
  0
LTYPE
  5
16
100
AcDbSymbolTableRecord
100
AcDbLinetypeTableRecord
  2
CONTINUOUS
 70
64
  3
Solid line
 72
65
 73
0
 40
0.0
  0
LTYPE
  5
1F5
100
AcDbSymbolTableRecord
100
AcDbLinetypeTableRecord
  2
CENTER
 70
64
  3
____ _ ____ _ ____ _ ____ _ ____ _ ____ _ ____
 72
65
 73
4
 40
0.6
 49
0.375
 74
0
 49
-0.075
 74
0
 49
0.075
 74
0
 49
-0.075
 74
0
  0
LTYPE
  5
1F6
100
AcDbSymbolTableRecord
100
AcDbLinetypeTableRecord
  2
HIDDEN
 70
64
  3
- - - - - - - - - - - - - - - - - - - -
 72
65
 73
2
 40
0.2
 49
0.1
 74
0
 49
-0.1
 74
0
  0
LTYPE
  5
1F7
100
AcDbSymbolTableRecord
100
AcDbLinetypeTableRecord
  2
PHANTOM
 70
64
  3
_____ _ _ _____ _ _ _____ _ _ _____
 72
65
 73
6
 40
0.8
 49
0.45
 74
0
 49
-0.05
 74
0
 49
0.1
 74
0
 49
-0.05
 74
0
 49
0.1
 74
0
 49
-0.05
 74
0
  0
LTYPE
  5
1F8
100
AcDbSymbolTableRecord
100
AcDbLinetypeTableRecord
  2
DOT
 70
64
  3
. . . . . . . . . . . . . . . . . . . .
 72
65
 73
2
 40
0.2
 49
0.1
 74
0
 49
-0.1
 74
0
  0
LTYPE
  5
1F9
100
AcDbSymbolTableRecord
100
AcDbLinetypeTableRecord
  2
DASHED
 70
64
  3
- - - - - - - - - - - - - - - - - - - -
 72
65
 73
2
 40
0.2
 49
0.1
 74
0
 49
-0.1
 74
0
  0
ENDTAB
  0
TABLE
  2
LAYER
  5
2
100
AcDbSymbolTable
 70
36
  0
LAYER
  5
10
100
AcDbSymbolTableRecord
100
AcDbLayerTableRecord
  2
0
 70
0
 62
7
  6
CONTINUOUS
370
-3
390
F
  0
LAYER
  5
1FA
100
AcDbSymbolTableRecord
100
AcDbLayerTableRecord
  2
DEFAULT_1
 70
0
 62
7
  6
CENTER
370
-3
390
F
  0
LAYER
  5
1FB
100
AcDbSymbolTableRecord
100
AcDbLayerTableRecord
  2
DEFAULT_2
 70
0
 62
8
  6
HIDDEN
370
-3
390
F
  0
LAYER
  5
1FC
100
AcDbSymbolTableRecord
100
AcDbLayerTableRecord
  2
DEFAULT_3
 70
0
 62
7
  6
PHANTOM
370
-3
390
F
  0
LAYER
  5
1FD
100
AcDbSymbolTableRecord
100
AcDbLayerTableRecord
  2
_  SHELL
 70
0
 62
7
  6
CONTINUOUS
370
-3
390
F
  0
LAYER
  5
1FE
100
AcDbSymbolTableRecord
100
AcDbLayerTableRecord
  2
06___PRT_ALL_SURFS_15
 70
0
 62
7
  6
CONTINUOUS
370
-3
390
F
  0
LAYER
  5
1FF
100
AcDbSymbolTableRecord
100
AcDbLayerTableRecord
  2
11_9
 70
0
 62
7
  6
CONTINUOUS
370
-3
390
F
  0
LAYER
  5
200
100
AcDbSymbolTableRecord
100
AcDbLayerTableRecord
  2
1451A0A-0Z1-01
 70
0
 62
7
  6
CONTINUOUS
370
-3
390
F
  0
LAYER
  5
201
100
AcDbSymbolTableRecord
100
AcDbLayerTableRecord
  2
1451A0A-0Z1-02
 70
0
 62
7
  6
CONTINUOUS
370
-3
390
F
  0
LAYER
  5
202
100
AcDbSymbolTableRecord
100
AcDbLayerTableRecord
  2
1451A0A-0Z1-02_1
 70
0
 62
7
  6
CONTINUOUS
370
-3
390
F
  0
LAYER
  5
203
100
AcDbSymbolTableRecord
100
AcDbLayerTableRecord
  2
1451A0A-0Z1-03
 70
0
 62
7
  6
CONTINUOUS
370
-3
390
F
  0
LAYER
  5
204
100
AcDbSymbolTableRecord
100
AcDbLayerTableRecord
  2
1451A0A-0Z1-04
 70
0
 62
7
  6
CONTINUOUS
370
-3
390
F
  0
LAYER
  5
205
100
AcDbSymbolTableRecord
100
AcDbLayerTableRecord
  2
1451A0A-0Z1-05
 70
0
 62
7
  6
CONTINUOUS
370
-3
390
F
  0
LAYER
  5
206
100
AcDbSymbolTableRecord
100
AcDbLayerTableRecord
  2
1451A0A-0Z1-06
 70
0
 62
7
  6
CONTINUOUS
370
-3
390
F
  0
LAYER
  5
207
100
AcDbSymbolTableRecord
100
AcDbLayerTableRecord
  2
1451A0A-0Z1-07
 70
0
 62
7
  6
CONTINUOUS
370
-3
390
F
  0
LAYER
  5
208
100
AcDbSymbolTableRecord
100
AcDbLayerTableRecord
  2
2-116_ASSY_DATUMS
 70
0
 62
7
  6
CONTINUOUS
370
-3
390
F
  0
LAYER
  5
209
100
AcDbSymbolTableRecord
100
AcDbLayerTableRecord
  2
2-225_ASSY_DATUMS
 70
0
 62
7
  6
CONTINUOUS
370
-3
390
F
  0
LAYER
  5
20A
100
AcDbSymbolTableRecord
100
AcDbLayerTableRecord
  2
22_4
 70
0
 62
7
  6
CONTINUOUS
370
-3
390
F
  0
LAYER
  5
20B
100
AcDbSymbolTableRecord
100
AcDbLayerTableRecord
  2
22_5
 70
0
 62
7
  6
CONTINUOUS
370
-3
390
F
  0
LAYER
  5
20C
100
AcDbSymbolTableRecord
100
AcDbLayerTableRecord
  2
264X18
 70
0
 62
7
  6
CONTINUOUS
370
-3
390
F
  0
LAYER
  5
20D
100
AcDbSymbolTableRecord
100
AcDbLayerTableRecord
  2
3-156_ASSY_PLANES
 70
0
 62
7
  6
CONTINUOUS
370
-3
390
F
  0
LAYER
  5
20E
100
AcDbSymbolTableRecord
100
AcDbLayerTableRecord
  2
30X15
 70
0
 62
7
  6
CONTINUOUS
370
-3
390
F
  0
LAYER
  5
20F
100
AcDbSymbolTableRecord
100
AcDbLayerTableRecord
  2
315X18
 70
0
 62
7
  6
CONTINUOUS
370
-3
390
F
  0
LAYER
  5
210
100
AcDbSymbolTableRecord
100
AcDbLayerTableRecord
  2
59X178
 70
0
 62
7
  6
CONTINUOUS
370
-3
390
F
  0
LAYER
  5
211
100
AcDbSymbolTableRecord
100
AcDbLayerTableRecord
  2
6X15
 70
0
 62
7
  6
CONTINUOUS
370
-3
390
F
  0
LAYER
  5
212
100
AcDbSymbolTableRecord
100
AcDbLayerTableRecord
  2
925X178
 70
0
 62
7
  6
CONTINUOUS
370
-3
390
F
  0
LAYER
  5
213
100
AcDbSymbolTableRecord
100
AcDbLayerTableRecord
  2
AA
 70
0
 62
7
  6
CONTINUOUS
370
-3
390
F
  0
LAYER
  5
214
100
AcDbSymbolTableRecord
100
AcDbLayerTableRecord
  2
ALL_ASSEMBLY_MEMBERS
 70
0
 62
7
  6
CONTINUOUS
370
-3
390
F
  0
LAYER
  5
215
100
AcDbSymbolTableRecord
100
AcDbLayerTableRecord
  2
ALL_FEATURES
 70
0
 62
7
  6
CONTINUOUS
370
-3
390
F
  0
LAYER
  5
216
100
AcDbSymbolTableRecord
100
AcDbLayerTableRecord
  2
AXES_FEATURES
 70
0
 62
7
  6
CONTINUOUS
370
-3
390
F
  0
LAYER
  5
217
100
AcDbSymbolTableRecord
100
AcDbLayerTableRecord
  2
CHAMFER_FEATURES
 70
0
 62
7
  6
CONTINUOUS
370
-3
390
F
  0
LAYER
  5
218
100
AcDbSymbolTableRecord
100
AcDbLayerTableRecord
  2
COLOR14
 70
0
 62
7
  6
CONTINUOUS
370
-3
390
F
  0
LAYER
  5
219
100
AcDbSymbolTableRecord
100
AcDbLayerTableRecord
  2
COLOR33
 70
0
 62
7
  6
CONTINUOUS
370
-3
390
F
  0
LAYER
  5
21A
100
AcDbSymbolTableRecord
100
AcDbLayerTableRecord
  2
COLOR9
 70
0
 62
7
  6
CONTINUOUS
370
-3
390
F
  0
LAYER
  5
21B
100
AcDbSymbolTableRecord
100
AcDbLayerTableRecord
  2
CONSTR_CURVES
 70
0
 62
7
  6
CONTINUOUS
370
-3
390
F
  0
LAYER
  5
21C
100
AcDbSymbolTableRecord
100
AcDbLayerTableRecord
  2
CURVE
 70
0
 62
7
  6
CONTINUOUS
370
-3
390
F
  0
LAYER
  5
21D
100
AcDbSymbolTableRecord
100
AcDbLayerTableRecord
  2
CURVES
 70
0
 62
7
  6
CONTINUOUS
370
-3
390
F
  0
LAYER
  5
21E
100
AcDbSymbolTableRecord
100
AcDbLayerTableRecord
  2
CUT_FEATURES
 70
0
 62
7
  6
CONTINUOUS
370
-3
390
F
  0
LAYER
  5
21F
100
AcDbSymbolTableRecord
100
AcDbLayerTableRecord
  2
DATUM_CURVES
 70
0
 62
7
  6
CONTINUOUS
370
-3
390
F
  0
LAYER
  5
220
100
AcDbSymbolTableRecord
100
AcDbLayerTableRecord
  2
DATUM_PLANES
 70
0
 62
7
  6
CONTINUOUS
370
-3
390
F
  0
LAYER
  5
221
100
AcDbSymbolTableRecord
100
AcDbLayerTableRecord
  2
DATUM_POINTS
 70
0
 62
7
  6
CONTINUOUS
370
-3
390
F
  0
LAYER
  5
222
100
AcDbSymbolTableRecord
100
AcDbLayerTableRecord
  2
DATUM_SHAPER
 70
0
 62
7
  6
CONTINUOUS
370
-3
390
F
  0
LAYER
  5
223
100
AcDbSymbolTableRecord
100
AcDbLayerTableRecord
  2
DEFAULT_COORDINATE_SYSTEM
 70
0
 62
7
  6
CONTINUOUS
370
-3
390
F
  0
LAYER
  5
224
100
AcDbSymbolTableRecord
100
AcDbLayerTableRecord
  2
DEFAULT_DATUM_AXES
 70
0
 62
7
  6
CONTINUOUS
370
-3
390
F
  0
LAYER
  5
225
100
AcDbSymbolTableRecord
100
AcDbLayerTableRecord
  2
DEFAULT_DATUM_CURVES
 70
0
 62
7
  6
CONTINUOUS
370
-3
390
F
  0
LAYER
  5
226
100
AcDbSymbolTableRecord
100
AcDbLayerTableRecord
  2
DEFAULT_DATUM_PLANES
 70
0
 62
7
  6
CONTINUOUS
370
-3
390
F
  0
LAYER
  5
227
100
AcDbSymbolTableRecord
100
AcDbLayerTableRecord
  2
DEFAULT_SURFACES
 70
0
 62
7
  6
CONTINUOUS
370
-3
390
F
  0
LAYER
  5
228
100
AcDbSymbolTableRecord
100
AcDbLayerTableRecord
  2
DETAIL_ITEMS
 70
0
 62
7
  6
CONTINUOUS
370
-3
390
F
  0
LAYER
  5
229
100
AcDbSymbolTableRecord
100
AcDbLayerTableRecord
  2
DIMENSIONS
 70
0
 62
7
  6
CONTINUOUS
370
-3
390
F
  0
LAYER
  5
22A
100
AcDbSymbolTableRecord
100
AcDbLayerTableRecord
  2
HIDE
 70
0
 62
7
  6
CONTINUOUS
370
-3
390
F
  0
LAYER
  5
22B
100
AcDbSymbolTableRecord
100
AcDbLayerTableRecord
  2
HIDE_10
 70
0
 62
7
  6
CONTINUOUS
370
-3
390
F
  0
LAYER
  5
22C
100
AcDbSymbolTableRecord
100
AcDbLayerTableRecord
  2
HIDE_7
 70
0
 62
7
  6
CONTINUOUS
370
-3
390
F
  0
LAYER
  5
22D
100
AcDbSymbolTableRecord
100
AcDbLayerTableRecord
  2
HIDE_8
 70
0
 62
7
  6
CONTINUOUS
370
-3
390
F
  0
LAYER
  5
22E
100
AcDbSymbolTableRecord
100
AcDbLayerTableRecord
  2
HIDE_9
 70
0
 62
7
  6
CONTINUOUS
370
-3
390
F
  0
LAYER
  5
22F
100
AcDbSymbolTableRecord
100
AcDbLayerTableRecord
  2
HOLE_FEATURES
 70
0
 62
7
  6
CONTINUOUS
370
-3
390
F
  0
LAYER
  5
230
100
AcDbSymbolTableRecord
100
AcDbLayerTableRecord
  2
INTFCLR_33883
 70
0
 62
7
  6
CONTINUOUS
370
-3
390
F
  0
LAYER
  5
231
100
AcDbSymbolTableRecord
100
AcDbLayerTableRecord
  2
INTFCLR_33883_1
 70
0
 62
7
  6
CONTINUOUS
370
-3
390
F
  0
LAYER
  5
232
100
AcDbSymbolTableRecord
100
AcDbLayerTableRecord
  2
INTFCLR_33883_2
 70
0
 62
7
  6
CONTINUOUS
370
-3
390
F
  0
LAYER
  5
233
100
AcDbSymbolTableRecord
100
AcDbLayerTableRecord
  2
INTFCLR_33883_3
 70
0
 62
7
  6
CONTINUOUS
370
-3
390
F
  0
LAYER
  5
234
100
AcDbSymbolTableRecord
100
AcDbLayerTableRecord
  2
INTFCLR_33883_4
 70
0
 62
7
  6
CONTINUOUS
370
-3
390
F
  0
LAYER
  5
235
100
AcDbSymbolTableRecord
100
AcDbLayerTableRecord
  2
INTFCLR_33883_5
 70
0
 62
7
  6
CONTINUOUS
370
-3
390
F
  0
LAYER
  5
236
100
AcDbSymbolTableRecord
100
AcDbLayerTableRecord
  2
INTF_BLANK
 70
0
 62
7
  6
CONTINUOUS
370
-3
390
F
  0
LAYER
  5
237
100
AcDbSymbolTableRecord
100
AcDbLayerTableRecord
  2
LAY0001
 70
0
 62
7
  6
CONTINUOUS
370
-3
390
F
  0
LAYER
  5
238
100
AcDbSymbolTableRecord
100
AcDbLayerTableRecord
  2
NOTES
 70
0
 62
7
  6
CONTINUOUS
370
-3
390
F
  0
LAYER
  5
239
100
AcDbSymbolTableRecord
100
AcDbLayerTableRecord
  2
PART_REFERENCE_DIMENSIONS
 70
0
 62
7
  6
CONTINUOUS
370
-3
390
F
  0
LAYER
  5
23A
100
AcDbSymbolTableRecord
100
AcDbLayerTableRecord
  2
PLATED_AREA
 70
0
 62
7
  6
CONTINUOUS
370
-3
390
F
  0
LAYER
  5
23B
100
AcDbSymbolTableRecord
100
AcDbLayerTableRecord
  2
POINTS
 70
0
 62
7
  6
CONTINUOUS
370
-3
390
F
  0
LAYER
  5
23C
100
AcDbSymbolTableRecord
100
AcDbLayerTableRecord
  2
PROTRUSION
 70
0
 62
7
  6
CONTINUOUS
370
-3
390
F
  0
LAYER
  5
23D
100
AcDbSymbolTableRecord
100
AcDbLayerTableRecord
  2
PROTRUSION_FEATURES
 70
0
 62
7
  6
CONTINUOUS
370
-3
390
F
  0
LAYER
  5
23E
100
AcDbSymbolTableRecord
100
AcDbLayerTableRecord
  2
QUILTED_AREA
 70
0
 62
7
  6
CONTINUOUS
370
-3
390
F
  0
LAYER
  5
23F
100
AcDbSymbolTableRecord
100
AcDbLayerTableRecord
  2
QUILTS
 70
0
 62
7
  6
CONTINUOUS
370
-3
390
F
  0
LAYER
  5
240
100
AcDbSymbolTableRecord
100
AcDbLayerTableRecord
  2
REFERENCE_DIMENSIONS
 70
0
 62
7
  6
CONTINUOUS
370
-3
390
F
  0
LAYER
  5
241
100
AcDbSymbolTableRecord
100
AcDbLayerTableRecord
  2
ROUND_FEATURES
 70
0
 62
7
  6
CONTINUOUS
370
-3
390
F
  0
LAYER
  5
242
100
AcDbSymbolTableRecord
100
AcDbLayerTableRecord
  2
S01012-09A
 70
0
 62
7
  6
CONTINUOUS
370
-3
390
F
  0
LAYER
  5
243
100
AcDbSymbolTableRecord
100
AcDbLayerTableRecord
  2
S01012-10A
 70
0
 62
7
  6
CONTINUOUS
370
-3
390
F
  0
LAYER
  5
244
100
AcDbSymbolTableRecord
100
AcDbLayerTableRecord
  2
S02015-05
 70
0
 62
7
  6
CONTINUOUS
370
-3
390
F
  0
LAYER
  5
245
100
AcDbSymbolTableRecord
100
AcDbLayerTableRecord
  2
S02015-16B
 70
0
 62
7
  6
CONTINUOUS
370
-3
390
F
  0
LAYER
  5
246
100
AcDbSymbolTableRecord
100
AcDbLayerTableRecord
  2
S02015-17
 70
0
 62
7
  6
CONTINUOUS
370
-3
390
F
  0
LAYER
  5
247
100
AcDbSymbolTableRecord
100
AcDbLayerTableRecord
  2
S02015-18
 70
0
 62
7
  6
CONTINUOUS
370
-3
390
F
  0
LAYER
  5
248
100
AcDbSymbolTableRecord
100
AcDbLayerTableRecord
  2
S02015-20A
 70
0
 62
7
  6
CONTINUOUS
370
-3
390
F
  0
LAYER
  5
249
100
AcDbSymbolTableRecord
100
AcDbLayerTableRecord
  2
S02015-31A
 70
0
 62
7
  6
CONTINUOUS
370
-3
390
F
  0
LAYER
  5
24A
100
AcDbSymbolTableRecord
100
AcDbLayerTableRecord
  2
S02015-32A
 70
0
 62
7
  6
CONTINUOUS
370
-3
390
F
  0
LAYER
  5
24B
100
AcDbSymbolTableRecord
100
AcDbLayerTableRecord
  2
S02015-32A_1
 70
0
 62
7
  6
CONTINUOUS
370
-3
390
F
  0
LAYER
  5
24C
100
AcDbSymbolTableRecord
100
AcDbLayerTableRecord
  2
S02015-35
 70
0
 62
7
  6
CONTINUOUS
370
-3
390
F
  0
LAYER
  5
24D
100
AcDbSymbolTableRecord
100
AcDbLayerTableRecord
  2
S15025-04A
 70
0
 62
7
  6
CONTINUOUS
370
-3
390
F
  0
LAYER
  5
24E
100
AcDbSymbolTableRecord
100
AcDbLayerTableRecord
  2
SET_SCRW_MATE
 70
0
 62
7
  6
CONTINUOUS
370
-3
390
F
  0
LAYER
  5
24F
100
AcDbSymbolTableRecord
100
AcDbLayerTableRecord
  2
SHELL_FEATURES
 70
0
 62
7
  6
CONTINUOUS
370
-3
390
F
  0
LAYER
  5
250
100
AcDbSymbolTableRecord
100
AcDbLayerTableRecord
  2
SIZE_REF
 70
0
 62
7
  6
CONTINUOUS
370
-3
390
F
  0
LAYER
  5
251
100
AcDbSymbolTableRecord
100
AcDbLayerTableRecord
  2
SURFACE
 70
0
 62
7
  6
CONTINUOUS
370
-3
390
F
  0
LAYER
  5
252
100
AcDbSymbolTableRecord
100
AcDbLayerTableRecord
  2
XSEC_DATUMS
 70
0
 62
7
  6
CONTINUOUS
370
-3
390
F
  0
LAYER
  5
253
100
AcDbSymbolTableRecord
100
AcDbLayerTableRecord
  2
___SHELL
 70
0
 62
7
  6
CONTINUOUS
370
-3
390
F
  0
ENDTAB
  0
TABLE
  2
STYLE
  5
3
100
AcDbSymbolTable
 70
1
  0
STYLE
  5
11
100
AcDbSymbolTableRecord
100
AcDbTextStyleTableRecord
  2
STANDARD
 70
0
 40
0.0
 41
0.8
 50
0.0
 71
0
 42
0.2
  3
txt
  4

  0
STYLE
  5
254
100
AcDbSymbolTableRecord
100
AcDbTextStyleTableRecord
  2
TEXTSTYLE_1
 70
0
 40
0.0
 41
0.8
 50
0.0
 71
0
 42
0.2
  3
gdt
  4

  0
ENDTAB
  0
TABLE
  2
VIEW
  5
6
100
AcDbSymbolTable
 70
0
  0
ENDTAB
  0
TABLE
  2
UCS
  5
7
100
AcDbSymbolTable
 70
0
  0
ENDTAB
  0
TABLE
  2
APPID
  5
9
100
AcDbSymbolTable
 70
1
  0
APPID
  5
255
100
AcDbSymbolTableRecord
100
AcDbRegAppTableRecord
  2
ACAD
 70
0
  0
ENDTAB
  0
TABLE
  2
BLOCK_RECORD
  5
1
100
AcDbSymbolTable
 70
0
  0
BLOCK_RECORD
  5
256
100
AcDbSymbolTableRecord
100
AcDbBlockTableRecord
  2
*Model_Space
  0
BLOCK_RECORD
  5
257
100
AcDbSymbolTableRecord
100
AcDbBlockTableRecord
  2
*Paper_Space
  0
ENDTAB
  0
TABLE
  2
DIMSTYLE
  5
A
100
AcDbSymbolTable
 70
1
100
AcDbDimStyleTable
 71
0
  0
DIMSTYLE
105
258
100
AcDbSymbolTableRecord
100
AcDbDimStyleTableRecord
  2
STANDARD
 70
0
  3

  4

 40
1.0
 41
0.1
 42
0.0625
 43
0.38
 44
0.125
 45
0.0
 46
0.0
 47
0.001
 48
0.001
140
0.08
141
0.09
142
0.0
143
25.4
144
1.0
145
0.0
146
1.0
147
0.09
 71
1.0
 72
0.0
 73
1
 74
1
 75
0
 76
0
 77
0
 78
4
170
0
171
2
172
0
173
0
174
0
175
0
176
0
177
0
178
0
270
2
271
3
272
3
273
2
274
2
275
0
280
0
281
0
282
0
283
1
284
4
285
0
286
0
287
3
288
0
340
11
278
46
  0
ENDTAB
  0
ENDSEC
  0
SECTION
  2
BLOCKS
  0
BLOCK
  5
20
100
AcDbEntity
  8
0
100
AcDbBlockBegin
  2
*Model_Space
 70
0
 10
0.0
 20
0.0
 30
0.0
  3
*Model_Space
  1

  0
ENDBLK
  5
21
100
AcDbEntity
  8
0
100
AcDbBlockEnd
  0
BLOCK
  5
1C
100
AcDbEntity
  8
0
100
AcDbBlockBegin
  2
*Paper_Space
 70
0
 10
0.0
 20
0.0
 30
0.0
  3
*Paper_Space
  1

  0
ENDBLK
  5
1D
100
AcDbEntity
  8
0
100
AcDbBlockEnd
  0
ENDSEC
  0
SECTION
  2
ENTITIES
  0
LINE
  5
259
100
AcDbEntity
  8
0
100
AcDbLine
 62
7
  6
CONTINUOUS
 10
0.0
 20
0.0
 11
0.0
 21
8.5
  0
LINE
  5
25A
100
AcDbEntity
  8
0
100
AcDbLine
 62
7
  6
CONTINUOUS
 10
0.0
 20
0.0
 11
11.0
 21
0.0
  0
LINE
  5
25B
100
AcDbEntity
  8
0
100
AcDbLine
 62
7
  6
CONTINUOUS
 10
0.0
 20
8.5
 11
11.0
 21
8.5
  0
LINE
  5
25C
100
AcDbEntity
  8
0
100
AcDbLine
 62
7
  6
CONTINUOUS
 10
11.0
 20
0.0
 11
11.0
 21
8.5
  0
LINE
  5
25D
100
AcDbEntity
  8
ALL_ASSEMBLY_MEMBERS
100
AcDbLine
 62
7
  6
CONTINUOUS
 10
4.2160175293
 20
5.8651289049
 11
4.206929712
 21
5.8598754683
  0
LINE
  5
25E
100
AcDbEntity
  8
ALL_ASSEMBLY_MEMBERS
100
AcDbLine
 62
7
  6
CONTINUOUS
 10
4.2155640888
 20
5.8472703648
 11
4.2069292257
 21
5.8422788261
  0
LINE
  5
25F
100
AcDbEntity
  8
ALL_ASSEMBLY_MEMBERS
100
AcDbLine
 62
7
  6
CONTINUOUS
 10
4.2151391767
 20
5.8294119073
 11
4.2069287624
 21
5.8246657792
  0
LINE
  5
260
100
AcDbEntity
  8
ALL_ASSEMBLY_MEMBERS
100
AcDbLine
 62
7
  6
CONTINUOUS
 10
4.2146170305
 20
5.8115541869
 11
4.2069297102
 21
5.8071104252
  0
LINE
  5
261
100
AcDbEntity
  8
ALL_ASSEMBLY_MEMBERS
100
AcDbLine
 62
7
  6
CONTINUOUS
 10
4.2141581444
 20
5.793695659
 11
4.2069292164
 21
5.7895169241
  0
LINE
  5
262
100
AcDbEntity
  8
ALL_ASSEMBLY_MEMBERS
100
AcDbLine
 62
7
  6
CONTINUOUS
 10
4.2137248791
 20
5.7758369191
 11
4.2069282891
 21
5.7719081607
  0
LINE
  5
263
100
AcDbEntity
  8
ALL_ASSEMBLY_MEMBERS
100
AcDbLine
 62
7
  6
CONTINUOUS
 10
4.4005021073
 20
5.878219361
 11
4.4022799261
 21
5.8792472691
  0
LINE
  5
264
100
AcDbEntity
  8
ALL_ASSEMBLY_MEMBERS
100
AcDbLine
 62
7
  6
CONTINUOUS
 10
4.2132162271
 20
5.7579795008
 11
4.2069296565
 21
5.7543455296
  0
LINE
  5
265
100
AcDbEntity
  8
ALL_ASSEMBLY_MEMBERS
100
AcDbLine
 62
7
  6
CONTINUOUS
 10
4.4009524967
 20
5.8603630602
 11
4.4098161703
 21
5.8654872815
  0
LINE
  5
266
100
AcDbEntity
  8
ALL_ASSEMBLY_MEMBERS
100
AcDbLine
 62
7
  6
CONTINUOUS
 10
4.2127521932
 20
5.7401210216
 11
4.2086434592
 21
5.7377459313
  0
LINE
  5
267
100
AcDbEntity
  8
ALL_ASSEMBLY_MEMBERS
100
AcDbLine
 62
7
  6
CONTINUOUS
 10
4.4014293115
 20
5.8425062538
 11
4.4098160311
 21
5.8473547154
  0
LINE
  5
268
100
AcDbEntity
  8
ALL_ASSEMBLY_MEMBERS
100
AcDbLine
 62
7
  6
CONTINUOUS
 10
4.4019125211
 20
5.8246493655
 11
4.4098157469
 21
5.8292182964
  0
LINE
  5
269
100
AcDbEntity
  8
ALL_ASSEMBLY_MEMBERS
100
AcDbLine
 62
7
  6
CONTINUOUS
 10
4.2123872535
 20
5.7310516803
 11
4.2068138038
 21
5.7278338476
  0
LINE
  5
26A
100
AcDbEntity
  8
ALL_ASSEMBLY_MEMBERS
100
AcDbLine
 62
7
  6
CONTINUOUS
 10
4.206929712
 20
5.8598754686
 11
4.2068138074
 21
5.8597422559
  0
LINE
  5
26B
100
AcDbEntity
  8
ALL_ASSEMBLY_MEMBERS
100
AcDbLine
 62
7
  6
CONTINUOUS
 10
4.2069287624
 20
5.8246657771
 11
4.2068138089
 21
5.8245338172
  0
LINE
  5
26C
100
AcDbEntity
  8
ALL_ASSEMBLY_MEMBERS
100
AcDbLine
 62
7
  6
CONTINUOUS
 10
4.2168138038
 20
5.8817215899
 11
4.2086913329
 21
5.873599119
  0
LINE
  5
26D
100
AcDbEntity
  8
ALL_ASSEMBLY_MEMBERS
100
AcDbLine
 62
7
  6
CONTINUOUS
 10
4.402356652
 20
5.8067928064
 11
4.4098161238
 21
5.811105155
  0
LINE
  5
26E
100
AcDbEntity
  8
ALL_ASSEMBLY_MEMBERS
100
AcDbLine
 62
7
  6
CONTINUOUS
 10
4.402834608
 20
5.7889360282
 11
4.4098160605
 21
5.7929720082
  0
LINE
  5
26F
100
AcDbEntity
  8
ALL_ASSEMBLY_MEMBERS
100
AcDbLine
 62
7
  6
CONTINUOUS
 10
4.4033197869
 20
5.7710792587
 11
4.409816004
 21
5.7748347014
  0
LINE
  5
270
100
AcDbEntity
  8
ALL_ASSEMBLY_MEMBERS
100
AcDbLine
 62
7
  6
CONTINUOUS
 10
4.4037612197
 20
5.7532224913
 11
4.4098160836
 21
5.7567227653
  0
LINE
  5
271
100
AcDbEntity
  8
ALL_ASSEMBLY_MEMBERS
100
AcDbLine
 62
7
  6
CONTINUOUS
 10
4.4099388038
 20
5.738734513
 11
4.404365354
 21
5.7355166803
  0
LINE
  5
272
100
AcDbEntity
  8
ALL_ASSEMBLY_MEMBERS
100
AcDbLine
 62
7
  6
CONTINUOUS
 10
4.2069292164
 20
5.7895169241
 11
4.2068138088
 21
5.7893844112
  0
LINE
  5
273
100
AcDbEntity
  8
ALL_ASSEMBLY_MEMBERS
100
AcDbLine
 62
7
  6
CONTINUOUS
 10
4.2069296565
 20
5.7543455298
 11
4.206813809
 21
5.7542125264
  0
LINE
  5
274
100
AcDbEntity
  8
ALL_ASSEMBLY_MEMBERS
100
AcDbLine
 62
7
  6
CONTINUOUS
 10
4.4099388038
 20
5.8656290289
 11
4.4098161703
 21
5.8654872815
  0
LINE
  5
275
100
AcDbEntity
  8
ALL_ASSEMBLY_MEMBERS
100
AcDbLine
 62
7
  6
CONTINUOUS
 10
4.4098160311
 20
5.8473547154
 11
4.4099388028
 21
5.8474962368
  0
LINE
  5
276
100
AcDbEntity
  8
ALL_ASSEMBLY_MEMBERS
100
AcDbLine
 62
7
  6
CONTINUOUS
 10
3.8321263038
 20
4.1199350837
 11
3.8321263038
 21
4.0875763169
  0
LINE
  5
277
100
AcDbEntity
  8
ALL_ASSEMBLY_MEMBERS
100
AcDbLine
 62
7
  6
CONTINUOUS
 10
3.9033763038
 20
4.1592806845
 11
3.9033763038
 21
4.1532723217
  0
LINE
  5
278
100
AcDbEntity
  8
ALL_ASSEMBLY_MEMBERS
100
AcDbLine
 62
40
  6
CONTINUOUS
 10
4.0702513038
 20
4.4201874658
 11
4.0964945103
 21
4.4045702274
  0
LINE
  5
279
100
AcDbEntity
  8
ALL_ASSEMBLY_MEMBERS
100
AcDbLine
 62
40
  6
CONTINUOUS
 10
4.1058763038
 20
4.4101435019
 11
4.1070538422
 21
4.4090589045
  0
LINE
  5
27A
100
AcDbEntity
  8
ALL_ASSEMBLY_MEMBERS
100
AcDbLine
 62
7
  6
CONTINUOUS
 10
4.0108763038
 20
5.6636782781
 11
4.0108763038
 21
5.7217215899
  0
LINE
  5
27B
100
AcDbEntity
  8
ALL_ASSEMBLY_MEMBERS
100
AcDbLine
 62
7
  6
CONTINUOUS
 10
4.0483763038
 20
5.4269715899
 11
4.0483763038
 21
5.4427215899
  0
LINE
  5
27C
100
AcDbEntity
  8
ALL_ASSEMBLY_MEMBERS
100
AcDbLine
 62
40
  6
CONTINUOUS
 10
4.0702513038
 20
4.4201874658
 11
4.0702513038
 21
4.4164719387
  0
LINE
  5
27D
100
AcDbEntity
  8
ALL_ASSEMBLY_MEMBERS
100
AcDbLine
 62
40
  6
CONTINUOUS
 10
4.1058763038
 20
4.4101435019
 11
4.1058763038
 21
4.4085968724
  0
LINE
  5
27E
100
AcDbEntity
  8
ALL_ASSEMBLY_MEMBERS
100
AcDbLine
 62
7
  6
CONTINUOUS
 10
4.2086434976
 20
5.7376781388
 11
4.2086434592
 21
5.7377459313
  0
LINE
  5
27F
100
AcDbEntity
  8
ALL_ASSEMBLY_MEMBERS
100
AcDbLine
 62
7
  6
CONTINUOUS
 10
4.1646263038
 20
4.4432076109
 11
4.1646263038
 21
4.2770375174
  0
LINE
  5
280
100
AcDbEntity
  8
ALL_ASSEMBLY_MEMBERS
100
AcDbLine
 62
7
  6
CONTINUOUS
 10
4.1952513038
 20
4.5722545985
 11
4.1952513038
 21
4.5153099017
  0
LINE
  5
281
100
AcDbEntity
  8
ALL_ASSEMBLY_MEMBERS
100
AcDbLine
 62
7
  6
CONTINUOUS
 10
4.2068138038
 20
5.8597414984
 11
4.2068138038
 21
5.856564178
  0
LINE
  5
282
100
AcDbEntity
  8
ALL_ASSEMBLY_MEMBERS
100
AcDbLine
 62
7
  6
CONTINUOUS
 10
4.2068138038
 20
5.8421454236
 11
4.2068138038
 21
5.8384616185
  0
LINE
  5
283
100
AcDbEntity
  8
ALL_ASSEMBLY_MEMBERS
100
AcDbLine
 62
7
  6
CONTINUOUS
 10
4.2068138038
 20
5.8245329962
 11
4.2068138038
 21
5.8203031454
  0
LINE
  5
284
100
AcDbEntity
  8
ALL_ASSEMBLY_MEMBERS
100
AcDbLine
 62
7
  6
CONTINUOUS
 10
4.2068138038
 20
5.8069764653
 11
4.2068138038
 21
5.8021810697
  0
LINE
  5
285
100
AcDbEntity
  8
ALL_ASSEMBLY_MEMBERS
100
AcDbLine
 62
7
  6
CONTINUOUS
 10
4.2068138038
 20
5.7893835315
 11
4.2068138038
 21
5.7840737238
  0
LINE
  5
286
100
AcDbEntity
  8
ALL_ASSEMBLY_MEMBERS
100
AcDbLine
 62
7
  6
CONTINUOUS
 10
4.2068138038
 20
5.7717758901
 11
4.2068138038
 21
5.7659229726
  0
LINE
  5
287
100
AcDbEntity
  8
ALL_ASSEMBLY_MEMBERS
100
AcDbLine
 62
7
  6
CONTINUOUS
 10
4.2068138038
 20
5.7542116379
 11
4.2068138038
 21
5.7477979253
  0
LINE
  5
288
100
AcDbEntity
  8
ALL_ASSEMBLY_MEMBERS
100
AcDbLine
 62
7
  6
CONTINUOUS
 10
4.2068138038
 20
5.7278338476
 11
4.2068138038
 21
5.7217215899
  0
LINE
  5
289
100
AcDbEntity
  8
ALL_ASSEMBLY_MEMBERS
100
AcDbLine
 62
7
  6
CONTINUOUS
 10
4.2068138038
 20
5.6175073143
 11
4.2068138038
 21
4.6280366561
  0
LINE
  5
28A
100
AcDbEntity
  8
ALL_ASSEMBLY_MEMBERS
100
AcDbLine
 62
7
  6
CONTINUOUS
 10
4.2123872535
 20
5.7355166803
 11
4.2123872535
 21
5.7310516803
  0
LINE
  5
28B
100
AcDbEntity
  8
ALL_ASSEMBLY_MEMBERS
100
AcDbLine
 62
7
  6
CONTINUOUS
 10
4.2126258853
 20
5.7444400212
 11
4.2126258853
 21
5.7399750212
  0
LINE
  5
28C
100
AcDbEntity
  8
ALL_ASSEMBLY_MEMBERS
100
AcDbLine
 62
7
  6
CONTINUOUS
 10
4.2130893052
 20
5.7622977882
 11
4.2130893052
 21
5.7578327882
  0
LINE
  5
28D
100
AcDbEntity
  8
ALL_ASSEMBLY_MEMBERS
100
AcDbLine
 62
7
  6
CONTINUOUS
 10
4.2135972581
 20
5.7801543999
 11
4.2135972581
 21
5.7756893999
  0
LINE
  5
28E
100
AcDbEntity
  8
ALL_ASSEMBLY_MEMBERS
100
AcDbLine
 62
7
  6
CONTINUOUS
 10
4.2140299635
 20
5.7980124889
 11
4.2140299635
 21
5.7935474889
  0
LINE
  5
28F
100
AcDbEntity
  8
ALL_ASSEMBLY_MEMBERS
100
AcDbLine
 62
7
  6
CONTINUOUS
 10
4.2144882276
 20
5.815870295
 11
4.2144882276
 21
5.811405295
  0
LINE
  5
290
100
AcDbEntity
  8
ALL_ASSEMBLY_MEMBERS
100
AcDbLine
 62
7
  6
CONTINUOUS
 10
4.2150096214
 20
5.8337271465
 11
4.2150096214
 21
5.8292621465
  0
LINE
  5
291
100
AcDbEntity
  8
ALL_ASSEMBLY_MEMBERS
100
AcDbLine
 62
7
  6
CONTINUOUS
 10
4.2154339789
 20
5.8515849598
 11
4.2154339789
 21
5.8471199598
  0
LINE
  5
292
100
AcDbEntity
  8
ALL_ASSEMBLY_MEMBERS
100
AcDbLine
 62
7
  6
CONTINUOUS
 10
4.2158867894
 20
5.8694427689
 11
4.2158867894
 21
5.8649777689
  0
LINE
  5
293
100
AcDbEntity
  8
ALL_ASSEMBLY_MEMBERS
100
AcDbLine
 62
7
  6
CONTINUOUS
 10
4.2068138652
 20
4.6204076853
 11
4.2068138038
 21
4.6203287217
  0
LINE
  5
294
100
AcDbEntity
  8
ALL_ASSEMBLY_MEMBERS
100
AcDbLine
 62
7
  6
CONTINUOUS
 10
4.0769127172
 20
5.2506654716
 11
4.0483763038
 21
5.4269715899
  0
LINE
  5
295
100
AcDbEntity
  8
ALL_ASSEMBLY_MEMBERS
100
AcDbLine
 62
7
  6
CONTINUOUS
 10
4.3357693219
 20
4.4725466613
 11
4.3357693219
 21
4.4376990513
  0
LINE
  5
296
100
AcDbEntity
  8
ALL_ASSEMBLY_MEMBERS
100
AcDbLine
 62
7
  6
CONTINUOUS
 10
4.3408170849
 20
4.3441832245
 11
4.3408170849
 21
4.2823113811
  0
LINE
  5
297
100
AcDbEntity
  8
ALL_ASSEMBLY_MEMBERS
100
AcDbLine
 62
7
  6
CONTINUOUS
 10
4.3897332856
 20
4.4945773572
 11
4.3897332856
 21
4.4597297472
  0
LINE
  5
298
100
AcDbEntity
  8
ALL_ASSEMBLY_MEMBERS
100
AcDbLine
 62
7
  6
CONTINUOUS
 10
4.4006331192
 20
5.8739058303
 11
4.4006331192
 21
5.8783708303
  0
LINE
  5
299
100
AcDbEntity
  8
ALL_ASSEMBLY_MEMBERS
100
AcDbLine
 62
7
  6
CONTINUOUS
 10
4.4010829012
 20
5.8560488237
 11
4.4010829012
 21
5.8605138237
  0
LINE
  5
29A
100
AcDbEntity
  8
ALL_ASSEMBLY_MEMBERS
100
AcDbLine
 62
7
  6
CONTINUOUS
 10
4.4015590476
 20
5.8381912429
 11
4.4015590476
 21
5.8426562429
  0
LINE
  5
29B
100
AcDbEntity
  8
ALL_ASSEMBLY_MEMBERS
100
AcDbLine
 62
7
  6
CONTINUOUS
 10
4.4020415766
 20
5.8203335665
 11
4.4020415766
 21
5.8247985665
  0
LINE
  5
29C
100
AcDbEntity
  8
ALL_ASSEMBLY_MEMBERS
100
AcDbLine
 62
7
  6
CONTINUOUS
 10
4.4024851215
 20
5.8024763274
 11
4.4024851215
 21
5.8069413274
  0
LINE
  5
29D
100
AcDbEntity
  8
ALL_ASSEMBLY_MEMBERS
100
AcDbLine
 62
7
  6
CONTINUOUS
 10
4.4029624274
 20
5.784618796
 11
4.4029624274
 21
5.789083796
  0
LINE
  5
29E
100
AcDbEntity
  8
ALL_ASSEMBLY_MEMBERS
100
AcDbLine
 62
7
  6
CONTINUOUS
 10
4.4034469473
 20
5.766761263
 11
4.4034469473
 21
5.771226263
  0
LINE
  5
29F
100
AcDbEntity
  8
ALL_ASSEMBLY_MEMBERS
100
AcDbLine
 62
7
  6
CONTINUOUS
 10
4.40388781
 20
5.7489038349
 11
4.40388781
 21
5.7533688349
  0
LINE
  5
2A0
100
AcDbEntity
  8
ALL_ASSEMBLY_MEMBERS
100
AcDbLine
 62
7
  6
CONTINUOUS
 10
4.404365354
 20
5.7355166803
 11
4.404365354
 21
5.7310516803
  0
LINE
  5
2A1
100
AcDbEntity
  8
ALL_ASSEMBLY_MEMBERS
100
AcDbLine
 62
7
  6
CONTINUOUS
 10
4.4099388038
 20
5.8685358507
 11
4.4099388038
 21
5.8656290227
  0
LINE
  5
2A2
100
AcDbEntity
  8
ALL_ASSEMBLY_MEMBERS
100
AcDbLine
 62
7
  6
CONTINUOUS
 10
4.4099388038
 20
5.8509380856
 11
4.4099388038
 21
5.8474966269
  0
LINE
  5
2A3
100
AcDbEntity
  8
ALL_ASSEMBLY_MEMBERS
100
AcDbLine
 62
7
  6
CONTINUOUS
 10
4.4099388038
 20
5.8333554783
 11
4.4099388038
 21
5.8293605769
  0
LINE
  5
2A4
100
AcDbEntity
  8
ALL_ASSEMBLY_MEMBERS
100
AcDbLine
 62
7
  6
CONTINUOUS
 10
4.4099388038
 20
5.8157765328
 11
4.4099388038
 21
5.81124695
  0
LINE
  5
2A5
100
AcDbEntity
  8
ALL_ASSEMBLY_MEMBERS
100
AcDbLine
 62
7
  6
CONTINUOUS
 10
4.4099388038
 20
5.7981751563
 11
4.4099388038
 21
5.7931138863
  0
LINE
  5
2A6
100
AcDbEntity
  8
ALL_ASSEMBLY_MEMBERS
100
AcDbLine
 62
7
  6
CONTINUOUS
 10
4.4099388038
 20
5.7805932212
 11
4.4099388038
 21
5.774976676
  0
LINE
  5
2A7
100
AcDbEntity
  8
ALL_ASSEMBLY_MEMBERS
100
AcDbLine
 62
7
  6
CONTINUOUS
 10
4.4099388038
 20
5.7630154336
 11
4.4099388038
 21
5.7568646077
  0
LINE
  5
2A8
100
AcDbEntity
  8
ALL_ASSEMBLY_MEMBERS
100
AcDbLine
 62
7
  6
CONTINUOUS
 10
4.4099388038
 20
5.7454124975
 11
4.4099388038
 21
5.738734513
  0
LINE
  5
2A9
100
AcDbEntity
  8
ALL_ASSEMBLY_MEMBERS
100
AcDbLine
 62
7
  6
CONTINUOUS
 10
4.4099388038
 20
5.7278338476
 11
4.4099388038
 21
5.7217215899
  0
LINE
  5
2AA
100
AcDbEntity
  8
ALL_ASSEMBLY_MEMBERS
100
AcDbLine
 62
7
  6
CONTINUOUS
 10
4.4134355226
 20
4.3738295776
 11
4.4134355226
 21
4.3119577342
  0
LINE
  5
2AB
100
AcDbEntity
  8
ALL_ASSEMBLY_MEMBERS
100
AcDbLine
 62
7
  6
CONTINUOUS
 10
4.4099388038
 20
5.6175073143
 11
4.4099387424
 21
4.6279576924
  0
LINE
  5
2AC
100
AcDbEntity
  8
ALL_ASSEMBLY_MEMBERS
100
AcDbLine
 62
9
  6
CONTINUOUS
 10
4.2068138652
 20
4.6204076853
 11
4.2074055712
 21
4.6206487884
  0
LINE
  5
2AD
100
AcDbEntity
  8
ALL_ASSEMBLY_MEMBERS
100
AcDbLine
 62
7
  6
CONTINUOUS
 10
4.4215013038
 20
4.5722545985
 11
4.4215013038
 21
4.5153099017
  0
LINE
  5
2AE
100
AcDbEntity
  8
ALL_ASSEMBLY_MEMBERS
100
AcDbLine
 62
7
  6
CONTINUOUS
 10
4.4521263038
 20
4.4432076109
 11
4.4521263038
 21
4.2770375174
  0
LINE
  5
2AF
100
AcDbEntity
  8
ALL_ASSEMBLY_MEMBERS
100
AcDbLine
 62
7
  6
CONTINUOUS
 10
4.5398398903
 20
5.2506654716
 11
4.5683763038
 21
5.4269715899
  0
LINE
  5
2B0
100
AcDbEntity
  8
ALL_ASSEMBLY_MEMBERS
100
AcDbLine
 62
7
  6
CONTINUOUS
 10
4.5683763038
 20
5.4269715899
 11
4.5683763038
 21
5.4427215899
  0
LINE
  5
2B1
100
AcDbEntity
  8
ALL_ASSEMBLY_MEMBERS
100
AcDbLine
 62
7
  6
CONTINUOUS
 10
4.6058763038
 20
5.6636782781
 11
4.6058763038
 21
5.7217215899
  0
LINE
  5
2B2
100
AcDbEntity
  8
ALL_ASSEMBLY_MEMBERS
100
AcDbLine
 62
7
  6
CONTINUOUS
 10
4.7133763038
 20
4.1592806845
 11
4.7133763038
 21
4.1532723217
  0
LINE
  5
2B3
100
AcDbEntity
  8
ALL_ASSEMBLY_MEMBERS
100
AcDbLine
 62
7
  6
CONTINUOUS
 10
4.4134355226
 20
4.3738295776
 11
4.3408170849
 21
4.3441832245
  0
LINE
  5
2B4
100
AcDbEntity
  8
ALL_ASSEMBLY_MEMBERS
100
AcDbLine
 62
9
  6
CONTINUOUS
 10
4.4111897459
 20
5.0806234305
 11
4.4099388038
 21
5.0806234305
  0
LINE
  5
2B5
100
AcDbEntity
  8
ALL_ASSEMBLY_MEMBERS
100
AcDbLine
 62
9
  6
CONTINUOUS
 10
4.2068138038
 20
5.0806234305
 11
4.2055628616
 21
5.0806234305
  0
LINE
  5
2B6
100
AcDbEntity
  8
ALL_ASSEMBLY_MEMBERS
100
AcDbLine
 62
9
  6
CONTINUOUS
 10
4.4099388038
 20
5.1317215899
 11
4.2068138038
 21
5.1317215899
  0
LINE
  5
2B7
100
AcDbEntity
  8
ALL_ASSEMBLY_MEMBERS
100
AcDbLine
 62
7
  6
CONTINUOUS
 10
4.7846263038
 20
4.1199350837
 11
4.7846263038
 21
4.0875763169
  0
LINE
  5
2B8
100
AcDbEntity
  8
ALL_ASSEMBLY_MEMBERS
100
AcDbLine
 62
7
  6
CONTINUOUS
 10
4.4134355226
 20
4.3119577342
 11
4.3408170849
 21
4.2823113811
  0
LINE
  5
2B9
100
AcDbEntity
  8
ALL_ASSEMBLY_MEMBERS
100
AcDbLine
 62
9
  6
CONTINUOUS
 10
4.5398398903
 20
5.2506654716
 11
4.4099388038
 21
5.2506654716
  0
LINE
  5
2BA
100
AcDbEntity
  8
ALL_ASSEMBLY_MEMBERS
100
AcDbLine
 62
9
  6
CONTINUOUS
 10
4.0769127172
 20
5.2506654716
 11
4.2068138038
 21
5.2506654716
  0
LINE
  5
2BB
100
AcDbEntity
  8
ALL_ASSEMBLY_MEMBERS
100
AcDbLine
 62
7
  6
CONTINUOUS
 10
4.2069366314
 20
5.7476559529
 11
4.206813808
 21
5.7477970939
  0
LINE
  5
2BC
100
AcDbEntity
  8
ALL_ASSEMBLY_MEMBERS
100
AcDbLine
 62
7
  6
CONTINUOUS
 10
4.2069376528
 20
5.7839306189
 11
4.2068138082
 21
5.7840729065
  0
LINE
  5
2BD
100
AcDbEntity
  8
ALL_ASSEMBLY_MEMBERS
100
AcDbLine
 62
7
  6
CONTINUOUS
 10
4.5683763038
 20
5.4269715899
 11
4.4099388038
 21
5.4269715899
  0
LINE
  5
2BE
100
AcDbEntity
  8
ALL_ASSEMBLY_MEMBERS
100
AcDbLine
 62
7
  6
CONTINUOUS
 10
4.0483763038
 20
5.4269715899
 11
4.2068138038
 21
5.4269715899
  0
LINE
  5
2BF
100
AcDbEntity
  8
ALL_ASSEMBLY_MEMBERS
100
AcDbLine
 62
7
  6
CONTINUOUS
 10
4.5683763038
 20
5.4427215899
 11
4.4099388038
 21
5.4427215899
  0
LINE
  5
2C0
100
AcDbEntity
  8
ALL_ASSEMBLY_MEMBERS
100
AcDbLine
 62
7
  6
CONTINUOUS
 10
4.0483763038
 20
5.4427215899
 11
4.2068138038
 21
5.4427215899
  0
LINE
  5
2C1
100
AcDbEntity
  8
ALL_ASSEMBLY_MEMBERS
100
AcDbLine
 62
7
  6
CONTINUOUS
 10
4.206936126
 20
5.8201617633
 11
4.206813807
 21
5.8203024214
  0
LINE
  5
2C2
100
AcDbEntity
  8
ALL_ASSEMBLY_MEMBERS
100
AcDbLine
 62
7
  6
CONTINUOUS
 10
4.2069366206
 20
5.8564222198
 11
4.2068138056
 21
5.8565636357
  0
LINE
  5
2C3
100
AcDbEntity
  8
ALL_ASSEMBLY_MEMBERS
100
AcDbLine
 62
7
  6
CONTINUOUS
 10
4.5958154262
 20
5.4839715899
 11
4.4099388038
 21
5.4839715899
  0
LINE
  5
2C4
100
AcDbEntity
  8
ALL_ASSEMBLY_MEMBERS
100
AcDbLine
 62
7
  6
CONTINUOUS
 10
4.0209371813
 20
5.4839715899
 11
4.2068138038
 21
5.4839715899
  0
LINE
  5
2C5
100
AcDbEntity
  8
ALL_ASSEMBLY_MEMBERS
100
AcDbLine
 62
7
  6
CONTINUOUS
 10
4.9975859887
 20
5.5332215899
 11
4.4099388038
 21
5.5332215899
  0
LINE
  5
2C6
100
AcDbEntity
  8
ALL_ASSEMBLY_MEMBERS
100
AcDbLine
 62
7
  6
CONTINUOUS
 10
4.2068138038
 20
5.5332215899
 11
3.6191666189
 21
5.5332215899
  0
LINE
  5
2C7
100
AcDbEntity
  8
ALL_ASSEMBLY_MEMBERS
100
AcDbLine
 62
7
  6
CONTINUOUS
 10
4.2086435743
 20
5.7376780945
 11
4.2123872535
 21
5.7355166803
  0
LINE
  5
2C8
100
AcDbEntity
  8
ALL_ASSEMBLY_MEMBERS
100
AcDbLine
 62
7
  6
CONTINUOUS
 10
4.4098231971
 20
5.8510716962
 11
4.4099388024
 21
5.8509385429
  0
LINE
  5
2C9
100
AcDbEntity
  8
ALL_ASSEMBLY_MEMBERS
100
AcDbLine
 62
7
  6
CONTINUOUS
 10
4.4098233186
 20
5.7807267019
 11
4.4099388036
 21
5.7805933557
  0
LINE
  5
2CA
100
AcDbEntity
  8
ALL_ASSEMBLY_MEMBERS
100
AcDbLine
 62
7
  6
CONTINUOUS
 10
4.4099388038
 20
5.7454124938
 11
4.409823283
 21
5.7455460104
  0
LINE
  5
2CB
100
AcDbEntity
  8
ALL_ASSEMBLY_MEMBERS
100
AcDbLine
 62
7
  6
CONTINUOUS
 10
4.4201800456
 20
5.6175073143
 11
4.4210179464
 21
5.6175542665
  0
LINE
  5
2CC
100
AcDbEntity
  8
ALL_ASSEMBLY_MEMBERS
100
AcDbLine
 62
9
  6
CONTINUOUS
 10
5.0518561462
 20
5.5647215899
 11
4.4099388038
 21
5.5647215899
  0
LINE
  5
2CD
100
AcDbEntity
  8
ALL_ASSEMBLY_MEMBERS
100
AcDbLine
 62
9
  6
CONTINUOUS
 10
4.2068138038
 20
5.5647215899
 11
3.5648964613
 21
5.5647215899
  0
LINE
  5
2CE
100
AcDbEntity
  8
ALL_ASSEMBLY_MEMBERS
100
AcDbLine
 62
7
  6
CONTINUOUS
 10
5.1061053482
 20
5.5962215864
 11
4.4099388038
 21
5.5962215864
  0
LINE
  5
2CF
100
AcDbEntity
  8
ALL_ASSEMBLY_MEMBERS
100
AcDbLine
 62
7
  6
CONTINUOUS
 10
4.2068138038
 20
5.5962215864
 11
3.5106472593
 21
5.5962215864
  0
LINE
  5
2D0
100
AcDbEntity
  8
ALL_ASSEMBLY_MEMBERS
100
AcDbLine
 62
7
  6
CONTINUOUS
 10
4.1965725619
 20
5.6175073143
 11
4.4201800456
 21
5.6175073143
  0
LINE
  5
2D1
100
AcDbEntity
  8
ALL_ASSEMBLY_MEMBERS
100
AcDbLine
 62
9
  6
CONTINUOUS
 10
4.4210179464
 20
5.6175542665
 11
4.1957346611
 21
5.6175542665
  0
LINE
  5
2D2
100
AcDbEntity
  8
ALL_ASSEMBLY_MEMBERS
100
AcDbLine
 62
9
  6
CONTINUOUS
 10
5.1603565392
 20
5.627722278
 11
4.4911144478
 21
5.627722278
  0
LINE
  5
2D3
100
AcDbEntity
  8
ALL_ASSEMBLY_MEMBERS
100
AcDbLine
 62
9
  6
CONTINUOUS
 10
4.1256381598
 20
5.627722278
 11
3.4563960683
 21
5.627722278
  0
LINE
  5
2D4
100
AcDbEntity
  8
ALL_ASSEMBLY_MEMBERS
100
AcDbLine
 62
9
  6
CONTINUOUS
 10
4.5967251069
 20
5.6516352088
 11
4.0200275006
 21
5.6516352088
  0
LINE
  5
2D5
100
AcDbEntity
  8
ALL_ASSEMBLY_MEMBERS
100
AcDbLine
 62
7
  6
CONTINUOUS
 10
5.2146263038
 20
5.6592215899
 11
4.6050464809
 21
5.6592215899
  0
LINE
  5
2D6
100
AcDbEntity
  8
ALL_ASSEMBLY_MEMBERS
100
AcDbLine
 62
7
  6
CONTINUOUS
 10
4.0117061266
 20
5.6592215899
 11
3.4021263038
 21
5.6592215899
  0
LINE
  5
2D7
100
AcDbEntity
  8
ALL_ASSEMBLY_MEMBERS
100
AcDbLine
 62
7
  6
CONTINUOUS
 10
4.1965725619
 20
5.6175073143
 11
4.1957346611
 21
5.6175542665
  0
LINE
  5
2D8
100
AcDbEntity
  8
ALL_ASSEMBLY_MEMBERS
100
AcDbLine
 62
7
  6
CONTINUOUS
 10
4.404365354
 20
5.7310516803
 11
4.4099388038
 21
5.7278338476
  0
LINE
  5
2D9
100
AcDbEntity
  8
ALL_ASSEMBLY_MEMBERS
100
AcDbLine
 62
7
  6
CONTINUOUS
 10
4.2074628324
 20
5.7473517808
 11
4.2127521585
 21
5.7442940448
  0
LINE
  5
2DA
100
AcDbEntity
  8
ALL_ASSEMBLY_MEMBERS
100
AcDbLine
 62
7
  6
CONTINUOUS
 10
4.2069366314
 20
5.7476559529
 11
4.2074628324
 21
5.7473517808
  0
LINE
  5
2DB
100
AcDbEntity
  8
ALL_ASSEMBLY_MEMBERS
100
AcDbLine
 62
7
  6
CONTINUOUS
 10
4.2079274615
 20
5.7652085144
 11
4.2132161961
 21
5.7621510972
  0
LINE
  5
2DC
100
AcDbEntity
  8
ALL_ASSEMBLY_MEMBERS
100
AcDbLine
 62
7
  6
CONTINUOUS
 10
4.206936189
 20
5.7657815231
 11
4.2079274615
 21
5.7652085144
  0
LINE
  5
2DD
100
AcDbEntity
  8
ALL_ASSEMBLY_MEMBERS
100
AcDbLine
 62
7
  6
CONTINUOUS
 10
4.207163131
 20
5.7838002805
 11
4.2135653104
 21
5.7800991421
  0
LINE
  5
2DE
100
AcDbEntity
  8
ALL_ASSEMBLY_MEMBERS
100
AcDbLine
 62
7
  6
CONTINUOUS
 10
4.2069376528
 20
5.7839306197
 11
4.207163131
 21
5.7838002805
  0
LINE
  5
2DF
100
AcDbEntity
  8
ALL_ASSEMBLY_MEMBERS
100
AcDbLine
 62
7
  6
CONTINUOUS
 10
4.2079954622
 20
5.8014270353
 11
4.2139978734
 21
5.7979569845
  0
LINE
  5
2E0
100
AcDbEntity
  8
ALL_ASSEMBLY_MEMBERS
100
AcDbLine
 62
7
  6
CONTINUOUS
 10
4.2069366292
 20
5.8020391008
 11
4.2079954622
 21
5.8014270353
  0
LINE
  5
2E1
100
AcDbEntity
  8
ALL_ASSEMBLY_MEMBERS
100
AcDbLine
 62
7
  6
CONTINUOUS
 10
4.206936126
 20
5.820161763
 11
4.2144559803
 21
5.8158145193
  0
LINE
  5
2E2
100
AcDbEntity
  8
ALL_ASSEMBLY_MEMBERS
100
AcDbLine
 62
7
  6
CONTINUOUS
 10
4.2069372062
 20
5.8383190668
 11
4.2149771874
 21
5.8336710493
  0
LINE
  5
2E3
100
AcDbEntity
  8
ALL_ASSEMBLY_MEMBERS
100
AcDbLine
 62
7
  6
CONTINUOUS
 10
4.2069366206
 20
5.8564222199
 11
4.2154014043
 21
5.8515286199
  0
LINE
  5
2E4
100
AcDbEntity
  8
ALL_ASSEMBLY_MEMBERS
100
AcDbLine
 62
7
  6
CONTINUOUS
 10
4.3999388038
 20
5.8817215899
 11
4.4023154678
 21
5.8793449259
  0
LINE
  5
2E5
100
AcDbEntity
  8
ALL_ASSEMBLY_MEMBERS
100
AcDbLine
 62
9
  6
CONTINUOUS
 10
4.6058763038
 20
5.6636782781
 11
4.0108763038
 21
5.6636782781
  0
LINE
  5
2E6
100
AcDbEntity
  8
ALL_ASSEMBLY_MEMBERS
100
AcDbLine
 62
7
  6
CONTINUOUS
 10
5.2771263038
 20
5.7217215899
 11
3.3396263038
 21
5.7217215899
  0
LINE
  5
2E7
100
AcDbEntity
  8
ALL_ASSEMBLY_MEMBERS
100
AcDbLine
 62
7
  6
CONTINUOUS
 10
4.4099388038
 20
5.7278338476
 11
4.2068138652
 21
5.7278338476
  0
LINE
  5
2E8
100
AcDbEntity
  8
ALL_ASSEMBLY_MEMBERS
100
AcDbLine
 62
7
  6
CONTINUOUS
 10
4.404365354
 20
5.7310516803
 11
4.2123873115
 21
5.7310516803
  0
LINE
  5
2E9
100
AcDbEntity
  8
ALL_ASSEMBLY_MEMBERS
100
AcDbLine
 62
7
  6
CONTINUOUS
 10
4.404365354
 20
5.7355166803
 11
4.2123873115
 21
5.7355166803
  0
LINE
  5
2EA
100
AcDbEntity
  8
ALL_ASSEMBLY_MEMBERS
100
AcDbLine
 62
7
  6
CONTINUOUS
 10
4.4099388038
 20
5.738734513
 11
4.2344237194
 21
5.738734513
  0
LINE
  5
2EB
100
AcDbEntity
  8
ALL_ASSEMBLY_MEMBERS
100
AcDbLine
 62
7
  6
CONTINUOUS
 10
4.4088650083
 20
5.7460999066
 11
4.4037611858
 21
5.7490502019
  0
LINE
  5
2EC
100
AcDbEntity
  8
ALL_ASSEMBLY_MEMBERS
100
AcDbLine
 62
7
  6
CONTINUOUS
 10
4.409823283
 20
5.7455460104
 11
4.4088650083
 21
5.7460999066
  0
LINE
  5
2ED
100
AcDbEntity
  8
ALL_ASSEMBLY_MEMBERS
100
AcDbLine
 62
7
  6
CONTINUOUS
 10
4.4084230342
 20
5.7639582798
 11
4.403478793
 21
5.76681635
  0
LINE
  5
2EE
100
AcDbEntity
  8
ALL_ASSEMBLY_MEMBERS
100
AcDbLine
 62
7
  6
CONTINUOUS
 10
4.4098234094
 20
5.7631488403
 11
4.4084230342
 21
5.7639582798
  0
LINE
  5
2EF
100
AcDbEntity
  8
ALL_ASSEMBLY_MEMBERS
100
AcDbLine
 62
7
  6
CONTINUOUS
 10
4.4088143905
 20
5.7813098765
 11
4.4029944387
 21
5.784674169
  0
LINE
  5
2F0
100
AcDbEntity
  8
ALL_ASSEMBLY_MEMBERS
100
AcDbLine
 62
7
  6
CONTINUOUS
 10
4.4098233186
 20
5.7807267019
 11
4.4088143905
 21
5.7813098765
  0
LINE
  5
2F1
100
AcDbEntity
  8
ALL_ASSEMBLY_MEMBERS
100
AcDbLine
 62
7
  6
CONTINUOUS
 10
4.4098232431
 20
5.7983087146
 11
4.4025172962
 21
5.8025319821
  0
LINE
  5
2F2
100
AcDbEntity
  8
ALL_ASSEMBLY_MEMBERS
100
AcDbLine
 62
7
  6
CONTINUOUS
 10
4.409324493
 20
5.8161981759
 11
4.4020738992
 21
5.8203894766
  0
LINE
  5
2F3
100
AcDbEntity
  8
ALL_ASSEMBLY_MEMBERS
100
AcDbLine
 62
7
  6
CONTINUOUS
 10
4.4098236682
 20
5.8159096483
 11
4.409324493
 21
5.8161981759
  0
LINE
  5
2F4
100
AcDbEntity
  8
ALL_ASSEMBLY_MEMBERS
100
AcDbLine
 62
7
  6
CONTINUOUS
 10
4.4098233462
 20
5.8334889265
 11
4.4015915408
 21
5.8382474474
  0
LINE
  5
2F5
100
AcDbEntity
  8
ALL_ASSEMBLY_MEMBERS
100
AcDbLine
 62
7
  6
CONTINUOUS
 10
4.4092061255
 20
5.8514283711
 11
4.4011155623
 21
5.8561053175
  0
LINE
  5
2F6
100
AcDbEntity
  8
ALL_ASSEMBLY_MEMBERS
100
AcDbLine
 62
7
  6
CONTINUOUS
 10
4.4098231971
 20
5.8510716963
 11
4.4092061255
 21
5.8514283711
  0
LINE
  5
2F7
100
AcDbEntity
  8
ALL_ASSEMBLY_MEMBERS
100
AcDbLine
 62
7
  6
CONTINUOUS
 10
4.2087245944
 20
5.8735078886
 11
4.2158540558
 21
5.8693861541
  0
LINE
  5
2F8
100
AcDbEntity
  8
ALL_ASSEMBLY_MEMBERS
100
AcDbLine
 62
7
  6
CONTINUOUS
 10
4.4087550959
 20
5.8692864392
 11
4.4006659342
 21
5.8739625902
  0
LINE
  5
2F9
100
AcDbEntity
  8
ALL_ASSEMBLY_MEMBERS
100
AcDbLine
 62
7
  6
CONTINUOUS
 10
4.4098239788
 20
5.8686686135
 11
4.4087550959
 21
5.8692864392
  0
LINE
  5
2FA
100
AcDbEntity
  8
ALL_ASSEMBLY_MEMBERS
100
AcDbLine
 62
7
  6
CONTINUOUS
 10
4.3999388038
 20
5.8817215899
 11
4.2168138038
 21
5.8817215899
  0
ARC
  5
2FB
100
AcDbEntity
  8
ALL_ASSEMBLY_MEMBERS
100
AcDbCircle
 62
7
  6
CONTINUOUS
 10
3.5106682158
 20
5.6587243272
 40
0.0625027444
100
AcDbArc
 50
209.7364395186
 51
269.9807893772
  0
ARC
  5
2FC
100
AcDbEntity
  8
ALL_ASSEMBLY_MEMBERS
100
AcDbCircle
 62
7
  6
CONTINUOUS
 10
3.6191666189
 20
5.5957215899
 40
0.0625
100
AcDbArc
 50
209.7357131076
 51
270.0
  0
ARC
  5
2FD
100
AcDbEntity
  8
ALL_ASSEMBLY_MEMBERS
100
AcDbCircle
 62
7
  6
CONTINUOUS
 10
3.5106263038
 20
5.5337215899
 40
0.0625
100
AcDbArc
 50
29.7357131076
 51
89.9807893772
  0
ARC
  5
2FE
100
AcDbEntity
  8
ALL_ASSEMBLY_MEMBERS
100
AcDbCircle
 62
7
  6
CONTINUOUS
 10
3.4021263038
 20
5.5967215899
 40
0.0625
100
AcDbArc
 50
29.7364395186
 51
90.0
  0
ARC
  5
2FF
100
AcDbEntity
  8
ALL_ASSEMBLY_MEMBERS
100
AcDbCircle
 62
7
  6
CONTINUOUS
 10
3.4021263038
 20
5.7217215899
 40
0.0625
100
AcDbArc
 50
180.0
 51
270.0
  0
ARC
  5
300
100
AcDbEntity
  8
ALL_ASSEMBLY_MEMBERS
100
AcDbCircle
 62
7
  6
CONTINUOUS
 10
4.0403085253
 20
4.012426553
 40
0.2694155439
100
AcDbArc
 50
176.7909905725
 51
188.3573732818
  0
ARC
  5
301
100
AcDbEntity
  8
ALL_ASSEMBLY_MEMBERS
100
AcDbCircle
 62
9
  6
CONTINUOUS
 10
4.0712847339
 20
4.1199653307
 40
0.2391580234
100
AcDbArc
 50
180.0072463522
 51
187.6993715491
  0
ARC
  5
302
100
AcDbEntity
  8
ALL_ASSEMBLY_MEMBERS
100
AcDbCircle
 62
9
  6
CONTINUOUS
 10
4.106083312
 20
4.1592864999
 40
0.2027066608
100
AcDbArc
 50
180.0016437407
 51
181.6987277915
  0
ARC
  5
303
100
AcDbEntity
  8
ALL_ASSEMBLY_MEMBERS
100
AcDbCircle
 62
7
  6
CONTINUOUS
 10
4.2796821359
 20
3.9100574284
 40
0.5480510685
100
AcDbArc
 50
111.9114203465
 51
112.2075224861
  0
ARC
  5
304
100
AcDbEntity
  8
ALL_ASSEMBLY_MEMBERS
100
AcDbCircle
 62
9
  6
CONTINUOUS
 10
4.2782130309
 20
3.921098746
 40
0.5355020232
100
AcDbArc
 50
112.2075552831
 51
112.5062899718
  0
ARC
  5
305
100
AcDbEntity
  8
ALL_ASSEMBLY_MEMBERS
100
AcDbCircle
 62
7
  6
CONTINUOUS
 10
4.2929652907
 20
3.9504609518
 40
0.4948778998
100
AcDbArc
 50
105.0338463393
 51
112.013050256
  0
ARC
  5
306
100
AcDbEntity
  8
ALL_ASSEMBLY_MEMBERS
100
AcDbCircle
 62
9
  6
CONTINUOUS
 10
4.2926596356
 20
3.9541439942
 40
0.4903627692
100
AcDbArc
 50
105.1380279915
 51
112.1424117478
  0
ARC
  5
307
100
AcDbEntity
  8
ALL_ASSEMBLY_MEMBERS
100
AcDbCircle
 62
7
  6
CONTINUOUS
 10
4.2829408084
 20
3.9766351156
 40
0.4668548036
100
AcDbArc
 50
112.0764829312
 51
112.2076274087
  0
ARC
  5
308
100
AcDbEntity
  8
ALL_ASSEMBLY_MEMBERS
100
AcDbCircle
 62
7
  6
CONTINUOUS
 10
4.3083749618
 20
4.4014879606
 40
0.1222513
100
AcDbArc
 50
22.3316374299
 51
34.8899615237
  0
ARC
  5
309
100
AcDbEntity
  8
ALL_ASSEMBLY_MEMBERS
100
AcDbCircle
 62
7
  6
CONTINUOUS
 10
4.3083525596
 20
4.4015009675
 40
0.1222230813
100
AcDbArc
 50
145.1035572105
 51
157.7286208033
  0
ARC
  5
30A
100
AcDbEntity
  8
ALL_ASSEMBLY_MEMBERS
100
AcDbCircle
 62
7
  6
CONTINUOUS
 10
4.2660846216
 20
4.56634242
 40
0.0721505885
100
AcDbArc
 50
145.2757263769
 51
147.7997210205
  0
ARC
  5
30B
100
AcDbEntity
  8
ALL_ASSEMBLY_MEMBERS
100
AcDbCircle
 62
7
  6
CONTINUOUS
 10
4.272892276
 20
4.5876754592
 40
0.068638521
100
AcDbArc
 50
220.0808074849
 51
220.5989351668
  0
ARC
  5
30C
100
AcDbEntity
  8
ALL_ASSEMBLY_MEMBERS
100
AcDbCircle
 62
7
  6
CONTINUOUS
 10
4.27157254
 20
4.5865812875
 40
0.0669242417
100
AcDbArc
 50
217.6612681655
 51
220.0915463476
  0
ARC
  5
30D
100
AcDbEntity
  8
ALL_ASSEMBLY_MEMBERS
100
AcDbCircle
 62
7
  6
CONTINUOUS
 10
4.2699504128
 20
4.5853327046
 40
0.0648772321
100
AcDbArc
 50
215.8521474023
 51
217.6636373758
  0
ARC
  5
30E
100
AcDbEntity
  8
ALL_ASSEMBLY_MEMBERS
100
AcDbCircle
 62
7
  6
CONTINUOUS
 10
4.2691042557
 20
4.5847192204
 40
0.0638320804
100
AcDbArc
 50
215.1781009797
 51
215.8506596649
  0
ARC
  5
30F
100
AcDbEntity
  8
ALL_ASSEMBLY_MEMBERS
100
AcDbCircle
 62
7
  6
CONTINUOUS
 10
4.2511395167
 20
4.4307930105
 40
0.0583895878
100
AcDbArc
 50
171.5437847129
 51
175.5966886348
  0
ARC
  5
310
100
AcDbEntity
  8
ALL_ASSEMBLY_MEMBERS
100
AcDbCircle
 62
7
  6
CONTINUOUS
 10
4.2614944815
 20
4.580251622
 40
0.0549950503
100
AcDbArc
 50
203.7481354412
 51
205.6398350015
  0
ARC
  5
311
100
AcDbEntity
  8
ALL_ASSEMBLY_MEMBERS
100
AcDbCircle
 62
7
  6
CONTINUOUS
 10
4.2591641781
 20
4.5917264076
 40
0.0524762832
100
AcDbArc
 50
196.7772676467
 51
203.3429046854
  0
ARC
  5
312
100
AcDbEntity
  8
ALL_ASSEMBLY_MEMBERS
100
AcDbCircle
 62
7
  6
CONTINUOUS
 10
4.2590020685
 20
4.595683793
 40
0.052313154
100
AcDbArc
 50
198.4872763132
 51
200.055229801
  0
ARC
  5
313
100
AcDbEntity
  8
ALL_ASSEMBLY_MEMBERS
100
AcDbCircle
 62
7
  6
CONTINUOUS
 10
4.2572616747
 20
4.5787235602
 40
0.0504893364
100
AcDbArc
 50
194.3820612655
 51
194.6799075765
  0
ARC
  5
314
100
AcDbEntity
  8
ALL_ASSEMBLY_MEMBERS
100
AcDbCircle
 62
7
  6
CONTINUOUS
 10
4.2571977152
 20
4.5951055547
 40
0.0504185656
100
AcDbArc
 50
188.8197613031
 51
198.5142680901
  0
ARC
  5
315
100
AcDbEntity
  8
ALL_ASSEMBLY_MEMBERS
100
AcDbCircle
 62
7
  6
CONTINUOUS
 10
4.2569269958
 20
4.5910596982
 40
0.0501418821
100
AcDbArc
 50
191.6086200039
 51
196.7857653859
  0
ARC
  5
316
100
AcDbEntity
  8
ALL_ASSEMBLY_MEMBERS
100
AcDbCircle
 62
7
  6
CONTINUOUS
 10
4.2554740762
 20
4.578329287
 40
0.0486598669
100
AcDbArc
 50
180.0491953977
 51
194.4551806461
  0
ARC
  5
317
100
AcDbEntity
  8
ALL_ASSEMBLY_MEMBERS
100
AcDbCircle
 62
7
  6
CONTINUOUS
 10
4.2553349786
 20
4.5907538723
 40
0.0485208942
100
AcDbArc
 50
180.0244344871
 51
191.6331626993
  0
ARC
  5
318
100
AcDbEntity
  8
ALL_ASSEMBLY_MEMBERS
100
AcDbCircle
 62
7
  6
CONTINUOUS
 10
4.2551613629
 20
4.5947242493
 40
0.0483478708
100
AcDbArc
 50
183.011305218
 51
188.7432416031
  0
ARC
  5
319
100
AcDbEntity
  8
ALL_ASSEMBLY_MEMBERS
100
AcDbCircle
 62
7
  6
CONTINUOUS
 10
4.2550082482
 20
4.5818879132
 40
0.0481941601
100
AcDbArc
 50
180.0097244417
 51
186.3902668233
  0
ARC
  5
31A
100
AcDbEntity
  8
ALL_ASSEMBLY_MEMBERS
100
AcDbCircle
 62
7
  6
CONTINUOUS
 10
4.2549016995
 20
4.59470006
 40
0.0480874729
100
AcDbArc
 50
174.9702256663
 51
180.0023263039
  0
ARC
  5
31B
100
AcDbEntity
  8
ALL_ASSEMBLY_MEMBERS
100
AcDbCircle
 62
7
  6
CONTINUOUS
 10
4.2548628281
 20
4.5947024147
 40
0.0480486017
100
AcDbArc
 50
180.0051360895
 51
183.0040055636
  0
ARC
  5
31C
100
AcDbEntity
  8
ALL_ASSEMBLY_MEMBERS
100
AcDbCircle
 62
7
  6
CONTINUOUS
 10
4.2547775398
 20
4.5818808516
 40
0.047963451
100
AcDbArc
 50
174.7166264328
 51
180.0013356549
  0
ARC
  5
31D
100
AcDbEntity
  8
ALL_ASSEMBLY_MEMBERS
100
AcDbCircle
 62
7
  6
CONTINUOUS
 10
4.2718754352
 20
5.2822215899
 40
0.1975
100
AcDbArc
 50
189.194
 51
250.7651648748
  0
ARC
  5
31E
100
AcDbEntity
  8
ALL_ASSEMBLY_MEMBERS
100
AcDbCircle
 62
7
  6
CONTINUOUS
 10
4.3055927972
 20
4.6680532459
 40
0.1348769544
100
AcDbArc
 50
270.572515466
 51
271.2007027693
  0
ARC
  5
31F
100
AcDbEntity
  8
ALL_ASSEMBLY_MEMBERS
100
AcDbCircle
 62
7
  6
CONTINUOUS
 10
4.3055985567
 20
4.6545489807
 40
0.1336274127
100
AcDbArc
 50
271.1947911315
 51
271.9020530289
  0
ARC
  5
320
100
AcDbEntity
  8
ALL_ASSEMBLY_MEMBERS
100
AcDbCircle
 62
7
  6
CONTINUOUS
 10
4.3056022452
 20
4.6421232213
 40
0.1335253489
100
AcDbArc
 50
270.3444314066
 51
271.20281826
  0
ARC
  5
321
100
AcDbEntity
  8
ALL_ASSEMBLY_MEMBERS
100
AcDbCircle
 62
7
  6
CONTINUOUS
 10
4.2883763038
 20
4.8824867092
 40
0.09375
100
AcDbArc
 50
150.4720855034
 51
209.5098158932
  0
ARC
  5
322
100
AcDbEntity
  8
ALL_ASSEMBLY_MEMBERS
100
AcDbCircle
 62
7
  6
CONTINUOUS
 10
4.2740742796
 20
4.6051821185
 40
0.0702327395
100
AcDbArc
 50
220.5488126579
 51
222.5213826251
  0
ARC
  5
323
100
AcDbEntity
  8
ALL_ASSEMBLY_MEMBERS
100
AcDbCircle
 62
7
  6
CONTINUOUS
 10
4.2706704449
 20
4.5982920444
 40
0.0657694704
100
AcDbArc
 50
215.8262580877
 51
219.9925341526
  0
ARC
  5
324
100
AcDbEntity
  8
ALL_ASSEMBLY_MEMBERS
100
AcDbCircle
 62
7
  6
CONTINUOUS
 10
4.268976017
 20
4.5970562932
 40
0.0636723151
100
AcDbArc
 50
214.7822244
 51
215.8171305192
  0
ARC
  5
325
100
AcDbEntity
  8
ALL_ASSEMBLY_MEMBERS
100
AcDbCircle
 62
7
  6
CONTINUOUS
 10
4.2686846112
 20
4.6092831476
 40
0.0633176376
100
AcDbArc
 50
214.4177492101
 51
215.7480520409
  0
ARC
  5
326
100
AcDbEntity
  8
ALL_ASSEMBLY_MEMBERS
100
AcDbCircle
 62
7
  6
CONTINUOUS
 10
4.2690351159
 20
4.6324853973
 40
0.063156994
100
AcDbArc
 50
210.3128024158
 51
212.2409263034
  0
ARC
  5
327
100
AcDbEntity
  8
ALL_ASSEMBLY_MEMBERS
100
AcDbCircle
 62
7
  6
CONTINUOUS
 10
4.2682090984
 20
4.621400431
 40
0.0627390078
100
AcDbArc
 50
214.0939746396
 51
214.6527843943
  0
ARC
  5
328
100
AcDbEntity
  8
ALL_ASSEMBLY_MEMBERS
100
AcDbCircle
 62
7
  6
CONTINUOUS
 10
4.2617108879
 20
4.628946
 40
0.055007581
100
AcDbArc
 50
195.6643104309
 51
201.1933749042
  0
ARC
  5
329
100
AcDbEntity
  8
ALL_ASSEMBLY_MEMBERS
100
AcDbCircle
 62
7
  6
CONTINUOUS
 10
4.2612446895
 20
4.6049994487
 40
0.0547206512
100
AcDbArc
 50
203.0195452387
 51
205.4853256679
  0
ARC
  5
32A
100
AcDbEntity
  8
ALL_ASSEMBLY_MEMBERS
100
AcDbCircle
 62
7
  6
CONTINUOUS
 10
4.261068799
 20
4.6173725265
 40
0.0545298325
100
AcDbArc
 50
202.7347401246
 51
204.5338229947
  0
ARC
  5
32B
100
AcDbEntity
  8
ALL_ASSEMBLY_MEMBERS
100
AcDbCircle
 62
7
  6
CONTINUOUS
 10
4.2599125165
 20
4.616888936
 40
0.0532764976
100
AcDbArc
 50
199.1654012205
 51
202.7356496118
  0
ARC
  5
32C
100
AcDbEntity
  8
ALL_ASSEMBLY_MEMBERS
100
AcDbCircle
 62
7
  6
CONTINUOUS
 10
4.2597052368
 20
4.6283556818
 40
0.05291704
100
AcDbArc
 50
190.4753653523
 51
195.6352207354
  0
ARC
  5
32D
100
AcDbEntity
  8
ALL_ASSEMBLY_MEMBERS
100
AcDbCircle
 62
7
  6
CONTINUOUS
 10
4.2590242926
 20
4.6084989183
 40
0.0523368113
100
AcDbArc
 50
198.8820720595
 51
199.7990317768
  0
ARC
  5
32E
100
AcDbEntity
  8
ALL_ASSEMBLY_MEMBERS
100
AcDbCircle
 62
7
  6
CONTINUOUS
 10
4.2586032684
 20
4.6039518932
 40
0.0518799667
100
AcDbArc
 50
194.4005410117
 51
203.0954992828
  0
ARC
  5
32F
100
AcDbEntity
  8
ALL_ASSEMBLY_MEMBERS
100
AcDbCircle
 62
7
  6
CONTINUOUS
 10
4.2581259893
 20
4.6162641171
 40
0.0513838634
100
AcDbArc
 50
193.6395607587
 51
199.1613002339
  0
ARC
  5
330
100
AcDbEntity
  8
ALL_ASSEMBLY_MEMBERS
100
AcDbCircle
 62
7
  6
CONTINUOUS
 10
4.2581855156
 20
4.6280756049
 40
0.0513717262
100
AcDbArc
 50
180.0434403184
 51
190.4763644325
  0
ARC
  5
331
100
AcDbEntity
  8
ALL_ASSEMBLY_MEMBERS
100
AcDbCircle
 62
7
  6
CONTINUOUS
 10
4.2562538226
 20
4.6157917431
 40
0.0494531059
100
AcDbArc
 50
187.9493762472
 51
193.6192034852
  0
ARC
  5
332
100
AcDbEntity
  8
ALL_ASSEMBLY_MEMBERS
100
AcDbCircle
 62
7
  6
CONTINUOUS
 10
4.2561781061
 20
4.603329393
 40
0.0493761858
100
AcDbArc
 50
188.7402256362
 51
194.4007658681
  0
ARC
  5
333
100
AcDbEntity
  8
ALL_ASSEMBLY_MEMBERS
100
AcDbCircle
 62
7
  6
CONTINUOUS
 10
4.255083445
 20
4.6156121941
 40
0.0482691462
100
AcDbArc
 50
180.0065263872
 51
187.9304284637
  0
ARC
  5
334
100
AcDbEntity
  8
ALL_ASSEMBLY_MEMBERS
100
AcDbCircle
 62
7
  6
CONTINUOUS
 10
4.2550492594
 20
4.6031621388
 40
0.0482350332
100
AcDbArc
 50
180.0073625033
 51
188.7476160308
  0
ARC
  5
335
100
AcDbEntity
  8
ALL_ASSEMBLY_MEMBERS
100
AcDbCircle
 62
7
  6
CONTINUOUS
 10
4.2550434841
 20
4.6075174464
 40
0.0482292246
100
AcDbArc
 50
180.0067638719
 51
188.4963805494
  0
ARC
  5
336
100
AcDbEntity
  8
ALL_ASSEMBLY_MEMBERS
100
AcDbCircle
 62
7
  6
CONTINUOUS
 10
4.2549084545
 20
4.6075067919
 40
0.0480941949
100
AcDbArc
 50
175.1147496412
 51
179.9940899608
  0
ARC
  5
337
100
AcDbEntity
  8
ALL_ASSEMBLY_MEMBERS
100
AcDbCircle
 62
7
  6
CONTINUOUS
 10
4.254668244
 20
4.6203293994
 40
0.0478544429
100
AcDbArc
 50
175.4846319732
 51
179.9062687361
  0
ARC
  5
338
100
AcDbEntity
  8
ALL_ASSEMBLY_MEMBERS
100
AcDbCircle
 62
7
  6
CONTINUOUS
 10
4.2071263038
 20
5.0682215899
 40
0.0125
100
AcDbArc
 50
97.1851082643
 51
268.5651900041
  0
ARC
  5
339
100
AcDbEntity
  8
ALL_ASSEMBLY_MEMBERS
100
AcDbCircle
 62
7
  6
CONTINUOUS
 10
4.2045935274
 20
5.0883125716
 40
0.00775
100
AcDbArc
 50
277.1851089302
 51
286.6746406298
  0
ARC
  5
33A
100
AcDbEntity
  8
ALL_ASSEMBLY_MEMBERS
100
AcDbCircle
 62
7
  6
CONTINUOUS
 10
4.2953328257
 20
6.7355114439
 40
1.125
100
AcDbArc
 50
276.4144817261
 51
285.5395954904
  0
ARC
  5
33B
100
AcDbEntity
  8
ALL_ASSEMBLY_MEMBERS
100
AcDbCircle
 62
7
  6
CONTINUOUS
 10
4.0486263038
 20
5.5332215899
 40
0.0565
100
AcDbArc
 50
180.0
 51
240.6546226624
  0
ARC
  5
33C
100
AcDbEntity
  8
ALL_ASSEMBLY_MEMBERS
100
AcDbCircle
 62
7
  6
CONTINUOUS
 10
4.0659368124
 20
5.4841538061
 40
0.045
100
AcDbArc
 50
180.2320054462
 51
247.0309691559
  0
ARC
  5
33D
100
AcDbEntity
  8
ALL_ASSEMBLY_MEMBERS
100
AcDbCircle
 62
7
  6
CONTINUOUS
 10
4.0233763038
 20
5.6636782781
 40
0.0125
100
AcDbArc
 50
180.0
 51
254.4604045096
  0
ARC
  5
33E
100
AcDbEntity
  8
ALL_ASSEMBLY_MEMBERS
100
AcDbCircle
 62
7
  6
CONTINUOUS
 10
3.9586222554
 20
18.606029174
 40
12.7678382391
100
AcDbArc
 50
271.5697205404
 51
271.7978451176
  0
ARC
  5
33F
100
AcDbEntity
  8
ALL_ASSEMBLY_MEMBERS
100
AcDbCircle
 62
7
  6
CONTINUOUS
 10
3.9889031696
 20
17.633772821
 40
11.8091539074
100
AcDbArc
 50
271.5502123072
 51
271.7968551047
  0
ARC
  5
340
100
AcDbEntity
  8
ALL_ASSEMBLY_MEMBERS
100
AcDbCircle
 62
7
  6
CONTINUOUS
 10
4.3083764392
 20
4.5286191121
 40
0.170706164
100
AcDbArc
 50
269.014111116
 51
270.986921649
  0
ARC
  5
341
100
AcDbEntity
  8
ALL_ASSEMBLY_MEMBERS
100
AcDbCircle
 62
7
  6
CONTINUOUS
 10
4.3156932837
 20
4.4991574091
 40
0.1402178183
100
AcDbArc
 50
291.1873474425
 51
292.2068449397
  0
ARC
  5
342
100
AcDbEntity
  8
ALL_ASSEMBLY_MEMBERS
100
AcDbCircle
 62
7
  6
CONTINUOUS
 10
4.3162196318
 20
4.491277544
 40
0.1322171637
100
AcDbArc
 50
292.2056797053
 51
293.2853448655
  0
ARC
  5
343
100
AcDbEntity
  8
ALL_ASSEMBLY_MEMBERS
100
AcDbCircle
 62
7
  6
CONTINUOUS
 10
4.3418190889
 20
4.2596609964
 40
0.6225484091
100
AcDbArc
 50
291.723962656
 51
292.2074729952
  0
ARC
  5
344
100
AcDbEntity
  8
ALL_ASSEMBLY_MEMBERS
100
AcDbCircle
 62
7
  6
CONTINUOUS
 10
4.3407981055
 20
4.2479971673
 40
0.6159829328
100
AcDbArc
 50
292.2080541089
 51
292.7131537394
  0
ARC
  5
345
100
AcDbEntity
  8
ALL_ASSEMBLY_MEMBERS
100
AcDbCircle
 62
7
  6
CONTINUOUS
 10
4.3655816254
 20
4.4307853974
 40
0.058421686
100
AcDbArc
 50
4.412963923
 51
8.4552073895
  0
ARC
  5
346
100
AcDbEntity
  8
ALL_ASSEMBLY_MEMBERS
100
AcDbCircle
 62
7
  6
CONTINUOUS
 10
4.3481788922
 20
4.5798915831
 40
0.0751789874
100
AcDbArc
 50
323.8597262889
 51
324.2259649402
  0
ARC
  5
347
100
AcDbEntity
  8
ALL_ASSEMBLY_MEMBERS
100
AcDbCircle
 62
7
  6
CONTINUOUS
 10
4.3434585318
 20
4.6022081412
 40
0.0676298863
100
AcDbArc
 50
326.7591452073
 51
328.249881903
  0
ARC
  5
348
100
AcDbEntity
  8
ALL_ASSEMBLY_MEMBERS
100
AcDbCircle
 62
7
  6
CONTINUOUS
 10
4.3472835609
 20
4.6225686592
 40
0.0614536484
100
AcDbArc
 50
330.5584439141
 51
333.1488207941
  0
ARC
  5
349
100
AcDbEntity
  8
ALL_ASSEMBLY_MEMBERS
100
AcDbCircle
 62
7
  6
CONTINUOUS
 10
4.350234497
 20
4.6310397861
 40
0.0602545547
100
AcDbArc
 50
329.5452903327
 51
334.2823466412
  0
ARC
  5
34A
100
AcDbEntity
  8
ALL_ASSEMBLY_MEMBERS
100
AcDbCircle
 62
7
  6
CONTINUOUS
 10
4.3504028704
 20
4.5985378105
 40
0.0597656575
100
AcDbArc
 50
336.6896662439
 51
338.7732021491
  0
ARC
  5
34B
100
AcDbEntity
  8
ALL_ASSEMBLY_MEMBERS
100
AcDbCircle
 62
7
  6
CONTINUOUS
 10
4.3520799652
 20
4.5854396757
 40
0.0579685346
100
AcDbArc
 50
338.579762139
 51
345.5307122266
  0
ARC
  5
34C
100
AcDbEntity
  8
ALL_ASSEMBLY_MEMBERS
100
AcDbCircle
 62
7
  6
CONTINUOUS
 10
4.3505828807
 20
4.6209759801
 40
0.0577907209
100
AcDbArc
 50
333.0801555869
 51
340.7005936466
  0
ARC
  5
34D
100
AcDbEntity
  8
ALL_ASSEMBLY_MEMBERS
100
AcDbCircle
 62
7
  6
CONTINUOUS
 10
4.3522537749
 20
4.6102538013
 40
0.0577863683
100
AcDbArc
 50
339.2530671944
 51
345.5697088707
  0
ARC
  5
34E
100
AcDbEntity
  8
ALL_ASSEMBLY_MEMBERS
100
AcDbCircle
 62
7
  6
CONTINUOUS
 10
4.3523932904
 20
4.6147275523
 40
0.0576392035
100
AcDbArc
 50
341.9233442003
 51
342.7930337967
  0
ARC
  5
34F
100
AcDbEntity
  8
ALL_ASSEMBLY_MEMBERS
100
AcDbCircle
 62
7
  6
CONTINUOUS
 10
4.3524154092
 20
4.5977746044
 40
0.0576133361
100
AcDbArc
 50
338.7560621569
 51
347.057796552
  0
ARC
  5
350
100
AcDbEntity
  8
ALL_ASSEMBLY_MEMBERS
100
AcDbCircle
 62
7
  6
CONTINUOUS
 10
4.3525324501
 20
4.5890289742
 40
0.0574926601
100
AcDbArc
 50
341.9411492007
 51
343.5265548109
  0
ARC
  5
351
100
AcDbEntity
  8
ALL_ASSEMBLY_MEMBERS
100
AcDbCircle
 62
7
  6
CONTINUOUS
 10
4.3530166027
 20
4.6297223845
 40
0.0571763697
100
AcDbArc
 50
334.2619505849
 51
339.1648439988
  0
ARC
  5
352
100
AcDbEntity
  8
ALL_ASSEMBLY_MEMBERS
100
AcDbCircle
 62
7
  6
CONTINUOUS
 10
4.3540226207
 20
4.5848926236
 40
0.0559508273
100
AcDbArc
 50
345.5760839275
 51
347.0830770837
  0
ARC
  5
353
100
AcDbEntity
  8
ALL_ASSEMBLY_MEMBERS
100
AcDbCircle
 62
7
  6
CONTINUOUS
 10
4.3540266486
 20
4.6097604884
 40
0.0559465031
100
AcDbArc
 50
345.6065218739
 51
347.1073828158
  0
ARC
  5
354
100
AcDbEntity
  8
ALL_ASSEMBLY_MEMBERS
100
AcDbCircle
 62
7
  6
CONTINUOUS
 10
4.3524167621
 20
4.6203123329
 40
0.0558405609
100
AcDbArc
 50
340.7213681186
 51
342.1062815881
  0
ARC
  5
355
100
AcDbEntity
  8
ALL_ASSEMBLY_MEMBERS
100
AcDbCircle
 62
7
  6
CONTINUOUS
 10
4.3543834556
 20
4.6291925924
 40
0.0557104626
100
AcDbArc
 50
339.1740844584
 51
340.2828499273
  0
ARC
  5
356
100
AcDbEntity
  8
ALL_ASSEMBLY_MEMBERS
100
AcDbCircle
 62
7
  6
CONTINUOUS
 10
4.3545806653
 20
4.6141259719
 40
0.0553718156
100
AcDbArc
 50
342.718094017
 51
352.6991173284
  0
ARC
  5
357
100
AcDbEntity
  8
ALL_ASSEMBLY_MEMBERS
100
AcDbCircle
 62
7
  6
CONTINUOUS
 10
4.3546755802
 20
4.5884577666
 40
0.0552755574
100
AcDbArc
 50
343.4643938121
 51
352.7232189067
  0
ARC
  5
358
100
AcDbEntity
  8
ALL_ASSEMBLY_MEMBERS
100
AcDbCircle
 62
7
  6
CONTINUOUS
 10
4.3547687486
 20
4.5847231549
 40
0.0551856974
100
AcDbArc
 50
347.0814080293
 51
350.4833994815
  0
ARC
  5
359
100
AcDbEntity
  8
ALL_ASSEMBLY_MEMBERS
100
AcDbCircle
 62
7
  6
CONTINUOUS
 10
4.3548246941
 20
4.6095801996
 40
0.0551283495
100
AcDbArc
 50
347.1049718236
 51
350.9183603735
  0
ARC
  5
35A
100
AcDbEntity
  8
ALL_ASSEMBLY_MEMBERS
100
AcDbCircle
 62
7
  6
CONTINUOUS
 10
4.3534781496
 20
4.6199779826
 40
0.0547277854
100
AcDbArc
 50
342.0979726012
 51
345.2640652337
  0
ARC
  5
35B
100
AcDbEntity
  8
ALL_ASSEMBLY_MEMBERS
100
AcDbCircle
 62
7
  6
CONTINUOUS
 10
4.3554533338
 20
4.5846001742
 40
0.0544902014
100
AcDbArc
 50
350.4919201207
 51
350.9017359341
  0
ARC
  5
35C
100
AcDbEntity
  8
ALL_ASSEMBLY_MEMBERS
100
AcDbCircle
 62
7
  6
CONTINUOUS
 10
4.3555351307
 20
4.6094564025
 40
0.0544072793
100
AcDbArc
 50
350.9290057997
 51
351.2198138534
  0
ARC
  5
35D
100
AcDbEntity
  8
ALL_ASSEMBLY_MEMBERS
100
AcDbCircle
 62
7
  6
CONTINUOUS
 10
4.3557304195
 20
4.628726129
 40
0.0542850999
100
AcDbArc
 50
340.2666800182
 51
344.2142734438
  0
ARC
  5
35E
100
AcDbEntity
  8
ALL_ASSEMBLY_MEMBERS
100
AcDbCircle
 62
7
  6
CONTINUOUS
 10
4.355829258
 20
4.5969844035
 40
0.0541090803
100
AcDbArc
 50
347.2343077014
 51
0.0028608429
  0
ARC
  5
35F
100
AcDbEntity
  8
ALL_ASSEMBLY_MEMBERS
100
AcDbCircle
 62
7
  6
CONTINUOUS
 10
4.3559276315
 20
4.6139106879
 40
0.0540107147
100
AcDbArc
 50
0.0326378837
 51
7.6632246791
  0
ARC
  5
360
100
AcDbEntity
  8
ALL_ASSEMBLY_MEMBERS
100
AcDbCircle
 62
7
  6
CONTINUOUS
 10
4.3559371097
 20
4.5845290454
 40
0.054001265
100
AcDbArc
 50
350.8950889908
 51
359.9599587023
  0
ARC
  5
361
100
AcDbEntity
  8
ALL_ASSEMBLY_MEMBERS
100
AcDbCircle
 62
7
  6
CONTINUOUS
 10
4.3559505659
 20
4.6093979686
 40
0.0539877931
100
AcDbArc
 50
351.2138021864
 51
359.9611247252
  0
ARC
  5
362
100
AcDbEntity
  8
ALL_ASSEMBLY_MEMBERS
100
AcDbCircle
 62
7
  6
CONTINUOUS
 10
4.3559853324
 20
4.6011122843
 40
0.0539532021
100
AcDbArc
 50
355.6356830555
 51
356.3264742137
  0
ARC
  5
363
100
AcDbEntity
  8
ALL_ASSEMBLY_MEMBERS
100
AcDbCircle
 62
7
  6
CONTINUOUS
 10
4.3560354785
 20
4.5882654465
 40
0.0539028659
100
AcDbArc
 50
0.0273605746
 51
4.7710883826
  0
ARC
  5
364
100
AcDbEntity
  8
ALL_ASSEMBLY_MEMBERS
100
AcDbCircle
 62
7
  6
CONTINUOUS
 10
4.356063696
 20
4.5882684765
 40
0.0538746471
100
AcDbArc
 50
352.735920489
 51
0.0241525521
  0
ARC
  5
365
100
AcDbEntity
  8
ALL_ASSEMBLY_MEMBERS
100
AcDbCircle
 62
7
  6
CONTINUOUS
 10
4.3560739881
 20
4.6139194228
 40
0.0538643538
100
AcDbArc
 50
352.7151827251
 51
0.0234352304
  0
ARC
  5
366
100
AcDbEntity
  8
ALL_ASSEMBLY_MEMBERS
100
AcDbCircle
 62
7
  6
CONTINUOUS
 10
4.356075489
 20
4.5754681286
 40
0.0538628788
100
AcDbArc
 50
356.2914189562
 51
359.9722651049
  0
ARC
  5
367
100
AcDbEntity
  8
ALL_ASSEMBLY_MEMBERS
100
AcDbCircle
 62
7
  6
CONTINUOUS
 10
4.3560808201
 20
4.6011063892
 40
0.0538575329
100
AcDbArc
 50
356.3262241917
 51
359.9720796517
  0
ARC
  5
368
100
AcDbEntity
  8
ALL_ASSEMBLY_MEMBERS
100
AcDbCircle
 62
7
  6
CONTINUOUS
 10
4.3560997305
 20
4.6011039115
 40
0.0538386214
100
AcDbArc
 50
359.9747066987
 51
4.2314234852
  0
ARC
  5
369
100
AcDbEntity
  8
ALL_ASSEMBLY_MEMBERS
100
AcDbCircle
 62
7
  6
CONTINUOUS
 10
4.3561013809
 20
4.5754658199
 40
0.0538369858
100
AcDbArc
 50
359.9747087359
 51
4.7119717813
  0
ARC
  5
36A
100
AcDbEntity
  8
ALL_ASSEMBLY_MEMBERS
100
AcDbCircle
 62
7
  6
CONTINUOUS
 10
4.3565194644
 20
4.6284977286
 40
0.0534636792
100
AcDbArc
 50
344.2197757324
 51
344.6872690481
  0
ARC
  5
36B
100
AcDbEntity
  8
ALL_ASSEMBLY_MEMBERS
100
AcDbCircle
 62
7
  6
CONTINUOUS
 10
4.3555545413
 20
4.6194749151
 40
0.0525917435
100
AcDbArc
 50
345.2187011528
 51
353.1557955662
  0
ARC
  5
36C
100
AcDbEntity
  8
ALL_ASSEMBLY_MEMBERS
100
AcDbCircle
 62
7
  6
CONTINUOUS
 10
4.3582469139
 20
4.6280979145
 40
0.0516920186
100
AcDbArc
 50
344.6090406416
 51
359.8445767244
  0
ARC
  5
36D
100
AcDbEntity
  8
ALL_ASSEMBLY_MEMBERS
100
AcDbCircle
 62
7
  6
CONTINUOUS
 10
4.3448771724
 20
5.2822215899
 40
0.1975
100
AcDbArc
 50
289.2348351252
 51
350.806
  0
ARC
  5
36E
100
AcDbEntity
  8
ALL_ASSEMBLY_MEMBERS
100
AcDbCircle
 62
7
  6
CONTINUOUS
 10
4.3283763038
 20
4.8824867092
 40
0.09375
100
AcDbArc
 50
330.4901841068
 51
29.5279144966
  0
ARC
  5
36F
100
AcDbEntity
  8
ALL_ASSEMBLY_MEMBERS
100
AcDbCircle
 62
7
  6
CONTINUOUS
 10
4.4096263038
 20
5.0682215899
 40
0.0125
100
AcDbArc
 50
271.4348099959
 51
82.8148917357
  0
ARC
  5
370
100
AcDbEntity
  8
ALL_ASSEMBLY_MEMBERS
100
AcDbCircle
 62
7
  6
CONTINUOUS
 10
4.4121590801
 20
5.0883125716
 40
0.00775
100
AcDbArc
 50
253.3253593702
 51
262.8148910698
  0
ARC
  5
371
100
AcDbEntity
  8
ALL_ASSEMBLY_MEMBERS
100
AcDbCircle
 62
7
  6
CONTINUOUS
 10
4.5762829039
 20
4.0124338344
 40
0.2695764794
100
AcDbArc
 50
351.6476774765
 51
3.2055441313
  0
ARC
  5
372
100
AcDbEntity
  8
ALL_ASSEMBLY_MEMBERS
100
AcDbCircle
 62
7
  6
CONTINUOUS
 10
4.5088349443
 20
4.1592794797
 40
0.2045413594
100
AcDbArc
 50
0.000337481
 51
1.4373162256
  0
ARC
  5
373
100
AcDbEntity
  8
ALL_ASSEMBLY_MEMBERS
100
AcDbCircle
 62
7
  6
CONTINUOUS
 10
4.3214197818
 20
6.7355114439
 40
1.125
100
AcDbArc
 50
254.4604045096
 51
263.5855182739
  0
ARC
  5
374
100
AcDbEntity
  8
ALL_ASSEMBLY_MEMBERS
100
AcDbCircle
 62
7
  6
CONTINUOUS
 10
4.5681263038
 20
5.5332215899
 40
0.0565
100
AcDbArc
 50
299.3453773376
 51
360.0
  0
ARC
  5
375
100
AcDbEntity
  8
ALL_ASSEMBLY_MEMBERS
100
AcDbCircle
 62
7
  6
CONTINUOUS
 10
4.5508157951
 20
5.4841538061
 40
0.045
100
AcDbArc
 50
292.9690308441
 51
359.7679945538
  0
ARC
  5
376
100
AcDbEntity
  8
ALL_ASSEMBLY_MEMBERS
100
AcDbCircle
 62
7
  6
CONTINUOUS
 10
4.5933763038
 20
5.6636782781
 40
0.0125
100
AcDbArc
 50
285.5395954903
 51
360.0
  0
ARC
  5
377
100
AcDbEntity
  8
ALL_ASSEMBLY_MEMBERS
100
AcDbCircle
 62
7
  6
CONTINUOUS
 10
5.1060843918
 20
5.6587243272
 40
0.0625027444
100
AcDbArc
 50
270.0192106228
 51
330.2635604814
  0
ARC
  5
378
100
AcDbEntity
  8
ALL_ASSEMBLY_MEMBERS
100
AcDbCircle
 62
7
  6
CONTINUOUS
 10
4.9975859887
 20
5.5957215899
 40
0.0625
100
AcDbArc
 50
270.0
 51
330.2642868924
  0
ARC
  5
379
100
AcDbEntity
  8
ALL_ASSEMBLY_MEMBERS
100
AcDbCircle
 62
7
  6
CONTINUOUS
 10
5.1061263038
 20
5.5337215899
 40
0.0625
100
AcDbArc
 50
90.0192106228
 51
150.2642868924
  0
ARC
  5
37A
100
AcDbEntity
  8
ALL_ASSEMBLY_MEMBERS
100
AcDbCircle
 62
7
  6
CONTINUOUS
 10
5.2146263038
 20
5.5967215899
 40
0.0625
100
AcDbArc
 50
90.0
 51
150.2635604814
  0
ARC
  5
37B
100
AcDbEntity
  8
ALL_ASSEMBLY_MEMBERS
100
AcDbCircle
 62
7
  6
CONTINUOUS
 10
5.2146263038
 20
5.7217215899
 40
0.0625
100
AcDbArc
 50
270.0
 51
360.0
  0
SPLINE
  5
37C
100
AcDbEntity
  8
ALL_ASSEMBLY_MEMBERS
100
AcDbSpline
 62
7
  6
CONTINUOUS
 70
0
 71
3
 72
24
 73
20
 74
0
 42
0.0000001
 43
0.0000001
 44
0.0000000001
 40
0.0
 40
0.0
 40
0.0
 40
0.0
 40
0.130670493
 40
0.1956464488
 40
0.2601759478
 40
0.3241686749
 40
0.3875750331
 40
0.4503903036
 40
0.5126449009
 40
0.5744035384
 40
0.6357573186
 40
0.6967965757
 40
0.7576124249
 40
0.8182864975
 40
0.8486028422
 40
0.8789053352
 40
0.9091927907
 40
0.9394667286
 40
1.0
 40
1.0
 40
1.0
 40
1.0
 10
4.307873974
 20
4.421553362
 30
0.0
 10
4.3007932647
 20
4.4215787081
 30
0.0
 10
4.2901703517
 20
4.422418966
 30
0.0
 10
4.2763284898
 20
4.4251473487
 30
0.0
 10
4.2662211454
 20
4.4279819229
 30
0.0
 10
4.2564572606
 20
4.4315974879
 30
0.0
 10
4.2471152191
 20
4.4359826898
 30
0.0
 10
4.2382745415
 20
4.4411237803
 30
0.0
 10
4.2300149935
 20
4.4470038342
 30
0.0
 10
4.2224188934
 20
4.4536010339
 30
0.0
 10
4.2155725165
 20
4.4608852235
 30
0.0
 10
4.2095649808
 20
4.4688134884
 30
0.0
 10
4.2044870437
 20
4.4773251315
 30
0.0
 10
4.2011012315
 20
4.4848444842
 30
0.0
 10
4.19894271
 20
4.4910559869
 30
0.0
 10
4.1976063066
 20
4.4958003964
 30
0.0
 10
4.1965582969
 20
4.5006146166
 30
0.0
 10
4.1955550658
 20
4.5071020932
 30
0.0
 10
4.1952513038
 20
4.5120297331
 30
0.0
 10
4.1952513038
 20
4.5153099017
 30
0.0
  0
SPLINE
  5
37D
100
AcDbEntity
  8
ALL_ASSEMBLY_MEMBERS
100
AcDbSpline
 62
7
  6
CONTINUOUS
 70
0
 71
3
 72
12
 73
8
 74
0
 42
0.0000001
 43
0.0000001
 44
0.0000000001
 40
0.0
 40
0.0
 40
0.0
 40
0.0
 40
0.2470010997
 40
0.4964996982
 40
0.621975668
 40
0.7478078161
 40
1.0
 40
1.0
 40
1.0
 40
1.0
 10
4.359203134
 20
4.4313032297
 30
0.0
 10
4.3551965736
 20
4.4296675582
 30
0.0
 10
4.346964781
 20
4.4268011963
 30
0.0
 10
4.336349973
 20
4.4242581174
 30
0.0
 10
4.3276883008
 20
4.4228369028
 30
0.0
 10
4.3189223684
 20
4.4218266197
 30
0.0
 10
4.3122924759
 20
4.4215375456
 30
0.0
 10
4.307873974
 20
4.421553362
 30
0.0
  0
SPLINE
  5
37E
100
AcDbEntity
  8
ALL_ASSEMBLY_MEMBERS
100
AcDbSpline
 62
7
  6
CONTINUOUS
 70
0
 71
3
 72
16
 73
12
 74
0
 42
0.0000001
 43
0.0000001
 44
0.0000000001
 40
0.0
 40
0.0
 40
0.0
 40
0.0
 40
0.1411366819
 40
0.2778457412
 40
0.4096565616
 40
0.5364794926
 40
0.6584095838
 40
0.7758121885
 40
0.8893417216
 40
0.9449720316
 40
1.0
 40
1.0
 40
1.0
 40
1.0
 10
4.3515787082
 20
4.4097289488
 30
0.0
 10
4.3543226428
 20
4.4108491554
 30
0.0
 10
4.3596300286
 20
4.4132963445
 30
0.0
 10
4.367074826
 20
4.4176334064
 30
0.0
 10
4.3737957751
 20
4.4225338355
 30
0.0
 10
4.3797076729
 20
4.4279370968
 30
0.0
 10
4.3847370757
 20
4.4337796072
 30
0.0
 10
4.3888184806
 20
4.4399900387
 30
0.0
 10
4.391401882
 20
4.4454503914
 30
0.0
 10
4.3929297408
 20
4.4499071554
 30
0.0
 10
4.3935152059
 20
4.4521588368
 30
0.0
 10
4.3937624735
 20
4.4532876268
 30
0.0
  0
SPLINE
  5
37F
100
AcDbEntity
  8
ALL_ASSEMBLY_MEMBERS
100
AcDbSpline
 62
7
  6
CONTINUOUS
 70
0
 71
3
 72
20
 73
16
 74
0
 42
0.0000001
 43
0.0000001
 44
0.0000000001
 40
0.0
 40
0.0
 40
0.0
 40
0.0
 40
0.0615817219
 40
0.1231372657
 40
0.1847287821
 40
0.2463595373
 40
0.3080373558
 40
0.3697917993
 40
0.4316565847
 40
0.4936690389
 40
0.5558714204
 40
0.6183124003
 40
0.7440122275
 40
0.8711828922
 40
1.0
 40
1.0
 40
1.0
 40
1.0
 10
4.4215013038
 20
4.5153099017
 30
0.0
 10
4.4215013038
 20
4.5130310684
 30
0.0
 10
4.4213063699
 20
4.5084719863
 30
0.0
 10
4.420433094
 20
4.5016841928
 30
0.0
 10
4.4189879256
 20
4.494992567
 30
0.0
 10
4.4169877292
 20
4.4884409953
 30
0.0
 10
4.4144512063
 20
4.4820715578
 30
0.0
 10
4.4114044721
 20
4.4759205138
 30
0.0
 10
4.4078741539
 20
4.4700196021
 30
0.0
 10
4.4038903768
 20
4.4643950428
 30
0.0
 10
4.3994822674
 20
4.4590688552
 30
0.0
 10
4.3930682444
 20
4.4523751495
 30
0.0
 10
4.3841190198
 20
4.4448253918
 30
0.0
 10
4.3721892007
 20
4.4371977789
 30
0.0
 10
4.3636164079
 20
4.4331049412
 30
0.0
 10
4.359203134
 20
4.4313032297
 30
0.0
  0
SPLINE
  5
380
100
AcDbEntity
  8
ALL_ASSEMBLY_MEMBERS
100
AcDbSpline
 62
7
  6
CONTINUOUS
 70
0
 71
3
 72
13
 73
9
 74
0
 42
0.0000001
 43
0.0000001
 44
0.0000000001
 40
0.0
 40
0.0
 40
0.0
 40
0.0
 40
0.121177196
 40
0.2427479151
 40
0.3650954834
 40
0.4885861813
 40
0.7401609862
 40
1.0
 40
1.0
 40
1.0
 40
1.0
 10
4.4215011605
 20
4.5722584339
 30
0.0
 10
4.4215011095
 20
4.5737807929
 30
0.0
 10
4.4213777384
 20
4.5768318966
 30
0.0
 10
4.4208229387
 20
4.5813896239
 30
0.0
 10
4.4199012622
 20
4.5859175879
 30
0.0
 10
4.4181768821
 20
4.5919297501
 30
0.0
 10
4.4150921369
 20
4.5993198883
 30
0.0
 10
4.4117708636
 20
4.6048477203
 30
0.0
 10
4.4099082081
 20
4.6075285193
 30
0.0
  0
SPLINE
  5
381
100
AcDbEntity
  8
ALL_ASSEMBLY_MEMBERS
100
AcDbSpline
 62
7
  6
CONTINUOUS
 70
0
 71
3
 72
14
 73
10
 74
0
 42
0.0000001
 43
0.0000001
 44
0.0000000001
 40
0.0
 40
0.0
 40
0.0
 40
0.0
 40
0.1217170705
 40
0.2437655366
 40
0.3664726189
 40
0.4901514553
 40
0.6150969365
 40
0.7415848583
 40
1.0
 40
1.0
 40
1.0
 40
1.0
 10
4.195251447
 20
4.5722507631
 30
0.0
 10
4.1952514001
 20
4.5736473559
 30
0.0
 10
4.1953549677
 20
4.5764454448
 30
0.0
 10
4.1958206465
 20
4.5806281635
 30
0.0
 10
4.196596231
 20
4.5847877411
 30
0.0
 10
4.1976785831
 20
4.5889123496
 30
0.0
 10
4.1990648517
 20
4.5929910738
 30
0.0
 10
4.2013289792
 20
4.5983888365
 30
0.0
 10
4.2034516162
 20
4.6022809225
 30
0.0
 10
4.2050314739
 20
4.6047900542
 30
0.0
  0
SPLINE
  5
382
100
AcDbEntity
  8
ALL_ASSEMBLY_MEMBERS
100
AcDbSpline
 62
7
  6
CONTINUOUS
 70
0
 71
3
 72
14
 73
10
 74
0
 42
0.0000001
 43
0.0000001
 44
0.0000000001
 40
0.0
 40
0.0
 40
0.0
 40
0.0
 40
0.1349587468
 40
0.2673882406
 40
0.5234952212
 40
0.6471167737
 40
0.7677091868
 40
0.8853029146
 40
1.0
 40
1.0
 40
1.0
 40
1.0
 10
4.3649388038
 20
4.5029799667
 30
0.0
 10
4.367245355
 20
4.5039216123
 30
0.0
 10
4.3717633358
 20
4.5059187925
 30
0.0
 10
4.3803569329
 20
4.5103468803
 30
0.0
 10
4.3883536867
 20
4.5154511209
 30
0.0
 10
4.3955891
 20
4.5212014721
 30
0.0
 10
4.4005116821
 20
4.5257250283
 30
0.0
 10
4.4049669543
 20
4.530485856
 30
0.0
 10
4.4076428848
 20
4.5338438063
 30
0.0
 10
4.408891603
 20
4.5355537111
 30
0.0
  0
SPLINE
  5
383
100
AcDbEntity
  8
ALL_ASSEMBLY_MEMBERS
100
AcDbSpline
 62
7
  6
CONTINUOUS
 70
0
 71
3
 72
15
 73
11
 74
0
 42
0.0000001
 43
0.0000001
 44
0.0000000001
 40
0.0
 40
0.0
 40
0.0
 40
0.0
 40
0.1314425879
 40
0.2604598297
 40
0.3872965435
 40
0.5122350593
 40
0.635601332
 40
0.7577563037
 40
0.8790862882
 40
1.0
 40
1.0
 40
1.0
 40
1.0
 10
4.4091737716
 20
4.5359426942
 30
0.0
 10
4.4101721823
 20
4.5373283568
 30
0.0
 10
4.4120574662
 20
4.5401428375
 30
0.0
 10
4.4145525231
 20
4.5445179971
 30
0.0
 10
4.4166797722
 20
4.5489904291
 30
0.0
 10
4.4184307683
 20
4.553544748
 30
0.0
 10
4.4197989754
 20
4.5581650777
 30
0.0
 10
4.4207803527
 20
4.5628350947
 30
0.0
 10
4.4213700654
 20
4.5675382096
 30
0.0
 10
4.4215012132
 20
4.5706873511
 30
0.0
 10
4.4215011605
 20
4.5722584339
 30
0.0
  0
SPLINE
  5
384
100
AcDbEntity
  8
ALL_ASSEMBLY_MEMBERS
100
AcDbSpline
 62
9
  6
CONTINUOUS
 70
0
 71
3
 72
9
 73
5
 74
0
 42
0.0000001
 43
0.0000001
 44
0.0000000001
 40
0.0
 40
0.0
 40
0.0
 40
0.0
 40
0.4948732273
 40
1.0
 40
1.0
 40
1.0
 40
1.0
 10
4.3515787082
 20
4.4097289488
 30
0.0
 10
4.3491388319
 20
4.4087328734
 30
0.0
 10
4.3441272278
 20
4.4069146977
 30
0.0
 10
4.3389947792
 20
4.4054746833
 30
0.0
 10
4.3363804267
 20
4.4048413538
 30
0.0
  0
SPLINE
  5
385
100
AcDbEntity
  8
ALL_ASSEMBLY_MEMBERS
100
AcDbSpline
 62
9
  6
CONTINUOUS
 70
0
 71
3
 72
22
 73
18
 74
0
 42
0.0000001
 43
0.0000001
 44
0.0000000001
 40
0.0
 40
0.0
 40
0.0
 40
0.0
 40
0.1373444219
 40
0.2069065921
 40
0.2764766026
 40
0.3456425929
 40
0.4140048474
 40
0.4811868681
 40
0.5468501369
 40
0.6107081995
 40
0.6725377842
 40
0.7321951716
 40
0.7896305114
 40
0.8448980765
 40
0.8981690255
 40
0.9497348394
 40
1.0
 40
1.0
 40
1.0
 40
1.0
 10
4.3363804267
 20
4.4048413538
 30
0.0
 10
4.330351891
 20
4.4033809351
 30
0.0
 10
4.3210692795
 20
4.4019250586
 30
0.0
 10
4.3085851614
 20
4.4014225469
 30
0.0
 10
4.2991738378
 20
4.40176913
 30
0.0
 10
4.2898724911
 20
4.4028371093
 30
0.0
 10
4.2807892713
 20
4.4046133547
 30
0.0
 10
4.2720319035
 20
4.4070778147
 30
0.0
 10
4.2637036348
 20
4.4102016242
 30
0.0
 10
4.2559025578
 20
4.4139481315
 30
0.0
 10
4.2487210668
 20
4.4182746913
 30
0.0
 10
4.2422441797
 20
4.4231313537
 30
0.0
 10
4.236548805
 20
4.4284622393
 30
0.0
 10
4.2317043448
 20
4.4342067927
 30
0.0
 10
4.2277705308
 20
4.4402992736
 30
0.0
 10
4.2247976933
 20
4.4466663412
 30
0.0
 10
4.2234704189
 20
4.4510906102
 30
0.0
 10
4.2229855432
 20
4.453308357
 30
0.0
  0
SPLINE
  5
386
100
AcDbEntity
  8
ALL_ASSEMBLY_MEMBERS
100
AcDbSpline
 62
9
  6
CONTINUOUS
 70
0
 71
3
 72
17
 73
13
 74
0
 42
0.0000001
 43
0.0000001
 44
0.0000000001
 40
0.0
 40
0.0
 40
0.0
 40
0.0
 40
0.1384175193
 40
0.2059498624
 40
0.2723333374
 40
0.4017332048
 40
0.5270216762
 40
0.6487084518
 40
0.7084433348
 40
0.7675547619
 40
0.8843030862
 40
1.0
 40
1.0
 40
1.0
 40
1.0
 10
4.3897332856
 20
4.4597297472
 30
0.0
 10
4.3922069953
 20
4.4615402276
 30
0.0
 10
4.3957695966
 20
4.4644026461
 30
0.0
 10
4.4001813212
 20
4.4685180252
 30
0.0
 10
4.4042400921
 20
4.4727082265
 30
0.0
 10
4.4087848164
 20
4.4781963814
 30
0.0
 10
4.4133606806
 20
4.4851846641
 30
0.0
 10
4.4163874069
 20
4.4912865424
 30
0.0
 10
4.4182928771
 20
4.4962645006
 30
0.0
 10
4.4198421089
 20
4.5012501196
 30
0.0
 10
4.421149847
 20
4.5075933742
 30
0.0
 10
4.4215011684
 20
4.5127476183
 30
0.0
 10
4.4215012189
 20
4.5153099017
 30
0.0
  0
SPLINE
  5
387
100
AcDbEntity
  8
ALL_ASSEMBLY_MEMBERS
100
AcDbSpline
 62
7
  6
CONTINUOUS
 70
0
 71
3
 72
21
 73
17
 74
0
 42
0.0000001
 43
0.0000001
 44
0.0000000001
 40
0.0
 40
0.0
 40
0.0
 40
0.0
 40
0.0239882848
 40
0.0492406124
 40
0.1032790133
 40
0.1319503086
 40
0.1615464261
 40
0.2229674827
 40
0.2865943839
 40
0.351600849
 40
0.4173768023
 40
0.4834957242
 40
0.6155489643
 40
0.7462021975
 40
0.8745930642
 40
1.0
 40
1.0
 40
1.0
 40
1.0
 10
4.3897332856
 20
4.4597297472
 30
0.0
 10
4.3897332856
 20
4.4594233594
 30
0.0
 10
4.3896938303
 20
4.4587940063
 30
0.0
 10
4.3894715741
 20
4.4574918526
 30
0.0
 10
4.3890423769
 20
4.4561729421
 30
0.0
 10
4.3884536852
 20
4.4548643884
 30
0.0
 10
4.3877370998
 20
4.4535128325
 30
0.0
 10
4.3866612096
 20
4.4518518218
 30
0.0
 10
4.3851613439
 20
4.4499399661
 30
0.0
 10
4.3834854776
 20
4.4481050632
 30
0.0
 10
4.3816754794
 20
4.4463569691
 30
0.0
 10
4.3791252592
 20
4.4441500241
 30
0.0
 10
4.3757561297
 20
4.4416325296
 30
0.0
 10
4.3715263568
 20
4.4389669119
 30
0.0
 10
4.3671929719
 20
4.436649513
 30
0.0
 10
4.3642342332
 20
4.4353178497
 30
0.0
 10
4.3627513038
 20
4.4347124463
 30
0.0
  0
SPLINE
  5
388
100
AcDbEntity
  8
ALL_ASSEMBLY_MEMBERS
100
AcDbSpline
 62
7
  6
CONTINUOUS
 70
0
 71
3
 72
24
 73
20
 74
0
 42
0.0000001
 43
0.0000001
 44
0.0000000001
 40
0.0
 40
0.0
 40
0.0
 40
0.0
 40
0.1500517233
 40
0.2948130778
 40
0.3648771512
 40
0.4331527691
 40
0.4994271941
 40
0.5634661071
 40
0.6250155818
 40
0.6838341744
 40
0.7397636341
 40
0.7928712144
 40
0.8185446729
 40
0.8437815296
 40
0.868772396
 40
0.8937708014
 40
0.9190864069
 40
0.9450528864
 40
1.0
 40
1.0
 40
1.0
 40
1.0
 10
4.3627513038
 20
4.4347124463
 30
0.0
 10
4.3613097936
 20
4.4341239523
 30
0.0
 10
4.3584368001
 20
4.4330646401
 30
0.0
 10
4.3547905359
 20
4.432027724
 30
0.0
 10
4.351915756
 20
4.431418538
 30
0.0
 10
4.3498180459
 20
4.4310840036
 30
0.0
 10
4.3477664571
 20
4.4308773749
 30
0.0
 10
4.3457748998
 20
4.4308116171
 30
0.0
 10
4.3438611032
 20
4.4309025065
 30
0.0
 10
4.3420475134
 20
4.4311692089
 30
0.0
 10
4.3403635921
 20
4.43163412
 30
0.0
 10
4.3390837856
 20
4.4322172291
 30
0.0
 10
4.3381799855
 20
4.4328108016
 30
0.0
 10
4.33757366
 20
4.4333164333
 30
0.0
 10
4.3370397962
 20
4.4338889494
 30
0.0
 10
4.3365876045
 20
4.4345292779
 30
0.0
 10
4.3362257382
 20
4.4352364289
 30
0.0
 10
4.3358677251
 20
4.4362821198
 30
0.0
 10
4.3357693219
 20
4.4371288936
 30
0.0
 10
4.3357693219
 20
4.4376990513
 30
0.0
  0
SPLINE
  5
389
100
AcDbEntity
  8
ALL_ASSEMBLY_MEMBERS
100
AcDbSpline
 62
7
  6
CONTINUOUS
 70
0
 71
3
 72
23
 73
19
 74
0
 42
0.0000001
 43
0.0000001
 44
0.0000000001
 40
0.0
 40
0.0
 40
0.0
 40
0.0
 40
0.0636237114
 40
0.128636486
 40
0.1946881064
 40
0.2614658683
 40
0.3286114687
 40
0.3957558876
 40
0.4625340764
 40
0.528589707
 40
0.5935871938
 40
0.6572211088
 40
0.7192285719
 40
0.779399629
 40
0.8375875547
 40
0.8937229445
 40
0.9478230267
 40
1.0
 40
1.0
 40
1.0
 40
1.0
 10
4.3649388038
 20
4.5029799667
 30
0.0
 10
4.3614784851
 20
4.5015672975
 30
0.0
 10
4.3543568806
 20
4.4990097035
 30
0.0
 10
4.3433064372
 20
4.496018437
 30
0.0
 10
4.3318748809
 20
4.4938588569
 30
0.0
 10
4.3201890786
 20
4.4925540432
 30
0.0
 10
4.3083746363
 20
4.4921174177
 30
0.0
 10
4.2965601732
 20
4.4925540355
 30
0.0
 10
4.2848741921
 20
4.4938595363
 30
0.0
 10
4.2734435441
 20
4.4960193369
 30
0.0
 10
4.2623923502
 20
4.4990102287
 30
0.0
 10
4.2518407922
 20
4.5028007146
 30
0.0
 10
4.2419032555
 20
4.5073496719
 30
0.0
 10
4.2326875941
 20
4.5126086757
 30
0.0
 10
4.224294579
 20
4.5185223812
 30
0.0
 10
4.2168154148
 20
4.5250282554
 30
0.0
 10
4.2103335834
 20
4.5320558353
 30
0.0
 10
4.2066625016
 20
4.5371288459
 30
0.0
 10
4.2050293979
 20
4.5397226876
 30
0.0
  0
SPLINE
  5
38A
100
AcDbEntity
  8
ALL_ASSEMBLY_MEMBERS
100
AcDbSpline
 62
7
  6
CONTINUOUS
 70
0
 71
3
 72
15
 73
11
 74
0
 42
0.0000001
 43
0.0000001
 44
0.0000000001
 40
0.0
 40
0.0
 40
0.0
 40
0.0
 40
0.1302613371
 40
0.2585164986
 40
0.3849860266
 40
0.5099156176
 40
0.6335769455
 40
0.756267678
 40
0.8783001665
 40
1.0
 40
1.0
 40
1.0
 40
1.0
 10
4.2050293979
 20
4.5397226876
 30
0.0
 10
4.2042332199
 20
4.5409872488
 30
0.0
 10
4.2027316404
 20
4.543547467
 30
0.0
 10
4.2007510546
 20
4.5474984342
 30
0.0
 10
4.1990652099
 20
4.551517954
 30
0.0
 10
4.1976789467
 20
4.5555948602
 30
0.0
 10
4.1965969969
 20
4.5597181755
 30
0.0
 10
4.1958216746
 20
4.5638763068
 30
0.0
 10
4.1953551803
 20
4.5680575054
 30
0.0
 10
4.1952514938
 20
4.5708546512
 30
0.0
 10
4.195251447
 20
4.5722507631
 30
0.0
  0
SPLINE
  5
38B
100
AcDbEntity
  8
ALL_ASSEMBLY_MEMBERS
100
AcDbSpline
 62
9
  6
CONTINUOUS
 70
0
 71
3
 72
26
 73
22
 74
0
 42
0.0000001
 43
0.0000001
 44
0.0000000001
 40
0.0
 40
0.0
 40
0.0
 40
0.0
 40
0.0251821038
 40
0.050444888
 40
0.0758670659
 40
0.1015241193
 40
0.1274863212
 40
0.1538176193
 40
0.2077740373
 40
0.2637853071
 40
0.3220702951
 40
0.3827134953
 40
0.4456758983
 40
0.5108100352
 40
0.5778764527
 40
0.6465602926
 40
0.7164880961
 40
0.7872452487
 40
0.8583836286
 40
0.929458528
 40
1.0
 40
1.0
 40
1.0
 40
1.0
 10
4.1952513886
 20
4.5153098798
 30
0.0
 10
4.1952513594
 20
4.5137968219
 30
0.0
 10
4.1953730888
 20
4.5107644469
 30
0.0
 10
4.1959207254
 20
4.5062343906
 30
0.0
 10
4.1968307485
 20
4.5017336746
 30
0.0
 10
4.1981008651
 20
4.4972775808
 30
0.0
 10
4.1997263489
 20
4.492880165
 30
0.0
 10
4.202380905
 20
4.4870688022
 30
0.0
 10
4.2065907528
 20
4.4800098717
 30
0.0
 10
4.2129053856
 20
4.4720802707
 30
0.0
 10
4.2204405897
 20
4.4647157255
 30
0.0
 10
4.2290969703
 20
4.458008325
 30
0.0
 10
4.2387630771
 20
4.4520401661
 30
0.0
 10
4.249315324
 20
4.4468851163
 30
0.0
 10
4.2606193361
 20
4.4426072078
 30
0.0
 10
4.2725312717
 20
4.4392599347
 30
0.0
 10
4.2848996147
 20
4.4368850801
 30
0.0
 10
4.297566685
 20
4.4355127748
 30
0.0
 10
4.3103719541
 20
4.4351597336
 30
0.0
 10
4.3231506405
 20
4.4358311213
 30
0.0
 10
4.3315953609
 20
4.4369624443
 30
0.0
 10
4.3357693219
 20
4.4376990513
 30
0.0
  0
SPLINE
  5
38C
100
AcDbEntity
  8
ALL_ASSEMBLY_MEMBERS
100
AcDbSpline
 62
7
  6
CONTINUOUS
 70
0
 71
3
 72
15
 73
11
 74
0
 42
0.0000001
 43
0.0000001
 44
0.0000000001
 40
0.0
 40
0.0
 40
0.0
 40
0.0
 40
0.1361984658
 40
0.2684333681
 40
0.3969293307
 40
0.522041984
 40
0.6442556062
 40
0.7641713644
 40
0.8824938196
 40
1.0
 40
1.0
 40
1.0
 40
1.0
 10
4.4209989432
 20
4.5063748599
 30
0.0
 10
4.4234577704
 20
4.5041829401
 30
0.0
 10
4.4281246804
 20
4.4996557607
 30
0.0
 10
4.4343906457
 20
4.4923652741
 30
0.0
 10
4.4397739625
 20
4.4847240734
 30
0.0
 10
4.4442350203
 20
4.4767858674
 30
0.0
 10
4.4477411324
 20
4.4686060671
 30
0.0
 10
4.4502646353
 20
4.4602417601
 30
0.0
 10
4.4517872299
 20
4.4517548231
 30
0.0
 10
4.4521262776
 20
4.4460455129
 30
0.0
 10
4.4521261981
 20
4.4432036035
 30
0.0
  0
SPLINE
  5
38D
100
AcDbEntity
  8
ALL_ASSEMBLY_MEMBERS
100
AcDbSpline
 62
7
  6
CONTINUOUS
 70
0
 71
3
 72
22
 73
18
 74
0
 42
0.0000001
 43
0.0000001
 44
0.0000000001
 40
0.0
 40
0.0
 40
0.0
 40
0.0
 40
0.0618406289
 40
0.1248575756
 40
0.1888067333
 40
0.2534816584
 40
0.38399113
 40
0.4493870747
 40
0.5145216474
 40
0.5791477979
 40
0.6430294709
 40
0.7059452578
 40
0.7676938055
 40
0.8280999006
 40
0.8870179744
 40
0.9443401778
 40
1.0
 40
1.0
 40
1.0
 40
1.0
 10
4.3802513038
 20
4.1890089797
 30
0.0
 10
4.3765685299
 20
4.1875054936
 30
0.0
 10
4.36902159
 20
4.1847359321
 30
0.0
 10
4.3573542431
 20
4.1813337698
 30
0.0
 10
4.3453092097
 20
4.1786679477
 30
0.0
 10
4.3288286533
 20
4.1761155042
 30
0.0
 10
4.3120442108
 20
4.1751204855
 30
0.0
 10
4.2952545717
 20
4.1756843449
 30
0.0
 10
4.2827501286
 20
4.176886366
 30
0.0
 10
4.2704430219
 20
4.1788586773
 30
0.0
 10
4.258426602
 20
4.1815853971
 30
0.0
 10
4.2467933718
 20
4.1850464498
 30
0.0
 10
4.2356324154
 20
4.1892153733
 30
0.0
 10
4.2250291957
 20
4.1940600912
 30
0.0
 10
4.215065168
 20
4.1995450006
 30
0.0
 10
4.2058172562
 20
4.2056270639
 30
0.0
 10
4.2000900866
 20
4.2101182327
 30
0.0
 10
4.1973746291
 20
4.2124516118
 30
0.0
  0
SPLINE
  5
38E
100
AcDbEntity
  8
ALL_ASSEMBLY_MEMBERS
100
AcDbSpline
 62
7
  6
CONTINUOUS
 70
0
 71
3
 72
15
 73
11
 74
0
 42
0.0000001
 43
0.0000001
 44
0.0000000001
 40
0.0
 40
0.0
 40
0.0
 40
0.0
 40
0.1366221391
 40
0.2691578319
 40
0.3978192084
 40
0.5229610085
 40
0.6450755715
 40
0.7647841707
 40
0.8828209569
 40
1.0
 40
1.0
 40
1.0
 40
1.0
 10
4.1973746291
 20
4.2124516118
 30
0.0
 10
4.1947942301
 20
4.2146689357
 30
0.0
 10
4.1898941636
 20
4.2192575153
 30
0.0
 10
4.183306277
 20
4.2266752975
 30
0.0
 10
4.177641729
 20
4.2344719504
 30
0.0
 10
4.1729439578
 20
4.2425895088
 30
0.0
 10
4.1692498195
 20
4.2509686657
 30
0.0
 10
4.1665895673
 20
4.2595475982
 30
0.0
 10
4.164983968
 20
4.2682595229
 30
0.0
 10
4.1646263532
 20
4.2741231523
 30
0.0
 10
4.1646264271
 20
4.2770411777
 30
0.0
  0
SPLINE
  5
38F
100
AcDbEntity
  8
ALL_ASSEMBLY_MEMBERS
100
AcDbSpline
 62
7
  6
CONTINUOUS
 70
0
 71
3
 72
14
 73
10
 74
0
 42
0.0000001
 43
0.0000001
 44
0.0000000001
 40
0.0
 40
0.0
 40
0.0
 40
0.0
 40
0.2608679236
 40
0.3881255511
 40
0.5134506395
 40
0.6370540139
 40
0.7591700428
 40
0.8800575348
 40
1.0
 40
1.0
 40
1.0
 40
1.0
 10
4.4086915798
 20
4.4714902574
 30
0.0
 10
4.4106381001
 20
4.4690888455
 30
0.0
 10
4.4133323238
 20
4.4653428329
 30
0.0
 10
4.4164022411
 20
4.4600863042
 30
0.0
 10
4.4183972563
 20
4.4560960663
 30
0.0
 10
4.4200980458
 20
4.452037983
 30
0.0
 10
4.4215001847
 20
4.4479225067
 30
0.0
 10
4.4225988662
 20
4.4437608376
 30
0.0
 10
4.4231292477
 20
4.4409538116
 30
0.0
 10
4.4233423481
 20
4.4395485836
 30
0.0
  0
LINE
  5
390
100
AcDbEntity
  8
ALL_ASSEMBLY_MEMBERS
100
AcDbLine
 62
7
  6
CONTINUOUS
 10
4.4233423481
 20
4.4395485836
 11
4.4233683328
 21
4.4393754986
  0
SPLINE
  5
391
100
AcDbEntity
  8
ALL_ASSEMBLY_MEMBERS
100
AcDbSpline
 62
7
  6
CONTINUOUS
 70
0
 71
3
 72
13
 73
9
 74
0
 42
0.0000001
 43
0.0000001
 44
0.0000000001
 40
0.0
 40
0.0
 40
0.0
 40
0.0
 40
0.2609067146
 40
0.5133903236
 40
0.6370101718
 40
0.7591402233
 40
0.8800432411
 40
1.0
 40
1.0
 40
1.0
 40
1.0
 10
4.2080665779
 20
4.4714969301
 30
0.0
 10
4.2061193319
 20
4.4690950674
 30
0.0
 10
4.2025553943
 20
4.4641429542
 30
0.0
 10
4.1989398504
 20
4.4574900589
 30
0.0
 10
4.1966553786
 20
4.4520409578
 30
0.0
 10
4.1952532189
 20
4.4479242987
 30
0.0
 10
4.1941539483
 20
4.4437617893
 30
0.0
 10
4.1936232175
 20
4.4409541258
 30
0.0
 10
4.1934101054
 20
4.4395485667
 30
0.0
  0
LINE
  5
392
100
AcDbEntity
  8
ALL_ASSEMBLY_MEMBERS
100
AcDbLine
 62
7
  6
CONTINUOUS
 10
4.1934101054
 20
4.4395485667
 11
4.1933847096
 21
4.4393794081
  0
SPLINE
  5
393
100
AcDbEntity
  8
ALL_ASSEMBLY_MEMBERS
100
AcDbSpline
 62
7
  6
CONTINUOUS
 70
0
 71
3
 72
32
 73
28
 74
0
 42
0.0000001
 43
0.0000001
 44
0.0000000001
 40
0.0
 40
0.0
 40
0.0
 40
0.0
 40
0.0331203839
 40
0.0667411691
 40
0.13515259
 40
0.2047244808
 40
0.2748957157
 40
0.3450659009
 40
0.4146400102
 40
0.4830471472
 40
0.5166590267
 40
0.5497910966
 40
0.5823907808
 40
0.6144134529
 40
0.6458208199
 40
0.676584413
 40
0.7360807107
 40
0.7648377993
 40
0.7929383678
 40
0.8204099582
 40
0.8472917353
 40
0.8736373043
 40
0.8995119036
 40
0.9249934166
 40
0.9501698398
 40
0.9751378003
 40
1.0
 40
1.0
 40
1.0
 40
1.0
 10
4.3661888038
 20
4.3688665142
 30
0.0
 10
4.3639881018
 20
4.3679680813
 30
0.0
 10
4.3595041892
 20
4.3662757693
 30
0.0
 10
4.350262919
 20
4.363317889
 30
0.0
 10
4.3382631877
 20
4.3604505659
 30
0.0
 10
4.3234472634
 20
4.3583760896
 30
0.0
 10
4.3083763404
 20
4.357680403
 30
0.0
 10
4.2933052578
 20
4.358376009
 30
0.0
 10
4.278489549
 20
4.3604506807
 30
0.0
 10
4.2664906717
 20
4.363317649
 30
0.0
 10
4.2572492044
 20
4.3662752788
 30
0.0
 10
4.2505756121
 20
4.36879425
 30
0.0
 10
4.2441490188
 20
4.3716168977
 30
0.0
 10
4.237996375
 20
4.3747301414
 30
0.0
 10
4.2321438941
 20
4.3781221029
 30
0.0
 10
4.2248576294
 20
4.3829405684
 30
0.0
 10
4.2181704926
 20
4.3883007674
 30
0.0
 10
4.21221769
 20
4.3941650091
 30
0.0
 10
4.2082137196
 20
4.3987108443
 30
0.0
 10
4.2046376334
 20
4.403432784
 30
0.0
 10
4.2015058368
 20
4.408311926
 30
0.0
 10
4.1988312315
 20
4.4133267785
 30
0.0
 10
4.1966263521
 20
4.4184563926
 30
0.0
 10
4.194900921
 20
4.4236784915
 30
0.0
 10
4.1936624702
 20
4.4289706252
 30
0.0
 10
4.192917557
 20
4.4343092761
 30
0.0
 10
4.1927513036
 20
4.4378877321
 30
0.0
 10
4.1927513038
 20
4.439672077
 30
0.0
  0
SPLINE
  5
394
100
AcDbEntity
  8
ALL_ASSEMBLY_MEMBERS
100
AcDbSpline
 62
7
  6
CONTINUOUS
 70
0
 71
3
 72
16
 73
12
 74
0
 42
0.0000001
 43
0.0000001
 44
0.0000000001
 40
0.0
 40
0.0
 40
0.0
 40
0.0
 40
0.058724589
 40
0.1175521707
 40
0.23586912
 40
0.3557784549
 40
0.4779841318
 40
0.6030894167
 40
0.7315660628
 40
0.8637835962
 40
1.0
 40
1.0
 40
1.0
 40
1.0
 10
4.1646264094
 20
4.4432116184
 30
0.0
 10
4.1646264491
 20
4.4446312534
 30
0.0
 10
4.1647107842
 20
4.4474738242
 30
0.0
 10
4.1652173248
 20
4.4531558952
 30
0.0
 10
4.1664876802
 20
4.4602420091
 30
0.0
 10
4.1690102936
 20
4.4686012305
 30
0.0
 10
4.1725133625
 20
4.4767776481
 30
0.0
 10
4.1769714084
 20
4.4847119006
 30
0.0
 10
4.1823501416
 20
4.4923499051
 30
0.0
 10
4.1886111873
 20
4.4996384265
 30
0.0
 10
4.1932754456
 20
4.5041642146
 30
0.0
 10
4.1957329836
 20
4.506356035
 30
0.0
  0
SPLINE
  5
395
100
AcDbEntity
  8
ALL_ASSEMBLY_MEMBERS
100
AcDbSpline
 62
7
  6
CONTINUOUS
 70
0
 71
3
 72
16
 73
12
 74
0
 42
0.0000001
 43
0.0000001
 44
0.0000000001
 40
0.0
 40
0.0
 40
0.0
 40
0.0
 40
0.0585591372
 40
0.1172265174
 40
0.2352571314
 40
0.3549601651
 40
0.4770678362
 40
0.6022034379
 40
0.7308569073
 40
0.8633835293
 40
1.0
 40
1.0
 40
1.0
 40
1.0
 10
4.4521261804
 20
4.277033857
 30
0.0
 10
4.4521261435
 20
4.2755757437
 30
0.0
 10
4.4520371958
 20
4.2726559436
 30
0.0
 10
4.451502822
 20
4.2668196741
 30
0.0
 10
4.4501622247
 20
4.2595423282
 30
0.0
 10
4.447501283
 20
4.2509658653
 30
0.0
 10
4.4438078915
 20
4.2425876684
 30
0.0
 10
4.4391105529
 20
4.2344715593
 30
0.0
 10
4.4334467846
 20
4.2266762475
 30
0.0
 10
4.4268604496
 20
4.2192591256
 30
0.0
 10
4.421960874
 20
4.2146715172
 30
0.0
 10
4.4193809502
 20
4.2124543681
 30
0.0
  0
SPLINE
  5
396
100
AcDbEntity
  8
ALL_ASSEMBLY_MEMBERS
100
AcDbSpline
 62
7
  6
CONTINUOUS
 70
0
 71
3
 72
10
 73
6
 74
0
 42
0.0000001
 43
0.0000001
 44
0.0000000001
 40
0.0
 40
0.0
 40
0.0
 40
0.0
 40
0.4858769762
 40
0.739742417
 40
1.0
 40
1.0
 40
1.0
 40
1.0
 10
4.4193809502
 20
4.2124543681
 30
0.0
 10
4.4137576682
 20
4.2076218009
 30
0.0
 10
4.4044945054
 20
4.2010456735
 30
0.0
 10
4.3910897145
 20
4.1937378353
 30
0.0
 10
4.3839282419
 20
4.1905100834
 30
0.0
 10
4.3802513038
 20
4.1890089797
 30
0.0
  0
SPLINE
  5
397
100
AcDbEntity
  8
ALL_ASSEMBLY_MEMBERS
100
AcDbSpline
 62
7
  6
CONTINUOUS
 70
0
 71
3
 72
21
 73
17
 74
0
 42
0.0000001
 43
0.0000001
 44
0.0000000001
 40
0.0
 40
0.0
 40
0.0
 40
0.0
 40
0.0554298969
 40
0.1110853675
 40
0.1671856673
 40
0.2239378457
 40
0.2815309625
 40
0.3401337026
 40
0.3998879111
 40
0.4609118919
 40
0.5232946376
 40
0.5871003093
 40
0.6523627066
 40
0.7190881013
 40
0.8568161483
 40
1.0
 40
1.0
 40
1.0
 40
1.0
 10
4.4240013038
 20
4.439672077
 30
0.0
 10
4.4240013036
 20
4.4379271516
 30
0.0
 10
4.4238423431
 20
4.4344281638
 30
0.0
 10
4.4231300329
 20
4.4292068178
 30
0.0
 10
4.4219456897
 20
4.4240289171
 30
0.0
 10
4.4202951497
 20
4.4189165154
 30
0.0
 10
4.4181855534
 20
4.4138905278
 30
0.0
 10
4.4156254392
 20
4.4089719914
 30
0.0
 10
4.4126266665
 20
4.4041804234
 30
0.0
 10
4.4092007292
 20
4.3995360652
 30
0.0
 10
4.4053629246
 20
4.3950569275
 30
0.0
 10
4.4011283785
 20
4.3907618603
 30
0.0
 10
4.396515045
 20
4.3866677653
 30
0.0
 10
4.389814729
 20
4.3814447489
 30
0.0
 10
4.3805774229
 20
4.3755269739
 30
0.0
 10
4.3726267212
 20
4.3716116705
 30
0.0
 10
4.368486474
 20
4.3698297957
 30
0.0
  0
SPLINE
  5
398
100
AcDbEntity
  8
ALL_ASSEMBLY_MEMBERS
100
AcDbSpline
 62
7
  6
CONTINUOUS
 70
0
 71
3
 72
9
 73
5
 74
0
 42
0.0000001
 43
0.0000001
 44
0.0000000001
 40
0.0
 40
0.0
 40
0.0
 40
0.0
 40
0.2448343158
 40
1.0
 40
1.0
 40
1.0
 40
1.0
 10
4.3802513038
 20
4.29330723
 30
0.0
 10
4.3771543757
 20
4.2920429144
 30
0.0
 10
4.3643513873
 20
4.2872608668
 30
0.0
 10
4.3509988942
 20
4.2839791817
 30
0.0
 10
4.3408170849
 20
4.2823113811
 30
0.0
  0
SPLINE
  5
399
100
AcDbEntity
  8
ALL_ASSEMBLY_MEMBERS
100
AcDbSpline
 62
7
  6
CONTINUOUS
 70
0
 71
3
 72
29
 73
25
 74
0
 42
0.0000001
 43
0.0000001
 44
0.0000000001
 40
0.0
 40
0.0
 40
0.0
 40
0.0
 40
0.0707204569
 40
0.1419118908
 40
0.2131032595
 40
0.2838633223
 40
0.3537528878
 40
0.4223680782
 40
0.4893470868
 40
0.5543866899
 40
0.6172582431
 40
0.6478447504
 40
0.67784638
 40
0.7360738457
 40
0.7643481191
 40
0.7920823904
 40
0.8193089036
 40
0.8460672961
 40
0.8724064149
 40
0.8983822183
 40
0.9240578443
 40
0.9495027929
 40
0.9747909402
 40
1.0
 40
1.0
 40
1.0
 40
1.0
 10
4.3408170849
 20
4.3441832245
 30
0.0
 10
4.3355438378
 20
4.3433194562
 30
0.0
 10
4.3248864907
 20
4.3420190798
 30
0.0
 10
4.3087826695
 20
4.3413479323
 30
0.0
 10
4.2926722061
 20
4.3419549852
 30
0.0
 10
4.2767589205
 20
4.3438313889
 30
0.0
 10
4.2612405134
 20
4.3469549537
 30
0.0
 10
4.246311412
 20
4.3512867888
 30
0.0
 10
4.2321576506
 20
4.3567736919
 30
0.0
 10
4.2189570059
 20
4.3633478036
 30
0.0
 10
4.208793308
 20
4.3697248489
 30
0.0
 10
4.2013098404
 20
4.375301372
 30
0.0
 10
4.1944137621
 20
4.3810544704
 30
0.0
 10
4.1881393534
 20
4.3872641658
 30
0.0
 10
4.1825959633
 20
4.3938864414
 30
0.0
 10
4.1788751881
 20
4.3989626524
 30
0.0
 10
4.1755627941
 20
4.4041791293
 30
0.0
 10
4.1726701882
 20
4.4095203636
 30
0.0
 10
4.1702061618
 20
4.4149690243
 30
0.0
 10
4.1681787962
 20
4.4205080172
 30
0.0
 10
4.1665954324
 20
4.4261198776
 30
0.0
 10
4.1654602116
 20
4.4317865395
 30
0.0
 10
4.164778067
 20
4.4374896461
 30
0.0
 10
4.1646263562
 20
4.441306863
 30
0.0
 10
4.1646264094
 20
4.4432116184
 30
0.0
  0
SPLINE
  5
39A
100
AcDbEntity
  8
ALL_ASSEMBLY_MEMBERS
100
AcDbSpline
 62
7
  6
CONTINUOUS
 70
0
 71
3
 72
26
 73
22
 74
0
 42
0.0000001
 43
0.0000001
 44
0.0000000001
 40
0.0
 40
0.0
 40
0.0
 40
0.0
 40
0.0616658935
 40
0.1215374204
 40
0.179950035
 40
0.2087527857
 40
0.2373528733
 40
0.29416193
 40
0.3509227841
 40
0.3794635411
 40
0.4081843937
 40
0.4663712037
 40
0.5259453751
 40
0.5872582636
 40
0.6505730283
 40
0.716058918
 40
0.7496518957
 40
0.7838065758
 40
0.8537696975
 40
0.9259034681
 40
1.0
 40
1.0
 40
1.0
 40
1.0
 10
4.4148701969
 20
4.4832664293
 30
0.0
 10
4.4166537528
 20
4.4808958387
 30
0.0
 10
4.419916341
 20
4.4760255387
 30
0.0
 10
4.4238600272
 20
4.4682964902
 30
0.0
 10
4.4262693432
 20
4.4616204841
 30
0.0
 10
4.4276372352
 20
4.4562156995
 30
0.0
 10
4.4286293756
 20
4.4508079567
 30
0.0
 10
4.4291834957
 20
4.4439686112
 30
0.0
 10
4.4288015532
 20
4.4371202606
 30
0.0
 10
4.4279449753
 20
4.431698595
 30
0.0
 10
4.4267135153
 20
4.4262791597
 30
0.0
 10
4.4244728983
 20
4.4195752945
 30
0.0
 10
4.4207231115
 20
4.4117957874
 30
0.0
 10
4.4159385929
 20
4.4043129272
 30
0.0
 10
4.4101657416
 20
4.3971962214
 30
0.0
 10
4.4046233284
 20
4.3916697763
 30
0.0
 10
4.3997645765
 20
4.3874863919
 30
0.0
 10
4.3945425492
 20
4.3834059646
 30
0.0
 10
4.38750405
 20
4.3786555674
 30
0.0
 10
4.37840335
 20
4.3735975069
 30
0.0
 10
4.3719890005
 20
4.3706874856
 30
0.0
 10
4.3686888038
 20
4.3693401859
 30
0.0
  0
SPLINE
  5
39B
100
AcDbEntity
  8
ALL_ASSEMBLY_MEMBERS
100
AcDbSpline
 62
7
  6
CONTINUOUS
 70
0
 71
3
 72
10
 73
6
 74
0
 42
0.0000001
 43
0.0000001
 44
0.0000000001
 40
0.0
 40
0.0
 40
0.0
 40
0.0
 40
0.4887323386
 40
0.7417653517
 40
1.0
 40
1.0
 40
1.0
 40
1.0
 10
4.4134355226
 20
4.3119577342
 30
0.0
 10
4.4084797695
 20
4.3082054835
 30
0.0
 10
4.4005315779
 20
4.3030522333
 30
0.0
 10
4.3892418518
 20
4.2971857348
 30
0.0
 10
4.3832920647
 20
4.2945486154
 30
0.0
 10
4.3802513038
 20
4.29330723
 30
0.0
  0
SPLINE
  5
39C
100
AcDbEntity
  8
ALL_ASSEMBLY_MEMBERS
100
AcDbSpline
 62
7
  6
CONTINUOUS
 70
0
 71
3
 72
15
 73
11
 74
0
 42
0.0000001
 43
0.0000001
 44
0.0000000001
 40
0.0
 40
0.0
 40
0.0
 40
0.0
 40
0.1313512195
 40
0.2603107674
 40
0.3871185119
 40
0.5120554704
 40
0.6354452226
 40
0.7576409495
 40
0.879025749
 40
1.0
 40
1.0
 40
1.0
 40
1.0
 10
4.4116067852
 20
4.4765000675
 30
0.0
 10
4.41261096
 20
4.4750927744
 30
0.0
 10
4.4145067192
 20
4.4722349103
 30
0.0
 10
4.4170155941
 20
4.4677952932
 30
0.0
 10
4.4191542484
 20
4.4632585638
 30
0.0
 10
4.4209140749
 20
4.4586400916
 30
0.0
 10
4.4222899332
 20
4.4539561142
 30
0.0
 10
4.4232760635
 20
4.4492223627
 30
0.0
 10
4.4238690381
 20
4.4444557705
 30
0.0
 10
4.4240013039
 20
4.4412643233
 30
0.0
 10
4.4240013038
 20
4.439672077
 30
0.0
  0
SPLINE
  5
39D
100
AcDbEntity
  8
ALL_ASSEMBLY_MEMBERS
100
AcDbSpline
 62
7
  6
CONTINUOUS
 70
0
 71
3
 72
11
 73
7
 74
0
 42
0.0000001
 43
0.0000001
 44
0.0000000001
 40
0.0
 40
0.0
 40
0.0
 40
0.0
 40
0.2434655602
 40
0.4297513324
 40
0.6184249109
 40
1.0
 40
1.0
 40
1.0
 40
1.0
 10
4.3663706222
 20
4.3684178055
 30
0.0
 10
4.3621099675
 20
4.3667660857
 30
0.0
 10
4.3544442015
 20
4.3642112412
 30
0.0
 10
4.3431695629
 20
4.3614195395
 30
0.0
 10
4.3291843693
 20
4.358920171
 30
0.0
 10
4.3184774445
 20
4.3580616384
 30
0.0
 10
4.311316713
 20
4.3579382718
 30
0.0
  0
SPLINE
  5
39E
100
AcDbEntity
  8
ALL_ASSEMBLY_MEMBERS
100
AcDbSpline
 62
7
  6
CONTINUOUS
 70
0
 71
3
 72
34
 73
30
 74
0
 42
0.0000001
 43
0.0000001
 44
0.0000000001
 40
0.0
 40
0.0
 40
0.0
 40
0.0
 40
0.0753344122
 40
0.149949608
 40
0.2232721062
 40
0.2947838517
 40
0.329732033
 40
0.3640725378
 40
0.3977672859
 40
0.4307882222
 40
0.4947089965
 40
0.5256338037
 40
0.5558718995
 40
0.5854504969
 40
0.6144080877
 40
0.642797427
 40
0.6706830173
 40
0.6981416233
 40
0.7252607912
 40
0.7521365415
 40
0.7788720022
 40
0.8055737525
 40
0.8323496802
 40
0.8593052264
 40
0.8865413815
 40
0.914150918
 40
0.942217922
 40
0.9708141652
 40
1.0
 40
1.0
 40
1.0
 40
1.0
 10
4.305439242
 20
4.3579382188
 30
0.0
 10
4.3003381223
 20
4.358026008
 30
0.0
 10
4.2901864172
 20
4.3586565158
 30
0.0
 10
4.2752215369
 20
4.3609597986
 30
0.0
 10
4.2607854818
 20
4.3645825191
 30
0.0
 10
4.2492985313
 20
4.3686858003
 30
0.0
 10
4.2405923479
 20
4.3725843974
 30
0.0
 10
4.234384844
 20
4.3757713413
 30
0.0
 10
4.2284756527
 20
4.3792316787
 30
0.0
 10
4.221107975
 20
4.3841354555
 30
0.0
 10
4.2143330441
 20
4.3895724466
 30
0.0
 10
4.2082802274
 20
4.3955063098
 30
0.0
 10
4.2041938784
 20
4.4001031388
 30
0.0
 10
4.2005279438
 20
4.4048749194
 30
0.0
 10
4.1972981816
 20
4.4098035746
 30
0.0
 10
4.1945174093
 20
4.4148687399
 30
0.0
 10
4.1921974048
 20
4.4200501983
 30
0.0
 10
4.1903484333
 20
4.4253270478
 30
0.0
 10
4.1889773975
 20
4.4306774741
 30
0.0
 10
4.1880916304
 20
4.4360798556
 30
0.0
 10
4.1876934899
 20
4.4415116364
 30
0.0
 10
4.187785975
 20
4.4469504916
 30
0.0
 10
4.1883679378
 20
4.4523738138
 30
0.0
 10
4.1894368988
 20
4.4577592759
 30
0.0
 10
4.1909888168
 20
4.4630844909
 30
0.0
 10
4.1930158975
 20
4.4683280289
 30
0.0
 10
4.1955109193
 20
4.4734680689
 30
0.0
 10
4.1984618333
 20
4.4784840938
 30
0.0
 10
4.2007019371
 20
4.4816979732
 30
0.0
 10
4.2018905175
 20
4.4832772261
 30
0.0
  0
SPLINE
  5
39F
100
AcDbEntity
  8
ALL_ASSEMBLY_MEMBERS
100
AcDbSpline
 62
7
  6
CONTINUOUS
 70
0
 71
3
 72
15
 73
11
 74
0
 42
0.0000001
 43
0.0000001
 44
0.0000000001
 40
0.0
 40
0.0
 40
0.0
 40
0.0
 40
0.1209773105
 40
0.2423648357
 40
0.3645626123
 40
0.4879534766
 40
0.6128904567
 40
0.7396969963
 40
0.8686537299
 40
1.0
 40
1.0
 40
1.0
 40
1.0
 10
4.1927513038
 20
4.439672077
 30
0.0
 10
4.1927513039
 20
4.4412636587
 30
0.0
 10
4.1928834597
 20
4.444453768
 30
0.0
 10
4.193475939
 20
4.4492183788
 30
0.0
 10
4.1944612435
 20
4.4539501907
 30
0.0
 10
4.1958359571
 20
4.4586322916
 30
0.0
 10
4.197594331
 20
4.4632489712
 30
0.0
 10
4.1997312372
 20
4.4677840084
 30
0.0
 10
4.2022380702
 20
4.4722220471
 30
0.0
 10
4.204132296
 20
4.4750789812
 30
0.0
 10
4.2051356601
 20
4.4764858326
 30
0.0
  0
SPLINE
  5
3A0
100
AcDbEntity
  8
ALL_ASSEMBLY_MEMBERS
100
AcDbSpline
 62
7
  6
CONTINUOUS
 70
0
 71
3
 72
17
 73
13
 74
0
 42
0.0000001
 43
0.0000001
 44
0.0000000001
 40
0.0
 40
0.0
 40
0.0
 40
0.0
 40
0.0579726503
 40
0.1160729165
 40
0.2330910649
 40
0.3520667551
 40
0.412583798
 40
0.4738929164
 40
0.5991394815
 40
0.7283734925
 40
0.8619688414
 40
1.0
 40
1.0
 40
1.0
 40
1.0
 10
4.4521261981
 20
4.4432036035
 30
0.0
 10
4.4521261536
 20
4.441612553
 30
0.0
 10
4.4520201532
 20
4.4384258219
 30
0.0
 10
4.4513835451
 20
4.4320566847
 30
0.0
 10
4.4497856859
 20
4.4241197985
 30
0.0
 10
4.4471600773
 20
4.4163933802
 30
0.0
 10
4.4444668182
 20
4.410354545
 30
0.0
 10
4.4413355345
 20
4.4043358662
 30
0.0
 10
4.4366617176
 20
4.3970130137
 30
0.0
 10
4.4299654272
 20
4.388705212
 30
0.0
 10
4.4222025269
 20
4.3808846304
 30
0.0
 10
4.4164557204
 20
4.3761163217
 30
0.0
 10
4.4134355226
 20
4.3738295776
 30
0.0
  0
SPLINE
  5
3A1
100
AcDbEntity
  8
ALL_ASSEMBLY_MEMBERS
100
AcDbSpline
 62
7
  6
CONTINUOUS
 70
0
 71
3
 72
15
 73
11
 74
0
 42
0.0000001
 43
0.0000001
 44
0.0000000001
 40
0.0
 40
0.0
 40
0.0
 40
0.0
 40
0.1355073465
 40
0.2700859894
 40
0.4023473584
 40
0.5312801825
 40
0.6559816189
 40
0.7758076792
 40
0.8904528976
 40
1.0
 40
1.0
 40
1.0
 40
1.0
 10
4.3083763038
 20
4.5095911057
 30
0.0
 10
4.3130566014
 20
4.5096822915
 30
0.0
 10
4.3223826397
 20
4.5103208678
 30
0.0
 10
4.3361112676
 20
4.5126285409
 30
0.0
 10
4.3493196623
 20
4.5162539764
 30
0.0
 10
4.3617542958
 20
4.5211326128
 30
0.0
 10
4.3731838559
 20
4.5271797499
 30
0.0
 10
4.383392529
 20
4.5342922118
 30
0.0
 10
4.3921820378
 20
4.5423444965
 30
0.0
 10
4.3970921117
 20
4.5483809705
 30
0.0
 10
4.3992314119
 20
4.5515026485
 30
0.0
  0
SPLINE
  5
3A2
100
AcDbEntity
  8
ALL_ASSEMBLY_MEMBERS
100
AcDbSpline
 62
7
  6
CONTINUOUS
 70
0
 71
3
 72
9
 73
5
 74
0
 42
0.0000001
 43
0.0000001
 44
0.0000000001
 40
0.0
 40
0.0
 40
0.0
 40
0.0
 40
0.5064128557
 40
1.0
 40
1.0
 40
1.0
 40
1.0
 10
4.3992314119
 20
4.5515026485
 30
0.0
 10
4.4006145156
 20
4.5535208806
 30
0.0
 10
4.4031370971
 20
4.5576541884
 30
0.0
 10
4.4051741453
 20
4.5620490029
 30
0.0
 10
4.406044432
 20
4.5642692407
 30
0.0
  0
SPLINE
  5
3A3
100
AcDbEntity
  8
ALL_ASSEMBLY_MEMBERS
100
AcDbSpline
 62
7
  6
CONTINUOUS
 70
0
 71
3
 72
15
 73
11
 74
0
 42
0.0000001
 43
0.0000001
 44
0.0000000001
 40
0.0
 40
0.0
 40
0.0
 40
0.0
 40
0.1355229952
 40
0.2701145376
 40
0.4023848102
 40
0.5313234566
 40
0.6560239785
 40
0.7758411356
 40
0.8904713569
 40
1.0
 40
1.0
 40
1.0
 40
1.0
 10
4.3083763038
 20
4.5344551434
 30
0.0
 10
4.3130609671
 20
4.5345465756
 30
0.0
 10
4.3223955999
 20
4.5351865118
 30
0.0
 10
4.3361363787
 20
4.5374986641
 30
0.0
 10
4.3493555416
 20
4.5411310047
 30
0.0
 10
4.3617989245
 20
4.5460187202
 30
0.0
 10
4.3732346023
 20
4.5520767667
 30
0.0
 10
4.3834460933
 20
4.5592016432
 30
0.0
 10
4.3922347012
 20
4.567267319
 30
0.0
 10
4.3971414822
 20
4.5733133155
 30
0.0
 10
4.3992783325
 20
4.5764396475
 30
0.0
  0
SPLINE
  5
3A4
100
AcDbEntity
  8
ALL_ASSEMBLY_MEMBERS
100
AcDbSpline
 62
7
  6
CONTINUOUS
 70
0
 71
3
 72
9
 73
5
 74
0
 42
0.0000001
 43
0.0000001
 44
0.0000000001
 40
0.0
 40
0.0
 40
0.0
 40
0.0
 40
0.5066334788
 40
1.0
 40
1.0
 40
1.0
 40
1.0
 10
4.3992783325
 20
4.5764396475
 30
0.0
 10
4.4007174753
 20
4.5785451943
 30
0.0
 10
4.4033312694
 20
4.5828619066
 30
0.0
 10
4.4054136776
 20
4.5874607529
 30
0.0
 10
4.4062929385
 20
4.5897835017
 30
0.0
  0
SPLINE
  5
3A5
100
AcDbEntity
  8
ALL_ASSEMBLY_MEMBERS
100
AcDbSpline
 62
7
  6
CONTINUOUS
 70
0
 71
3
 72
15
 73
11
 74
0
 42
0.0000001
 43
0.0000001
 44
0.0000000001
 40
0.0
 40
0.0
 40
0.0
 40
0.0
 40
0.135812927
 40
0.2706660465
 40
0.4031266322
 40
0.5321476047
 40
0.6568031648
 40
0.7764462734
 40
0.8907999173
 40
1.0
 40
1.0
 40
1.0
 40
1.0
 10
4.3083763038
 20
4.5220432707
 30
0.0
 10
4.3131312625
 20
4.5221363358
 30
0.0
 10
4.3226050861
 20
4.5227931458
 30
0.0
 10
4.3365432987
 20
4.5251708702
 30
0.0
 10
4.349936781
 20
4.5289066878
 30
0.0
 10
4.3625197096
 20
4.5339325803
 30
0.0
 10
4.3740505228
 20
4.540157468
 30
0.0
 10
4.3843040343
 20
4.5474726432
 30
0.0
 10
4.3930751285
 20
4.5557444593
 30
0.0
 10
4.3979263221
 20
4.5619378677
 30
0.0
 10
4.4000223873
 20
4.5651361603
 30
0.0
  0
SPLINE
  5
3A6
100
AcDbEntity
  8
ALL_ASSEMBLY_MEMBERS
100
AcDbSpline
 62
7
  6
CONTINUOUS
 70
0
 71
3
 72
9
 73
5
 74
0
 42
0.0000001
 43
0.0000001
 44
0.0000000001
 40
0.0
 40
0.0
 40
0.0
 40
0.0
 40
0.2532120839
 40
1.0
 40
1.0
 40
1.0
 40
1.0
 10
4.4009676827
 20
4.5666202348
 30
0.0
 10
4.401382211
 20
4.5672901981
 30
0.0
 10
4.4029724136
 20
4.5699646804
 30
0.0
 10
4.4043707682
 20
4.5727539768
 30
0.0
 10
4.4052901577
 20
4.5748878737
 30
0.0
  0
LINE
  5
3A7
100
AcDbEntity
  8
ALL_ASSEMBLY_MEMBERS
100
AcDbLine
 62
7
  6
CONTINUOUS
 10
4.4085651641
 20
4.5848710577
 11
4.4086008614
 21
4.5850282146
  0
SPLINE
  5
3A8
100
AcDbEntity
  8
ALL_ASSEMBLY_MEMBERS
100
AcDbSpline
 62
7
  6
CONTINUOUS
 70
0
 71
3
 72
9
 73
5
 74
0
 42
0.0000001
 43
0.0000001
 44
0.0000000001
 40
0.0
 40
0.0
 40
0.0
 40
0.0
 40
0.2458276098
 40
1.0
 40
1.0
 40
1.0
 40
1.0
 10
4.2203833985
 20
4.5559028005
 30
0.0
 10
4.2208732208
 20
4.5553212857
 30
0.0
 10
4.222905208
 20
4.5529891508
 30
0.0
 10
4.225089762
 20
4.550790788
 30
0.0
 10
4.2268062153
 20
4.5492113249
 30
0.0
  0
SPLINE
  5
3A9
100
AcDbEntity
  8
ALL_ASSEMBLY_MEMBERS
100
AcDbSpline
 62
7
  6
CONTINUOUS
 70
0
 71
3
 72
13
 73
9
 74
0
 42
0.0000001
 43
0.0000001
 44
0.0000000001
 40
0.0
 40
0.0
 40
0.0
 40
0.0
 40
0.2272054283
 40
0.3479550681
 40
0.4728557524
 40
0.6012980948
 40
0.7325550348
 40
1.0
 40
1.0
 40
1.0
 40
1.0
 10
4.2268062153
 20
4.5492113249
 30
0.0
 10
4.231705513
 20
4.5447030405
 30
0.0
 10
4.2401155687
 20
4.5387392407
 30
0.0
 10
4.2525150951
 20
4.5325305885
 30
0.0
 10
4.2627631096
 20
4.5285865357
 30
0.0
 10
4.2736219076
 20
4.5255128291
 30
0.0
 10
4.2888084603
 20
4.5226144399
 30
0.0
 10
4.3005407376
 20
4.5218899113
 30
0.0
 10
4.3083763038
 20
4.5220432707
 30
0.0
  0
SPLINE
  5
3AA
100
AcDbEntity
  8
ALL_ASSEMBLY_MEMBERS
100
AcDbSpline
 62
7
  6
CONTINUOUS
 70
0
 71
3
 72
21
 73
17
 74
0
 42
0.0000001
 43
0.0000001
 44
0.0000000001
 40
0.0
 40
0.0
 40
0.0
 40
0.0
 40
0.0598183068
 40
0.121827365
 40
0.1857049692
 40
0.2511497959
 40
0.3849952954
 40
0.5197913476
 40
0.5863759841
 40
0.6517442719
 40
0.715467411
 40
0.7771829001
 40
0.8366054222
 40
0.8935594735
 40
0.9479924986
 40
1.0
 40
1.0
 40
1.0
 40
1.0
 10
4.3823288881
 20
4.5711049638
 30
0.0
 10
4.3794587885
 20
4.5688674125
 30
0.0
 10
4.3733391456
 20
4.5646535832
 30
0.0
 10
4.3633873898
 20
4.5592656423
 30
0.0
 10
4.3526296444
 20
4.5547693278
 30
0.0
 10
4.3373218992
 20
4.5500107077
 30
0.0
 10
4.3171653375
 20
4.5466391759
 30
0.0
 10
4.2966653877
 20
4.5467354456
 30
0.0
 10
4.2805658473
 20
4.5489141394
 30
0.0
 10
4.2689407723
 20
4.5515562773
 30
0.0
 10
4.2578915423
 20
4.5551716211
 30
0.0
 10
4.2475771176
 20
4.5597029228
 30
0.0
 10
4.2381494436
 20
4.5650854933
 30
0.0
 10
4.2297439646
 20
4.5712376539
 30
0.0
 10
4.2224878115
 20
4.5780699035
 30
0.0
 10
4.2183982493
 20
4.5831241171
 30
0.0
 10
4.2165991821
 20
4.5857269165
 30
0.0
  0
SPLINE
  5
3AB
100
AcDbEntity
  8
ALL_ASSEMBLY_MEMBERS
100
AcDbSpline
 62
7
  6
CONTINUOUS
 70
0
 71
3
 72
9
 73
5
 74
0
 42
0.0000001
 43
0.0000001
 44
0.0000000001
 40
0.0
 40
0.0
 40
0.0
 40
0.0
 40
0.2541164876
 40
1.0
 40
1.0
 40
1.0
 40
1.0
 10
4.2162537159
 20
4.5862319603
 30
0.0
 10
4.2157901935
 20
4.5869167449
 30
0.0
 10
4.2140197946
 20
4.5896472832
 30
0.0
 10
4.2124698993
 20
4.5925220415
 30
0.0
 10
4.2114621211
 20
4.5947300855
 30
0.0
  0
LINE
  5
3AC
100
AcDbEntity
  8
ALL_ASSEMBLY_MEMBERS
100
AcDbLine
 62
7
  6
CONTINUOUS
 10
4.4098231694
 20
5.7631488394
 11
4.4099383811
 21
5.7630153179
  0
LINE
  5
3AD
100
AcDbEntity
  8
ALL_ASSEMBLY_MEMBERS
100
AcDbLine
 62
7
  6
CONTINUOUS
 10
4.2069284983
 20
5.7719081598
 11
4.2068142691
 21
5.7717750224
  0
LINE
  5
3AE
100
AcDbEntity
  8
ALL_ASSEMBLY_MEMBERS
100
AcDbLine
 62
7
  6
CONTINUOUS
 10
4.4098158291
 20
5.7567227663
 11
4.4099383476
 21
5.7568647438
  0
SPLINE
  5
3AF
100
AcDbEntity
  8
ALL_ASSEMBLY_MEMBERS
100
AcDbSpline
 62
7
  6
CONTINUOUS
 70
0
 71
3
 72
11
 73
7
 74
0
 42
0.0000001
 43
0.0000001
 44
0.0000000001
 40
0.0
 40
0.0
 40
0.0
 40
0.0
 40
0.2393283133
 40
0.4855718957
 40
0.7391628966
 40
1.0
 40
1.0
 40
1.0
 40
1.0
 10
4.4008009336
 20
4.592362009
 30
0.0
 10
4.3996907462
 20
4.5903942134
 30
0.0
 10
4.3972207417
 20
4.586520922
 30
0.0
 10
4.3928868419
 20
4.5810382759
 30
0.0
 10
4.3879122383
 20
4.5758456918
 30
0.0
 10
4.3842492676
 20
4.5726462778
 30
0.0
 10
4.3823288881
 20
4.5711049638
 30
0.0
  0
SPLINE
  5
3B0
100
AcDbEntity
  8
ALL_ASSEMBLY_MEMBERS
100
AcDbSpline
 62
7
  6
CONTINUOUS
 70
0
 71
3
 72
15
 73
11
 74
0
 42
0.0000001
 43
0.0000001
 44
0.0000000001
 40
0.0
 40
0.0
 40
0.0
 40
0.0
 40
0.1070770089
 40
0.2197694474
 40
0.3383864399
 40
0.4627301916
 40
0.5921643571
 40
0.7256861643
 40
0.8621344321
 40
1.0
 40
1.0
 40
1.0
 40
1.0
 10
4.4021757357
 20
4.6004993362
 30
0.0
 10
4.4002211613
 20
4.5971708428
 30
0.0
 10
4.3955662245
 20
4.5907019229
 30
0.0
 10
4.386883085
 20
4.5820688722
 30
0.0
 10
4.3765252405
 20
4.5744406795
 30
0.0
 10
4.3647191774
 20
4.5679751396
 30
0.0
 10
4.351716028
 20
4.562803569
 30
0.0
 10
4.3377908038
 20
4.5590292968
 30
0.0
 10
4.3232424718
 20
4.5567347381
 30
0.0
 10
4.3133461333
 20
4.5562211236
 30
0.0
 10
4.3083763038
 20
4.5562211236
 30
0.0
  0
SPLINE
  5
3B1
100
AcDbEntity
  8
ALL_ASSEMBLY_MEMBERS
100
AcDbSpline
 62
7
  6
CONTINUOUS
 70
0
 71
3
 72
15
 73
11
 74
0
 42
0.0000001
 43
0.0000001
 44
0.0000000001
 40
0.0
 40
0.0
 40
0.0
 40
0.0
 40
0.1373766871
 40
0.2734103696
 40
0.4066442528
 40
0.5359667897
 40
0.6604008927
 40
0.7793025211
 40
0.8924285778
 40
1.0
 40
1.0
 40
1.0
 40
1.0
 10
4.3083763038
 20
4.5562211236
 30
0.0
 10
4.3035153454
 20
4.5562211236
 30
0.0
 10
4.2938336882
 20
4.556712714
 30
0.0
 10
4.2795886
 20
4.5589088932
 30
0.0
 10
4.2659271874
 20
4.5625235966
 30
0.0
 10
4.2531306006
 20
4.567481082
 30
0.0
 10
4.2414575958
 20
4.5736861571
 30
0.0
 10
4.2311457643
 20
4.5810177904
 30
0.0
 10
4.2224097975
 20
4.5893301352
 30
0.0
 10
4.2176466249
 20
4.5955728515
 30
0.0
 10
4.2156161524
 20
4.5987923678
 30
0.0
  0
SPLINE
  5
3B2
100
AcDbEntity
  8
ALL_ASSEMBLY_MEMBERS
100
AcDbSpline
 62
7
  6
CONTINUOUS
 70
0
 71
3
 72
9
 73
5
 74
0
 42
0.0000001
 43
0.0000001
 44
0.0000000001
 40
0.0
 40
0.0
 40
0.0
 40
0.0
 40
0.25334593
 40
1.0
 40
1.0
 40
1.0
 40
1.0
 10
4.2145127695
 20
4.6006087657
 30
0.0
 10
4.2141191151
 20
4.6012822636
 30
0.0
 10
4.2126154669
 20
4.6039695911
 30
0.0
 10
4.2113171399
 20
4.6067725464
 30
0.0
 10
4.2104804564
 20
4.6089140023
 30
0.0
  0
LINE
  5
3B3
100
AcDbEntity
  8
ALL_ASSEMBLY_MEMBERS
100
AcDbLine
 62
7
  6
CONTINUOUS
 10
4.2104804564
 20
4.6089140023
 11
4.2104237111
 21
4.6090598374
  0
LINE
  5
3B4
100
AcDbEntity
  8
ALL_ASSEMBLY_MEMBERS
100
AcDbLine
 62
7
  6
CONTINUOUS
 10
4.4098157481
 20
5.7748347022
 11
4.4099383811
 21
5.7749764991
  0
LINE
  5
3B5
100
AcDbEntity
  8
ALL_ASSEMBLY_MEMBERS
100
AcDbLine
 62
7
  6
CONTINUOUS
 10
4.2069363758
 20
5.7657815241
 11
4.2068142607
 21
5.7659239043
  0
LINE
  5
3B6
100
AcDbEntity
  8
ALL_ASSEMBLY_MEMBERS
100
AcDbLine
 62
7
  6
CONTINUOUS
 10
4.4098230255
 20
5.7983087137
 11
4.4099383802
 21
5.7981747357
  0
LINE
  5
3B7
100
AcDbEntity
  8
ALL_ASSEMBLY_MEMBERS
100
AcDbLine
 62
7
  6
CONTINUOUS
 10
4.4098233594
 20
5.8159096474
 11
4.4099383455
 21
5.8157768391
  0
LINE
  5
3B8
100
AcDbEntity
  8
ALL_ASSEMBLY_MEMBERS
100
AcDbLine
 62
7
  6
CONTINUOUS
 10
4.2069299251
 20
5.8071104243
 11
4.2068142693
 21
5.8069757521
  0
LINE
  5
3B9
100
AcDbEntity
  8
ALL_ASSEMBLY_MEMBERS
100
AcDbLine
 62
7
  6
CONTINUOUS
 10
4.4098155823
 20
5.7929720073
 11
4.409938518
 21
5.7931140186
  0
SPLINE
  5
3BA
100
AcDbEntity
  8
ALL_ASSEMBLY_MEMBERS
100
AcDbSpline
 62
7
  6
CONTINUOUS
 70
0
 71
3
 72
9
 73
5
 74
0
 42
0.0000001
 43
0.0000001
 44
0.0000000001
 40
0.0
 40
0.0
 40
0.0
 40
0.0
 40
0.2464196436
 40
1.0
 40
1.0
 40
1.0
 40
1.0
 10
4.211848603
 20
4.5814542514
 30
0.0
 10
4.2121736721
 20
4.5807720541
 30
0.0
 10
4.2135492449
 20
4.5780307237
 30
0.0
 10
4.2151452757
 20
4.5754010304
 30
0.0
 10
4.216451458
 20
4.573494589
 30
0.0
  0
SPLINE
  5
3BB
100
AcDbEntity
  8
ALL_ASSEMBLY_MEMBERS
100
AcDbSpline
 62
7
  6
CONTINUOUS
 70
0
 71
3
 72
15
 73
11
 74
0
 42
0.0000001
 43
0.0000001
 44
0.0000000001
 40
0.0
 40
0.0
 40
0.0
 40
0.0
 40
0.1072167501
 40
0.2201916799
 40
0.3390397482
 40
0.463458484
 40
0.5927844505
 40
0.7260821651
 40
0.8622984383
 40
1.0
 40
1.0
 40
1.0
 40
1.0
 10
4.2172964063
 20
4.5722915861
 30
0.0
 10
4.2194310582
 20
4.5693258008
 30
0.0
 10
4.2243451712
 20
4.5636039631
 30
0.0
 10
4.2331332057
 20
4.5560448227
 30
0.0
 10
4.2433557644
 20
4.5494300988
 30
0.0
 10
4.2548133829
 20
4.5438869125
 30
0.0
 10
4.2672887109
 20
4.5395197494
 30
0.0
 10
4.2805481162
 20
4.5364153709
 30
0.0
 10
4.2943348398
 20
4.5346393818
 30
0.0
 10
4.3036841008
 20
4.5343635641
 30
0.0
 10
4.3083763038
 20
4.5344551434
 30
0.0
  0
SPLINE
  5
3BC
100
AcDbEntity
  8
ALL_ASSEMBLY_MEMBERS
100
AcDbSpline
 62
7
  6
CONTINUOUS
 70
0
 71
3
 72
9
 73
5
 74
0
 42
0.0000001
 43
0.0000001
 44
0.0000000001
 40
0.0
 40
0.0
 40
0.0
 40
0.0
 40
0.4937387419
 40
1.0
 40
1.0
 40
1.0
 40
1.0
 10
4.2109830825
 20
4.5709335646
 30
0.0
 10
4.2117444232
 20
4.5691653025
 30
0.0
 10
4.2134783916
 20
4.5656640471
 30
0.0
 10
4.2155542102
 20
4.5623552074
 30
0.0
 10
4.2166802745
 20
4.5607338618
 30
0.0
  0
LINE
  5
3BD
100
AcDbEntity
  8
ALL_ASSEMBLY_MEMBERS
100
AcDbLine
 62
7
  6
CONTINUOUS
 10
4.2202825993
 20
4.5560228091
 11
4.2203833985
 21
4.5559028005
  0
SPLINE
  5
3BE
100
AcDbEntity
  8
ALL_ASSEMBLY_MEMBERS
100
AcDbSpline
 62
7
  6
CONTINUOUS
 70
0
 71
3
 72
9
 73
5
 74
0
 42
0.0000001
 43
0.0000001
 44
0.0000000001
 40
0.0
 40
0.0
 40
0.0
 40
0.0
 40
0.2476700149
 40
1.0
 40
1.0
 40
1.0
 40
1.0
 10
4.2084204779
 20
4.5659286168
 30
0.0
 10
4.208593995
 20
4.5652662601
 30
0.0
 10
4.2093488115
 20
4.5626063372
 30
0.0
 10
4.2103186021
 20
4.5600079804
 30
0.0
 10
4.2111561599
 20
4.5581041857
 30
0.0
  0
SPLINE
  5
3BF
100
AcDbEntity
  8
ALL_ASSEMBLY_MEMBERS
100
AcDbSpline
 62
7
  6
CONTINUOUS
 70
0
 71
3
 72
9
 73
5
 74
0
 42
0.0000001
 43
0.0000001
 44
0.0000000001
 40
0.0
 40
0.0
 40
0.0
 40
0.0
 40
0.2461336012
 40
1.0
 40
1.0
 40
1.0
 40
1.0
 10
4.2119146893
 20
4.5564545683
 30
0.0
 10
4.2122655581
 20
4.555723409
 30
0.0
 10
4.2137558993
 20
4.5527842094
 30
0.0
 10
4.2154991189
 20
4.5499745723
 30
0.0
 10
4.2169301372
 20
4.5479442852
 30
0.0
  0
SPLINE
  5
3C0
100
AcDbEntity
  8
ALL_ASSEMBLY_MEMBERS
100
AcDbSpline
 62
7
  6
CONTINUOUS
 70
0
 71
3
 72
15
 73
11
 74
0
 42
0.0000001
 43
0.0000001
 44
0.0000000001
 40
0.0
 40
0.0
 40
0.0
 40
0.0
 40
0.1088270828
 40
0.2230819098
 40
0.3427069952
 40
0.4673255215
 40
0.5962741873
 40
0.7287162795
 40
0.8637211007
 40
1.0
 40
1.0
 40
1.0
 40
1.0
 10
4.2207761863
 20
4.543008248
 30
0.0
 10
4.2230573038
 20
4.5403466905
 30
0.0
 10
4.2281542231
 20
4.5352412045
 30
0.0
 10
4.2369526284
 20
4.5285283135
 30
0.0
 10
4.246943089
 20
4.5226840051
 30
0.0
 10
4.2579565582
 20
4.5178096038
 30
0.0
 10
4.2698091556
 20
4.5139839951
 30
0.0
 10
4.2823072698
 20
4.5112760247
 30
0.0
 10
4.2952380091
 20
4.5097366522
 30
0.0
 10
4.3039875728
 20
4.5095056006
 30
0.0
 10
4.3083763038
 20
4.5095911057
 30
0.0
  0
LINE
  5
3C1
100
AcDbEntity
  8
ALL_ASSEMBLY_MEMBERS
100
AcDbLine
 62
7
  6
CONTINUOUS
 10
4.4098158435
 20
5.8111051557
 11
4.4099383802
 21
5.8112465273
  0
LINE
  5
3C2
100
AcDbEntity
  8
ALL_ASSEMBLY_MEMBERS
100
AcDbLine
 62
7
  6
CONTINUOUS
 10
4.4098155065
 20
5.8292182973
 11
4.4099383455
 21
5.8293608221
  0
LINE
  5
3C3
100
AcDbEntity
  8
ALL_ASSEMBLY_MEMBERS
100
AcDbLine
 62
7
  6
CONTINUOUS
 10
4.2069368045
 20
5.8020391017
 11
4.2068142463
 21
5.8021819791
  0
LINE
  5
3C4
100
AcDbEntity
  8
ALL_ASSEMBLY_MEMBERS
100
AcDbLine
 62
7
  6
CONTINUOUS
 10
4.2069373826
 20
5.8383190677
 11
4.2068142501
 21
5.8384626131
  0
LINE
  5
3C5
100
AcDbEntity
  8
ALL_ASSEMBLY_MEMBERS
100
AcDbLine
 62
7
  6
CONTINUOUS
 10
4.4098229549
 20
5.8334889266
 11
4.4099386056
 21
5.8333551047
  0
SPLINE
  5
3C6
100
AcDbEntity
  8
ALL_ASSEMBLY_MEMBERS
100
AcDbSpline
 62
7
  6
CONTINUOUS
 70
0
 71
3
 72
11
 73
7
 74
0
 42
0.0000001
 43
0.0000001
 44
0.0000000001
 40
0.0
 40
0.0
 40
0.0
 40
0.0
 40
0.3332235332
 40
0.5712952716
 40
0.7659729582
 40
1.0
 40
1.0
 40
1.0
 40
1.0
 10
4.2087246882
 20
5.8735078881
 30
0.0
 10
4.2087133853
 20
5.8735144098
 30
0.0
 10
4.2086947964
 20
5.8735268069
 30
0.0
 10
4.2086746226
 20
5.8735508123
 30
0.0
 10
4.2086739301
 20
5.8735790165
 30
0.0
 10
4.2086851153
 20
5.8735928981
 30
0.0
 10
4.2086916264
 20
5.8735993479
 30
0.0
  0
LINE
  5
3C7
100
AcDbEntity
  8
ALL_ASSEMBLY_MEMBERS
100
AcDbLine
 62
7
  6
CONTINUOUS
 10
4.4098238032
 20
5.8686686125
 11
4.4099383907
 21
5.8685352686
  0
LINE
  5
3C8
100
AcDbEntity
  8
ALL_ASSEMBLY_MEMBERS
100
AcDbLine
 62
7
  6
CONTINUOUS
 10
4.4022797202
 20
5.8792472696
 11
4.4023154316
 21
5.8793445149
  0
LINE
  5
3C9
100
AcDbEntity
  8
ALL_ASSEMBLY_MEMBERS
100
AcDbLine
 62
7
  6
CONTINUOUS
 10
4.2069294514
 20
5.8422788252
 11
4.206814265
 21
5.8421448948
  0
SPLINE
  5
3CA
100
AcDbEntity
  8
ALL_ASSEMBLY_MEMBERS
100
AcDbSpline
 62
7
  6
CONTINUOUS
 70
0
 71
3
 72
32
 73
28
 74
0
 42
0.0000001
 43
0.0000001
 44
0.0000000001
 40
0.0
 40
0.0
 40
0.0
 40
0.0
 40
0.0007392684
 40
0.0012452814
 40
0.0018712619
 40
0.0035202431
 40
0.0057300648
 40
0.0085166515
 40
0.011886533
 40
0.0158410772
 40
0.0203797961
 40
0.0312032834
 40
0.0443405716
 40
0.0597705364
 40
0.0774599284
 40
0.0973621218
 40
0.1194291707
 40
0.1698591205
 40
0.2282666788
 40
0.2940890472
 40
0.3667001106
 40
0.4454006187
 40
0.5294394912
 40
0.6179920011
 40
0.710219328
 40
0.8052670709
 40
1.0
 40
1.0
 40
1.0
 40
1.0
 10
4.4099383907
 20
5.8685352686
 30
0.0
 10
4.4099381698
 20
5.8685101912
 30
0.0
 10
4.4099147134
 20
5.8684695416
 30
0.0
 10
4.4098664176
 20
5.8684291333
 30
0.0
 10
4.4097858848
 20
5.8683789752
 30
0.0
 10
4.4096449664
 20
5.868320312
 30
0.0
 10
4.4094295318
 20
5.8682534786
 30
0.0
 10
4.4091536118
 20
5.8681863999
 30
0.0
 10
4.4088172819
 20
5.8681188375
 30
0.0
 10
4.4084205493
 20
5.8680510502
 30
0.0
 10
4.4077723512
 20
5.8679546813
 30
0.0
 10
4.4068125821
 20
5.8678371955
 30
0.0
 10
4.4054831115
 20
5.8677021692
 30
0.0
 10
4.4039197487
 20
5.8675666851
 30
0.0
 10
4.4021262007
 20
5.8674308095
 30
0.0
 10
4.4001069535
 20
5.8672946368
 30
0.0
 10
4.3969782448
 20
5.8671042149
 30
0.0
 10
4.3925436303
 20
5.8668704045
 30
0.0
 10
4.3866247666
 20
5.8665995405
 30
0.0
 10
4.3799527828
 20
5.866327952
 30
0.0
 10
4.3725919103
 20
5.8660558144
 30
0.0
 10
4.3646127036
 20
5.8657832519
 30
0.0
 10
4.3560924272
 20
5.8655104339
 30
0.0
 10
4.3471130636
 20
5.8652373628
 30
0.0
 10
4.3377600837
 20
5.8649641282
 30
0.0
 10
4.3248063409
 20
5.8645966252
 30
0.0
 10
4.3149797685
 20
5.8643257978
 30
0.0
 10
4.3083763038
 20
5.8641437265
 30
0.0
  0
SPLINE
  5
3CB
100
AcDbEntity
  8
ALL_ASSEMBLY_MEMBERS
100
AcDbSpline
 62
7
  6
CONTINUOUS
 70
0
 71
3
 72
32
 73
28
 74
0
 42
0.0000001
 43
0.0000001
 44
0.0000000001
 40
0.0
 40
0.0
 40
0.0
 40
0.0
 40
0.0007372426
 40
0.0012403629
 40
0.0018629548
 40
0.0035047571
 40
0.0057078388
 40
0.0084881759
 40
0.0118512751
 40
0.0157986374
 40
0.0203300209
 40
0.0311393119
 40
0.0442645595
 40
0.0596851469
 40
0.0773641059
 40
0.097255713
 40
0.1193135835
 40
0.1697299976
 40
0.2281242335
 40
0.293943246
 40
0.366555573
 40
0.4452692764
 40
0.5293258873
 40
0.6178997583
 40
0.7101516384
 40
0.8052252295
 40
1.0
 40
1.0
 40
1.0
 40
1.0
 10
4.4099383431
 20
5.8509385431
 30
0.0
 10
4.4099385049
 20
5.8509135335
 30
0.0
 10
4.4099157444
 20
5.850872634
 30
0.0
 10
4.4098679387
 20
5.8508320383
 30
0.0
 10
4.4097880708
 20
5.8507816815
 30
0.0
 10
4.4096478426
 20
5.850722819
 30
0.0
 10
4.4094331874
 20
5.8506557841
 30
0.0
 10
4.4091579939
 20
5.8505885147
 30
0.0
 10
4.4088224
 20
5.8505207413
 30
0.0
 10
4.4084264266
 20
5.8504527509
 30
0.0
 10
4.4077792443
 20
5.8503560882
 30
0.0
 10
4.4068206439
 20
5.8502382644
 30
0.0
 10
4.4054923978
 20
5.8501028846
 30
0.0
 10
4.4039301167
 20
5.8499670861
 30
0.0
 10
4.4021375934
 20
5.8498308856
 30
0.0
 10
4.4001193548
 20
5.8496944118
 30
0.0
 10
4.3969917427
 20
5.849503592
 30
0.0
 10
4.3925582894
 20
5.8492693769
 30
0.0
 10
4.3866403605
 20
5.8489980605
 30
0.0
 10
4.3799687876
 20
5.8487261315
 30
0.0
 10
4.3726074117
 20
5.8484536546
 30
0.0
 10
4.36462697
 20
5.8481808391
 30
0.0
 10
4.356104765
 20
5.8479077983
 30
0.0
 10
4.3471230763
 20
5.8476345703
 30
0.0
 10
4.3377674873
 20
5.8473612345
 30
0.0
 10
4.324810371
 20
5.846993679
 30
0.0
 10
4.3149813148
 20
5.846722895
 30
0.0
 10
4.3083763038
 20
5.8465408859
 30
0.0
  0
SPLINE
  5
3CC
100
AcDbEntity
  8
ALL_ASSEMBLY_MEMBERS
100
AcDbSpline
 62
7
  6
CONTINUOUS
 70
0
 71
3
 72
26
 73
22
 74
0
 42
0.0000001
 43
0.0000001
 44
0.0000000001
 40
0.0
 40
0.0
 40
0.0
 40
0.0
 40
0.0020923995
 40
0.0037031468
 40
0.0057786483
 40
0.0114124297
 40
0.0190870669
 40
0.0288272845
 40
0.0406394534
 40
0.0545225242
 40
0.0704715827
 40
0.1085062809
 40
0.1545814618
 40
0.2085186585
 40
0.2701065493
 40
0.3390605795
 40
0.4150843012
 40
0.4978686398
 40
0.5870656336
 40
0.7832394916
 40
1.0
 40
1.0
 40
1.0
 40
1.0
 10
4.4099386056
 20
5.8333551047
 30
0.0
 10
4.4099385101
 20
5.8333195797
 30
0.0
 10
4.4098918656
 20
5.8332632632
 30
0.0
 10
4.4098103456
 20
5.8332127042
 30
0.0
 10
4.4096658662
 20
5.8331449066
 30
0.0
 10
4.409416333
 20
5.8330674661
 30
0.0
 10
4.409034983
 20
5.8329782273
 30
0.0
 10
4.4085467936
 20
5.8328888612
 30
0.0
 10
4.4079518972
 20
5.8327986069
 30
0.0
 10
4.4072506318
 20
5.8327080901
 30
0.0
 10
4.4061055462
 20
5.8325794025
 30
0.0
 10
4.4044138372
 20
5.8324226737
 30
0.0
 10
4.402076943
 20
5.8322424465
 30
0.0
 10
4.399339189
 20
5.8320615749
 30
0.0
 10
4.3962123027
 20
5.8318802203
 30
0.0
 10
4.3927098898
 20
5.8316984936
 30
0.0
 10
4.3888471784
 20
5.8315165243
 30
0.0
 10
4.3846404376
 20
5.8313344172
 30
0.0
 10
4.3783948721
 20
5.8310833475
 30
0.0
 10
4.3698751936
 20
5.8307737688
 30
0.0
 10
4.3628681213
 20
5.8305427614
 30
0.0
 10
4.3591897872
 20
5.8304256758
 30
0.0
  0
SPLINE
  5
3CD
100
AcDbEntity
  8
ALL_ASSEMBLY_MEMBERS
100
AcDbSpline
 62
7
  6
CONTINUOUS
 70
0
 71
3
 72
32
 73
28
 74
0
 42
0.0000001
 43
0.0000001
 44
0.0000000001
 40
0.0
 40
0.0
 40
0.0
 40
0.0
 40
0.0007367812
 40
0.0012401199
 40
0.0018630778
 40
0.0035058052
 40
0.0057098352
 40
0.0084911868
 40
0.0118554678
 40
0.01580411
 40
0.0203368088
 40
0.0311486085
 40
0.0442758367
 40
0.0596978125
 40
0.0773782682
 40
0.0972713465
 40
0.1193304726
 40
0.1697488601
 40
0.2281450655
 40
0.2939649959
 40
0.3665777871
 40
0.4452904905
 40
0.5293456856
 40
0.6179171134
 40
0.7101652103
 40
0.8052337148
 40
1.0
 40
1.0
 40
1.0
 40
1.0
 10
4.4099383455
 20
5.8157768391
 30
0.0
 10
4.4099384404
 20
5.8157518449
 30
0.0
 10
4.4099155438
 20
5.8157110344
 30
0.0
 10
4.4098676617
 20
5.8156705347
 30
0.0
 10
4.4097876729
 20
5.8156202725
 30
0.0
 10
4.4096473249
 20
5.8155615184
 30
0.0
 10
4.4094325329
 20
5.8154945948
 30
0.0
 10
4.4091572058
 20
5.8154274349
 30
0.0
 10
4.4088214719
 20
5.8153597697
 30
0.0
 10
4.4084253534
 20
5.8152918831
 30
0.0
 10
4.4077779787
 20
5.815195364
 30
0.0
 10
4.4068191664
 20
5.8150777026
 30
0.0
 10
4.4054907111
 20
5.8149424903
 30
0.0
 10
4.4039282608
 20
5.8148068412
 30
0.0
 10
4.4021355894
 20
5.8146707806
 30
0.0
 10
4.400117211
 20
5.8145344304
 30
0.0
 10
4.3969894487
 20
5.8143437619
 30
0.0
 10
4.3925558381
 20
5.8141096845
 30
0.0
 10
4.3866377746
 20
5.813838474
 30
0.0
 10
4.3799661258
 20
5.8135665902
 30
0.0
 10
4.3726047807
 20
5.8132941129
 30
0.0
 10
4.3646244546
 20
5.813021242
 30
0.0
 10
4.3561024683
 20
5.8127481026
 30
0.0
 10
4.3471210968
 20
5.8124747286
 30
0.0
 10
4.3377659527
 20
5.8122012062
 30
0.0
 10
4.3248095111
 20
5.8118333445
 30
0.0
 10
4.3149809817
 20
5.811562276
 30
0.0
 10
4.3083763038
 20
5.8113800529
 30
0.0
  0
SPLINE
  5
3CE
100
AcDbEntity
  8
ALL_ASSEMBLY_MEMBERS
100
AcDbSpline
 62
7
  6
CONTINUOUS
 70
0
 71
3
 72
32
 73
28
 74
0
 42
0.0000001
 43
0.0000001
 44
0.0000000001
 40
0.0
 40
0.0
 40
0.0
 40
0.0
 40
0.0007402902
 40
0.0012462321
 40
0.0018719418
 40
0.0035201193
 40
0.0057291261
 40
0.008515039
 40
0.0118840347
 40
0.0158374826
 40
0.0203749812
 40
0.0311959752
 40
0.0443312114
 40
0.0597599226
 40
0.0774478192
 40
0.0973483926
 40
0.1194140932
 40
0.1698427478
 40
0.2282489259
 40
0.2940708571
 40
0.3666816428
 40
0.4453830827
 40
0.529423443
 40
0.6179782763
 40
0.7102089779
 40
0.8052607699
 40
1.0
 40
1.0
 40
1.0
 40
1.0
 10
4.4099383802
 20
5.7981747357
 30
0.0
 10
4.4099382367
 20
5.7981496228
 30
0.0
 10
4.4099149447
 20
5.7981088407
 30
0.0
 10
4.4098667314
 20
5.7980682814
 30
0.0
 10
4.4097863391
 20
5.798017973
 30
0.0
 10
4.4096455529
 20
5.7979591332
 30
0.0
 10
4.4094302567
 20
5.7978921118
 30
0.0
 10
4.4091544585
 20
5.7978248537
 30
0.0
 10
4.408818254
 20
5.7977571083
 30
0.0
 10
4.4084216576
 20
5.797689143
 30
0.0
 10
4.4077736546
 20
5.7975925264
 30
0.0
 10
4.4068141073
 20
5.7974747524
 30
0.0
 10
4.4054848525
 20
5.7973394162
 30
0.0
 10
4.4039216621
 20
5.7972036472
 30
0.0
 10
4.4021282658
 20
5.7970674965
 30
0.0
 10
4.4001091677
 20
5.7969310673
 30
0.0
 10
4.3969805934
 20
5.7967403107
 30
0.0
 10
4.3925460901
 20
5.7965061479
 30
0.0
 10
4.38662729
 20
5.7962349323
 30
0.0
 10
4.3799553229
 20
5.7959630661
 30
0.0
 10
4.3725943789
 20
5.7956907073
 30
0.0
 10
4.3646150265
 20
5.7954179882
 30
0.0
 10
4.3560945088
 20
5.795145068
 30
0.0
 10
4.3471148146
 20
5.7948719512
 30
0.0
 10
4.3377614119
 20
5.7945987231
 30
0.0
 10
4.3248070741
 20
5.794231299
 30
0.0
 10
4.3149800504
 20
5.7939606041
 30
0.0
 10
4.3083763038
 20
5.7937786513
 30
0.0
  0
SPLINE
  5
3CF
100
AcDbEntity
  8
ALL_ASSEMBLY_MEMBERS
100
AcDbSpline
 62
7
  6
CONTINUOUS
 70
0
 71
3
 72
34
 73
30
 74
0
 42
0.0000001
 43
0.0000001
 44
0.0000000001
 40
0.0
 40
0.0
 40
0.0
 40
0.0
 40
0.0635591825
 40
0.1350798598
 40
0.2129130139
 40
0.2953720868
 40
0.3806177707
 40
0.4667568348
 40
0.5518815965
 40
0.6341009222
 40
0.7115911649
 40
0.7480222873
 40
0.7826360337
 40
0.815240323
 40
0.8456583678
 40
0.8737160851
 40
0.8992608938
 40
0.9221545211
 40
0.9422639901
 40
0.9594851526
 40
0.9737254696
 40
0.9849045392
 40
0.9929793276
 40
0.9958467878
 40
0.9969890514
 40
0.9979390641
 40
0.9987010787
 40
0.9992836153
 40
1.0
 40
1.0
 40
1.0
 40
1.0
 10
4.2344237194
 20
5.738734513
 30
0.0
 10
4.2381443568
 20
5.7388840507
 30
0.0
 10
4.2460527293
 20
5.7391757982
 30
0.0
 10
4.2585195754
 20
5.7395866078
 30
0.0
 10
4.272094201
 20
5.7399983022
 30
0.0
 10
4.2864732349
 20
5.7404106121
 30
0.0
 10
4.3013390563
 20
5.7408232419
 30
0.0
 10
4.3163611037
 20
5.7412359809
 30
0.0
 10
4.3312057873
 20
5.7416486063
 30
0.0
 10
4.3455435838
 20
5.7420609431
 30
0.0
 10
4.3570292502
 20
5.7424108561
 30
0.0
 10
4.3657266414
 20
5.7426938726
 30
0.0
 10
4.3717954176
 20
5.7429016738
 30
0.0
 10
4.3775117006
 20
5.7431093838
 30
0.0
 10
4.382843634
 20
5.7433169054
 30
0.0
 10
4.3877616548
 20
5.7435242686
 30
0.0
 10
4.392238443
 20
5.7437313714
 30
0.0
 10
4.3962490489
 20
5.7439380395
 30
0.0
 10
4.3997713367
 20
5.7441441698
 30
0.0
 10
4.402785679
 20
5.7443495435
 30
0.0
 10
4.4052757119
 20
5.7445529287
 30
0.0
 10
4.407227549
 20
5.7447547962
 30
0.0
 10
4.4085123118
 20
5.7449316794
 30
0.0
 10
4.4092064374
 20
5.7450723166
 30
0.0
 10
4.409487583
 20
5.7451469461
 30
0.0
 10
4.4096464705
 20
5.7451978145
 30
0.0
 10
4.4097720932
 20
5.7452499751
 30
0.0
 10
4.4098747897
 20
5.7453058121
 30
0.0
 10
4.409938333
 20
5.7453705243
 30
0.0
 10
4.4099383085
 20
5.745412494
 30
0.0
  0
SPLINE
  5
3D0
100
AcDbEntity
  8
ALL_ASSEMBLY_MEMBERS
100
AcDbSpline
 62
7
  6
CONTINUOUS
 70
0
 71
3
 72
20
 73
16
 74
0
 42
0.0000001
 43
0.0000001
 44
0.0000000001
 40
0.0
 40
0.0
 40
0.0
 40
0.0
 40
0.0077480421
 40
0.0137019707
 40
0.0213680225
 40
0.0421749852
 40
0.0705392775
 40
0.106574957
 40
0.1503035591
 40
0.2017047249
 40
0.2607445122
 40
0.4015694874
 40
0.5723322573
 40
0.7721506618
 40
1.0
 40
1.0
 40
1.0
 40
1.0
 10
4.4099385179
 20
5.7805933545
 30
0.0
 10
4.4099384905
 20
5.7805579053
 30
0.0
 10
4.4098921534
 20
5.7805016254
 30
0.0
 10
4.4098110201
 20
5.7804510631
 30
0.0
 10
4.4096673374
 20
5.7803832984
 30
0.0
 10
4.4094189847
 20
5.7803058758
 30
0.0
 10
4.4090391438
 20
5.7802166925
 30
0.0
 10
4.4085524646
 20
5.78012742
 30
0.0
 10
4.407959085
 20
5.7800372619
 30
0.0
 10
4.4072595009
 20
5.779946831
 30
0.0
 10
4.4061170733
 20
5.7798182076
 30
0.0
 10
4.4044284787
 20
5.7796614722
 30
0.0
 10
4.4020955539
 20
5.7794814223
 30
0.0
 10
4.3993635071
 20
5.7793007025
 30
0.0
 10
4.3974100944
 20
5.7791872098
 30
0.0
 10
4.3963692091
 20
5.7791297617
 30
0.0
  0
SPLINE
  5
3D1
100
AcDbEntity
  8
ALL_ASSEMBLY_MEMBERS
100
AcDbSpline
 62
7
  6
CONTINUOUS
 70
0
 71
3
 72
32
 73
28
 74
0
 42
0.0000001
 43
0.0000001
 44
0.0000000001
 40
0.0
 40
0.0
 40
0.0
 40
0.0
 40
0.0007389515
 40
0.0012438936
 40
0.0018685448
 40
0.0035146233
 40
0.00572171
 40
0.0085058968
 40
0.011873136
 40
0.0158248098
 40
0.0203605529
 40
0.0311782358
 40
0.0443106677
 40
0.0597372257
 40
0.077423108
 40
0.0973218606
 40
0.119386092
 40
0.1698130556
 40
0.2282182195
 40
0.2940398691
 40
0.3666509488
 40
0.445354401
 40
0.5293981363
 40
0.6179574172
 40
0.7101933413
 40
0.8052506063
 40
1.0
 40
1.0
 40
1.0
 40
1.0
 10
4.4099383811
 20
5.7630153179
 30
0.0
 10
4.4099383313
 20
5.7629902499
 30
0.0
 10
4.4099151942
 20
5.7629494542
 30
0.0
 10
4.4098671104
 20
5.7629089143
 30
0.0
 10
4.4097868762
 20
5.7628586188
 30
0.0
 10
4.4096462617
 20
5.7627998046
 30
0.0
 10
4.4094311617
 20
5.7627328099
 30
0.0
 10
4.4091555444
 20
5.7626655774
 30
0.0
 10
4.4088195177
 20
5.7625978482
 30
0.0
 10
4.4084230997
 20
5.7625298963
 30
0.0
 10
4.4077753279
 20
5.7624332903
 30
0.0
 10
4.4068160462
 20
5.762315521
 30
0.0
 10
4.4054870699
 20
5.7621801799
 30
0.0
 10
4.4039241136
 20
5.7620443964
 30
0.0
 10
4.4021309182
 20
5.7619082149
 30
0.0
 10
4.4001119975
 20
5.7617717431
 30
0.0
 10
4.3969835882
 20
5.7615809081
 30
0.0
 10
4.3925492206
 20
5.7613466213
 30
0.0
 10
4.3866305135
 20
5.7610752159
 30
0.0
 10
4.3799585705
 20
5.7608031214
 30
0.0
 10
4.3725975466
 20
5.7605304915
 30
0.0
 10
4.3646179889
 20
5.7602574647
 30
0.0
 10
4.3560971239
 20
5.7599841971
 30
0.0
 10
4.3471169727
 20
5.7597106992
 30
0.0
 10
4.3377630412
 20
5.7594370593
 30
0.0
 10
4.3248079748
 20
5.7590690443
 30
0.0
 10
4.3149804052
 20
5.7587978762
 30
0.0
 10
4.3083763038
 20
5.7586155919
 30
0.0
  0
SPLINE
  5
3D2
100
AcDbEntity
  8
ALL_ASSEMBLY_MEMBERS
100
AcDbSpline
 62
7
  6
CONTINUOUS
 70
0
 71
3
 72
11
 73
7
 74
0
 42
0.0000001
 43
0.0000001
 44
0.0000000001
 40
0.0
 40
0.0
 40
0.0
 40
0.0
 40
0.2353937426
 40
0.4826552582
 40
0.7387626812
 40
1.0
 40
1.0
 40
1.0
 40
1.0
 10
4.2452146181
 20
4.5487465295
 30
0.0
 10
4.2495464213
 20
4.54614536
 30
0.0
 10
4.2588831089
 20
4.541544551
 30
0.0
 10
4.2740159665
 20
4.5366473257
 30
0.0
 10
4.2902090922
 20
4.5337095182
 30
0.0
 10
4.301333263
 20
4.5331269986
 30
0.0
 10
4.3069405031
 20
4.5331830249
 30
0.0
  0
SPLINE
  5
3D3
100
AcDbEntity
  8
ALL_ASSEMBLY_MEMBERS
100
AcDbSpline
 62
7
  6
CONTINUOUS
 70
0
 71
3
 72
11
 73
7
 74
0
 42
0.0000001
 43
0.0000001
 44
0.0000000001
 40
0.0
 40
0.0
 40
0.0
 40
0.0
 40
0.2574930876
 40
0.5120934185
 40
0.7605162681
 40
1.0
 40
1.0
 40
1.0
 40
1.0
 10
4.308419101
 20
4.5332059069
 30
0.0
 10
4.3137151466
 20
4.5333169043
 30
0.0
 10
4.3242453974
 20
4.5341576908
 30
0.0
 10
4.3396190805
 20
4.5372563244
 30
0.0
 10
4.3541421767
 20
4.5421155848
 30
0.0
 10
4.3631905561
 20
4.546548148
 30
0.0
 10
4.3674426292
 20
4.5490366022
 30
0.0
  0
LINE
  5
3D4
100
AcDbEntity
  8
ALL_ASSEMBLY_MEMBERS
100
AcDbLine
 62
7
  6
CONTINUOUS
 10
4.4033194532
 20
5.7710792577
 11
4.4025901156
 21
5.7708445235
  0
SPLINE
  5
3D5
100
AcDbEntity
  8
ALL_ASSEMBLY_MEMBERS
100
AcDbSpline
 62
7
  6
CONTINUOUS
 70
0
 71
3
 72
42
 73
38
 74
0
 42
0.0000001
 43
0.0000001
 44
0.0000000001
 40
0.0
 40
0.0
 40
0.0
 40
0.0
 40
0.0037678524
 40
0.008612295
 40
0.0215025483
 40
0.0385701764
 40
0.0596817219
 40
0.0846458226
 40
0.1132507155
 40
0.1452411411
 40
0.1803362458
 40
0.2585796942
 40
0.3452266277
 40
0.4372254975
 40
0.5313367246
 40
0.6242479473
 40
0.669228109
 40
0.7126909066
 40
0.7542573352
 40
0.7935565944
 40
0.8302480319
 40
0.8640049831
 40
0.894533302
 40
0.9215660282
 40
0.9448635294
 40
0.9642304447
 40
0.9723830011
 40
0.9794935214
 40
0.9855496719
 40
0.9905402039
 40
0.9926330371
 40
0.9944567669
 40
0.9960124018
 40
0.9973021122
 40
0.9983300615
 40
0.9991050507
 40
1.0
 40
1.0
 40
1.0
 40
1.0
 10
4.4025901156
 20
5.7708445235
 30
0.0
 10
4.4023574217
 20
5.770792564
 30
0.0
 10
4.401820974
 20
5.7706946394
 30
0.0
 10
4.4004739571
 20
5.7705017422
 30
0.0
 10
4.3982828067
 20
5.7702745548
 30
0.0
 10
4.395061664
 20
5.7700146366
 30
0.0
 10
4.3910744448
 20
5.7697532957
 30
0.0
 10
4.3863560819
 20
5.7694899008
 30
0.0
 10
4.3809484048
 20
5.7692258327
 30
0.0
 10
4.3748990224
 20
5.7689610536
 30
0.0
 10
4.365710111
 20
5.7685941203
 30
0.0
 10
4.3530632228
 20
5.7681451267
 30
0.0
 10
4.3368160478
 20
5.7676216014
 30
0.0
 10
4.3195643253
 20
5.7670971119
 30
0.0
 10
4.3019160469
 20
5.7665722135
 30
0.0
 10
4.2872418874
 20
5.7661304468
 30
0.0
 10
4.2757716348
 20
5.7657722631
 30
0.0
 10
4.2675491088
 20
5.7655065956
 30
0.0
 10
4.2596862507
 20
5.7652411206
 30
0.0
 10
4.2522521258
 20
5.7649757843
 30
0.0
 10
4.2453124961
 20
5.7647107544
 30
0.0
 10
4.2389282992
 20
5.7644460553
 30
0.0
 10
4.2331558452
 20
5.764181839
 30
0.0
 10
4.2280459655
 20
5.7639184799
 30
0.0
 10
4.2236433989
 20
5.7636559816
 30
0.0
 10
4.2204357171
 20
5.7634280154
 30
0.0
 10
4.2182523567
 20
5.7632407322
 30
0.0
 10
4.2169097214
 20
5.7631088325
 30
0.0
 10
4.2157682326
 20
5.7629774232
 30
0.0
 10
4.2149445586
 20
5.7628630921
 30
0.0
 10
4.2143887032
 20
5.7627692513
 30
0.0
 10
4.2140488445
 20
5.7627033008
 30
0.0
 10
4.2137604235
 20
5.7626372703
 30
0.0
 10
4.2135250003
 20
5.7625724583
 30
0.0
 10
4.2133377957
 20
5.7625057221
 30
0.0
 10
4.2131901305
 20
5.762436606
 30
0.0
 10
4.2130896988
 20
5.7623544202
 30
0.0
 10
4.2130895502
 20
5.7622977892
 30
0.0
  0
SPLINE
  5
3D6
100
AcDbEntity
  8
ALL_ASSEMBLY_MEMBERS
100
AcDbSpline
 62
7
  6
CONTINUOUS
 70
0
 71
3
 72
9
 73
5
 74
0
 42
0.0000001
 43
0.0000001
 44
0.0000000001
 40
0.0
 40
0.0
 40
0.0
 40
0.0
 40
0.5104242121
 40
1.0
 40
1.0
 40
1.0
 40
1.0
 10
4.2203833985
 20
4.5470812871
 30
0.0
 10
4.2182821239
 20
4.5495746518
 30
0.0
 10
4.2145084036
 20
4.5547629001
 30
0.0
 10
4.2116061597
 20
4.5604919895
 30
0.0
 10
4.2104437269
 20
4.5633954629
 30
0.0
  0
SPLINE
  5
3D7
100
AcDbEntity
  8
ALL_ASSEMBLY_MEMBERS
100
AcDbSpline
 62
7
  6
CONTINUOUS
 70
0
 71
3
 72
9
 73
5
 74
0
 42
0.0000001
 43
0.0000001
 44
0.0000000001
 40
0.0
 40
0.0
 40
0.0
 40
0.0
 40
0.5042607086
 40
1.0
 40
1.0
 40
1.0
 40
1.0
 10
4.2104437269
 20
4.5633954629
 30
0.0
 10
4.2095956309
 20
4.5655137994
 30
0.0
 10
4.2081810834
 20
4.5698276457
 30
0.0
 10
4.2073630676
 20
4.5742945792
 30
0.0
 10
4.2071135261
 20
4.5765238977
 30
0.0
  0
SPLINE
  5
3D8
100
AcDbEntity
  8
ALL_ASSEMBLY_MEMBERS
100
AcDbSpline
 62
7
  6
CONTINUOUS
 70
0
 71
3
 72
32
 73
28
 74
0
 42
0.0000001
 43
0.0000001
 44
0.0000000001
 40
0.0
 40
0.0
 40
0.0
 40
0.0
 40
0.0007560167
 40
0.0012659053
 40
0.0018938946
 40
0.0035437036
 40
0.0057525687
 40
0.0085372785
 40
0.0119037554
 40
0.0158537797
 40
0.0203872894
 40
0.0311996785
 40
0.0443270326
 40
0.0597490169
 40
0.0774285887
 40
0.0973202113
 40
0.119377667
 40
0.1697921516
 40
0.2281829158
 40
0.2939974132
 40
0.3666041777
 40
0.4453118445
 40
0.5293617259
 40
0.6179285499
 40
0.7101733528
 40
0.8052401019
 40
1.0
 40
1.0
 40
1.0
 40
1.0
 10
4.206814265
 20
5.8565636355
 30
0.0
 10
4.2068140816
 20
5.8565892849
 30
0.0
 10
4.2068365035
 20
5.8566312499
 30
0.0
 10
4.2068844774
 20
5.8566733605
 30
0.0
 10
4.2069642033
 20
5.856725206
 30
0.0
 10
4.2071044041
 20
5.8567859542
 30
0.0
 10
4.2073190761
 20
5.8568550669
 30
0.0
 10
4.2075942676
 20
5.8569244331
 30
0.0
 10
4.2079298366
 20
5.856994301
 30
0.0
 10
4.2083257761
 20
5.8570643934
 30
0.0
 10
4.2089728581
 20
5.8571640344
 30
0.0
 10
4.2099313791
 20
5.8572854975
 30
0.0
 10
4.2112595799
 20
5.8574250603
 30
0.0
 10
4.2128218208
 20
5.8575650545
 30
0.0
 10
4.2146143038
 20
5.8577054659
 30
0.0
 10
4.2166325019
 20
5.8578461599
 30
0.0
 10
4.2197600432
 20
5.8580428803
 30
0.0
 10
4.2241934424
 20
5.8582843416
 30
0.0
 10
4.2301113496
 20
5.8585640594
 30
0.0
 10
4.236782909
 20
5.8588444108
 30
0.0
 10
4.2441442967
 20
5.8591253332
 30
0.0
 10
4.2521247721
 20
5.8594066066
 30
0.0
 10
4.2606470426
 20
5.8596881175
 30
0.0
 10
4.2696288295
 20
5.8599698236
 30
0.0
 10
4.2789845675
 20
5.8602516446
 30
0.0
 10
4.2919419181
 20
5.8606306126
 30
0.0
 10
4.3017711705
 20
5.8609098065
 30
0.0
 10
4.3083763038
 20
5.8610974682
 30
0.0
  0
SPLINE
  5
3D9
100
AcDbEntity
  8
ALL_ASSEMBLY_MEMBERS
100
AcDbSpline
 62
7
  6
CONTINUOUS
 70
0
 71
3
 72
15
 73
11
 74
0
 42
0.0000001
 43
0.0000001
 44
0.0000000001
 40
0.0
 40
0.0
 40
0.0
 40
0.0
 40
0.136474159
 40
0.2715809385
 40
0.4041200627
 40
0.5331293407
 40
0.6577293066
 40
0.7772589735
 40
0.8913858841
 40
1.0
 40
1.0
 40
1.0
 40
1.0
 10
4.3083763038
 20
4.5132460822
 30
0.0
 10
4.3039544571
 20
4.5131576325
 30
0.0
 10
4.2951414447
 20
4.5133879733
 30
0.0
 10
4.2821195881
 20
4.5149465223
 30
0.0
 10
4.2695401817
 20
4.5176894464
 30
0.0
 10
4.2576182561
 20
4.5215642976
 30
0.0
 10
4.2465548617
 20
4.526504608
 30
0.0
 10
4.2365349333
 20
4.5324240266
 30
0.0
 10
4.2277328803
 20
4.5392212702
 30
0.0
 10
4.2226510116
 20
4.5443891872
 30
0.0
 10
4.2203833985
 20
4.5470812871
 30
0.0
  0
SPLINE
  5
3DA
100
AcDbEntity
  8
ALL_ASSEMBLY_MEMBERS
100
AcDbSpline
 62
7
  6
CONTINUOUS
 70
0
 71
3
 72
32
 73
28
 74
0
 42
0.0000001
 43
0.0000001
 44
0.0000000001
 40
0.0
 40
0.0
 40
0.0
 40
0.0
 40
0.0007624001
 40
0.0012773525
 40
0.0019107835
 40
0.0035714911
 40
0.0057903404
 40
0.0085841868
 40
0.0119601687
 40
0.0159199758
 40
0.0204632911
 40
0.0312943509
 40
0.0444374462
 40
0.059871677
 40
0.0775640322
 40
0.0974681174
 40
0.1195361703
 40
0.1699658672
 40
0.2283703189
 40
0.2941877406
 40
0.3667920483
 40
0.4454843203
 40
0.5295133458
 40
0.6180534472
 40
0.7102657862
 40
0.8052977248
 40
1.0
 40
1.0
 40
1.0
 40
1.0
 10
4.2068142501
 20
5.8384626131
 30
0.0
 10
4.2068145603
 20
5.8384884775
 30
0.0
 10
4.206837816
 20
5.8385303506
 30
0.0
 10
4.2068864735
 20
5.8385725156
 30
0.0
 10
4.2069670403
 20
5.8386243968
 30
0.0
 10
4.2071081455
 20
5.8386852432
 30
0.0
 10
4.207323851
 20
5.8387544758
 30
0.0
 10
4.2076000056
 20
5.8388239617
 30
0.0
 10
4.207936539
 20
5.8388939106
 30
0.0
 10
4.208333461
 20
5.8389640787
 30
0.0
 10
4.2089818349
 20
5.8390637962
 30
0.0
 10
4.2099418437
 20
5.8391853359
 30
0.0
 10
4.2112716092
 20
5.8393249706
 30
0.0
 10
4.2128352109
 20
5.8394650227
 30
0.0
 10
4.2146289448
 20
5.839605422
 30
0.0
 10
4.2166483357
 20
5.8397460703
 30
0.0
 10
4.2197771406
 20
5.8399426648
 30
0.0
 10
4.2242118306
 20
5.8401838905
 30
0.0
 10
4.2301307565
 20
5.8404631102
 30
0.0
 10
4.2368027268
 20
5.8407428231
 30
0.0
 10
4.2441635355
 20
5.8410228451
 30
0.0
 10
4.2521426194
 20
5.8413030362
 30
0.0
 10
4.2606626729
 20
5.8415832126
 30
0.0
 10
4.2696416615
 20
5.8418633637
 30
0.0
 10
4.2789941275
 20
5.8421433887
 30
0.0
 10
4.291947131
 20
5.8425196215
 30
0.0
 10
4.3017731715
 20
5.8427964251
 30
0.0
 10
4.3083763038
 20
5.842982304
 30
0.0
  0
SPLINE
  5
3DB
100
AcDbEntity
  8
ALL_ASSEMBLY_MEMBERS
100
AcDbSpline
 62
7
  6
CONTINUOUS
 70
0
 71
3
 72
14
 73
10
 74
0
 42
0.0000001
 43
0.0000001
 44
0.0000000001
 40
0.0
 40
0.0
 40
0.0
 40
0.0
 40
0.1357862428
 40
0.270372625
 40
0.531059146
 40
0.6557777369
 40
0.7757228919
 40
0.8905014131
 40
1.0
 40
1.0
 40
1.0
 40
1.0
 10
4.3083763038
 20
4.5260885312
 30
0.0
 10
4.304110233
 20
4.5260029632
 30
0.0
 10
4.2956019287
 20
4.5262121385
 30
0.0
 10
4.2790088216
 20
4.5281120252
 30
0.0
 10
4.2630586676
 20
4.532184296
 30
0.0
 10
4.2484264348
 20
4.5384154273
 30
0.0
 10
4.2385520262
 20
4.5439512945
 30
0.0
 10
4.2297796842
 20
4.5503224774
 30
0.0
 10
4.2246364148
 20
4.5551781173
 30
0.0
 10
4.2223109837
 20
4.5577142463
 30
0.0
  0
SPLINE
  5
3DC
100
AcDbEntity
  8
ALL_ASSEMBLY_MEMBERS
100
AcDbSpline
 62
7
  6
CONTINUOUS
 70
0
 71
3
 72
10
 73
6
 74
0
 42
0.0000001
 43
0.0000001
 44
0.0000000001
 40
0.0
 40
0.0
 40
0.0
 40
0.0
 40
0.5113747096
 40
0.7582175052
 40
1.0
 40
1.0
 40
1.0
 40
1.0
 10
4.2207077641
 20
4.5595241212
 30
0.0
 10
4.2183477673
 20
4.5622834483
 30
0.0
 10
4.2151623802
 20
4.5666669335
 30
0.0
 10
4.211799987
 20
4.5729285635
 30
0.0
 10
4.2104497147
 20
4.5761316195
 30
0.0
 10
4.2098610536
 20
4.5777442631
 30
0.0
  0
SPLINE
  5
3DD
100
AcDbEntity
  8
ALL_ASSEMBLY_MEMBERS
100
AcDbSpline
 62
7
  6
CONTINUOUS
 70
0
 71
3
 72
32
 73
28
 74
0
 42
0.0000001
 43
0.0000001
 44
0.0000000001
 40
0.0
 40
0.0
 40
0.0
 40
0.0
 40
0.0007541045
 40
0.0012629438
 40
0.0018899128
 40
0.0035378319
 40
0.0057450303
 40
0.0085281687
 40
0.0118930965
 40
0.0158416106
 40
0.02037367
 40
0.0311834358
 40
0.0443087092
 40
0.0597291308
 40
0.0774072684
 40
0.0972976685
 40
0.1193542185
 40
0.1697678488
 40
0.2281583775
 40
0.2939731439
 40
0.3665806468
 40
0.4452899178
 40
0.5293420535
 40
0.6179117937
 40
0.7101601776
 40
0.8052312607
 40
1.0
 40
1.0
 40
1.0
 40
1.0
 10
4.2068142693
 20
5.8203024211
 30
0.0
 10
4.2068140247
 20
5.820328005
 30
0.0
 10
4.2068363592
 20
5.8203699189
 30
0.0
 10
4.206884237
 20
5.8204119328
 30
0.0
 10
4.2069638635
 20
5.8204636846
 30
0.0
 10
4.2071039491
 20
5.8205243065
 30
0.0
 10
4.207318482
 20
5.8205932762
 30
0.0
 10
4.2075935399
 20
5.8206625003
 30
0.0
 10
4.2079289753
 20
5.8207322276
 30
0.0
 10
4.2083247819
 20
5.8208021788
 30
0.0
 10
4.2089716984
 20
5.8209016225
 30
0.0
 10
4.2099300334
 20
5.8210228436
 30
0.0
 10
4.2112580416
 20
5.8211621259
 30
0.0
 10
4.2128201251
 20
5.8213018389
 30
0.0
 10
4.2146124754
 20
5.8214419729
 30
0.0
 10
4.2166305594
 20
5.8215823898
 30
0.0
 10
4.2197580046
 20
5.8217787263
 30
0.0
 10
4.2241913346
 20
5.8220197179
 30
0.0
 10
4.2301092035
 20
5.8222989012
 30
0.0
 10
4.236780771
 20
5.8225787269
 30
0.0
 10
4.2441422227
 20
5.8228591376
 30
0.0
 10
4.2521228238
 20
5.8231399146
 30
0.0
 10
4.2606452889
 20
5.8234209499
 30
0.0
 10
4.2696273333
 20
5.8237022018
 30
0.0
 10
4.2789833957
 20
5.8239835937
 30
0.0
 10
4.2919412532
 20
5.8243620217
 30
0.0
 10
4.3017709039
 20
5.8246408613
 30
0.0
 10
4.3083763038
 20
5.8248283072
 30
0.0
  0
SPLINE
  5
3DE
100
AcDbEntity
  8
ALL_ASSEMBLY_MEMBERS
100
AcDbSpline
 62
7
  6
CONTINUOUS
 70
0
 71
3
 72
26
 73
22
 74
0
 42
0.0000001
 43
0.0000001
 44
0.0000000001
 40
0.0
 40
0.0
 40
0.0
 40
0.0
 40
0.1892425324
 40
0.3716778587
 40
0.4582389565
 40
0.540667143
 40
0.6182049555
 40
0.6901486681
 40
0.7558541579
 40
0.8147242596
 40
0.8662376683
 40
0.9099160533
 40
0.9286997116
 40
0.9453881502
 40
0.9599399523
 40
0.9723279186
 40
0.9825335443
 40
0.9905422876
 40
0.9963497554
 40
0.9984378506
 40
1.0
 40
1.0
 40
1.0
 40
1.0
 10
4.3083763038
 20
5.8641437265
 30
0.0
 10
4.3019704434
 20
5.8639671035
 30
0.0
 10
4.2893891482
 20
5.8636201726
 30
0.0
 10
4.2738781842
 20
5.8631770174
 30
0.0
 10
4.2619833814
 20
5.8628170455
 30
0.0
 10
4.2536394737
 20
5.8625519277
 30
0.0
 10
4.2457908098
 20
5.8622869843
 30
0.0
 10
4.2385087587
 20
5.8620222911
 30
0.0
 10
4.2318592859
 20
5.861758004
 30
0.0
 10
4.2259022135
 20
5.8614942531
 30
0.0
 10
4.2206918275
 20
5.8612313761
 30
0.0
 10
4.2168389331
 20
5.8610035183
 30
0.0
 10
4.2141651154
 20
5.8608173717
 30
0.0
 10
4.2124763108
 20
5.8606851317
 30
0.0
 10
4.2110047746
 20
5.8605532619
 30
0.0
 10
4.2097537918
 20
5.8604218191
 30
0.0
 10
4.2087254857
 20
5.8602915859
 30
0.0
 10
4.2079224661
 20
5.8601622615
 30
0.0
 10
4.2073949085
 20
5.8600490142
 30
0.0
 10
4.2070897356
 20
5.8599515086
 30
0.0
 10
4.2069758292
 20
5.8599019625
 30
0.0
 10
4.2069300436
 20
5.8598754677
 30
0.0
  0
SPLINE
  5
3DF
100
AcDbEntity
  8
ALL_ASSEMBLY_MEMBERS
100
AcDbSpline
 62
7
  6
CONTINUOUS
 70
0
 71
3
 72
32
 73
28
 74
0
 42
0.0000001
 43
0.0000001
 44
0.0000000001
 40
0.0
 40
0.0
 40
0.0
 40
0.0
 40
0.0007610356
 40
0.0012754804
 40
0.0019084993
 40
0.003568584
 40
0.00578698
 40
0.0085804836
 40
0.0119561943
 40
0.0159157813
 40
0.0204589167
 40
0.0312897147
 40
0.0444326541
 40
0.0598668236
 40
0.077559208
 40
0.0974633857
 40
0.119531566
 40
0.1699615673
 40
0.228366439
 40
0.2941842549
 40
0.3667889483
 40
0.445481469
 40
0.5295106751
 40
0.6180511623
 40
0.7102641729
 40
0.805296794
 40
1.0
 40
1.0
 40
1.0
 40
1.0
 10
4.2068142463
 20
5.8021819791
 30
0.0
 10
4.206814552
 20
5.8022077973
 30
0.0
 10
4.2068378216
 20
5.8022495982
 30
0.0
 10
4.2068864587
 20
5.8022916622
 30
0.0
 10
4.2069670254
 20
5.8023434484
 30
0.0
 10
4.2071081221
 20
5.8024041796
 30
0.0
 10
4.2073238152
 20
5.802473293
 30
0.0
 10
4.2075999601
 20
5.802542667
 30
0.0
 10
4.2079364858
 20
5.8026125129
 30
0.0
 10
4.2083334014
 20
5.8026825865
 30
0.0
 10
4.2089817714
 20
5.802782183
 30
0.0
 10
4.209941775
 20
5.8029036005
 30
0.0
 10
4.2112715354
 20
5.8030431307
 30
0.0
 10
4.2128351372
 20
5.803183116
 30
0.0
 10
4.2146288761
 20
5.8033234874
 30
0.0
 10
4.2166482754
 20
5.8034641483
 30
0.0
 10
4.2197770946
 20
5.803660819
 30
0.0
 10
4.2242118035
 20
5.8039022584
 30
0.0
 10
4.2301307499
 20
5.8041819026
 30
0.0
 10
4.2368027378
 20
5.804462231
 30
0.0
 10
4.2441635536
 20
5.8047430681
 30
0.0
 10
4.2521426326
 20
5.8050242846
 30
0.0
 10
4.2606626765
 20
5.805305706
 30
0.0
 10
4.269641665
 20
5.8055873317
 30
0.0
 10
4.2789941427
 20
5.8058690706
 30
0.0
 10
4.2919471527
 20
5.8062479425
 30
0.0
 10
4.3017731863
 20
5.806527076
 30
0.0
 10
4.3083763038
 20
5.8067147019
 30
0.0
  0
SPLINE
  5
3E0
100
AcDbEntity
  8
ALL_ASSEMBLY_MEMBERS
100
AcDbSpline
 62
7
  6
CONTINUOUS
 70
0
 71
3
 72
19
 73
15
 74
0
 42
0.0000001
 43
0.0000001
 44
0.0000000001
 40
0.0
 40
0.0
 40
0.0
 40
0.0
 40
0.1420505436
 40
0.2818872143
 40
0.4175981277
 40
0.5477126077
 40
0.6103351943
 40
0.6711846084
 40
0.7302134133
 40
0.7874277335
 40
0.8428774558
 40
0.896669896
 40
0.9489717334
 40
1.0
 40
1.0
 40
1.0
 40
1.0
 10
4.3083763038
 20
4.5388984679
 30
0.0
 10
4.3027782359
 20
4.5387859802
 30
0.0
 10
4.2916451906
 20
4.5392117882
 30
0.0
 10
4.2753477421
 20
4.5417823483
 30
0.0
 10
4.2599395496
 20
4.546210171
 30
0.0
 10
4.2480320851
 20
4.5514075059
 30
0.0
 10
4.2393595941
 20
4.5563937967
 30
0.0
 10
4.2334089764
 20
4.560449495
 30
0.0
 10
4.2279734042
 20
4.5648420342
 30
0.0
 10
4.223088576
 20
4.569538797
 30
0.0
 10
4.21878897
 20
4.5745078304
 30
0.0
 10
4.2151061119
 20
4.5797156096
 30
0.0
 10
4.2120640607
 20
4.5851229416
 30
0.0
 10
4.2104625726
 20
4.5888788023
 30
0.0
 10
4.2097812938
 20
4.5907712879
 30
0.0
  0
SPLINE
  5
3E1
100
AcDbEntity
  8
ALL_ASSEMBLY_MEMBERS
100
AcDbSpline
 62
7
  6
CONTINUOUS
 70
0
 71
3
 72
9
 73
5
 74
0
 42
0.0000001
 43
0.0000001
 44
0.0000000001
 40
0.0
 40
0.0
 40
0.0
 40
0.0
 40
0.2523322191
 40
1.0
 40
1.0
 40
1.0
 40
1.0
 10
4.2095038996
 20
4.5915616077
 30
0.0
 10
4.2092562724
 20
4.5922856317
 30
0.0
 10
4.2083380881
 20
4.5951761019
 30
0.0
 10
4.2076783359
 20
4.5981492689
 30
0.0
 10
4.2073435656
 20
4.6003917263
 30
0.0
  0
SPLINE
  5
3E2
100
AcDbEntity
  8
ALL_ASSEMBLY_MEMBERS
100
AcDbSpline
 62
7
  6
CONTINUOUS
 70
0
 71
3
 72
32
 73
28
 74
0
 42
0.0000001
 43
0.0000001
 44
0.0000000001
 40
0.0
 40
0.0
 40
0.0
 40
0.0
 40
0.0007575739
 40
0.0012674537
 40
0.0018951416
 40
0.0035438916
 40
0.0057514884
 40
0.0085347293
 40
0.0118995417
 40
0.0158477968
 40
0.0203795063
 40
0.0311884506
 40
0.0443129464
 40
0.0597326995
 40
0.0774101384
 40
0.0972998928
 40
0.1193559335
 40
0.1697691474
 40
0.228159518
 40
0.2939736573
 40
0.3665804572
 40
0.4452890499
 40
0.5293409772
 40
0.6179107402
 40
0.710159203
 40
0.8052303456
 40
1.0
 40
1.0
 40
1.0
 40
1.0
 10
4.2068142691
 20
5.7840729049
 30
0.0
 10
4.2068139837
 20
5.7840986066
 30
0.0
 10
4.2068361859
 20
5.7841407479
 30
0.0
 10
4.2068840467
 20
5.7841830724
 30
0.0
 10
4.20696358
 20
5.7842351268
 30
0.0
 10
4.2071035895
 20
5.7842961251
 30
0.0
 10
4.2073180429
 20
5.7843655029
 30
0.0
 10
4.2075930194
 20
5.784435135
 30
0.0
 10
4.2079283687
 20
5.7845052653
 30
0.0
 10
4.2083240882
 20
5.7845756156
 30
0.0
 10
4.2089708827
 20
5.7846756183
 30
0.0
 10
4.2099290873
 20
5.7847975054
 30
0.0
 10
4.211256967
 20
5.784937528
 30
0.0
 10
4.2128189443
 20
5.7850779577
 30
0.0
 10
4.214611207
 20
5.7852187853
 30
0.0
 10
4.216629221
 20
5.7853598686
 30
0.0
 10
4.2197566178
 20
5.785557096
 30
0.0
 10
4.2241899435
 20
5.7857990906
 30
0.0
 10
4.2301078385
 20
5.7860792986
 30
0.0
 10
4.2367794485
 20
5.7863600018
 30
0.0
 10
4.2441409478
 20
5.786641126
 30
0.0
 10
4.2521216308
 20
5.7869224452
 30
0.0
 10
4.2606442201
 20
5.7872038369
 30
0.0
 10
4.2696264301
 20
5.7874852489
 30
0.0
 10
4.278982681
 20
5.7877665908
 30
0.0
 10
4.2919408362
 20
5.788144653
 30
0.0
 10
4.3017707282
 20
5.788422873
 30
0.0
 10
4.3083763038
 20
5.7886097339
 30
0.0
  0
SPLINE
  5
3E3
100
AcDbEntity
  8
ALL_ASSEMBLY_MEMBERS
100
AcDbSpline
 62
9
  6
CONTINUOUS
 70
0
 71
3
 72
21
 73
17
 74
0
 42
0.0000001
 43
0.0000001
 44
0.0000000001
 40
0.0
 40
0.0
 40
0.0
 40
0.0
 40
0.0726131494
 40
0.1449649683
 40
0.2871118953
 40
0.3564059284
 40
0.4241377628
 40
0.5539380128
 40
0.615862808
 40
0.675701978
 40
0.7335069738
 40
0.7894173001
 40
0.8436654523
 40
0.8965697715
 40
0.9485293739
 40
1.0
 40
1.0
 40
1.0
 40
1.0
 10
4.3083763038
 20
4.7505468407
 30
0.0
 10
4.3050581331
 20
4.7505468407
 30
0.0
 10
4.298430928
 20
4.7507777467
 30
0.0
 10
4.2853750608
 20
4.7521416517
 30
0.0
 10
4.2726362312
 20
4.7548466435
 30
0.0
 10
4.2605242897
 20
4.7588879413
 30
0.0
 10
4.2492849391
 20
4.7636370186
 30
0.0
 10
4.2389374205
 20
4.7695705592
 30
0.0
 10
4.2298506276
 20
4.7766360834
 30
0.0
 10
4.2238910877
 20
4.7822982387
 30
0.0
 10
4.218740791
 20
4.788350011
 30
0.0
 10
4.2144523089
 20
4.7947368148
 30
0.0
 10
4.2110665477
 20
4.8013962685
 30
0.0
 10
4.2086229649
 20
4.8082667356
 30
0.0
 10
4.2071435773
 20
4.8152773721
 30
0.0
 10
4.2068143171
 20
4.8200103429
 30
0.0
 10
4.2068143171
 20
4.8223623732
 30
0.0
  0
SPLINE
  5
3E4
100
AcDbEntity
  8
ALL_ASSEMBLY_MEMBERS
100
AcDbSpline
 62
7
  6
CONTINUOUS
 70
0
 71
3
 72
32
 73
28
 74
0
 42
0.0000001
 43
0.0000001
 44
0.0000000001
 40
0.0
 40
0.0
 40
0.0
 40
0.0
 40
0.0007599288
 40
0.0012739873
 40
0.0019067043
 40
0.0035663568
 40
0.0057844609
 40
0.0085777623
 40
0.0119533208
 40
0.0159127853
 40
0.0204558191
 40
0.0312864574
 40
0.0444292767
 40
0.0598633351
 40
0.0775554782
 40
0.0974593564
 40
0.1195272973
 40
0.1699571734
 40
0.2283618476
 40
0.2941799195
 40
0.3667850879
 40
0.4454789612
 40
0.5295099559
 40
0.6180513797
 40
0.7102640613
 40
0.8052962279
 40
1.0
 40
1.0
 40
1.0
 40
1.0
 10
4.2068142607
 20
5.7659239043
 30
0.0
 10
4.2068145713
 20
5.7659496847
 30
0.0
 10
4.2068378663
 20
5.7659914189
 30
0.0
 10
4.2068864976
 20
5.7660333902
 30
0.0
 10
4.2069670782
 20
5.7660850844
 30
0.0
 10
4.2071081828
 20
5.7661456988
 30
0.0
 10
4.2073238827
 20
5.7662146821
 30
0.0
 10
4.2076000351
 20
5.7662839237
 30
0.0
 10
4.2079365691
 20
5.7663536366
 30
0.0
 10
4.2083334919
 20
5.7664235756
 30
0.0
 10
4.2089818729
 20
5.76652298
 30
0.0
 10
4.2099418852
 20
5.7666441604
 30
0.0
 10
4.2112716504
 20
5.7667834151
 30
0.0
 10
4.2128352485
 20
5.7669231207
 30
0.0
 10
4.2146289729
 20
5.7670632107
 30
0.0
 10
4.2166483494
 20
5.7672035877
 30
0.0
 10
4.2197771463
 20
5.7673998595
 30
0.0
 10
4.2242118277
 20
5.767640804
 30
0.0
 10
4.230130752
 20
5.7679198775
 30
0.0
 10
4.2368027295
 20
5.7681996307
 30
0.0
 10
4.2441635797
 20
5.7684798975
 30
0.0
 10
4.2521427386
 20
5.7687605468
 30
0.0
 10
4.2606628722
 20
5.7690414079
 30
0.0
 10
4.2696418886
 20
5.7693224807
 30
0.0
 10
4.2789943142
 20
5.7696036751
 30
0.0
 10
4.2919472357
 20
5.7699818326
 30
0.0
 10
4.30177321
 20
5.7702604651
 30
0.0
 10
4.3083763038
 20
5.7704477685
 30
0.0
  0
SPLINE
  5
3E5
100
AcDbEntity
  8
ALL_ASSEMBLY_MEMBERS
100
AcDbSpline
 62
7
  6
CONTINUOUS
 70
0
 71
3
 72
26
 73
22
 74
0
 42
0.0000001
 43
0.0000001
 44
0.0000000001
 40
0.0
 40
0.0
 40
0.0
 40
0.0
 40
0.1892522526
 40
0.3717105993
 40
0.4582816632
 40
0.5407176934
 40
0.6182626816
 40
0.6902048771
 40
0.7559070374
 40
0.8147686924
 40
0.8662742874
 40
0.9099456212
 40
0.9287249564
 40
0.94541034
 40
0.9599604909
 40
0.972344667
 40
0.9825453494
 40
0.9905495736
 40
0.9963542762
 40
0.9984405295
 40
1.0
 40
1.0
 40
1.0
 40
1.0
 10
4.3083763038
 20
5.8465408859
 30
0.0
 10
4.3019701019
 20
5.8463643552
 30
0.0
 10
4.2893876724
 20
5.8460176488
 30
0.0
 10
4.2738752266
 20
5.8455748995
 30
0.0
 10
4.2619790107
 20
5.8452153211
 30
0.0
 10
4.253634234
 20
5.844950513
 30
0.0
 10
4.2457850883
 20
5.8446859407
 30
0.0
 10
4.2385029337
 20
5.8444216223
 30
0.0
 10
4.2318538837
 20
5.8441577818
 30
0.0
 10
4.2258974464
 20
5.8438944809
 30
0.0
 10
4.2206878188
 20
5.8436320877
 30
0.0
 10
4.2168355437
 20
5.8434046716
 30
0.0
 10
4.2141621877
 20
5.8432188704
 30
0.0
 10
4.2124736679
 20
5.8430868807
 30
0.0
 10
4.2110023935
 20
5.8429552887
 30
0.0
 10
4.2097517361
 20
5.8428240981
 30
0.0
 10
4.2087238483
 20
5.8426941197
 30
0.0
 10
4.2079212109
 20
5.8425650278
 30
0.0
 10
4.207393915
 20
5.8424520375
 30
0.0
 10
4.2070889368
 20
5.8423547366
 30
0.0
 10
4.2069751551
 20
5.8423052805
 30
0.0
 10
4.2069294514
 20
5.8422788252
 30
0.0
  0
SPLINE
  5
3E6
100
AcDbEntity
  8
ALL_ASSEMBLY_MEMBERS
100
AcDbSpline
 62
7
  6
CONTINUOUS
 70
0
 71
3
 72
32
 73
28
 74
0
 42
0.0000001
 43
0.0000001
 44
0.0000000001
 40
0.0
 40
0.0
 40
0.0
 40
0.0
 40
0.0007551001
 40
0.0012641222
 40
0.0018911457
 40
0.0035389548
 40
0.005745914
 40
0.0085287131
 40
0.0118932209
 40
0.0158412682
 40
0.0203728401
 40
0.0311816506
 40
0.0443061149
 40
0.0597258981
 40
0.0774034419
 40
0.0972933417
 40
0.1193495366
 40
0.1697630087
 40
0.2281536977
 40
0.293968402
 40
0.3665758837
 40
0.4452852264
 40
0.5293378271
 40
0.6179082388
 40
0.7101573621
 40
0.8052291879
 40
1.0
 40
1.0
 40
1.0
 40
1.0
 10
4.2068142698
 20
5.7477970935
 30
0.0
 10
4.2068139923
 20
5.747822711
 30
0.0
 10
4.2068362484
 20
5.7478647093
 30
0.0
 10
4.2068840944
 20
5.7479068323
 30
0.0
 10
4.2069636558
 20
5.7479586919
 30
0.0
 10
4.2071036794
 20
5.748019447
 30
0.0
 10
4.2073181429
 20
5.7480885623
 30
0.0
 10
4.2075931322
 20
5.7481579346
 30
0.0
 10
4.2079284975
 20
5.7482278107
 30
0.0
 10
4.2083242342
 20
5.7482979115
 30
0.0
 10
4.2089710585
 20
5.7483975687
 30
0.0
 10
4.2099292931
 20
5.7485190504
 30
0.0
 10
4.2112572004
 20
5.7486586314
 30
0.0
 10
4.2128192022
 20
5.7487986438
 30
0.0
 10
4.2146114864
 20
5.7489390792
 30
0.0
 10
4.2166295187
 20
5.7490797975
 30
0.0
 10
4.2197569317
 20
5.7492765554
 30
0.0
 10
4.2241902628
 20
5.749518059
 30
0.0
 10
4.2301081562
 20
5.7497978273
 30
0.0
 10
4.2367797632
 20
5.7500782295
 30
0.0
 10
4.2441412604
 20
5.7503592027
 30
0.0
 10
4.2521219325
 20
5.7506405295
 30
0.0
 10
4.2606444988
 20
5.7509220977
 30
0.0
 10
4.2696266727
 20
5.7512038642
 30
0.0
 10
4.2789828789
 20
5.7514857489
 30
0.0
 10
4.2919409569
 20
5.7518648072
 30
0.0
 10
4.3017707808
 20
5.7521440713
 30
0.0
 10
4.3083763038
 20
5.7523317822
 30
0.0
  0
SPLINE
  5
3E7
100
AcDbEntity
  8
ALL_ASSEMBLY_MEMBERS
100
AcDbSpline
 62
7
  6
CONTINUOUS
 70
0
 71
3
 72
26
 73
22
 74
0
 42
0.0000001
 43
0.0000001
 44
0.0000000001
 40
0.0
 40
0.0
 40
0.0
 40
0.0
 40
0.1892659839
 40
0.3717203385
 40
0.4582903241
 40
0.5407266919
 40
0.6182706724
 40
0.6902182079
 40
0.7559248426
 40
0.8147934479
 40
0.8663024051
 40
0.9099736807
 40
0.9287527517
 40
0.9454357586
 40
0.9599813889
 40
0.9723627688
 40
0.9825611451
 40
0.9905616882
 40
0.9963597867
 40
0.9984429466
 40
1.0
 40
1.0
 40
1.0
 40
1.0
 10
4.3083763038
 20
5.8289410591
 30
0.0
 10
4.3019696436
 20
5.8287628416
 30
0.0
 10
4.2893868881
 20
5.8284131716
 30
0.0
 10
4.2738741384
 20
5.8279674371
 30
0.0
 10
4.2619780681
 20
5.827605908
 30
0.0
 10
4.2536333374
 20
5.8273398906
 30
0.0
 10
4.2457840197
 20
5.8270742823
 30
0.0
 10
4.2385015511
 20
5.8268091516
 30
0.0
 10
4.2318519183
 20
5.8265446412
 30
0.0
 10
4.2258949637
 20
5.8262808726
 30
0.0
 10
4.2206849719
 20
5.8260181685
 30
0.0
 10
4.2168325783
 20
5.8257906134
 30
0.0
 10
4.2141592975
 20
5.8256048109
 30
0.0
 10
4.2124710073
 20
5.8254728608
 30
0.0
 10
4.211000049
 20
5.8253413187
 30
0.0
 10
4.2097496995
 20
5.8252102449
 30
0.0
 10
4.2087220866
 20
5.8250804178
 30
0.0
 10
4.2079198427
 20
5.8249515351
 30
0.0
 10
4.2073929727
 20
5.8248387
 30
0.0
 10
4.2070883766
 20
5.8247415471
 30
0.0
 10
4.2069747574
 20
5.8246921862
 30
0.0
 10
4.2069291203
 20
5.8246657786
 30
0.0
  0
SPLINE
  5
3E8
100
AcDbEntity
  8
ALL_ASSEMBLY_MEMBERS
100
AcDbSpline
 62
9
  6
CONTINUOUS
 70
0
 71
3
 72
21
 73
17
 74
0
 42
0.0000001
 43
0.0000001
 44
0.0000000001
 40
0.0
 40
0.0
 40
0.0
 40
0.0
 40
0.0514706261
 40
0.1034302285
 40
0.1563345477
 40
0.2105826999
 40
0.2664930262
 40
0.324298022
 40
0.384137192
 40
0.4460619872
 40
0.5758622372
 40
0.6435940716
 40
0.7128881047
 40
0.8550350317
 40
0.9273868506
 40
1.0
 40
1.0
 40
1.0
 40
1.0
 10
4.4099382905
 20
4.8223623732
 30
0.0
 10
4.4099382905
 20
4.8200103429
 30
0.0
 10
4.4096090303
 20
4.8152773721
 30
0.0
 10
4.4081296426
 20
4.8082667356
 30
0.0
 10
4.4056860598
 20
4.8013962685
 30
0.0
 10
4.4023002986
 20
4.7947368148
 30
0.0
 10
4.3980118165
 20
4.788350011
 30
0.0
 10
4.3928615199
 20
4.7822982387
 30
0.0
 10
4.3869019799
 20
4.7766360834
 30
0.0
 10
4.377815187
 20
4.7695705592
 30
0.0
 10
4.3674676685
 20
4.7636370186
 30
0.0
 10
4.3562283178
 20
4.7588879413
 30
0.0
 10
4.3441163763
 20
4.7548466435
 30
0.0
 10
4.3313775467
 20
4.7521416517
 30
0.0
 10
4.3183216795
 20
4.7507777467
 30
0.0
 10
4.3116944745
 20
4.7505468407
 30
0.0
 10
4.3083763038
 20
4.7505468407
 30
0.0
  0
SPLINE
  5
3E9
100
AcDbEntity
  8
ALL_ASSEMBLY_MEMBERS
100
AcDbSpline
 62
7
  6
CONTINUOUS
 70
0
 71
3
 72
20
 73
16
 74
0
 42
0.0000001
 43
0.0000001
 44
0.0000000001
 40
0.0
 40
0.0
 40
0.0
 40
0.0
 40
0.0082573011
 40
0.0143691669
 40
0.0221520855
 40
0.0431210947
 40
0.0715965919
 40
0.1076918538
 40
0.1514335944
 40
0.2028158168
 40
0.2618168533
 40
0.4025458869
 40
0.5731200449
 40
0.7726033924
 40
1.0
 40
1.0
 40
1.0
 40
1.0
 10
4.4029616991
 20
5.7846187944
 30
0.0
 10
4.4029617185
 20
5.7845836371
 30
0.0
 10
4.4029204109
 20
5.7845270148
 30
0.0
 10
4.4028438792
 20
5.7844746382
 30
0.0
 10
4.4027109475
 20
5.7844061486
 30
0.0
 10
4.402480011
 20
5.78432737
 30
0.0
 10
4.4021269363
 20
5.7842370057
 30
0.0
 10
4.4016746242
 20
5.7841464151
 30
0.0
 10
4.4011233906
 20
5.784054991
 30
0.0
 10
4.40047356
 20
5.7839632824
 30
0.0
 10
4.3994123357
 20
5.7838328552
 30
0.0
 10
4.3978435542
 20
5.783673969
 30
0.0
 10
4.3956763863
 20
5.7834914353
 30
0.0
 10
4.3931391458
 20
5.7833082406
 30
0.0
 10
4.3913252317
 20
5.7831932218
 30
0.0
 10
4.3903587902
 20
5.7831350136
 30
0.0
  0
SPLINE
  5
3EA
100
AcDbEntity
  8
ALL_ASSEMBLY_MEMBERS
100
AcDbSpline
 62
7
  6
CONTINUOUS
 70
0
 71
3
 72
18
 73
14
 74
0
 42
0.0000001
 43
0.0000001
 44
0.0000000001
 40
0.0
 40
0.0
 40
0.0
 40
0.0
 40
0.0524718484
 40
0.1060484837
 40
0.1609291301
 40
0.2172679282
 40
0.2751667645
 40
0.3346741899
 40
0.4584022934
 40
0.5880775404
 40
0.7226015424
 40
0.8605380591
 40
1.0
 40
1.0
 40
1.0
 40
1.0
 10
4.4071875516
 20
4.5968427338
 30
0.0
 10
4.4065279006
 20
4.5948216864
 30
0.0
 10
4.404967684
 20
4.5908076274
 30
0.0
 10
4.401971422
 20
4.5850042473
 30
0.0
 10
4.3983231805
 20
4.5793991088
 30
0.0
 10
4.3940470069
 20
4.5740325482
 30
0.0
 10
4.389174412
 20
4.5689390348
 30
0.0
 10
4.3818362324
 20
4.5624739878
 30
0.0
 10
4.3713242489
 20
4.5552880909
 30
0.0
 10
4.3571603306
 20
4.5483650212
 30
0.0
 10
4.3416625716
 20
4.543190987
 30
0.0
 10
4.3252607374
 20
4.5399008591
 30
0.0
 10
4.3140256728
 20
4.5390119866
 30
0.0
 10
4.3083763038
 20
4.5388984679
 30
0.0
  0
SPLINE
  5
3EB
100
AcDbEntity
  8
ALL_ASSEMBLY_MEMBERS
100
AcDbSpline
 62
7
  6
CONTINUOUS
 70
0
 71
3
 72
9
 73
5
 74
0
 42
0.0000001
 43
0.0000001
 44
0.0000000001
 40
0.0
 40
0.0
 40
0.0
 40
0.0
 40
0.4966313151
 40
1.0
 40
1.0
 40
1.0
 40
1.0
 10
4.4097820885
 20
4.5970065502
 30
0.0
 10
4.4095960282
 20
4.5945686051
 30
0.0
 10
4.4088852589
 20
4.5896797871
 30
0.0
 10
4.4075294474
 20
4.5849305508
 30
0.0
 10
4.4066993746
 20
4.582595497
 30
0.0
  0
SPLINE
  5
3EC
100
AcDbEntity
  8
ALL_ASSEMBLY_MEMBERS
100
AcDbSpline
 62
7
  6
CONTINUOUS
 70
0
 71
3
 72
18
 73
14
 74
0
 42
0.0000001
 43
0.0000001
 44
0.0000000001
 40
0.0
 40
0.0
 40
0.0
 40
0.0
 40
0.0525704803
 40
0.1062765435
 40
0.1613010826
 40
0.2177837111
 40
0.2758133364
 40
0.3354274454
 40
0.4592712087
 40
0.5889029432
 40
0.7232370877
 40
0.8608780924
 40
1.0
 40
1.0
 40
1.0
 40
1.0
 10
4.4066993746
 20
4.582595497
 30
0.0
 10
4.4059948154
 20
4.5806135218
 30
0.0
 10
4.4043527813
 20
4.5766808216
 30
0.0
 10
4.4012604552
 20
4.5710040795
 30
0.0
 10
4.3975403017
 20
4.5655272129
 30
0.0
 10
4.3932161065
 20
4.5602885074
 30
0.0
 10
4.3883186551
 20
4.5553206569
 30
0.0
 10
4.3809792053
 20
4.5490216002
 30
0.0
 10
4.3705224677
 20
4.5420281336
 30
0.0
 10
4.3564920517
 20
4.5352942195
 30
0.0
 10
4.341184559
 20
4.5302643974
 30
0.0
 10
4.3250116017
 20
4.5270658982
 30
0.0
 10
4.31394181
 20
4.5262001629
 30
0.0
 10
4.3083763038
 20
4.5260885312
 30
0.0
  0
SPLINE
  5
3ED
100
AcDbEntity
  8
ALL_ASSEMBLY_MEMBERS
100
AcDbSpline
 62
7
  6
CONTINUOUS
 70
0
 71
3
 72
41
 73
37
 74
0
 42
0.0000001
 43
0.0000001
 44
0.0000000001
 40
0.0
 40
0.0
 40
0.0
 40
0.0
 40
0.0008897941
 40
0.0016535494
 40
0.0026644197
 40
0.0039311439
 40
0.0054577617
 40
0.0072462873
 40
0.0092977319
 40
0.0141901453
 40
0.0201288998
 40
0.0271016126
 40
0.0350947326
 40
0.0540828553
 40
0.0769343226
 40
0.1034525604
 40
0.1334162288
 40
0.1665613472
 40
0.2026102946
 40
0.2412472105
 40
0.282143501
 40
0.324946035
 40
0.3692859224
 40
0.4610459292
 40
0.5542734872
 40
0.6457690781
 40
0.7323947639
 40
0.8111821609
 40
0.8794344883
 40
0.9088659925
 40
0.9348203537
 40
0.9570797506
 40
0.9754574405
 40
0.9897977247
 40
0.99542157
 40
1.0
 40
1.0
 40
1.0
 40
1.0
 10
4.4024850926
 20
5.802476327
 30
0.0
 10
4.4024850148
 20
5.8024207468
 30
0.0
 10
4.4023884866
 20
5.8023392498
 30
0.0
 10
4.4022447965
 20
5.8022705792
 30
0.0
 10
4.4020636297
 20
5.8022045387
 30
0.0
 10
4.4018357007
 20
5.8021403793
 30
0.0
 10
4.4015566426
 20
5.8020750375
 30
0.0
 10
4.4012279047
 20
5.8020097718
 30
0.0
 10
4.4006903204
 20
5.8019168898
 30
0.0
 10
4.3998934844
 20
5.8018037606
 30
0.0
 10
4.3987889391
 20
5.8016737692
 30
0.0
 10
4.3974896395
 20
5.8015432933
 30
0.0
 10
4.3953768045
 20
5.8013580123
 30
0.0
 10
4.3922720844
 20
5.8011324625
 30
0.0
 10
4.388010022
 20
5.8008729252
 30
0.0
 10
4.383061341
 20
5.800612417
 30
0.0
 10
4.3774689439
 20
5.8003512317
 30
0.0
 10
4.3712806618
 20
5.800089508
 30
0.0
 10
4.3645501833
 20
5.7998275454
 30
0.0
 10
4.3573352063
 20
5.7995653033
 30
0.0
 10
4.3496981159
 20
5.7993029399
 30
0.0
 10
4.3417045992
 20
5.7990404565
 30
0.0
 10
4.3305352302
 20
5.7986863442
 30
0.0
 10
4.316217153
 20
5.7982496255
 30
0.0
 10
4.2989546675
 20
5.7977311163
 30
0.0
 10
4.2820130261
 20
5.7972130022
 30
0.0
 10
4.265973768
 20
5.7966960608
 30
0.0
 10
4.2513871382
 20
5.7961809281
 30
0.0
 10
4.2403728996
 20
5.7957359621
 30
0.0
 10
4.2326585865
 20
5.7953700064
 30
0.0
 10
4.2278154918
 20
5.7951099312
 30
0.0
 10
4.2236638628
 20
5.7948513128
 30
0.0
 10
4.2202393331
 20
5.7945942689
 30
0.0
 10
4.2178545277
 20
5.7943693265
 30
0.0
 10
4.2163330106
 20
5.794181111
 30
0.0
 10
4.2157027372
 20
5.7940857728
 30
0.0
 10
4.2154210831
 20
5.7940361764
 30
0.0
  0
LINE
  5
3EE
100
AcDbEntity
  8
ALL_ASSEMBLY_MEMBERS
100
AcDbLine
 62
7
  6
CONTINUOUS
 10
4.2154210831
 20
5.7940361764
 11
4.2141586403
 21
5.7936956593
  0
SPLINE
  5
3EF
100
AcDbEntity
  8
ALL_ASSEMBLY_MEMBERS
100
AcDbSpline
 62
7
  6
CONTINUOUS
 70
0
 71
3
 72
18
 73
14
 74
0
 42
0.0000001
 43
0.0000001
 44
0.0000000001
 40
0.0
 40
0.0
 40
0.0
 40
0.0
 40
0.0524741225
 40
0.1060521242
 40
0.1609334146
 40
0.2172723219
 40
0.2751708699
 40
0.3346776149
 40
0.4584035785
 40
0.588076926
 40
0.7225999468
 40
0.860536509
 40
1.0
 40
1.0
 40
1.0
 40
1.0
 10
4.4071929419
 20
4.5712066118
 30
0.0
 10
4.4065338241
 20
4.5691849457
 30
0.0
 10
4.4049745865
 20
4.5651696242
 30
0.0
 10
4.4019794661
 20
4.5593643093
 30
0.0
 10
4.3983320796
 20
4.5537572632
 30
0.0
 10
4.3940564752
 20
4.5483888519
 30
0.0
 10
4.3891841659
 20
4.5432935879
 30
0.0
 10
4.3818460618
 20
4.5368263349
 30
0.0
 10
4.37133349
 20
4.5296380569
 30
0.0
 10
4.3571680471
 20
4.5227129082
 30
0.0
 10
4.3416680926
 20
4.5175376805
 30
0.0
 10
4.3252635863
 20
4.5142473647
 30
0.0
 10
4.3140266246
 20
4.513359105
 30
0.0
 10
4.3083763038
 20
4.5132460822
 30
0.0
  0
SPLINE
  5
3F0
100
AcDbEntity
  8
ALL_ASSEMBLY_MEMBERS
100
AcDbSpline
 62
7
  6
CONTINUOUS
 70
0
 71
3
 72
26
 73
22
 74
0
 42
0.0000001
 43
0.0000001
 44
0.0000000001
 40
0.0
 40
0.0
 40
0.0
 40
0.0
 40
0.1892402297
 40
0.3716880446
 40
0.4582543509
 40
0.5406863203
 40
0.6182282414
 40
0.6901682971
 40
0.7558697362
 40
0.8147323369
 40
0.8662405645
 40
0.9099158859
 40
0.928697651
 40
0.9453859119
 40
0.9599394407
 40
0.9723270728
 40
0.9825313841
 40
0.9905396529
 40
0.9963490713
 40
0.9984379097
 40
1.0
 40
1.0
 40
1.0
 40
1.0
 10
4.3083763038
 20
5.8113800529
 30
0.0
 10
4.3019705142
 20
5.8112033171
 30
0.0
 10
4.2893888599
 20
5.8108561655
 30
0.0
 10
4.2738773566
 20
5.810412758
 30
0.0
 10
4.2619818127
 20
5.8100525979
 30
0.0
 10
4.2536374523
 20
5.8097873398
 30
0.0
 10
4.2457886355
 20
5.8095223005
 30
0.0
 10
4.2385066986
 20
5.8092574983
 30
0.0
 10
4.2318577326
 20
5.80899316
 30
0.0
 10
4.2259012205
 20
5.8087293484
 30
0.0
 10
4.2206913619
 20
5.8084664353
 30
0.0
 10
4.2168388061
 20
5.8082385623
 30
0.0
 10
4.2141651604
 20
5.8080523849
 30
0.0
 10
4.2124763665
 20
5.8079201245
 30
0.0
 10
4.2110047857
 20
5.8077882649
 30
0.0
 10
4.2097537999
 20
5.8076568047
 30
0.0
 10
4.2087255663
 20
5.8075265556
 30
0.0
 10
4.2079225461
 20
5.8073971942
 30
0.0
 10
4.2073949087
 20
5.8072839645
 30
0.0
 10
4.2070896362
 20
5.8071864773
 30
0.0
 10
4.2069757053
 20
5.8071369244
 30
0.0
 10
4.2069299251
 20
5.8071104243
 30
0.0
  0
SPLINE
  5
3F1
100
AcDbEntity
  8
ALL_ASSEMBLY_MEMBERS
100
AcDbSpline
 62
7
  6
CONTINUOUS
 70
0
 71
3
 72
9
 73
5
 74
0
 42
0.0000001
 43
0.0000001
 44
0.0000000001
 40
0.0
 40
0.0
 40
0.0
 40
0.0
 40
0.4965626026
 40
1.0
 40
1.0
 40
1.0
 40
1.0
 10
4.4098255758
 20
4.5719841826
 30
0.0
 10
4.4096604388
 20
4.5694362388
 30
0.0
 10
4.4089607029
 20
4.5643225577
 30
0.0
 10
4.4075548936
 20
4.5593578493
 30
0.0
 10
4.4066862438
 20
4.5569193044
 30
0.0
  0
SPLINE
  5
3F2
100
AcDbEntity
  8
ALL_ASSEMBLY_MEMBERS
100
AcDbSpline
 62
7
  6
CONTINUOUS
 70
0
 71
3
 72
13
 73
9
 74
0
 42
0.0000001
 43
0.0000001
 44
0.0000000001
 40
0.0
 40
0.0
 40
0.0
 40
0.0
 40
0.1118162199
 40
0.2268014007
 40
0.3455102826
 40
0.4683040131
 40
0.7262332544
 40
1.0
 40
1.0
 40
1.0
 40
1.0
 10
4.4066862438
 20
4.5569193044
 30
0.0
 10
4.4057959093
 20
4.5544198844
 30
0.0
 10
4.4036414016
 20
4.5494680447
 30
0.0
 10
4.3994258232
 20
4.5424132786
 30
0.0
 10
4.3942360489
 20
4.5357083976
 30
0.0
 10
4.3859612258
 20
4.527195147
 30
0.0
 10
4.373425048
 20
4.5178474594
 30
0.0
 10
4.3620486728
 20
4.5122346283
 30
0.0
 10
4.3560137109
 20
4.5098306367
 30
0.0
  0
SPLINE
  5
3F3
100
AcDbEntity
  8
ALL_ASSEMBLY_MEMBERS
100
AcDbSpline
 62
7
  6
CONTINUOUS
 70
0
 71
3
 72
48
 73
44
 74
0
 42
0.0000001
 43
0.0000001
 44
0.0000000001
 40
0.0
 40
0.0
 40
0.0
 40
0.0
 40
0.0009338803
 40
0.0017474008
 40
0.00282883
 40
0.0041873324
 40
0.0058263518
 40
0.0077471496
 40
0.0099499614
 40
0.0151998556
 40
0.0215704042
 40
0.0290525929
 40
0.0376294359
 40
0.0579811495
 40
0.0824472367
 40
0.110799192
 40
0.1427749701
 40
0.1780793624
 40
0.2163804387
 40
0.257326554
 40
0.3005314965
 40
0.3455977587
 40
0.3921022174
 40
0.4876908476
 40
0.5837475428
 40
0.6767068564
 40
0.7209400675
 40
0.763120512
 40
0.8028605638
 40
0.839785768
 40
0.8735605309
 40
0.903865213
 40
0.9304263111
 40
0.9529948446
 40
0.9627163447
 40
0.9713682611
 40
0.9789304553
 40
0.9853841641
 40
0.9907186629
 40
0.9949290145
 40
0.9980157021
 40
0.999142664
 40
1.0
 40
1.0
 40
1.0
 40
1.0
 10
4.4020410922
 20
5.8203335669
 30
0.0
 10
4.4020411518
 20
5.8202751052
 30
0.0
 10
4.4019363512
 20
5.8201903695
 30
0.0
 10
4.4017830403
 20
5.8201194645
 30
0.0
 10
4.4015878731
 20
5.8200507479
 30
0.0
 10
4.4013424028
 20
5.8199840845
 30
0.0
 10
4.4010416366
 20
5.819916128
 30
0.0
 10
4.400687417
 20
5.8198482572
 30
0.0
 10
4.4001085326
 20
5.8197516748
 30
0.0
 10
4.399251104
 20
5.8196339753
 30
0.0
 10
4.3980628682
 20
5.8194987116
 30
0.0
 10
4.3966652788
 20
5.8193630255
 30
0.0
 10
4.3943940427
 20
5.8191704399
 30
0.0
 10
4.3910595882
 20
5.8189358065
 30
0.0
 10
4.3864870044
 20
5.8186659164
 30
0.0
 10
4.381185706
 20
5.8183950068
 30
0.0
 10
4.3752051936
 20
5.8181233152
 30
0.0
 10
4.368601299
 20
5.8178511916
 30
0.0
 10
4.3614354345
 20
5.8175786888
 30
0.0
 10
4.3537746631
 20
5.8173060163
 30
0.0
 10
4.3456901399
 20
5.8170331354
 30
0.0
 10
4.337257473
 20
5.8167601878
 30
0.0
 10
4.3255468852
 20
5.8163927804
 30
0.0
 10
4.3106453627
 20
5.815940033
 30
0.0
 10
4.2928369923
 20
5.8154014657
 30
0.0
 10
4.2782424693
 20
5.8149461102
 30
0.0
 10
4.2670196426
 20
5.8145763185
 30
0.0
 10
4.2591270064
 20
5.8143036987
 30
0.0
 10
4.2516921346
 20
5.8140313665
 30
0.0
 10
4.2447838324
 20
5.8137592653
 30
0.0
 10
4.2384666669
 20
5.8134876676
 30
0.0
 10
4.2327989295
 20
5.8132166319
 30
0.0
 10
4.2278335734
 20
5.8129464827
 30
0.0
 10
4.2241567759
 20
5.8127125287
 30
0.0
 10
4.2216008798
 20
5.8125213934
 30
0.0
 10
4.2199829581
 20
5.8123855195
 30
0.0
 10
4.2185703524
 20
5.8122500784
 30
0.0
 10
4.2173665187
 20
5.8121150503
 30
0.0
 10
4.2163737569
 20
5.8119811234
 30
0.0
 10
4.2155943175
 20
5.8118481198
 30
0.0
 10
4.2150790295
 20
5.8117315219
 30
0.0
 10
4.2147775222
 20
5.8116317648
 30
0.0
 10
4.2146635222
 20
5.8115810669
 30
0.0
 10
4.2146170689
 20
5.8115541864
 30
0.0
  0
SPLINE
  5
3F4
100
AcDbEntity
  8
ALL_ASSEMBLY_MEMBERS
100
AcDbSpline
 62
7
  6
CONTINUOUS
 70
0
 71
3
 72
28
 73
24
 74
0
 42
0.0000001
 43
0.0000001
 44
0.0000000001
 40
0.0
 40
0.0
 40
0.0
 40
0.0
 40
0.1911837563
 40
0.3750133471
 40
0.4620840107
 40
0.5449036059
 40
0.6227172357
 40
0.6948122091
 40
0.760540737
 40
0.819291218
 40
0.8705335213
 40
0.8931797078
 40
0.9137719235
 40
0.9322658944
 40
0.948617574
 40
0.9627834188
 40
0.9747289826
 40
0.9844336045
 40
0.9918802267
 40
0.9947534785
 40
0.9970600351
 40
0.9988038867
 40
1.0
 40
1.0
 40
1.0
 40
1.0
 10
4.3083763038
 20
5.8764688192
 30
0.0
 10
4.3143640225
 20
5.8765818961
 30
0.0
 10
4.3261091186
 20
5.876804485
 30
0.0
 10
4.3405809731
 20
5.8770903627
 30
0.0
 10
4.3516587195
 20
5.8773232006
 30
0.0
 10
4.3594160879
 20
5.8774948999
 30
0.0
 10
4.3667042209
 20
5.8776667855
 30
0.0
 10
4.3734568167
 20
5.8778388442
 30
0.0
 10
4.3796120551
 20
5.8780109115
 30
0.0
 10
4.3851138037
 20
5.8781830175
 30
0.0
 10
4.389266057
 20
5.8783315641
 30
0.0
 10
4.3922231762
 20
5.8784525296
 30
0.0
 10
4.3941549794
 20
5.87853948
 30
0.0
 10
4.3958893904
 20
5.8786263795
 30
0.0
 10
4.3974222259
 20
5.878713162
 30
0.0
 10
4.3987495623
 20
5.8787997907
 30
0.0
 10
4.3998682298
 20
5.8788860225
 30
0.0
 10
4.4007756406
 20
5.8789718342
 30
0.0
 10
4.4013986105
 20
5.8790470338
 30
0.0
 10
4.4017890425
 20
5.8791102801
 30
0.0
 10
4.4020018561
 20
5.8791530965
 30
0.0
 10
4.4021605197
 20
5.8791954663
 30
0.0
 10
4.4022473006
 20
5.8792284861
 30
0.0
 10
4.4022797202
 20
5.8792472696
 30
0.0
  0
SPLINE
  5
3F5
100
AcDbEntity
  8
ALL_ASSEMBLY_MEMBERS
100
AcDbSpline
 62
7
  6
CONTINUOUS
 70
0
 71
3
 72
26
 73
22
 74
0
 42
0.0000001
 43
0.0000001
 44
0.0000000001
 40
0.0
 40
0.0
 40
0.0
 40
0.0
 40
0.18925533
 40
0.3717005253
 40
0.4582664309
 40
0.5406991764
 40
0.6182403889
 40
0.690186257
 40
0.7558923332
 40
0.814761603
 40
0.8662724571
 40
0.9099469386
 40
0.9287281181
 40
0.9454135627
 40
0.9599619536
 40
0.972346423
 40
0.9825482463
 40
0.9905526324
 40
0.9963550208
 40
0.9984405009
 40
1.0
 40
1.0
 40
1.0
 40
1.0
 10
4.3083763038
 20
5.7937786513
 30
0.0
 10
4.3019700052
 20
5.7936021387
 30
0.0
 10
4.2893879314
 20
5.7932554806
 30
0.0
 10
4.2738760194
 20
5.7928127955
 30
0.0
 10
4.2619805483
 20
5.7924532719
 30
0.0
 10
4.2536361945
 20
5.7921885148
 30
0.0
 10
4.2457871729
 20
5.7919239585
 30
0.0
 10
4.2385048968
 20
5.7916596801
 30
0.0
 10
4.2318553403
 20
5.7913958302
 30
0.0
 10
4.225898341
 20
5.7911325403
 30
0.0
 10
4.220688177
 20
5.7908701411
 30
0.0
 10
4.2168355598
 20
5.790642712
 30
0.0
 10
4.2141620348
 20
5.7904569241
 30
0.0
 10
4.2124735113
 20
5.7903249444
 30
0.0
 10
4.2110022881
 20
5.7901933357
 30
0.0
 10
4.2097516418
 20
5.79006216
 30
0.0
 10
4.2087236995
 20
5.7899321959
 30
0.0
 10
4.2079210907
 20
5.7898031444
 30
0.0
 10
4.2073939001
 20
5.7896901322
 30
0.0
 10
4.2070890344
 20
5.7895928197
 30
0.0
 10
4.2069752785
 20
5.7895433724
 30
0.0
 10
4.20692957
 20
5.7895169235
 30
0.0
  0
SPLINE
  5
3F6
100
AcDbEntity
  8
ALL_ASSEMBLY_MEMBERS
100
AcDbSpline
 62
7
  6
CONTINUOUS
 70
0
 71
3
 72
26
 73
22
 74
0
 42
0.0000001
 43
0.0000001
 44
0.0000000001
 40
0.0
 40
0.0
 40
0.0
 40
0.0
 40
0.1890640664
 40
0.3713535465
 40
0.4578560239
 40
0.5402366576
 40
0.6177405724
 40
0.6896589105
 40
0.7553551271
 40
0.8142302217
 40
0.8657693127
 40
0.9094950344
 40
0.9283098311
 40
0.945036111
 40
0.9596326946
 40
0.9720696302
 40
0.9823293642
 40
0.9903988464
 40
0.9962751877
 40
0.9983999977
 40
1.0
 40
1.0
 40
1.0
 40
1.0
 10
4.3083763038
 20
5.8248283072
 30
0.0
 10
4.3147760014
 20
5.8250099158
 30
0.0
 10
4.3273460802
 20
5.825366649
 30
0.0
 10
4.3428437644
 20
5.8258222999
 30
0.0
 10
4.3547297593
 20
5.8261924284
 30
0.0
 10
4.3630687088
 20
5.8264650583
 30
0.0
 10
4.3709135246
 20
5.8267374946
 30
0.0
 10
4.3781930018
 20
5.8270097117
 30
0.0
 10
4.3848411919
 20
5.8272814893
 30
0.0
 10
4.3907986747
 20
5.8275527612
 30
0.0
 10
4.3960113417
 20
5.8278231511
 30
0.0
 10
4.3998673977
 20
5.8280575146
 30
0.0
 10
4.4025447986
 20
5.828248991
 30
0.0
 10
4.4042371711
 20
5.8283850597
 30
0.0
 10
4.405712842
 20
5.8285207465
 30
0.0
 10
4.4069684597
 20
5.8286560323
 30
0.0
 10
4.4080018695
 20
5.828790124
 30
0.0
 10
4.4088105806
 20
5.8289233092
 30
0.0
 10
4.409343166
 20
5.8290399683
 30
0.0
 10
4.4096525774
 20
5.8291402122
 30
0.0
 10
4.4097686149
 20
5.8291911543
 30
0.0
 10
4.4098155065
 20
5.8292182973
 30
0.0
  0
SPLINE
  5
3F7
100
AcDbEntity
  8
ALL_ASSEMBLY_MEMBERS
100
AcDbSpline
 62
7
  6
CONTINUOUS
 70
0
 71
3
 72
9
 73
5
 74
0
 42
0.0000001
 43
0.0000001
 44
0.0000000001
 40
0.0
 40
0.0
 40
0.0
 40
0.0
 40
0.4956348024
 40
1.0
 40
1.0
 40
1.0
 40
1.0
 10
4.2068138042
 20
4.6203287217
 30
0.0
 10
4.2068138363
 20
4.6171626476
 30
0.0
 10
4.2074184089
 20
4.610761173
 30
0.0
 10
4.2091869064
 20
4.604582705
 30
0.0
 10
4.210338317
 20
4.601573631
 30
0.0
  0
SPLINE
  5
3F8
100
AcDbEntity
  8
ALL_ASSEMBLY_MEMBERS
100
AcDbSpline
 62
7
  6
CONTINUOUS
 70
0
 71
3
 72
23
 73
19
 74
0
 42
0.0000001
 43
0.0000001
 44
0.0000000001
 40
0.0
 40
0.0
 40
0.0
 40
0.0
 40
0.050920447
 40
0.1039732908
 40
0.1595182506
 40
0.2177076048
 40
0.2785054686
 40
0.3417047413
 40
0.4069642319
 40
0.4738357644
 40
0.5417918119
 40
0.6102570971
 40
0.6786322036
 40
0.7463242869
 40
0.8127659822
 40
0.8774470781
 40
0.9399821267
 40
1.0
 40
1.0
 40
1.0
 40
1.0
 10
4.210338317
 20
4.601573631
 30
0.0
 10
4.2115303099
 20
4.5984584999
 30
0.0
 10
4.2145392677
 20
4.5923052078
 30
0.0
 10
4.2206213506
 20
4.5837597555
 30
0.0
 10
4.2282344346
 20
4.5758720243
 30
0.0
 10
4.2372396605
 20
4.5687775926
 30
0.0
 10
4.2474786429
 20
4.5625933918
 30
0.0
 10
4.2587722632
 20
4.5574213969
 30
0.0
 10
4.2709250799
 20
4.5533483927
 30
0.0
 10
4.2837270497
 20
4.5504445727
 30
0.0
 10
4.2969560977
 20
4.5487579811
 30
0.0
 10
4.3103830862
 20
4.5483173937
 30
0.0
 10
4.3237753602
 20
4.5491315623
 30
0.0
 10
4.3369006392
 20
4.5511857683
 30
0.0
 10
4.3495312065
 20
4.5544441015
 30
0.0
 10
4.3614506772
 20
4.5588530169
 30
0.0
 10
4.3724471532
 20
4.5643374745
 30
0.0
 10
4.379185641
 20
4.5687437945
 30
0.0
 10
4.3823288881
 20
4.5711049638
 30
0.0
  0
SPLINE
  5
3F9
100
AcDbEntity
  8
ALL_ASSEMBLY_MEMBERS
100
AcDbSpline
 62
7
  6
CONTINUOUS
 70
0
 71
3
 72
17
 73
13
 74
0
 42
0.0000001
 43
0.0000001
 44
0.0000000001
 40
0.0
 40
0.0
 40
0.0
 40
0.0
 40
0.0161376892
 40
0.0383444874
 40
0.0667871994
 40
0.1015174548
 40
0.1898633101
 40
0.3033095345
 40
0.4416473929
 40
0.6043614637
 40
0.7907256637
 40
1.0
 40
1.0
 40
1.0
 40
1.0
 10
4.4028342178
 20
5.7889360279
 30
0.0
 10
4.4027756974
 20
5.7889021255
 30
0.0
 10
4.4026265222
 20
5.7888398578
 30
0.0
 10
4.4023585603
 20
5.7887589829
 30
0.0
 10
4.4020099201
 20
5.7886773507
 30
0.0
 10
4.4013861734
 20
5.7885579871
 30
0.0
 10
4.4004048813
 20
5.7884150527
 30
0.0
 10
4.3989887634
 20
5.7882517374
 30
0.0
 10
4.3972593071
 20
5.7880875936
 30
0.0
 10
4.3952232347
 20
5.7879225902
 30
0.0
 10
4.3928890543
 20
5.7877571923
 30
0.0
 10
4.3912342517
 20
5.7876527421
 30
0.0
 10
4.3903587902
 20
5.7876000136
 30
0.0
  0
SPLINE
  5
3FA
100
AcDbEntity
  8
ALL_ASSEMBLY_MEMBERS
100
AcDbSpline
 62
7
  6
CONTINUOUS
 70
0
 71
3
 72
26
 73
22
 74
0
 42
0.0000001
 43
0.0000001
 44
0.0000000001
 40
0.0
 40
0.0
 40
0.0
 40
0.0
 40
0.1892740771
 40
0.3717515826
 40
0.4583304274
 40
0.5407727201
 40
0.6183220699
 40
0.6902667119
 40
0.7559696871
 40
0.8148309076
 40
0.8663341957
 40
0.9100000655
 40
0.9287754182
 40
0.9454561765
 40
0.9600011105
 40
0.9723788902
 40
0.9825721078
 40
0.9905680861
 40
0.9963640085
 40
0.9984455804
 40
1.0
 40
1.0
 40
1.0
 40
1.0
 10
4.3083763038
 20
5.7761686307
 30
0.0
 10
4.3019693536
 20
5.7759912907
 30
0.0
 10
4.2893855107
 20
5.7756432679
 30
0.0
 10
4.2738713675
 20
5.7751994692
 30
0.0
 10
4.2619739834
 20
5.7748394053
 30
0.0
 10
4.2536285485
 20
5.7745744081
 30
0.0
 10
4.2457789226
 20
5.7743098054
 30
0.0
 10
4.2384964699
 20
5.7740456065
 30
0.0
 10
4.2318472816
 20
5.7737820221
 30
0.0
 10
4.2258908639
 20
5.773519105
 30
0.0
 10
4.220681464
 20
5.7732572169
 30
0.0
 10
4.2168295382
 20
5.7730303296
 30
0.0
 10
4.214156613
 20
5.7728450177
 30
0.0
 10
4.2124685252
 20
5.7727134054
 30
0.0
 10
4.2109977596
 20
5.7725822198
 30
0.0
 10
4.2097477015
 20
5.7724514552
 30
0.0
 10
4.208720507
 20
5.7723219249
 30
0.0
 10
4.2079186327
 20
5.772193297
 30
0.0
 10
4.2073919945
 20
5.7720807396
 30
0.0
 10
4.2070875591
 20
5.7719838024
 30
0.0
 10
4.206974054
 20
5.7719345299
 30
0.0
 10
4.2069284983
 20
5.7719081598
 30
0.0
  0
SPLINE
  5
3FB
100
AcDbEntity
  8
ALL_ASSEMBLY_MEMBERS
100
AcDbSpline
 62
7
  6
CONTINUOUS
 70
0
 71
3
 72
11
 73
7
 74
0
 42
0.0000001
 43
0.0000001
 44
0.0000000001
 40
0.0
 40
0.0
 40
0.0
 40
0.0
 40
0.2395906492
 40
0.4876647963
 40
0.741986723
 40
1.0
 40
1.0
 40
1.0
 40
1.0
 10
4.254860075
 20
4.5192405378
 30
0.0
 10
4.2587024987
 20
4.5174606556
 30
0.0
 10
4.2667576481
 20
4.5143269492
 30
0.0
 10
4.2794654197
 20
4.5109859969
 30
0.0
 10
4.2927798498
 20
4.5089835922
 30
0.0
 10
4.3018447519
 20
4.5085728788
 30
0.0
 10
4.306404923
 20
4.508600285
 30
0.0
  0
SPLINE
  5
3FC
100
AcDbEntity
  8
ALL_ASSEMBLY_MEMBERS
100
AcDbSpline
 62
7
  6
CONTINUOUS
 70
0
 71
3
 72
11
 73
7
 74
0
 42
0.0000001
 43
0.0000001
 44
0.0000000001
 40
0.0
 40
0.0
 40
0.0
 40
0.0
 40
0.2554090208
 40
0.5087961323
 40
0.7577136833
 40
1.0
 40
1.0
 40
1.0
 40
1.0
 10
4.3084051556
 20
4.5086272944
 30
0.0
 10
4.3128941864
 20
4.5087215407
 30
0.0
 10
4.3218338589
 20
4.5093599173
 30
0.0
 10
4.3349777558
 20
4.5116582706
 30
0.0
 10
4.3475882392
 20
4.5152553644
 30
0.0
 10
4.3556027856
 20
4.5185292911
 30
0.0
 10
4.359442226
 20
4.520373352
 30
0.0
  0
SPLINE
  5
3FD
100
AcDbEntity
  8
ALL_ASSEMBLY_MEMBERS
100
AcDbSpline
 62
7
  6
CONTINUOUS
 70
0
 71
3
 72
26
 73
22
 74
0
 42
0.0000001
 43
0.0000001
 44
0.0000000001
 40
0.0
 40
0.0
 40
0.0
 40
0.0
 40
0.1892444552
 40
0.3716786345
 40
0.4582409708
 40
0.5406718359
 40
0.6182118451
 40
0.6901565548
 40
0.7558622863
 40
0.8147319283
 40
0.866244376
 40
0.9099214929
 40
0.9287044026
 40
0.945392018
 40
0.9599430559
 40
0.9723305191
 40
0.9825357008
 40
0.9905438421
 40
0.9963504186
 40
0.9984381477
 40
1.0
 40
1.0
 40
1.0
 40
1.0
 10
4.3083763038
 20
5.7586155919
 30
0.0
 10
4.3019703789
 20
5.7584387776
 30
0.0
 10
4.289389058
 20
5.7580915013
 30
0.0
 10
4.2738780251
 20
5.7576479769
 30
0.0
 10
4.2619831278
 20
5.7572877466
 30
0.0
 10
4.2536390124
 20
5.7570224571
 30
0.0
 10
4.245790149
 20
5.7567573626
 30
0.0
 10
4.2385079809
 20
5.756492541
 30
0.0
 10
4.2318584811
 20
5.7562281502
 30
0.0
 10
4.225901448
 20
5.7559643183
 30
0.0
 10
4.2206911524
 20
5.7557013838
 30
0.0
 10
4.216838358
 20
5.7554734962
 30
0.0
 10
4.2141646356
 20
5.7552873381
 30
0.0
 10
4.2124759093
 20
5.7551550959
 30
0.0
 10
4.2110044429
 20
5.7550232282
 30
0.0
 10
4.2097535164
 20
5.7548917954
 30
0.0
 10
4.2087252607
 20
5.7547615767
 30
0.0
 10
4.2079223034
 20
5.7546322746
 30
0.0
 10
4.2073948066
 20
5.7545190417
 30
0.0
 10
4.2070896832
 20
5.754421554
 30
0.0
 10
4.2069757966
 20
5.7543720185
 30
0.0
 10
4.2069300196
 20
5.754345529
 30
0.0
  0
SPLINE
  5
3FE
100
AcDbEntity
  8
ALL_ASSEMBLY_MEMBERS
100
AcDbSpline
 62
7
  6
CONTINUOUS
 70
0
 71
3
 72
33
 73
29
 74
0
 42
0.0000001
 43
0.0000001
 44
0.0000000001
 40
0.0
 40
0.0
 40
0.0
 40
0.0
 40
0.1605828311
 40
0.245993629
 40
0.3328927071
 40
0.4198027388
 40
0.5052248252
 40
0.5876997
 40
0.6658209758
 40
0.7382474026
 40
0.8037485356
 40
0.8335439377
 40
0.8612019556
 40
0.88660133
 40
0.9096308535
 40
0.9301999322
 40
0.9482209609
 40
0.9636128116
 40
0.976320317
 40
0.9816532242
 40
0.9862985734
 40
0.9902521419
 40
0.9935132893
 40
0.9960868635
 40
0.997985133
 40
0.9986911489
 40
0.9992466397
 40
1.0
 40
1.0
 40
1.0
 40
1.0
 10
4.3550365776
 20
5.8396833469
 30
0.0
 10
4.3475323954
 20
5.8394192257
 30
0.0
 10
4.3360358146
 20
5.8390453276
 30
0.0
 10
4.3204772845
 20
5.8385628941
 30
0.0
 10
4.308361822
 20
5.8381937481
 30
0.0
 10
4.2962458347
 20
5.8378245494
 30
0.0
 10
4.2843368141
 20
5.8374554922
 30
0.0
 10
4.2728389492
 20
5.8370866721
 30
0.0
 10
4.261949068
 20
5.8367183169
 30
0.0
 10
4.251853342
 20
5.8363505016
 30
0.0
 10
4.2440169251
 20
5.8360358132
 30
0.0
 10
4.2382732458
 20
5.835780636
 30
0.0
 10
4.2344034779
 20
5.8355955135
 30
0.0
 10
4.2308504615
 20
5.8354105936
 30
0.0
 10
4.2276293991
 20
5.8352258756
 30
0.0
 10
4.2247539526
 20
5.8350415262
 30
0.0
 10
4.2222364098
 20
5.8348577886
 30
0.0
 10
4.2200875672
 20
5.8346746231
 30
0.0
 10
4.2185322664
 20
5.8345152939
 30
0.0
 10
4.2174795296
 20
5.8343845524
 30
0.0
 10
4.2168345544
 20
5.8342925887
 30
0.0
 10
4.2162875425
 20
5.8342008961
 30
0.0
 10
4.2158388247
 20
5.834109994
 30
0.0
 10
4.21548853
 20
5.8340193142
 30
0.0
 10
4.2152593017
 20
5.8339402741
 30
0.0
 10
4.2151272342
 20
5.833871658
 30
0.0
 10
4.2150509571
 20
5.8338190228
 30
0.0
 10
4.2150098623
 20
5.8337623743
 30
0.0
 10
4.2150097753
 20
5.8337271474
 30
0.0
  0
SPLINE
  5
3FF
100
AcDbEntity
  8
ALL_ASSEMBLY_MEMBERS
100
AcDbSpline
 62
7
  6
CONTINUOUS
 70
0
 71
3
 72
28
 73
24
 74
0
 42
0.0000001
 43
0.0000001
 44
0.0000000001
 40
0.0
 40
0.0
 40
0.0
 40
0.0
 40
0.1565770261
 40
0.3245926064
 40
0.4095150513
 40
0.4931984551
 40
0.5742846692
 40
0.651457715
 40
0.7234610988
 40
0.7891308494
 40
0.8473940313
 40
0.8734534192
 40
0.8973159495
 40
0.9188877083
 40
0.9380868826
 40
0.9548325795
 40
0.9690567181
 40
0.9807129894
 40
0.9897607626
 40
0.9932972199
 40
0.9961762679
 40
0.9984047787
 40
1.0
 40
1.0
 40
1.0
 40
1.0
 10
4.3550365776
 20
5.8352183469
 30
0.0
 10
4.3477302181
 20
5.8349611884
 30
0.0
 10
4.3325823624
 20
5.8344675593
 30
0.0
 10
4.3134702197
 20
5.8338842209
 30
0.0
 10
4.2977599958
 20
5.8334058578
 30
0.0
 10
4.2861069489
 20
5.8330458963
 30
0.0
 10
4.2748159053
 20
5.832686153
 30
0.0
 10
4.2640705001
 20
5.8323267643
 30
0.0
 10
4.2540453241
 20
5.8319678966
 30
0.0
 10
4.2449036689
 20
5.8316098429
 30
0.0
 10
4.2379069512
 20
5.8313021521
 30
0.0
 10
4.2328617555
 20
5.8310521854
 30
0.0
 10
4.2295284343
 20
5.8308719144
 30
0.0
 10
4.2265159286
 20
5.8306918903
 30
0.0
 10
4.2238363436
 20
5.8305122917
 30
0.0
 10
4.2215006777
 20
5.830333192
 30
0.0
 10
4.2195182598
 20
5.8301549958
 30
0.0
 10
4.2178970011
 20
5.8299778409
 30
0.0
 10
4.2167753798
 20
5.8298228291
 30
0.0
 10
4.2160650747
 20
5.8296930275
 30
0.0
 10
4.2156709892
 20
5.8296044971
 30
0.0
 10
4.2153705967
 20
5.829516865
 30
0.0
 10
4.2152041461
 20
5.8294491688
 30
0.0
 10
4.2151396521
 20
5.8294119078
 30
0.0
  0
SPLINE
  5
400
100
AcDbEntity
  8
ALL_ASSEMBLY_MEMBERS
100
AcDbSpline
 62
7
  6
CONTINUOUS
 70
0
 71
3
 72
35
 73
31
 74
0
 42
0.0000001
 43
0.0000001
 44
0.0000000001
 40
0.0
 40
0.0
 40
0.0
 40
0.0
 40
0.0497905846
 40
0.1106523714
 40
0.1809242324
 40
0.2587573096
 40
0.3420656155
 40
0.428622972
 40
0.5161168899
 40
0.6022108445
 40
0.6846052028
 40
0.7237206885
 40
0.761098677
 40
0.7964890249
 40
0.8296521027
 40
0.8603726587
 40
0.888440612
 40
0.9136712977
 40
0.9359008413
 40
0.9549751606
 40
0.9707780826
 40
0.9832063708
 40
0.9881301452
 40
0.9921880192
 40
0.995379152
 40
0.9966511712
 40
0.9977096023
 40
0.9985584239
 40
0.9992064577
 40
1.0
 40
1.0
 40
1.0
 40
1.0
 10
4.3903587902
 20
5.7876000136
 30
0.0
 10
4.3874257552
 20
5.7874235998
 30
0.0
 10
4.3809040612
 20
5.7870896197
 30
0.0
 10
4.3702366257
 20
5.7866359512
 30
0.0
 10
4.3579130718
 20
5.7861798928
 30
0.0
 10
4.3442641453
 20
5.7857219981
 30
0.0
 10
4.3296536738
 20
5.7852632641
 30
0.0
 10
4.3144728295
 20
5.7848040537
 30
0.0
 10
4.2991275218
 20
5.7843447591
 30
0.0
 10
4.2840279933
 20
5.783885681
 30
0.0
 10
4.2717826382
 20
5.7834972493
 30
0.0
 10
4.2624113201
 20
5.7831828503
 30
0.0
 10
4.2558126813
 20
5.7829512528
 30
0.0
 10
4.249565538
 20
5.7827198167
 30
0.0
 10
4.243711556
 20
5.7824885048
 30
0.0
 10
4.2382900446
 20
5.7822574867
 30
0.0
 10
4.2333371018
 20
5.782026749
 30
0.0
 10
4.2288858168
 20
5.7817964438
 30
0.0
 10
4.2249660408
 20
5.7815668402
 30
0.0
 10
4.2216036188
 20
5.7813382575
 30
0.0
 10
4.2188211351
 20
5.7811110364
 30
0.0
 10
4.2168743152
 20
5.7809122984
 30
0.0
 10
4.2156216377
 20
5.7807466245
 30
0.0
 10
4.2149122275
 20
5.7806326892
 30
0.0
 10
4.2144191456
 20
5.7805331686
 30
0.0
 10
4.2141036976
 20
5.7804500913
 30
0.0
 10
4.2139252979
 20
5.7803934654
 30
0.0
 10
4.2137841657
 20
5.7803353879
 30
0.0
 10
4.2136690479
 20
5.7802733686
 30
0.0
 10
4.2135975038
 20
5.7802012288
 30
0.0
 10
4.2135976127
 20
5.7801543989
 30
0.0
  0
LINE
  5
401
100
AcDbEntity
  8
ALL_ASSEMBLY_MEMBERS
100
AcDbLine
 62
7
  6
CONTINUOUS
 10
4.4023562802
 20
5.8067928054
 11
4.4017087576
 21
5.8065761126
  0
SPLINE
  5
402
100
AcDbEntity
  8
ALL_ASSEMBLY_MEMBERS
100
AcDbSpline
 62
7
  6
CONTINUOUS
 70
0
 71
3
 72
43
 73
39
 74
0
 42
0.0000001
 43
0.0000001
 44
0.0000000001
 40
0.0
 40
0.0
 40
0.0
 40
0.0
 40
0.0036426262
 40
0.0083654179
 40
0.0141642359
 40
0.0210267224
 40
0.0378859659
 40
0.058812146
 40
0.0836149864
 40
0.112083588
 40
0.1439627335
 40
0.1789717633
 40
0.2571160064
 40
0.3437546617
 40
0.4358245685
 40
0.5300709552
 40
0.6231637581
 40
0.6682461028
 40
0.7118156547
 40
0.7534907933
 40
0.7928983676
 40
0.8296957373
 40
0.8635535173
 40
0.8941764295
 40
0.9212946701
 40
0.944668104
 40
0.9640990717
 40
0.9722789519
 40
0.9794138484
 40
0.9854910897
 40
0.990499112
 40
0.9925992628
 40
0.9944295359
 40
0.9959910337
 40
0.9972859328
 40
0.9983184353
 40
0.9990974513
 40
1.0
 40
1.0
 40
1.0
 40
1.0
 10
4.4017087576
 20
5.8065761126
 30
0.0
 10
4.401486555
 20
5.8065237269
 30
0.0
 10
4.4009711667
 20
5.8064254696
 30
0.0
 10
4.4000930666
 20
5.8062947382
 30
0.0
 10
4.3990114131
 20
5.8061631364
 30
0.0
 10
4.3971709603
 20
5.8059734902
 30
0.0
 10
4.3943818805
 20
5.8057444751
 30
0.0
 10
4.3904680121
 20
5.805482185
 30
0.0
 10
4.3858252402
 20
5.8052185078
 30
0.0
 10
4.3804951377
 20
5.8049538856
 30
0.0
 10
4.3745247143
 20
5.8046886123
 30
0.0
 10
4.3654425303
 20
5.8043207987
 30
0.0
 10
4.3529290107
 20
5.8038708449
 30
0.0
 10
4.33683982
 20
5.803346327
 30
0.0
 10
4.3197409903
 20
5.8028208327
 30
0.0
 10
4.302237493
 20
5.8022949219
 30
0.0
 10
4.2876776675
 20
5.8018523502
 30
0.0
 10
4.2762928399
 20
5.8014935044
 30
0.0
 10
4.2681291939
 20
5.801227321
 30
0.0
 10
4.2603213922
 20
5.8009613326
 30
0.0
 10
4.2529382762
 20
5.8006954837
 30
0.0
 10
4.246045422
 20
5.8004299501
 30
0.0
 10
4.2397035526
 20
5.8001647408
 30
0.0
 10
4.2339688606
 20
5.7999000317
 30
0.0
 10
4.2288919758
 20
5.7996361676
 30
0.0
 10
4.2245175675
 20
5.7993731843
 30
0.0
 10
4.2213302576
 20
5.7991447942
 30
0.0
 10
4.219160697
 20
5.7989571609
 30
0.0
 10
4.2178264756
 20
5.7988250187
 30
0.0
 10
4.2166921127
 20
5.7986933678
 30
0.0
 10
4.2158735958
 20
5.7985788292
 30
0.0
 10
4.2153212497
 20
5.7984848118
 30
0.0
 10
4.2149835292
 20
5.7984187365
 30
0.0
 10
4.2146969141
 20
5.7983525846
 30
0.0
 10
4.2144629208
 20
5.7982876446
 30
0.0
 10
4.2142768922
 20
5.7982207886
 30
0.0
 10
4.2141298549
 20
5.7981514398
 30
0.0
 10
4.2140303087
 20
5.7980690551
 30
0.0
 10
4.2140301623
 20
5.7980124899
 30
0.0
  0
SPLINE
  5
403
100
AcDbEntity
  8
ALL_ASSEMBLY_MEMBERS
100
AcDbSpline
 62
7
  6
CONTINUOUS
 70
0
 71
3
 72
32
 73
28
 74
0
 42
0.0000001
 43
0.0000001
 44
0.0000000001
 40
0.0
 40
0.0
 40
0.0
 40
0.0
 40
0.0487451118
 40
0.1081688836
 40
0.1767098425
 40
0.2526375531
 40
0.333996633
 40
0.4186974852
 40
0.504566579
 40
0.5894005249
 40
0.6710212845
 40
0.747334342
 40
0.7828846555
 40
0.816385273
 40
0.8476264224
 40
0.8764065065
 40
0.9025381802
 40
0.9258613996
 40
0.9462216202
 40
0.9634930997
 40
0.9775724392
 40
0.9833849133
 40
0.9883692824
 40
0.9925217104
 40
0.9958402701
 40
0.9983275436
 40
1.0
 40
1.0
 40
1.0
 40
1.0
 10
4.3903587902
 20
5.7831350136
 30
0.0
 10
4.3874905606
 20
5.7829624977
 30
0.0
 10
4.3811224503
 20
5.7826352801
 30
0.0
 10
4.3707152803
 20
5.7821902814
 30
0.0
 10
4.3587045609
 20
5.7817430084
 30
0.0
 10
4.3454000936
 20
5.7812939879
 30
0.0
 10
4.3311425615
 20
5.7808441492
 30
0.0
 10
4.3162987486
 20
5.7803938354
 30
0.0
 10
4.3012500121
 20
5.7799433995
 30
0.0
 10
4.2863829146
 20
5.7794931603
 30
0.0
 10
4.2720793744
 20
5.7790433933
 30
0.0
 10
4.260680325
 20
5.7786608914
 30
0.0
 10
4.2521170524
 20
5.7783509284
 30
0.0
 10
4.2462094112
 20
5.7781240783
 30
0.0
 10
4.2407011629
 20
5.777897454
 30
0.0
 10
4.2356276801
 20
5.7776711
 30
0.0
 10
4.2310214302
 20
5.7774450352
 30
0.0
 10
4.2269121459
 20
5.7772195265
 30
0.0
 10
4.2233259669
 20
5.7769947866
 30
0.0
 10
4.2202858989
 20
5.7767709518
 30
0.0
 10
4.2181036891
 20
5.7765760243
 30
0.0
 10
4.2166461057
 20
5.7764152129
 30
0.0
 10
4.2157719558
 20
5.7763028521
 30
0.0
 10
4.2150463472
 20
5.7761910532
 30
0.0
 10
4.2144692136
 20
5.7760806405
 30
0.0
 10
4.2140426233
 20
5.7759714729
 30
0.0
 10
4.2138102997
 20
5.7758863071
 30
0.0
 10
4.2137249753
 20
5.7758369184
 30
0.0
  0
LINE
  5
404
100
AcDbEntity
  8
ALL_ASSEMBLY_MEMBERS
100
AcDbLine
 62
7
  6
CONTINUOUS
 10
4.4019123504
 20
5.8246493664
 11
4.4008295037
 21
5.8243409688
  0
SPLINE
  5
405
100
AcDbEntity
  8
ALL_ASSEMBLY_MEMBERS
100
AcDbSpline
 62
7
  6
CONTINUOUS
 70
0
 71
3
 72
42
 73
38
 74
0
 42
0.0000001
 43
0.0000001
 44
0.0000000001
 40
0.0
 40
0.0
 40
0.0
 40
0.0
 40
0.0043470267
 40
0.0097480457
 40
0.0236838847
 40
0.0417038752
 40
0.0636537007
 40
0.0893531337
 40
0.1185728983
 40
0.1510683876
 40
0.1865522026
 40
0.265241855
 40
0.3519198139
 40
0.4435877416
 40
0.5370755776
 40
0.6291514453
 40
0.6736602494
 40
0.7166335133
 40
0.7576970411
 40
0.7965001285
 40
0.8327017418
 40
0.8659953732
 40
0.8960890056
 40
0.922726496
 40
0.9456798727
 40
0.964750156
 40
0.9727812971
 40
0.9797855348
 40
0.9857473988
 40
0.9906593979
 40
0.9927205217
 40
0.9945181834
 40
0.9960528989
 40
0.9973262007
 40
0.9983416831
 40
0.9991079125
 40
1.0
 40
1.0
 40
1.0
 40
1.0
 10
4.4008295037
 20
5.8243409688
 30
0.0
 10
4.4005637253
 20
5.8242906947
 30
0.0
 10
4.3999646333
 20
5.8241944691
 30
0.0
 10
4.3985031087
 20
5.8240045508
 30
0.0
 10
4.3961891321
 20
5.8237786453
 30
0.0
 10
4.3928447924
 20
5.8235204212
 30
0.0
 10
4.3887667109
 20
5.8232605968
 30
0.0
 10
4.3839906836
 20
5.8229993774
 30
0.0
 10
4.3785576355
 20
5.8227373249
 30
0.0
 10
4.3725151587
 20
5.8224748117
 30
0.0
 10
4.3633959739
 20
5.8221116399
 30
0.0
 10
4.350905971
 20
5.8216668713
 30
0.0
 10
4.3349204905
 20
5.8211476711
 30
0.0
 10
4.3180137727
 20
5.8206276175
 30
0.0
 10
4.3007710332
 20
5.820107222
 30
0.0
 10
4.2864615955
 20
5.8196690909
 30
0.0
 10
4.2752943439
 20
5.8193138809
 30
0.0
 10
4.2672999939
 20
5.8190506018
 30
0.0
 10
4.2596608752
 20
5.8187874331
 30
0.0
 10
4.2524433721
 20
5.8185245112
 30
0.0
 10
4.2457096799
 20
5.8182617785
 30
0.0
 10
4.2395183531
 20
5.8179994689
 30
0.0
 10
4.2339227129
 20
5.8177375984
 30
0.0
 10
4.2289712198
 20
5.8174765267
 30
0.0
 10
4.2247066894
 20
5.8172164787
 30
0.0
 10
4.2216001262
 20
5.8169903827
 30
0.0
 10
4.219486007
 20
5.8168048258
 30
0.0
 10
4.2181859672
 20
5.816674149
 30
0.0
 10
4.2170810986
 20
5.8165438846
 30
0.0
 10
4.2162841222
 20
5.8164305256
 30
0.0
 10
4.2157462581
 20
5.816337522
 30
0.0
 10
4.2154171427
 20
5.8162721604
 30
0.0
 10
4.2151377139
 20
5.816206724
 30
0.0
 10
4.2149095019
 20
5.8161424923
 30
0.0
 10
4.2147282486
 20
5.8160763539
 30
0.0
 10
4.2145845975
 20
5.8160076503
 30
0.0
 10
4.2144884964
 20
5.8159258036
 30
0.0
 10
4.2144886137
 20
5.8158702941
 30
0.0
  0
SPLINE
  5
406
100
AcDbEntity
  8
ALL_ASSEMBLY_MEMBERS
100
AcDbSpline
 62
7
  6
CONTINUOUS
 70
0
 71
3
 72
17
 73
13
 74
0
 42
0.0000001
 43
0.0000001
 44
0.0000000001
 40
0.0
 40
0.0
 40
0.0
 40
0.0
 40
0.2104222019
 40
0.3976128707
 40
0.5607997062
 40
0.6992554954
 40
0.8125559983
 40
0.9004495334
 40
0.9348179719
 40
0.9628031741
 40
0.984473015
 40
1.0
 40
1.0
 40
1.0
 40
1.0
 10
4.3963692091
 20
5.7916052655
 30
0.0
 10
4.3973175248
 20
5.7916592114
 30
0.0
 10
4.3991091865
 20
5.7917660406
 30
0.0
 10
4.4016350166
 20
5.7919352351
 30
0.0
 10
4.4038351894
 20
5.7921039752
 30
0.0
 10
4.4057008202
 20
5.7922718546
 30
0.0
 10
4.4072249339
 20
5.7924387956
 30
0.0
 10
4.4082786041
 20
5.7925849077
 30
0.0
 10
4.4089457695
 20
5.7927071549
 30
0.0
 10
4.4093160571
 20
5.7927905649
 30
0.0
 10
4.4095984173
 20
5.7928731449
 30
0.0
 10
4.4097549022
 20
5.7929369301
 30
0.0
 10
4.4098155823
 20
5.7929720073
 30
0.0
  0
SPLINE
  5
407
100
AcDbEntity
  8
ALL_ASSEMBLY_MEMBERS
100
AcDbSpline
 62
7
  6
CONTINUOUS
 70
0
 71
3
 72
23
 73
19
 74
0
 42
0.0000001
 43
0.0000001
 44
0.0000000001
 40
0.0
 40
0.0
 40
0.0
 40
0.0
 40
0.0032741186
 40
0.0083786708
 40
0.0153588981
 40
0.0242306695
 40
0.0349977911
 40
0.0476549749
 40
0.0786078672
 40
0.1170200041
 40
0.1628152014
 40
0.2159139129
 40
0.2762124338
 40
0.3435800512
 40
0.4178841494
 40
0.586762769
 40
0.7814348416
 40
1.0
 40
1.0
 40
1.0
 40
1.0
 10
4.2086438372
 20
5.7377459312
 30
0.0
 10
4.208668218
 20
5.7377600454
 30
0.0
 10
4.2087373636
 20
5.7377831957
 30
0.0
 10
4.2088658432
 20
5.7378129365
 30
0.0
 10
4.2090438829
 20
5.7378429128
 30
0.0
 10
4.2092708431
 20
5.7378733917
 30
0.0
 10
4.2095470801
 20
5.7379039912
 30
0.0
 10
4.21001289
 20
5.7379479639
 30
0.0
 10
4.2107166833
 20
5.7380011544
 30
0.0
 10
4.2117056942
 20
5.7380620526
 30
0.0
 10
4.2128855517
 20
5.7381231525
 30
0.0
 10
4.2142539273
 20
5.738184405
 30
0.0
 10
4.2158080789
 20
5.7382457113
 30
0.0
 10
4.2175448109
 20
5.7383070669
 30
0.0
 10
4.220215513
 20
5.7383925884
 30
0.0
 10
4.2239814964
 20
5.7384975947
 30
0.0
 10
4.2289887277
 20
5.7386190305
 30
0.0
 10
4.2325435196
 20
5.7386957465
 30
0.0
 10
4.2344237194
 20
5.738734513
 30
0.0
  0
SPLINE
  5
408
100
AcDbEntity
  8
ALL_ASSEMBLY_MEMBERS
100
AcDbSpline
 62
7
  6
CONTINUOUS
 70
0
 71
3
 72
13
 73
9
 74
0
 42
0.0000001
 43
0.0000001
 44
0.0000000001
 40
0.0
 40
0.0
 40
0.0
 40
0.0
 40
0.29888392
 40
0.5773818499
 40
0.70296866
 40
0.8165106157
 40
0.9161030154
 40
1.0
 40
1.0
 40
1.0
 40
1.0
 10
4.3083763038
 20
5.7886097339
 30
0.0
 10
4.3171446196
 20
5.7888577753
 30
0.0
 10
4.334083199
 20
5.7893364465
 30
0.0
 10
4.3547050649
 20
5.7899566246
 30
0.0
 10
4.3698881131
 20
5.7904673205
 30
0.0
 10
4.3798223158
 20
5.7908355142
 30
0.0
 10
4.3885321061
 20
5.7912017399
 30
0.0
 10
4.3939108074
 20
5.7914674997
 30
0.0
 10
4.3963692091
 20
5.7916052655
 30
0.0
  0
SPLINE
  5
409
100
AcDbEntity
  8
ALL_ASSEMBLY_MEMBERS
100
AcDbSpline
 62
7
  6
CONTINUOUS
 70
0
 71
3
 72
11
 73
7
 74
0
 42
0.0000001
 43
0.0000001
 44
0.0000000001
 40
0.0
 40
0.0
 40
0.0
 40
0.0
 40
0.2347577815
 40
0.4820980976
 40
0.7386272696
 40
1.0
 40
1.0
 40
1.0
 40
1.0
 10
4.2411668954
 20
4.5741443483
 30
0.0
 10
4.245721683
 20
4.5709856948
 30
0.0
 10
4.255694026
 20
4.5653621847
 30
0.0
 10
4.2721157973
 20
4.5593055185
 30
0.0
 10
4.2898552846
 20
4.5555763648
 30
0.0
 10
4.302099509
 20
4.5547344037
 30
0.0
 10
4.3082707604
 20
4.5547296057
 30
0.0
  0
SPLINE
  5
40A
100
AcDbEntity
  8
ALL_ASSEMBLY_MEMBERS
100
AcDbSpline
 62
7
  6
CONTINUOUS
 70
0
 71
3
 72
11
 73
7
 74
0
 42
0.0000001
 43
0.0000001
 44
0.0000000001
 40
0.0
 40
0.0
 40
0.0
 40
0.0
 40
0.2613691898
 40
0.5179175725
 40
0.7652675632
 40
1.0
 40
1.0
 40
1.0
 40
1.0
 10
4.3082707604
 20
4.5547296057
 30
0.0
 10
4.314462628
 20
4.5547247915
 30
0.0
 10
4.3267496862
 20
4.5555532731
 30
0.0
 10
4.3445530558
 20
4.5592786298
 30
0.0
 10
4.3610334485
 20
4.5653473298
 30
0.0
 10
4.3710393955
 20
4.5709895444
 30
0.0
 10
4.3756080155
 20
4.5741598233
 30
0.0
  0
SPLINE
  5
40B
100
AcDbEntity
  8
ALL_ASSEMBLY_MEMBERS
100
AcDbSpline
 62
7
  6
CONTINUOUS
 70
0
 71
3
 72
48
 73
44
 74
0
 42
0.0000001
 43
0.0000001
 44
0.0000000001
 40
0.0
 40
0.0
 40
0.0
 40
0.0
 40
0.0009241427
 40
0.0017364989
 40
0.0028172368
 40
0.0041746273
 40
0.005812258
 40
0.0077317225
 40
0.0099336342
 40
0.0151846554
 40
0.0215607274
 40
0.0290470522
 40
0.0376261624
 40
0.0579895137
 40
0.0824705827
 40
0.1108376076
 40
0.1428347755
 40
0.1781572239
 40
0.2164831086
 40
0.2574498189
 40
0.3006797946
 40
0.3457680336
 40
0.3922952011
 40
0.4879239389
 40
0.5840123071
 40
0.6769908661
 40
0.7212258322
 40
0.7634075796
 40
0.8031392712
 40
0.8400568734
 40
0.8738136503
 40
0.9040997525
 40
0.930634351
 40
0.9531718756
 40
0.9628785672
 40
0.9715111489
 40
0.9790503668
 40
0.985483269
 40
0.9907982593
 40
0.9949858949
 40
0.9980443249
 40
0.9991566228
 40
1.0
 40
1.0
 40
1.0
 40
1.0
 10
4.403887711
 20
5.7489038356
 30
0.0
 10
4.403887842
 20
5.7488448423
 30
0.0
 10
4.403779705
 20
5.7487602498
 30
0.0
 10
4.4036238214
 20
5.748689656
 30
0.0
 10
4.403424404
 20
5.7486209005
 30
0.0
 10
4.4031740174
 20
5.7485542142
 30
0.0
 10
4.4028672591
 20
5.7484862199
 30
0.0
 10
4.4025060473
 20
5.748418318
 30
0.0
 10
4.4019155091
 20
5.7483216678
 30
0.0
 10
4.4010404937
 20
5.7482039103
 30
0.0
 10
4.3998278222
 20
5.7480686667
 30
0.0
 10
4.3984016488
 20
5.7479329102
 30
0.0
 10
4.396084145
 20
5.7477401775
 30
0.0
 10
4.3926817465
 20
5.7475054956
 30
0.0
 10
4.3880159873
 20
5.7472354947
 30
0.0
 10
4.382606557
 20
5.7469644262
 30
0.0
 10
4.3765043409
 20
5.7466926777
 30
0.0
 10
4.3697658498
 20
5.746420369
 30
0.0
 10
4.3624543645
 20
5.7461478104
 30
0.0
 10
4.3546377802
 20
5.7458749673
 30
0.0
 10
4.3463892719
 20
5.7456020071
 30
0.0
 10
4.337785626
 20
5.7453289189
 30
0.0
 10
4.3258383774
 20
5.7449613764
 30
0.0
 10
4.3106365827
 20
5.7445084438
 30
0.0
 10
4.2924707668
 20
5.7439696597
 30
0.0
 10
4.2775846893
 20
5.7435141411
 30
0.0
 10
4.2661388046
 20
5.7431441545
 30
0.0
 10
4.2580906205
 20
5.7428714824
 30
0.0
 10
4.2505098223
 20
5.7425989917
 30
0.0
 10
4.2434671951
 20
5.7423268628
 30
0.0
 10
4.2370280066
 20
5.7420551132
 30
0.0
 10
4.2312522372
 20
5.7417840374
 30
0.0
 10
4.2261935079
 20
5.7415138031
 30
0.0
 10
4.2224485216
 20
5.7412797179
 30
0.0
 10
4.2198460963
 20
5.7410885666
 30
0.0
 10
4.2181996954
 20
5.7409526622
 30
0.0
 10
4.2167630252
 20
5.7408171273
 30
0.0
 10
4.2155392179
 20
5.7406820689
 30
0.0
 10
4.2145305736
 20
5.740548185
 30
0.0
 10
4.2137398705
 20
5.740415264
 30
0.0
 10
4.2132181982
 20
5.74029864
 30
0.0
 10
4.2129139756
 20
5.7401987244
 30
0.0
 10
4.2127993016
 20
5.7401479735
 30
0.0
 10
4.2127526947
 20
5.7401210236
 30
0.0
  0
SPLINE
  5
40C
100
AcDbEntity
  8
ALL_ASSEMBLY_MEMBERS
100
AcDbSpline
 62
7
  6
CONTINUOUS
 70
0
 71
3
 72
48
 73
44
 74
0
 42
0.0000001
 43
0.0000001
 44
0.0000000001
 40
0.0
 40
0.0
 40
0.0
 40
0.0
 40
0.0009276195
 40
0.0017398699
 40
0.0028197392
 40
0.004176039
 40
0.0058128861
 40
0.0077323906
 40
0.0099354146
 40
0.0151887326
 40
0.0215630627
 40
0.0290457831
 40
0.0376231836
 40
0.0579866779
 40
0.0824598889
 40
0.110825643
 40
0.1428142189
 40
0.1781331087
 40
0.2164510882
 40
0.2574119724
 40
0.3006354502
 40
0.3457166859
 40
0.3922386491
 40
0.4878564817
 40
0.58393657
 40
0.6769108263
 40
0.7211472665
 40
0.7633283944
 40
0.8030636129
 40
0.8399842223
 40
0.8737455051
 40
0.9040390693
 40
0.9305785277
 40
0.9531277499
 40
0.9628364987
 40
0.9714725439
 40
0.9790189635
 40
0.9854593954
 40
0.9907787486
 40
0.9949695455
 40
0.9980352267
 40
0.9991520907
 40
1.0
 40
1.0
 40
1.0
 40
1.0
 10
4.403446735
 20
5.766761262
 30
0.0
 10
4.4034465833
 20
5.7667023261
 30
0.0
 10
4.4033392597
 20
5.766617914
 30
0.0
 10
4.4031840116
 20
5.7665471109
 30
0.0
 10
4.4029858318
 20
5.7664783942
 30
0.0
 10
4.4027368703
 20
5.7664116947
 30
0.0
 10
4.4024317531
 20
5.7663437144
 30
0.0
 10
4.4020722763
 20
5.7662758243
 30
0.0
 10
4.4014843696
 20
5.7661792201
 30
0.0
 10
4.4006134394
 20
5.7660615331
 30
0.0
 10
4.3994067574
 20
5.7659262705
 30
0.0
 10
4.3979878229
 20
5.7657905102
 30
0.0
 10
4.3956816533
 20
5.7655978169
 30
0.0
 10
4.3922959717
 20
5.76536327
 30
0.0
 10
4.387652873
 20
5.7650931929
 30
0.0
 10
4.3822701435
 20
5.7648222948
 30
0.0
 10
4.3761976269
 20
5.7645505038
 30
0.0
 10
4.3694922464
 20
5.7642783138
 30
0.0
 10
4.3622163997
 20
5.7640057621
 30
0.0
 10
4.3544380182
 20
5.7637329873
 30
0.0
 10
4.3462296915
 20
5.76346007
 30
0.0
 10
4.3376678616
 20
5.7631870185
 30
0.0
 10
4.3257784938
 20
5.7628195437
 30
0.0
 10
4.3106500251
 20
5.7623666628
 30
0.0
 10
4.2925714716
 20
5.7618279514
 30
0.0
 10
4.2777563891
 20
5.7613724638
 30
0.0
 10
4.2663647731
 20
5.7610025476
 30
0.0
 10
4.2583543211
 20
5.7607298679
 30
0.0
 10
4.2508089536
 20
5.7604574193
 30
0.0
 10
4.2437988967
 20
5.7601853001
 30
0.0
 10
4.2373891868
 20
5.7599135445
 30
0.0
 10
4.2316396505
 20
5.7596425324
 30
0.0
 10
4.2266033304
 20
5.7593722077
 30
0.0
 10
4.2228748863
 20
5.7591382451
 30
0.0
 10
4.2202837107
 20
5.7589470403
 30
0.0
 10
4.2186443208
 20
5.7588111076
 30
0.0
 10
4.2172133251
 20
5.7586755969
 30
0.0
 10
4.2159941357
 20
5.7585405796
 30
0.0
 10
4.2149893675
 20
5.7584066935
 30
0.0
 10
4.2142015644
 20
5.7582736517
 30
0.0
 10
4.2136815088
 20
5.7581570202
 30
0.0
 10
4.2133777632
 20
5.7580571635
 30
0.0
 10
4.213263098
 20
5.7580064338
 30
0.0
 10
4.2132164415
 20
5.7579795017
 30
0.0
  0
SPLINE
  5
40D
100
AcDbEntity
  8
ALL_ASSEMBLY_MEMBERS
100
AcDbSpline
 62
7
  6
CONTINUOUS
 70
0
 71
3
 72
30
 73
26
 74
0
 42
0.0000001
 43
0.0000001
 44
0.0000000001
 40
0.0
 40
0.0
 40
0.0
 40
0.0
 40
0.0008619836
 40
0.0022581099
 40
0.0042162842
 40
0.0067451518
 40
0.009848001
 40
0.0135260831
 40
0.0226082261
 40
0.0339795757
 40
0.047613145
 40
0.0634799752
 40
0.0815503298
 40
0.1017859856
 40
0.1241358109
 40
0.1749683165
 40
0.2335928039
 40
0.2994471856
 40
0.3719237627
 40
0.4503273999
 40
0.5339206829
 40
0.6218826179
 40
0.7133689965
 40
0.8075192248
 40
1.0
 40
1.0
 40
1.0
 40
1.0
 10
4.2086916264
 20
5.8735993479
 30
0.0
 10
4.2087119907
 20
5.8736195205
 30
0.0
 10
4.208781659
 20
5.8736531114
 30
0.0
 10
4.2089146039
 20
5.8736948355
 30
0.0
 10
4.209106198
 20
5.8737373864
 30
0.0
 10
4.2093547141
 20
5.8737806069
 30
0.0
 10
4.2096613319
 20
5.873824146
 30
0.0
 10
4.210185078
 20
5.8738869926
 30
0.0
 10
4.2109840622
 20
5.8739629418
 30
0.0
 10
4.2121142606
 20
5.874049936
 30
0.0
 10
4.2134706155
 20
5.8741374389
 30
0.0
 10
4.2150500903
 20
5.8742253909
 30
0.0
 10
4.2168493944
 20
5.8743136069
 30
0.0
 10
4.2188645002
 20
5.8744020434
 30
0.0
 10
4.2219685552
 20
5.8745255883
 30
0.0
 10
4.2263490217
 20
5.8746777049
 30
0.0
 10
4.2321761327
 20
5.8748542759
 30
0.0
 10
4.2387232625
 20
5.87503164
 30
0.0
 10
4.2459283252
 20
5.8752096005
 30
0.0
 10
4.2537234255
 20
5.8753881497
 30
0.0
 10
4.2620335889
 20
5.875567153
 30
0.0
 10
4.2707788889
 20
5.8757466324
 30
0.0
 10
4.2798753102
 20
5.8759265234
 30
0.0
 10
4.2924468286
 20
5.8761687242
 30
0.0
 10
4.3019767219
 20
5.8763479644
 30
0.0
 10
4.3083763038
 20
5.8764688192
 30
0.0
  0
LINE
  5
40E
100
AcDbEntity
  8
ALL_ASSEMBLY_MEMBERS
100
AcDbLine
 62
7
  6
CONTINUOUS
 10
4.4005019429
 20
5.878219362
 11
4.3994558632
 21
5.8779164345
  0
SPLINE
  5
40F
100
AcDbEntity
  8
ALL_ASSEMBLY_MEMBERS
100
AcDbSpline
 62
7
  6
CONTINUOUS
 70
0
 71
3
 72
41
 73
37
 74
0
 42
0.0000001
 43
0.0000001
 44
0.0000000001
 40
0.0
 40
0.0
 40
0.0
 40
0.0
 40
0.0043245727
 40
0.0097036853
 40
0.0235980282
 40
0.0415799434
 40
0.0634961715
 40
0.0891660567
 40
0.1183609479
 40
0.1508361764
 40
0.1863039209
 40
0.2649749183
 40
0.3516503881
 40
0.4433296812
 40
0.5368398955
 40
0.6289460554
 40
0.6734724494
 40
0.7164632352
 40
0.7575456672
 40
0.7963669033
 40
0.8325866019
 40
0.8658980794
 40
0.8960071827
 40
0.9226609234
 40
0.9456264361
 40
0.9647100175
 40
0.9797542625
 40
0.9857204381
 40
0.990637582
 40
0.9927012511
 40
0.9945012729
 40
0.99603806
 40
0.9973130759
 40
0.9983301459
 40
0.9990988219
 40
1.0
 40
1.0
 40
1.0
 40
1.0
 10
4.3994558632
 20
5.8779164345
 30
0.0
 10
4.3991955806
 20
5.8778661005
 30
0.0
 10
4.3986083582
 20
5.8777698029
 30
0.0
 10
4.3971741924
 20
5.8775797533
 30
0.0
 10
4.3949010888
 20
5.8773537732
 30
0.0
 10
4.3916135927
 20
5.8770954624
 30
0.0
 10
4.3876024353
 20
5.8768355609
 30
0.0
 10
4.382902836
 20
5.8765742426
 30
0.0
 10
4.3775551101
 20
5.8763120959
 30
0.0
 10
4.3716061443
 20
5.876049487
 30
0.0
 10
4.3626257495
 20
5.8756861505
 30
0.0
 10
4.3503234384
 20
5.8752412084
 30
0.0
 10
4.3345758042
 20
5.8747218304
 30
0.0
 10
4.3179180604
 20
5.8742016005
 30
0.0
 10
4.3009272618
 20
5.8736810314
 30
0.0
 10
4.2868258609
 20
5.873242758
 30
0.0
 10
4.2758203274
 20
5.8728874442
 30
0.0
 10
4.2679413153
 20
5.8726240696
 30
0.0
 10
4.260412239
 20
5.8723608234
 30
0.0
 10
4.2532985013
 20
5.8720978111
 30
0.0
 10
4.2466614759
 20
5.8718349933
 30
0.0
 10
4.2405589537
 20
5.8715726057
 30
0.0
 10
4.2350434097
 20
5.8713106535
 30
0.0
 10
4.2301628579
 20
5.871049448
 30
0.0
 10
4.2259591738
 20
5.8707895438
 30
0.0
 10
4.2224687443
 20
5.8705309929
 30
0.0
 10
4.2200209507
 20
5.8703051772
 30
0.0
 10
4.2184426721
 20
5.8701165722
 30
0.0
 10
4.2176570108
 20
5.870003158
 30
0.0
 10
4.217126739
 20
5.8699101375
 30
0.0
 10
4.2168022593
 20
5.8698447554
 30
0.0
 10
4.2165268278
 20
5.8697793043
 30
0.0
 10
4.2163018997
 20
5.8697150385
 30
0.0
 10
4.2161234073
 20
5.869648871
 30
0.0
 10
4.2159813914
 20
5.8695798842
 30
0.0
 10
4.215887223
 20
5.8694980125
 30
0.0
 10
4.2158872627
 20
5.8694427685
 30
0.0
  0
SPLINE
  5
410
100
AcDbEntity
  8
ALL_ASSEMBLY_MEMBERS
100
AcDbSpline
 62
7
  6
CONTINUOUS
 70
0
 71
3
 72
26
 73
22
 74
0
 42
0.0000001
 43
0.0000001
 44
0.0000000001
 40
0.0
 40
0.0
 40
0.0
 40
0.0
 40
0.1890753517
 40
0.3713651164
 40
0.4578651595
 40
0.5402425817
 40
0.6177426569
 40
0.6896627729
 40
0.755361411
 40
0.8142423087
 40
0.865785704
 40
0.9095130631
 40
0.928328483
 40
0.9450540297
 40
0.9596482384
 40
0.9720831338
 40
0.9823407683
 40
0.9904073538
 40
0.9962793244
 40
0.9984019277
 40
1.0
 40
1.0
 40
1.0
 40
1.0
 10
4.3083763038
 20
5.8067147019
 30
0.0
 10
4.3147763908
 20
5.8068965587
 30
0.0
 10
4.3273468768
 20
5.8072537299
 30
0.0
 10
4.3428448917
 20
5.8077098207
 30
0.0
 10
4.3547307229
 20
5.8080802138
 30
0.0
 10
4.3630693648
 20
5.8083529831
 30
0.0
 10
4.3709140151
 20
5.8086255369
 30
0.0
 10
4.3781935185
 20
5.8088978085
 30
0.0
 10
4.3848420603
 20
5.8091696329
 30
0.0
 10
4.3907999815
 20
5.8094408906
 30
0.0
 10
4.3960130609
 20
5.809711227
 30
0.0
 10
4.3998693527
 20
5.8099455118
 30
0.0
 10
4.4025468193
 20
5.8101368759
 30
0.0
 10
4.4042391189
 20
5.8102728477
 30
0.0
 10
4.4057146269
 20
5.8104084364
 30
0.0
 10
4.4069700392
 20
5.810543593
 30
0.0
 10
4.4080032298
 20
5.8106775381
 30
0.0
 10
4.4088116492
 20
5.81081055
 30
0.0
 10
4.4093439396
 20
5.8109270633
 30
0.0
 10
4.409653089
 20
5.8110271814
 30
0.0
 10
4.4097690062
 20
5.8110780491
 30
0.0
 10
4.4098158435
 20
5.8111051557
 30
0.0
  0
SPLINE
  5
411
100
AcDbEntity
  8
ALL_ASSEMBLY_MEMBERS
100
AcDbSpline
 62
7
  6
CONTINUOUS
 70
0
 71
3
 72
11
 73
7
 74
0
 42
0.0000001
 43
0.0000001
 44
0.0000000001
 40
0.0
 40
0.0
 40
0.0
 40
0.0
 40
0.2376849579
 40
0.4855075009
 40
0.7406892263
 40
1.0
 40
1.0
 40
1.0
 40
1.0
 10
4.2504947703
 20
4.5336226079
 30
0.0
 10
4.2547001454
 20
4.5314352277
 30
0.0
 10
4.2636275313
 20
4.5275941614
 30
0.0
 10
4.2778757412
 20
4.5235589787
 30
0.0
 10
4.2929335552
 20
4.5212210438
 30
0.0
 10
4.3032144925
 20
4.520842778
 30
0.0
 10
4.3083848924
 20
4.5209506207
 30
0.0
  0
SPLINE
  5
412
100
AcDbEntity
  8
ALL_ASSEMBLY_MEMBERS
100
AcDbSpline
 62
7
  6
CONTINUOUS
 70
0
 71
3
 72
10
 73
6
 74
0
 42
0.0000001
 43
0.0000001
 44
0.0000000001
 40
0.0
 40
0.0
 40
0.0
 40
0.0
 40
0.2565039059
 40
0.5104813337
 40
1.0
 40
1.0
 40
1.0
 40
1.0
 10
4.3100337829
 20
4.520995193
 30
0.0
 10
4.3147044538
 20
4.5211503109
 30
0.0
 10
4.3239939072
 20
4.5219462237
 30
0.0
 10
4.3418978037
 20
4.5254084385
 30
0.0
 10
4.3547628434
 20
4.5301378283
 30
0.0
 10
4.3626759041
 20
4.534251693
 30
0.0
  0
LINE
  5
413
100
AcDbEntity
  8
ALL_ASSEMBLY_MEMBERS
100
AcDbLine
 62
7
  6
CONTINUOUS
 10
4.4009520264
 20
5.8603630605
 11
4.4001066705
 21
5.8601010173
  0
SPLINE
  5
414
100
AcDbEntity
  8
ALL_ASSEMBLY_MEMBERS
100
AcDbSpline
 62
7
  6
CONTINUOUS
 70
0
 71
3
 72
42
 73
38
 74
0
 42
0.0000001
 43
0.0000001
 44
0.0000000001
 40
0.0
 40
0.0
 40
0.0
 40
0.0
 40
0.0040097058
 40
0.0090862506
 40
0.0224053669
 40
0.0398685265
 40
0.0613247463
 40
0.086591925
 40
0.1154513589
 40
0.1476478547
 40
0.1829051891
 40
0.2613313819
 40
0.3479890502
 40
0.4398489647
 40
0.5337004468
 40
0.6262640309
 40
0.6710465873
 40
0.7143065637
 40
0.7556621451
 40
0.7947552174
 40
0.8312424976
 40
0.8648055206
 40
0.8951545443
 40
0.9220203988
 40
0.94517782
 40
0.9644192162
 40
0.9725223562
 40
0.9795912895
 40
0.9856099524
 40
0.9905673363
 40
0.9926471623
 40
0.9944611289
 40
0.9960099593
 40
0.997295406
 40
0.9983213044
 40
0.9990963283
 40
1.0
 40
1.0
 40
1.0
 40
1.0
 10
4.4001066705
 20
5.8601010173
 30
0.0
 10
4.399864755
 20
5.8600497807
 30
0.0
 10
4.399312609
 20
5.8599525919
 30
0.0
 10
4.397944099
 20
5.8597609678
 30
0.0
 10
4.3957437488
 20
5.8595340594
 30
0.0
 10
4.3925325672
 20
5.8592749327
 30
0.0
 10
4.3885825963
 20
5.8590140789
 30
0.0
 10
4.3839287095
 20
5.8587515549
 30
0.0
 10
4.3786115713
 20
5.8584882918
 30
0.0
 10
4.3726777047
 20
5.8582243629
 30
0.0
 10
4.3636885721
 20
5.8578589756
 30
0.0
 10
4.3513414212
 20
5.8574116242
 30
0.0
 10
4.3355040751
 20
5.8568898178
 30
0.0
 10
4.3187149858
 20
5.8563670895
 30
0.0
 10
4.3015615188
 20
5.8558439891
 30
0.0
 10
4.2873101718
 20
5.8554036958
 30
0.0
 10
4.2761777682
 20
5.8550466881
 30
0.0
 10
4.2682020704
 20
5.8547820105
 30
0.0
 10
4.2605774441
 20
5.8545174512
 30
0.0
 10
4.2533707511
 20
5.8542531093
 30
0.0
 10
4.2466449643
 20
5.8539890234
 30
0.0
 10
4.2404588612
 20
5.853725274
 30
0.0
 10
4.2348666832
 20
5.8534620778
 30
0.0
 10
4.2299169691
 20
5.8531995769
 30
0.0
 10
4.2256533174
 20
5.8529381926
 30
0.0
 10
4.2225469756
 20
5.8527109229
 30
0.0
 10
4.2204328439
 20
5.8525243676
 30
0.0
 10
4.219132565
 20
5.8523929955
 30
0.0
 10
4.2180273753
 20
5.8522620948
 30
0.0
 10
4.2172301866
 20
5.8521481292
 30
0.0
 10
4.2166923051
 20
5.8520546293
 30
0.0
 10
4.2163632133
 20
5.8519889213
 30
0.0
 10
4.2160837913
 20
5.8519231363
 30
0.0
 10
4.2158555191
 20
5.8518585572
 30
0.0
 10
4.215674154
 20
5.8517920563
 30
0.0
 10
4.2155301938
 20
5.8517229776
 30
0.0
 10
4.2154340133
 20
5.8516406889
 30
0.0
 10
4.2154341503
 20
5.8515849589
 30
0.0
  0
SPLINE
  5
415
100
AcDbEntity
  8
ALL_ASSEMBLY_MEMBERS
100
AcDbSpline
 62
7
  6
CONTINUOUS
 70
0
 71
3
 72
26
 73
22
 74
0
 42
0.0000001
 43
0.0000001
 44
0.0000000001
 40
0.0
 40
0.0
 40
0.0
 40
0.0
 40
0.0015983781
 40
0.0037204917
 40
0.0095888901
 40
0.0176548229
 40
0.0279140679
 40
0.040349851
 40
0.0549413553
 40
0.0716638919
 40
0.0904785393
 40
0.1342036575
 40
0.1857419804
 40
0.24462227
 40
0.3103206765
 40
0.3822443464
 40
0.4597472144
 40
0.5421293567
 40
0.6286321467
 40
0.8109182245
 40
1.0
 40
1.0
 40
1.0
 40
1.0
 10
4.4098157189
 20
5.8654872818
 30
0.0
 10
4.4097688643
 20
5.8654601846
 30
0.0
 10
4.4096529496
 20
5.8654093322
 30
0.0
 10
4.4093439277
 20
5.865309236
 30
0.0
 10
4.4088118142
 20
5.8651926684
 30
0.0
 10
4.4080034715
 20
5.8650597256
 30
0.0
 10
4.4069702161
 20
5.8649258183
 30
0.0
 10
4.4057148078
 20
5.8647907059
 30
0.0
 10
4.4042394661
 20
5.8646551235
 30
0.0
 10
4.4025473875
 20
5.8645191753
 30
0.0
 10
4.3998701255
 20
5.8643278702
 30
0.0
 10
4.3960141109
 20
5.8640936414
 30
0.0
 10
4.3908013068
 20
5.8638233353
 30
0.0
 10
4.3848435927
 20
5.8635521406
 30
0.0
 10
4.3781949687
 20
5.8632803356
 30
0.0
 10
4.3709152683
 20
5.8630081034
 30
0.0
 10
4.363070255
 20
5.8627355648
 30
0.0
 10
4.3547312776
 20
5.862462828
 30
0.0
 10
4.342845336
 20
5.8620924767
 30
0.0
 10
4.3273471584
 20
5.8616364418
 30
0.0
 10
4.3147765987
 20
5.8612793102
 30
0.0
 10
4.3083763038
 20
5.8610974682
 30
0.0
  0
SPLINE
  5
416
100
AcDbEntity
  8
ALL_ASSEMBLY_MEMBERS
100
AcDbSpline
 62
7
  6
CONTINUOUS
 70
0
 71
3
 72
22
 73
18
 74
0
 42
0.0000001
 43
0.0000001
 44
0.0000000001
 40
0.0
 40
0.0
 40
0.0
 40
0.0
 40
0.0046518665
 40
0.0111053824
 40
0.0194084977
 40
0.0295797661
 40
0.0555449145
 40
0.0889540968
 40
0.1296878648
 40
0.177614565
 40
0.2325685826
 40
0.2943193604
 40
0.3626266635
 40
0.4372443207
 40
0.6042643781
 40
0.7929301872
 40
1.0
 40
1.0
 40
1.0
 40
1.0
 10
4.4014289522
 20
5.8425062526
 30
0.0
 10
4.4013664784
 20
5.842470179
 30
0.0
 10
4.4012061846
 20
5.8424043404
 30
0.0
 10
4.4009175908
 20
5.842318965
 30
0.0
 10
4.4005404618
 20
5.842232744
 30
0.0
 10
4.3998629042
 20
5.8421064621
 30
0.0
 10
4.3987945724
 20
5.8419555446
 30
0.0
 10
4.397251658
 20
5.8417831685
 30
0.0
 10
4.3953664608
 20
5.8416097674
 30
0.0
 10
4.3931460991
 20
5.8414354625
 30
0.0
 10
4.3905989616
 20
5.8412607613
 30
0.0
 10
4.387735143
 20
5.8410856697
 30
0.0
 10
4.3845658864
 20
5.8409103265
 30
0.0
 10
4.3797654351
 20
5.8406671513
 30
0.0
 10
4.3730990029
 20
5.8403677991
 30
0.0
 10
4.3643787764
 20
5.8400196586
 30
0.0
 10
4.3582458046
 20
5.8397963527
 30
0.0
 10
4.3550365776
 20
5.8396833469
 30
0.0
  0
SPLINE
  5
417
100
AcDbEntity
  8
ALL_ASSEMBLY_MEMBERS
100
AcDbSpline
 62
7
  6
CONTINUOUS
 70
0
 71
3
 72
23
 73
19
 74
0
 42
0.0000001
 43
0.0000001
 44
0.0000000001
 40
0.0
 40
0.0
 40
0.0
 40
0.0
 40
0.2077770048
 40
0.3969593978
 40
0.5643421743
 40
0.6390712118
 40
0.7074442964
 40
0.7692032484
 40
0.8240920834
 40
0.8718951139
 40
0.9124520216
 40
0.9456109766
 40
0.9593757116
 40
0.9712542966
 40
0.9812451001
 40
0.9893515443
 40
0.9955882476
 40
1.0
 40
1.0
 40
1.0
 40
1.0
 10
4.3591897872
 20
5.8444760181
 30
0.0
 10
4.3627030247
 20
5.8445912818
 30
0.0
 10
4.3694148502
 20
5.8448189776
 30
0.0
 10
4.3789556874
 20
5.8451740296
 30
0.0
 10
4.3862458923
 20
5.8454792893
 30
0.0
 10
4.3914927626
 20
5.8457273609
 30
0.0
 10
4.3949539571
 20
5.845906166
 30
0.0
 10
4.398079028
 20
5.8460846702
 30
0.0
 10
4.4008554878
 20
5.8462628442
 30
0.0
 10
4.4032724761
 20
5.8464404891
 30
0.0
 10
4.4053207325
 20
5.8466173991
 30
0.0
 10
4.4067928446
 20
5.8467714862
 30
0.0
 10
4.4077795688
 20
5.8468983293
 30
0.0
 10
4.4083759103
 20
5.8469871922
 30
0.0
 10
4.4088752831
 20
5.8470756553
 30
0.0
 10
4.4092778417
 20
5.8471633525
 30
0.0
 10
4.4095829244
 20
5.8472501488
 30
0.0
 10
4.4097514068
 20
5.8473173695
 30
0.0
 10
4.4098160287
 20
5.8473547153
 30
0.0
  0
SPLINE
  5
418
100
AcDbEntity
  8
ALL_ASSEMBLY_MEMBERS
100
AcDbSpline
 62
7
  6
CONTINUOUS
 70
0
 71
3
 72
26
 73
22
 74
0
 42
0.0000001
 43
0.0000001
 44
0.0000000001
 40
0.0
 40
0.0
 40
0.0
 40
0.0
 40
0.1890713932
 40
0.3713593041
 40
0.4578586641
 40
0.5402353014
 40
0.6177345067
 40
0.689653193
 40
0.7553509939
 40
0.8142318363
 40
0.8657760949
 40
0.9095046008
 40
0.928320674
 40
0.9450471358
 40
0.9596424858
 40
0.9720782729
 40
0.9823367597
 40
0.9904044322
 40
0.9962779618
 40
0.9984013001
 40
1.0
 40
1.0
 40
1.0
 40
1.0
 10
4.3083763038
 20
5.7704477685
 30
0.0
 10
4.3147762532
 20
5.7706293095
 30
0.0
 10
4.3273465345
 20
5.7709858878
 30
0.0
 10
4.342844319
 20
5.7714413011
 30
0.0
 10
4.3547300296
 20
5.7718112044
 30
0.0
 10
4.3630685868
 20
5.7720836446
 30
0.0
 10
4.3709131277
 20
5.772355898
 30
0.0
 10
4.3781925204
 20
5.7726279058
 30
0.0
 10
4.3848409799
 20
5.7728995018
 30
0.0
 10
4.3907988968
 20
5.7731705741
 30
0.0
 10
4.3960120399
 20
5.7734407656
 30
0.0
 10
4.3998684199
 20
5.7736749628
 30
0.0
 10
4.4025459766
 20
5.7738662833
 30
0.0
 10
4.4042383664
 20
5.7740022367
 30
0.0
 10
4.4057139727
 20
5.774137816
 30
0.0
 10
4.40696948
 20
5.7742729801
 30
0.0
 10
4.4080027628
 20
5.774406945
 30
0.0
 10
4.4088112947
 20
5.7745399936
 30
0.0
 10
4.409343694
 20
5.77465654
 30
0.0
 10
4.4096529355
 20
5.7747566937
 30
0.0
 10
4.4097688931
 20
5.7748075841
 30
0.0
 10
4.4098157481
 20
5.7748347022
 30
0.0
  0
LINE
  5
419
100
AcDbEntity
  8
ALL_ASSEMBLY_MEMBERS
100
AcDbLine
 62
7
  6
CONTINUOUS
 10
4.4037609507
 20
5.7532224923
 11
4.4024652868
 21
5.7528777905
  0
SPLINE
  5
41A
100
AcDbEntity
  8
ALL_ASSEMBLY_MEMBERS
100
AcDbSpline
 62
7
  6
CONTINUOUS
 70
0
 71
3
 72
41
 73
37
 74
0
 42
0.0000001
 43
0.0000001
 44
0.0000000001
 40
0.0
 40
0.0
 40
0.0
 40
0.0
 40
0.004596039
 40
0.0102377701
 40
0.0246260125
 40
0.0430557715
 40
0.0653694482
 40
0.0913849876
 40
0.1208719359
 40
0.1892376144
 40
0.2681215969
 40
0.3548161438
 40
0.4463456588
 40
0.5395694832
 40
0.6312898972
 40
0.6755979537
 40
0.7183619137
 40
0.75921159
 40
0.7978013304
 40
0.8337946515
 40
0.8668885333
 40
0.8967963077
 40
0.9232635081
 40
0.9460675381
 40
0.9650100829
 40
0.9729864688
 40
0.9799429727
 40
0.9858637786
 40
0.9907406838
 40
0.9927866455
 40
0.9945708006
 40
0.99609369
 40
0.9973568337
 40
0.9983637411
 40
0.9991225878
 40
1.0
 40
1.0
 40
1.0
 40
1.0
 10
4.4024652868
 20
5.7528777905
 30
0.0
 10
4.4021782194
 20
5.7528281256
 30
0.0
 10
4.401536177
 20
5.7527325931
 30
0.0
 10
4.3999865494
 20
5.7525439356
 30
0.0
 10
4.397558706
 20
5.7523187035
 30
0.0
 10
4.394073494
 20
5.7520611709
 30
0.0
 10
4.3898496386
 20
5.751802109
 30
0.0
 10
4.3849239041
 20
5.7515417378
 30
0.0
 10
4.3770807147
 20
5.7511752693
 30
0.0
 10
4.3658865525
 20
5.7507299473
 30
0.0
 10
4.3510663294
 20
5.750214413
 30
0.0
 10
4.3347770557
 20
5.7496972446
 30
0.0
 10
4.3175784266
 20
5.7491790444
 30
0.0
 10
4.3000610871
 20
5.7486605997
 30
0.0
 10
4.2855358885
 20
5.7482240271
 30
0.0
 10
4.2742081896
 20
5.7478701063
 30
0.0
 10
4.2661037792
 20
5.747607848
 30
0.0
 10
4.2583620328
 20
5.7473456974
 30
0.0
 10
4.2510497101
 20
5.7470837955
 30
0.0
 10
4.244229336
 20
5.7468220909
 30
0.0
 10
4.2379597082
 20
5.7465607949
 30
0.0
 10
4.2322944711
 20
5.7462999634
 30
0.0
 10
4.2272822014
 20
5.7460398983
 30
0.0
 10
4.2229660106
 20
5.7457808894
 30
0.0
 10
4.2198221035
 20
5.7455556755
 30
0.0
 10
4.2176827515
 20
5.745370837
 30
0.0
 10
4.2163672614
 20
5.7452406817
 30
0.0
 10
4.215249301
 20
5.7451109478
 30
0.0
 10
4.2144429172
 20
5.7449980336
 30
0.0
 10
4.2138987394
 20
5.7449053924
 30
0.0
 10
4.2135658009
 20
5.7448402931
 30
0.0
 10
4.2132831068
 20
5.7447751149
 30
0.0
 10
4.2130522611
 20
5.744711156
 30
0.0
 10
4.2128687794
 20
5.7446452681
 30
0.0
 10
4.2127239256
 20
5.7445770894
 30
0.0
 10
4.2126260619
 20
5.744495637
 30
0.0
 10
4.2126262017
 20
5.7444400201
 30
0.0
  0
SPLINE
  5
41B
100
AcDbEntity
  8
ALL_ASSEMBLY_MEMBERS
100
AcDbSpline
 62
7
  6
CONTINUOUS
 70
0
 71
3
 72
13
 73
9
 74
0
 42
0.0000001
 43
0.0000001
 44
0.0000000001
 40
0.0
 40
0.0
 40
0.0
 40
0.0
 40
0.0838969567
 40
0.1834890465
 40
0.2970306514
 40
0.4226172207
 40
0.7011152609
 40
1.0
 40
1.0
 40
1.0
 40
1.0
 10
4.3963692091
 20
5.7791297617
 30
0.0
 10
4.3939108384
 20
5.7789919975
 30
0.0
 10
4.3885321847
 20
5.7787267497
 30
0.0
 10
4.3798224451
 20
5.7783623227
 30
0.0
 10
4.3698882835
 20
5.7779970061
 30
0.0
 10
4.3547052541
 20
5.7774917211
 30
0.0
 10
4.3340833445
 20
5.7768807119
 30
0.0
 10
4.3171446854
 20
5.7764113334
 30
0.0
 10
4.3083763038
 20
5.7761686307
 30
0.0
  0
SPLINE
  5
41C
100
AcDbEntity
  8
ALL_ASSEMBLY_MEMBERS
100
AcDbSpline
 62
7
  6
CONTINUOUS
 70
0
 71
3
 72
48
 73
44
 74
0
 42
0.0000001
 43
0.0000001
 44
0.0000000001
 40
0.0
 40
0.0
 40
0.0
 40
0.0
 40
0.0009435636
 40
0.0017595557
 40
0.0028418252
 40
0.004199841
 40
0.0058381572
 40
0.0077588743
 40
0.0099621042
 40
0.0152130869
 40
0.0215828928
 40
0.029060555
 40
0.0376333139
 40
0.057980084
 40
0.0824334702
 40
0.1107756177
 40
0.1427364847
 40
0.1780268204
 40
0.2163120288
 40
0.257241153
 40
0.3004299508
 40
0.3454783661
 40
0.3919669784
 40
0.4875246831
 40
0.5835565927
 40
0.676500342
 40
0.7207304556
 40
0.7629102792
 40
0.8026532015
 40
0.8395857029
 40
0.8733701248
 40
0.9036905818
 40
0.9302689724
 40
0.9528616368
 40
0.9625955569
 40
0.9712606517
 40
0.9788378301
 40
0.9853086765
 40
0.9906602561
 40
0.9948881869
 40
0.9979940213
 40
0.9991314857
 40
1.0
 40
1.0
 40
1.0
 40
1.0
 10
4.4006327511
 20
5.8739058294
 30
0.0
 10
4.4006326374
 20
5.8738476435
 30
0.0
 10
4.4005298555
 20
5.8737629787
 30
0.0
 10
4.4003783128
 20
5.8736918048
 30
0.0
 10
4.4001863241
 20
5.8736231138
 30
0.0
 10
4.3999447833
 20
5.8735564089
 30
0.0
 10
4.3996488288
 20
5.8734884595
 30
0.0
 10
4.3993001073
 20
5.8734206076
 30
0.0
 10
4.398730016
 20
5.8733240532
 30
0.0
 10
4.3978855738
 20
5.8732064014
 30
0.0
 10
4.3967155665
 20
5.8730711797
 30
0.0
 10
4.3953396244
 20
5.8729354704
 30
0.0
 10
4.3931033828
 20
5.8727429165
 30
0.0
 10
4.3898202963
 20
5.8725084183
 30
0.0
 10
4.3853179271
 20
5.8722384908
 30
0.0
 10
4.380098298
 20
5.871967719
 30
0.0
 10
4.3742096649
 20
5.8716960452
 30
0.0
 10
4.3677073114
 20
5.8714240139
 30
0.0
 10
4.3606514963
 20
5.8711515742
 30
0.0
 10
4.353108283
 20
5.8708789662
 30
0.0
 10
4.3451477595
 20
5.8706061714
 30
0.0
 10
4.3368442153
 20
5.8703332824
 30
0.0
 10
4.325312647
 20
5.8699659866
 30
0.0
 10
4.3106382527
 20
5.8695133487
 30
0.0
 10
4.293100435
 20
5.8689749364
 30
0.0
 10
4.2787267276
 20
5.8685197188
 30
0.0
 10
4.2676728492
 20
5.8681500556
 30
0.0
 10
4.259898257
 20
5.8678775164
 30
0.0
 10
4.2525739609
 20
5.8676052609
 30
0.0
 10
4.2457677469
 20
5.8673332584
 30
0.0
 10
4.2395430622
 20
5.8670617155
 30
0.0
 10
4.233957506
 20
5.8667907976
 30
0.0
 10
4.2290629788
 20
5.8665206794
 30
0.0
 10
4.2254379699
 20
5.8662868449
 30
0.0
 10
4.2229173723
 20
5.8660957766
 30
0.0
 10
4.221321266
 20
5.8659599348
 30
0.0
 10
4.2199271393
 20
5.8658245175
 30
0.0
 10
4.2187384463
 20
5.8656895521
 30
0.0
 10
4.2177575535
 20
5.8655556371
 30
0.0
 10
4.2169867192
 20
5.8654226361
 30
0.0
 10
4.2164765389
 20
5.8653060121
 30
0.0
 10
4.2161773413
 20
5.865206342
 30
0.0
 10
4.216063896
 20
5.8651557113
 30
0.0
 10
4.2160175293
 20
5.8651289049
 30
0.0
  0
SPLINE
  5
41D
100
AcDbEntity
  8
ALL_ASSEMBLY_MEMBERS
100
AcDbSpline
 62
7
  6
CONTINUOUS
 70
0
 71
3
 72
26
 73
22
 74
0
 42
0.0000001
 43
0.0000001
 44
0.0000000001
 40
0.0
 40
0.0
 40
0.0
 40
0.0
 40
0.1890716318
 40
0.3713660952
 40
0.4578712746
 40
0.5402545995
 40
0.6177603982
 40
0.6896804322
 40
0.755377573
 40
0.8142530342
 40
0.8657913251
 40
0.9095147248
 40
0.928327954
 40
0.9450522619
 40
0.9596464877
 40
0.9720811993
 40
0.9823386735
 40
0.9904055676
 40
0.9962786965
 40
0.9984017515
 40
1.0
 40
1.0
 40
1.0
 40
1.0
 10
4.3083763038
 20
5.7523317822
 30
0.0
 10
4.3147762657
 20
5.7525136515
 30
0.0
 10
4.3273467864
 20
5.752870857
 30
0.0
 10
4.3428450099
 20
5.7533270003
 30
0.0
 10
4.3547313749
 20
5.7536974508
 30
0.0
 10
4.3630705845
 20
5.7539702766
 30
0.0
 10
4.3709156262
 20
5.7542428699
 30
0.0
 10
4.3781952694
 20
5.7545151966
 30
0.0
 10
4.3848435739
 20
5.7547870413
 30
0.0
 10
4.3908010868
 20
5.7550583309
 30
0.0
 10
4.3960136745
 20
5.7553286863
 30
0.0
 10
4.3998695851
 20
5.7555629755
 30
0.0
 10
4.4025468001
 20
5.7557543577
 30
0.0
 10
4.4042389829
 20
5.7558903435
 30
0.0
 10
4.405714443
 20
5.7560259373
 30
0.0
 10
4.4069698424
 20
5.7561611124
 30
0.0
 10
4.4080030294
 20
5.7562950781
 30
0.0
 10
4.4088114886
 20
5.7564281212
 30
0.0
 10
4.409343843
 20
5.7565446448
 30
0.0
 10
4.4096530523
 20
5.7566447744
 30
0.0
 10
4.4097689885
 20
5.7566956535
 30
0.0
 10
4.4098158291
 20
5.7567227663
 30
0.0
  0
SPLINE
  5
41E
100
AcDbEntity
  8
ALL_ASSEMBLY_MEMBERS
100
AcDbSpline
 62
7
  6
CONTINUOUS
 70
0
 71
3
 72
48
 73
44
 74
0
 42
0.0000001
 43
0.0000001
 44
0.0000000001
 40
0.0
 40
0.0
 40
0.0
 40
0.0
 40
0.0009414359
 40
0.001757261
 40
0.0028394421
 40
0.0041971384
 40
0.005834637
 40
0.0077541333
 40
0.0099566503
 40
0.0152080056
 40
0.0215791632
 40
0.0290574527
 40
0.0376290637
 40
0.0579781411
 40
0.0824335531
 40
0.1107782422
 40
0.1427434106
 40
0.1780367282
 40
0.2163277092
 40
0.2572606769
 40
0.3004558235
 40
0.3455090573
 40
0.3920037914
 40
0.4875722373
 40
0.5836135558
 40
0.6765641636
 40
0.7207958947
 40
0.7629772216
 40
0.8027187682
 40
0.8396509909
 40
0.8734308807
 40
0.9037486565
 40
0.9303196192
 40
0.95290648
 40
0.9626363066
 40
0.9712957481
 40
0.9788673284
 40
0.9853341489
 40
0.99068111
 40
0.9949021807
 40
0.99800054
 40
0.999134535
 40
1.0
 40
1.0
 40
1.0
 40
1.0
 10
4.401082738
 20
5.8560488228
 30
0.0
 10
4.4010825973
 20
5.8559904852
 30
0.0
 10
4.4009789439
 20
5.8559058918
 30
0.0
 10
4.4008267368
 20
5.8558347735
 30
0.0
 10
4.400633699
 20
5.8557660788
 30
0.0
 10
4.4003909862
 20
5.8556993699
 30
0.0
 10
4.4000936625
 20
5.8556314069
 30
0.0
 10
4.3997433577
 20
5.855563528
 30
0.0
 10
4.3991705091
 20
5.8554669518
 30
0.0
 10
4.3983218096
 20
5.8553492979
 30
0.0
 10
4.3971458776
 20
5.8552140716
 30
0.0
 10
4.3957631138
 20
5.8550783489
 30
0.0
 10
4.393515788
 20
5.8548857065
 30
0.0
 10
4.3902164185
 20
5.854651226
 30
0.0
 10
4.3856916026
 20
5.8543812258
 30
0.0
 10
4.380445915
 20
5.8541104016
 30
0.0
 10
4.3745279096
 20
5.853838692
 30
0.0
 10
4.3679929992
 20
5.8535665811
 30
0.0
 10
4.3609019598
 20
5.8532941123
 30
0.0
 10
4.3533209427
 20
5.8530214222
 30
0.0
 10
4.3453206412
 20
5.8527485906
 30
0.0
 10
4.3369755088
 20
5.8524756284
 30
0.0
 10
4.3253863315
 20
5.8521082666
 30
0.0
 10
4.3106387143
 20
5.8516555282
 30
0.0
 10
4.2930136582
 20
5.8511170064
 30
0.0
 10
4.2785687108
 20
5.8506617027
 30
0.0
 10
4.2674602749
 20
5.8502919552
 30
0.0
 10
4.2596476325
 20
5.8500193817
 30
0.0
 10
4.2522875975
 20
5.849747053
 30
0.0
 10
4.2454485384
 20
5.8494750391
 30
0.0
 10
4.2391939229
 20
5.8492034096
 30
0.0
 10
4.2335819844
 20
5.8489325013
 30
0.0
 10
4.2286645193
 20
5.8486622958
 30
0.0
 10
4.2250228442
 20
5.8484284566
 30
0.0
 10
4.2224908581
 20
5.848237363
 30
0.0
 10
4.2208878721
 20
5.8481014949
 30
0.0
 10
4.2194878407
 20
5.8479660423
 30
0.0
 10
4.2182941675
 20
5.8478310831
 30
0.0
 10
4.2173093708
 20
5.8476971947
 30
0.0
 10
4.2165358627
 20
5.8475641747
 30
0.0
 10
4.2160242049
 20
5.8474475286
 30
0.0
 10
4.2157243128
 20
5.847347825
 30
0.0
 10
4.2156106542
 20
5.8472971817
 30
0.0
 10
4.2155642099
 20
5.8472703656
 30
0.0
  0
SPLINE
  5
41F
100
AcDbEntity
  8
ALL_ASSEMBLY_MEMBERS
100
AcDbSpline
 62
7
  6
CONTINUOUS
 70
0
 71
3
 72
26
 73
22
 74
0
 42
0.0000001
 43
0.0000001
 44
0.0000000001
 40
0.0
 40
0.0
 40
0.0
 40
0.0
 40
0.0022585307
 40
0.0039232186
 40
0.0060386927
 40
0.0117251533
 40
0.0194316561
 40
0.0291929885
 40
0.0410220764
 40
0.0549218862
 40
0.0708824673
 40
0.1089172676
 40
0.1549800411
 40
0.2089077674
 40
0.2704672136
 40
0.3393795189
 40
0.4153626835
 40
0.4981051073
 40
0.5872610554
 40
0.7833634855
 40
1.0
 40
1.0
 40
1.0
 40
1.0
 10
4.4015590396
 20
5.8381912427
 30
0.0
 10
4.401559012
 20
5.838156064
 30
0.0
 10
4.4015180564
 20
5.8380994306
 30
0.0
 10
4.4014419417
 20
5.8380468284
 30
0.0
 10
4.4013101863
 20
5.8379782661
 30
0.0
 10
4.4010815236
 20
5.8378992924
 30
0.0
 10
4.400732186
 20
5.8378086875
 30
0.0
 10
4.4002848526
 20
5.8377178647
 30
0.0
 10
4.3997396377
 20
5.8376262306
 30
0.0
 10
4.3990967692
 20
5.8375343528
 30
0.0
 10
4.3980472924
 20
5.8374037525
 30
0.0
 10
4.3964967858
 20
5.8372446238
 30
0.0
 10
4.394354661
 20
5.8370616681
 30
0.0
 10
4.3918450225
 20
5.8368781467
 30
0.0
 10
4.3889787095
 20
5.8366940829
 30
0.0
 10
4.3857682575
 20
5.8365096592
 30
0.0
 10
4.3822273853
 20
5.8363250335
 30
0.0
 10
4.3783708173
 20
5.8361402547
 30
0.0
 10
4.3726445222
 20
5.8358854872
 30
0.0
 10
4.3648333263
 20
5.8355714291
 30
0.0
 10
4.3584088005
 20
5.8353370923
 30
0.0
 10
4.3550365776
 20
5.8352183469
 30
0.0
  0
SPLINE
  5
420
100
AcDbEntity
  8
ALL_ASSEMBLY_MEMBERS
100
AcDbSpline
 62
7
  6
CONTINUOUS
 70
0
 71
3
 72
17
 73
13
 74
0
 42
0.0000001
 43
0.0000001
 44
0.0000000001
 40
0.0
 40
0.0
 40
0.0
 40
0.0
 40
0.1159440718
 40
0.1764427723
 40
0.2383613668
 40
0.3014877695
 40
0.3655774785
 40
0.4955211823
 40
0.6260512136
 40
0.7549391274
 40
0.8801413064
 40
1.0
 40
1.0
 40
1.0
 40
1.0
 10
4.2423414673
 20
4.562749287
 30
0.0
 10
4.2467598557
 20
4.559887426
 30
0.0
 10
4.2538860082
 20
4.5561254461
 30
0.0
 10
4.2639758093
 20
4.5521962419
 30
0.0
 10
4.2720372784
 20
4.5497220896
 30
0.0
 10
4.2804118088
 20
4.5477908054
 30
0.0
 10
4.2919494415
 20
4.5459504125
 30
0.0
 10
4.3067086273
 20
4.5451044512
 30
0.0
 10
4.3243882443
 20
4.5464041392
 30
0.0
 10
4.3415360847
 20
4.5499851233
 30
0.0
 10
4.3575674881
 20
4.5557400317
 30
0.0
 10
4.3674086509
 20
4.5610505022
 30
0.0
 10
4.371959089
 20
4.5640352664
 30
0.0
  0
SPLINE
  5
421
100
AcDbEntity
  8
ALL_ASSEMBLY_MEMBERS
100
AcDbSpline
 62
7
  6
CONTINUOUS
 70
0
 71
3
 72
26
 73
22
 74
0
 42
0.0000001
 43
0.0000001
 44
0.0000000001
 40
0.0
 40
0.0
 40
0.0
 40
0.0
 40
0.0252197665
 40
0.0507146647
 40
0.0765616757
 40
0.1028234338
 40
0.1295519003
 40
0.1567879299
 40
0.2128597422
 40
0.2712005568
 40
0.3317998542
 40
0.3945381709
 40
0.4592031459
 40
0.52550047
 40
0.593065149
 40
0.6614762346
 40
0.7302745482
 40
0.7989841067
 40
0.8671310523
 40
0.9342708488
 40
1.0
 40
1.0
 40
1.0
 40
1.0
 10
3.7738103848
 20
3.9732761158
 30
0.0
 10
3.77498147
 20
3.9652819886
 30
0.0
 10
3.7780353249
 20
3.9493006044
 30
0.0
 10
3.784670779
 20
3.9256593291
 30
0.0
 10
3.7933623043
 20
3.9023367339
 30
0.0
 10
3.8040688442
 20
3.8794329595
 30
0.0
 10
3.8167505491
 20
3.8570482441
 30
0.0
 10
3.8363956209
 20
3.8277446673
 30
0.0
 10
3.8657367378
 20
3.7929159321
 30
0.0
 10
3.907329227
 20
3.7551012778
 30
0.0
 10
3.9549437409
 20
3.721395762
 30
0.0
 10
4.0077993452
 20
3.6922762505
 30
0.0
 10
4.0650775786
 20
3.6681282255
 30
0.0
 10
4.1259186747
 20
3.6492662215
 30
0.0
 10
4.1894262034
 20
3.6359337149
 30
0.0
 10
4.2546709234
 20
3.6283037595
 30
0.0
 10
4.3207002317
 20
3.6264756102
 30
0.0
 10
4.3865488454
 20
3.6304736004
 30
0.0
 10
4.4512579795
 20
3.6402453869
 30
0.0
 10
4.513873878
 20
3.6556616782
 30
0.0
 10
4.554126529
 20
3.6697507417
 30
0.0
 10
4.5736217007
 20
3.6777093934
 30
0.0
  0
SPLINE
  5
422
100
AcDbEntity
  8
ALL_ASSEMBLY_MEMBERS
100
AcDbSpline
 62
7
  6
CONTINUOUS
 70
0
 71
3
 72
20
 73
16
 74
0
 42
0.0000001
 43
0.0000001
 44
0.0000000001
 40
0.0
 40
0.0
 40
0.0
 40
0.0
 40
0.1402285871
 40
0.2762645795
 40
0.4077595083
 40
0.4717765253
 40
0.5346127196
 40
0.5962800443
 40
0.6568072276
 40
0.7162413165
 40
0.7746464489
 40
0.832109
 40
0.8887328987
 40
0.9446459136
 40
1.0
 40
1.0
 40
1.0
 40
1.0
 10
4.5786400956
 20
3.6797840373
 30
0.0
 10
4.5964309473
 20
3.6872310631
 30
0.0
 10
4.6308189556
 20
3.7035626328
 30
0.0
 10
4.6788635502
 20
3.7326760649
 30
0.0
 10
4.7151476716
 20
3.7604753117
 30
0.0
 10
4.7413325041
 20
3.7845215212
 30
0.0
 10
4.7593291326
 20
3.8032115378
 30
0.0
 10
4.7757875857
 20
3.8226449536
 30
0.0
 10
4.7906390743
 20
3.8427552274
 30
0.0
 10
4.803828249
 20
3.8634640411
 30
0.0
 10
4.8152988172
 20
3.8846954887
 30
0.0
 10
4.8250077189
 20
3.9063662304
 30
0.0
 10
4.8329191486
 20
3.9283934977
 30
0.0
 10
4.8390020756
 20
3.9506928824
 30
0.0
 10
4.8418400648
 20
3.9657507872
 30
0.0
 10
4.8429432826
 20
3.9732836544
 30
0.0
  0
SPLINE
  5
423
100
AcDbEntity
  8
ALL_ASSEMBLY_MEMBERS
100
AcDbSpline
 62
7
  6
CONTINUOUS
 70
0
 71
3
 72
22
 73
18
 74
0
 42
0.0000001
 43
0.0000001
 44
0.0000000001
 40
0.0
 40
0.0
 40
0.0
 40
0.0
 40
0.1442317051
 40
0.2145677186
 40
0.2835269131
 40
0.3510093073
 40
0.4169451021
 40
0.4812924736
 40
0.5440455569
 40
0.6648161418
 40
0.7231123363
 40
0.7517896175
 40
0.7801756963
 40
0.8361544698
 40
0.8912862422
 40
0.9458213712
 40
1.0
 40
1.0
 40
1.0
 40
1.0
 10
4.4521596379
 20
4.4283987784
 30
0.0
 10
4.4706072007
 20
4.4234263884
 30
0.0
 10
4.4976813945
 20
4.4144999387
 30
0.0
 10
4.532160938
 20
4.3995657623
 30
0.0
 10
4.5565901294
 20
4.3871334172
 30
0.0
 10
4.579661056
 20
4.3734416916
 30
0.0
 10
4.6012501325
 20
4.3585658532
 30
0.0
 10
4.6212385727
 20
4.342577631
 30
0.0
 10
4.6452899704
 20
4.3201944559
 30
0.0
 10
4.6661455725
 20
4.2956482107
 30
0.0
 10
4.6810449275
 20
4.2724712279
 30
0.0
 10
4.6884027672
 20
4.2590715684
 30
0.0
 10
4.6949895369
 20
4.245618641
 30
0.0
 10
4.7019180907
 20
4.228453881
 30
0.0
 10
4.7080819439
 20
4.2073561236
 30
0.0
 10
4.7120122779
 20
4.1859731901
 30
0.0
 10
4.7131319635
 20
4.1715846714
 30
0.0
 10
4.713311948
 20
4.1644100458
 30
0.0
  0
SPLINE
  5
424
100
AcDbEntity
  8
ALL_ASSEMBLY_MEMBERS
100
AcDbSpline
 62
7
  6
CONTINUOUS
 70
0
 71
3
 72
20
 73
16
 74
0
 42
0.0000001
 43
0.0000001
 44
0.0000000001
 40
0.0
 40
0.0
 40
0.0
 40
0.0
 40
0.0555406923
 40
0.1113214445
 40
0.1675323943
 40
0.2243795667
 40
0.2820563542
 40
0.3407279924
 40
0.4005349942
 40
0.4615926721
 40
0.5239904544
 40
0.5877894953
 40
0.7196319231
 40
0.8571676938
 40
1.0
 40
1.0
 40
1.0
 40
1.0
 10
3.9033763038
 20
4.1592806845
 30
0.0
 10
3.9033763038
 20
4.1655977624
 30
0.0
 10
3.903964221
 20
4.1782668807
 30
0.0
 10
3.9065966311
 20
4.1971645859
 30
0.0
 10
3.910972388
 20
4.2158899064
 30
0.0
 10
3.9170645946
 20
4.2343548639
 30
0.0
 10
3.9248453831
 20
4.2524780565
 30
0.0
 10
3.9342734787
 20
4.2701823188
 30
0.0
 10
3.9453073704
 20
4.2873900122
 30
0.0
 10
3.9578925909
 20
4.3040304397
 30
0.0
 10
3.9719752732
 20
4.3200334706
 30
0.0
 10
3.9928859631
 20
4.3406560702
 30
0.0
 10
4.0225366091
 20
4.3644429862
 30
0.0
 10
4.0625202687
 20
4.389117442
 30
0.0
 10
4.0914461295
 20
4.4027185613
 30
0.0
 10
4.1064864814
 20
4.4088587593
 30
0.0
  0
SPLINE
  5
425
100
AcDbEntity
  8
ALL_ASSEMBLY_MEMBERS
100
AcDbSpline
 62
7
  6
CONTINUOUS
 70
0
 71
3
 72
9
 73
5
 74
0
 42
0.0000001
 43
0.0000001
 44
0.0000000001
 40
0.0
 40
0.0
 40
0.0
 40
0.0
 40
0.2462849312
 40
1.0
 40
1.0
 40
1.0
 40
1.0
 10
4.0751644313
 20
4.4185183239
 30
0.0
 10
4.0822499157
 20
4.4213683299
 30
0.0
 10
4.1112581984
 20
4.4323403311
 30
0.0
 10
4.1411521776
 20
4.4409469303
 30
0.0
 10
4.1639408969
 20
4.4461374993
 30
0.0
  0
LINE
  5
426
100
AcDbEntity
  8
ALL_ASSEMBLY_MEMBERS
100
AcDbLine
 62
7
  6
CONTINUOUS
 10
4.1639408969
 20
4.4461374993
 11
4.1646799202
 21
4.4463053518
  0
SPLINE
  5
427
100
AcDbEntity
  8
ALL_ASSEMBLY_MEMBERS
100
AcDbSpline
 62
7
  6
CONTINUOUS
 70
0
 71
3
 72
22
 73
18
 74
0
 42
0.0000001
 43
0.0000001
 44
0.0000000001
 40
0.0
 40
0.0
 40
0.0
 40
0.0
 40
0.1433990825
 40
0.213459523
 40
0.2822118613
 40
0.3495431995
 40
0.4153721304
 40
0.4796517551
 40
0.542372413
 40
0.603564641
 40
0.6632998378
 40
0.7216911023
 40
0.7788916889
 40
0.8350894022
 40
0.8905068288
 40
0.9453922085
 40
1.0
 40
1.0
 40
1.0
 40
1.0
 10
4.4520446249
 20
4.446311635
 30
0.0
 10
4.4754639164
 20
4.4410088345
 30
0.0
 10
4.5099222414
 20
4.4310822756
 30
0.0
 10
4.5539251257
 20
4.4137885492
 30
0.0
 10
4.5851936814
 20
4.399102808
 30
0.0
 10
4.6147807278
 20
4.3826855863
 30
0.0
 10
4.6425090264
 20
4.3646271214
 30
0.0
 10
4.668207606
 20
4.3450260889
 30
0.0
 10
4.6917148934
 20
4.3239877608
 30
0.0
 10
4.7128817806
 20
4.3016288174
 30
0.0
 10
4.73156464
 20
4.2780705439
 30
0.0
 10
4.7476352481
 20
4.2534488031
 30
0.0
 10
4.7609714767
 20
4.2279074195
 30
0.0
 10
4.771468556
 20
4.2016064054
 30
0.0
 10
4.7790372998
 20
4.1747167826
 30
0.0
 10
4.7836052358
 20
4.1474297075
 30
0.0
 10
4.7846263038
 20
4.1290791448
 30
0.0
 10
4.7846263038
 20
4.1199350837
 30
0.0
  0
SPLINE
  5
428
100
AcDbEntity
  8
ALL_ASSEMBLY_MEMBERS
100
AcDbSpline
 62
7
  6
CONTINUOUS
 70
0
 71
3
 72
21
 73
17
 74
0
 42
0.0000001
 43
0.0000001
 44
0.0000000001
 40
0.0
 40
0.0
 40
0.0
 40
0.0
 40
0.0562131564
 40
0.112626343
 40
0.1694203745
 40
0.2267779766
 40
0.2848686469
 40
0.3438454288
 40
0.4038400223
 40
0.4649643214
 40
0.5908512454
 40
0.6557970955
 40
0.7220757954
 40
0.8585278339
 40
0.9286944826
 40
1.0
 40
1.0
 40
1.0
 40
1.0
 10
3.8321263038
 20
4.1199350837
 30
0.0
 10
3.8321263038
 20
4.1275368366
 30
0.0
 10
3.8328309312
 20
4.1427765605
 30
0.0
 10
3.8359856788
 20
4.1654998319
 30
0.0
 10
3.8412250936
 20
4.1879948939
 30
0.0
 10
3.8485102534
 20
4.2101501593
 30
0.0
 10
3.8578020563
 20
4.2318617483
 30
0.0
 10
3.8690425376
 20
4.2530338795
 30
0.0
 10
3.8821759702
 20
4.2735751436
 30
0.0
 10
3.9023054192
 20
4.3002644185
 30
0.0
 10
3.9258342503
 20
4.3250970289
 30
0.0
 10
3.9521731672
 20
4.3478212329
 30
0.0
 10
3.9810669743
 20
4.3696625611
 30
0.0
 10
4.0125475173
 20
4.3891194835
 30
0.0
 10
4.0460860268
 20
4.4061086256
 30
0.0
 10
4.0636120591
 20
4.4138099997
 30
0.0
 10
4.0725394699
 20
4.4174545999
 30
0.0
  0
SPLINE
  5
429
100
AcDbEntity
  8
ALL_ASSEMBLY_MEMBERS
100
AcDbSpline
 62
7
  6
CONTINUOUS
 70
0
 71
3
 72
15
 73
11
 74
0
 42
0.0000001
 43
0.0000001
 44
0.0000000001
 40
0.0
 40
0.0
 40
0.0
 40
0.0
 40
0.1317065785
 40
0.2609864906
 40
0.3880449445
 40
0.513127925
 40
0.6365271294
 40
0.7585704563
 40
0.8796126034
 40
1.0
 40
1.0
 40
1.0
 40
1.0
 10
4.7663729359
 20
4.2142609498
 30
0.0
 10
4.7722636014
 20
4.2073743522
 30
0.0
 10
4.783464876
 20
4.1933150785
 30
0.0
 10
4.7985353542
 20
4.1712456019
 30
0.0
 10
4.8116446851
 20
4.1484788025
 30
0.0
 10
4.822729797
 20
4.1251063226
 30
0.0
 10
4.8317307172
 20
4.1012217829
 30
0.0
 10
4.8386026988
 20
4.0769269269
 30
0.0
 10
4.8433007411
 20
4.05233187
 30
0.0
 10
4.8449733111
 20
4.0357784799
 30
0.0
 10
4.8454376057
 20
4.027508044
 30
0.0
  0
SPLINE
  5
42A
100
AcDbEntity
  8
ALL_ASSEMBLY_MEMBERS
100
AcDbSpline
 62
7
  6
CONTINUOUS
 70
0
 71
3
 72
15
 73
11
 74
0
 42
0.0000001
 43
0.0000001
 44
0.0000000001
 40
0.0
 40
0.0
 40
0.0
 40
0.0
 40
0.120377012
 40
0.2414059428
 40
0.3634390023
 40
0.4868336009
 40
0.6119179982
 40
0.7389827441
 40
0.8682747662
 40
1.0
 40
1.0
 40
1.0
 40
1.0
 10
3.7713150018
 20
4.027508044
 30
0.0
 10
3.7717801153
 20
4.035793067
 30
0.0
 10
3.7734565431
 20
4.0523754642
 30
0.0
 10
3.7781689114
 20
4.0770126887
 30
0.0
 10
3.7850621965
 20
4.1013481393
 30
0.0
 10
3.7940916559
 20
4.1252715058
 30
0.0
 10
3.8052124083
 20
4.1486803588
 30
0.0
 10
3.818363425
 20
4.1714809246
 30
0.0
 10
3.8334827785
 20
4.1935800345
 30
0.0
 10
3.8447187338
 20
4.2076569611
 30
0.0
 10
3.8506280629
 20
4.2145513444
 30
0.0
  0
SPLINE
  5
42B
100
AcDbEntity
  8
ALL_ASSEMBLY_MEMBERS
100
AcDbSpline
 62
9
  6
CONTINUOUS
 70
0
 71
3
 72
22
 73
18
 74
0
 42
0.0000001
 43
0.0000001
 44
0.0000000001
 40
0.0
 40
0.0
 40
0.0
 40
0.0
 40
0.0723873266
 40
0.1435339722
 40
0.2815714342
 40
0.3484250451
 40
0.4137891642
 40
0.4776643525
 40
0.5400808387
 40
0.6010993847
 40
0.660808607
 40
0.7193267142
 40
0.7767986067
 40
0.8333975786
 40
0.8893185725
 40
0.9447768663
 40
1.0
 40
1.0
 40
1.0
 40
1.0
 10
4.5108763038
 20
3.9052614853
 30
0.0
 10
4.518461197
 20
3.908358005
 30
0.0
 10
4.5333437744
 20
3.9148951355
 30
0.0
 10
4.5617876804
 20
3.9292868477
 30
0.0
 10
4.5884534257
 20
3.9457326499
 30
0.0
 10
4.6128900829
 20
3.9641558845
 30
0.0
 10
4.6297271892
 20
3.9786403669
 30
0.0
 10
4.645191568
 20
3.9938751936
 30
0.0
 10
4.6592163248
 20
4.0097969692
 30
0.0
 10
4.6717419222
 20
4.026337037
 30
0.0
 10
4.6827117494
 20
4.0434270258
 30
0.0
 10
4.6920805098
 20
4.0609924304
 30
0.0
 10
4.6998026674
 20
4.0789602889
 30
0.0
 10
4.7058477459
 20
4.0972513184
 30
0.0
 10
4.7101838007
 20
4.1157885179
 30
0.0
 10
4.7127950533
 20
4.1344879138
 30
0.0
 10
4.713376116
 20
4.1470223022
 30
0.0
 10
4.7133759562
 20
4.1532723217
 30
0.0
  0
SPLINE
  5
42C
100
AcDbEntity
  8
ALL_ASSEMBLY_MEMBERS
100
AcDbSpline
 62
9
  6
CONTINUOUS
 70
0
 71
3
 72
21
 73
17
 74
0
 42
0.0000001
 43
0.0000001
 44
0.0000000001
 40
0.0
 40
0.0
 40
0.0
 40
0.0
 40
0.0725869197
 40
0.1438944363
 40
0.2821191058
 40
0.349002677
 40
0.4143538754
 40
0.5404247015
 40
0.6013354329
 40
0.6609252044
 40
0.7193249107
 40
0.7766957082
 40
0.8332270015
 40
0.8891316059
 40
0.9446413891
 40
1.0
 40
1.0
 40
1.0
 40
1.0
 10
4.5123594622
 20
3.9002151237
 30
0.0
 10
4.5201898497
 20
3.903411866
 30
0.0
 10
4.535546443
 20
3.9101691216
 30
0.0
 10
4.5648570024
 20
3.925075557
 30
0.0
 10
4.5922781223
 20
3.9421505946
 30
0.0
 10
4.617322232
 20
3.9613127848
 30
0.0
 10
4.6399723845
 20
3.9811569234
 30
0.0
 10
4.6600571822
 20
4.0028007897
 30
0.0
 10
4.6770425029
 20
4.0260029198
 30
0.0
 10
4.6879826178
 20
4.0437751738
 30
0.0
 10
4.6972142809
 20
4.0620312175
 30
0.0
 10
4.7046933192
 20
4.0806909104
 30
0.0
 10
4.7103865096
 20
4.099668391
 30
0.0
 10
4.7142630934
 20
4.1188787777
 30
0.0
 10
4.7163083517
 20
4.1382308398
 30
0.0
 10
4.7164409391
 20
4.1511714743
 30
0.0
 10
4.716201506
 20
4.1576173817
 30
0.0
  0
SPLINE
  5
42D
100
AcDbEntity
  8
ALL_ASSEMBLY_MEMBERS
100
AcDbSpline
 62
9
  6
CONTINUOUS
 70
0
 71
3
 72
11
 73
7
 74
0
 42
0.0000001
 43
0.0000001
 44
0.0000000001
 40
0.0
 40
0.0
 40
0.0
 40
0.0
 40
0.2477537435
 40
0.4965566718
 40
0.7470903354
 40
1.0
 40
1.0
 40
1.0
 40
1.0
 10
4.716201506
 20
4.1576173817
 30
0.0
 10
4.7160100729
 20
4.1627710551
 30
0.0
 10
4.7152348357
 20
4.1730898845
 30
0.0
 10
4.7129018774
 20
4.1884795053
 30
0.0
 10
4.7094062865
 20
4.2037572037
 30
0.0
 10
4.706324569
 20
4.2137847863
 30
0.0
 10
4.7045993326
 20
4.2187586255
 30
0.0
  0
SPLINE
  5
42E
100
AcDbEntity
  8
ALL_ASSEMBLY_MEMBERS
100
AcDbSpline
 62
9
  6
CONTINUOUS
 70
0
 71
3
 72
9
 73
5
 74
0
 42
0.0000001
 43
0.0000001
 44
0.0000000001
 40
0.0
 40
0.0
 40
0.0
 40
0.0
 40
0.4946548972
 40
1.0
 40
1.0
 40
1.0
 40
1.0
 10
4.0758131477
 20
4.4168776323
 30
0.0
 10
4.0899809467
 20
4.4226616121
 30
0.0
 10
4.1191320254
 20
4.4331376162
 30
0.0
 10
4.1490242792
 20
4.4412446511
 30
0.0
 10
4.1642587409
 20
4.4447551323
 30
0.0
  0
LINE
  5
42F
100
AcDbEntity
  8
ALL_ASSEMBLY_MEMBERS
100
AcDbLine
 62
9
  6
CONTINUOUS
 10
4.1642587409
 20
4.4447551323
 11
4.1646348813
 21
4.4448416814
  0
LINE
  5
430
100
AcDbEntity
  8
ALL_ASSEMBLY_MEMBERS
100
AcDbLine
 62
9
  6
CONTINUOUS
 10
4.4521077718
 20
4.4448438812
 11
4.4524955447
 21
4.4447546627
  0
SPLINE
  5
431
100
AcDbEntity
  8
ALL_ASSEMBLY_MEMBERS
100
AcDbSpline
 62
9
  6
CONTINUOUS
 70
0
 71
3
 72
38
 73
34
 74
0
 42
0.0000001
 43
0.0000001
 44
0.0000000001
 40
0.0
 40
0.0
 40
0.0
 40
0.0
 40
0.0738686217
 40
0.1099898163
 40
0.1454663745
 40
0.1802395742
 40
0.2142632235
 40
0.2475028241
 40
0.2799394732
 40
0.3115687563
 40
0.3424045937
 40
0.3724777358
 40
0.401838976
 40
0.4305569175
 40
0.4587196971
 40
0.4864315625
 40
0.5138122436
 40
0.5409921649
 40
0.5681092471
 40
0.5953034616
 40
0.6227119938
 40
0.6504647281
 40
0.6786794221
 40
0.7074595064
 40
0.7368902152
 40
0.7670392559
 40
0.7979547317
 40
0.8296669727
 40
0.862185079
 40
0.895503537
 40
0.9296074886
 40
0.9644646245
 40
1.0
 40
1.0
 40
1.0
 40
1.0
 10
4.4524955447
 20
4.4447546627
 30
0.0
 10
4.4734349049
 20
4.4399297697
 30
0.0
 10
4.5042745393
 20
4.4310921438
 30
0.0
 10
4.5438309252
 20
4.4160155172
 30
0.0
 10
4.5720719027
 20
4.4033225634
 30
0.0
 10
4.5989511324
 20
4.3892253943
 30
0.0
 10
4.6243333554
 20
4.3737984243
 30
0.0
 10
4.6480852022
 20
4.3571172036
 30
0.0
 10
4.6700860597
 20
4.3392698598
 30
0.0
 10
4.6902193098
 20
4.3203439316
 30
0.0
 10
4.7083828662
 20
4.3004388488
 30
0.0
 10
4.7244783002
 20
4.2796528788
 30
0.0
 10
4.7384240295
 20
4.2580950378
 30
0.0
 10
4.7501414787
 20
4.2358732066
 30
0.0
 10
4.7595714082
 20
4.2131044997
 30
0.0
 10
4.7666571844
 20
4.1899054358
 30
0.0
 10
4.7713641679
 20
4.1663994694
 30
0.0
 10
4.7736604329
 20
4.1427100029
 30
0.0
 10
4.7735382778
 20
4.1189637641
 30
0.0
 10
4.7709928722
 20
4.0952875013
 30
0.0
 10
4.7660443064
 20
4.071806665
 30
0.0
 10
4.7587151448
 20
4.0486466956
 30
0.0
 10
4.7490515864
 20
4.0259274196
 30
0.0
 10
4.7371017041
 20
4.0037692704
 30
0.0
 10
4.7229351206
 20
3.9822838819
 30
0.0
 10
4.7066230901
 20
3.9615843178
 30
0.0
 10
4.6882555734
 20
3.9417728833
 30
0.0
 10
4.6679252345
 20
3.9229544305
 30
0.0
 10
4.6457423563
 20
3.9052206244
 30
0.0
 10
4.6218180579
 20
3.8886646853
 30
0.0
 10
4.5962752118
 20
3.8733670322
 30
0.0
 10
4.5692492803
 20
3.8594125854
 30
0.0
 10
4.5505097382
 20
3.8511236169
 30
0.0
 10
4.5409394598
 20
3.8472165671
 30
0.0
  0
SPLINE
  5
432
100
AcDbEntity
  8
ALL_ASSEMBLY_MEMBERS
100
AcDbSpline
 62
7
  6
CONTINUOUS
 70
0
 71
3
 72
21
 73
17
 74
0
 42
0.0000001
 43
0.0000001
 44
0.0000000001
 40
0.0
 40
0.0
 40
0.0
 40
0.0
 40
0.0549821461
 40
0.1104695247
 40
0.1666289469
 40
0.2236111993
 40
0.2815502166
 40
0.3405601824
 40
0.4007339985
 40
0.4621452619
 40
0.5248451101
 40
0.5888662479
 40
0.7208338649
 40
0.8580014735
 40
0.9284531341
 40
1.0
 40
1.0
 40
1.0
 40
1.0
 10
4.8430001339
 20
3.9732752154
 30
0.0
 10
4.841907362
 20
3.965816408
 30
0.0
 10
4.8390885897
 20
3.9509144078
 30
0.0
 10
4.8330264988
 20
3.9288630171
 30
0.0
 10
4.8251326256
 20
3.9071063938
 30
0.0
 10
4.8154399351
 20
3.885721418
 30
0.0
 10
4.8039807555
 20
3.864783108
 30
0.0
 10
4.7907972611
 20
3.844364004
 30
0.0
 10
4.7759370072
 20
3.8245339196
 30
0.0
 10
4.7594506718
 20
3.8053630786
 30
0.0
 10
4.7413981137
 20
3.7869143832
 30
0.0
 10
4.7150593412
 20
3.7631320307
 30
0.0
 10
4.6784695264
 20
3.7356096896
 30
0.0
 10
4.6383564068
 20
3.7117963486
 30
0.0
 10
4.6040543493
 20
3.6947876365
 30
0.0
 10
4.5862003431
 20
3.6870000904
 30
0.0
 10
4.5771184464
 20
3.6832924216
 30
0.0
  0
SPLINE
  5
433
100
AcDbEntity
  8
ALL_ASSEMBLY_MEMBERS
100
AcDbSpline
 62
9
  6
CONTINUOUS
 70
0
 71
3
 72
24
 73
20
 74
0
 42
0.0000001
 43
0.0000001
 44
0.0000000001
 40
0.0
 40
0.0
 40
0.0
 40
0.0
 40
0.0739930283
 40
0.1462542272
 40
0.2166065874
 40
0.284984163
 40
0.3513581041
 40
0.4157507342
 40
0.4782536463
 40
0.5390246278
 40
0.5982863185
 40
0.6274506972
 40
0.656350132
 40
0.7135100779
 40
0.7701743245
 40
0.8267520907
 40
0.8836569661
 40
0.941285774
 40
1.0
 40
1.0
 40
1.0
 40
1.0
 10
4.5586557345
 20
3.7316587339
 30
0.0
 10
4.5709093793
 20
3.7366612635
 30
0.0
 10
4.5948001846
 20
3.7473840039
 30
0.0
 10
4.6289395211
 20
3.7657782119
 30
0.0
 10
4.6607373661
 20
3.7861796161
 30
0.0
 10
4.6899552222
 20
3.8084368532
 30
0.0
 10
4.7163831795
 20
3.8323899928
 30
0.0
 10
4.7398227203
 20
3.8578697891
 30
0.0
 10
4.7600989462
 20
3.8846926889
 30
0.0
 10
4.7770588911
 20
3.9126617412
 30
0.0
 10
4.7883793838
 20
3.9368950995
 30
0.0
 10
4.795615416
 20
3.95660562
 30
0.0
 10
4.8015943505
 20
3.9763400409
 30
0.0
 10
4.8068438829
 20
4.0013906132
 30
0.0
 10
4.8094709059
 20
4.0318312889
 30
0.0
 10
4.808388828
 20
4.0623221797
 30
0.0
 10
4.8036026711
 20
4.0926284705
 30
0.0
 10
4.7951553153
 20
4.12251503
 30
0.0
 10
4.7872137834
 20
4.141806959
 30
0.0
 10
4.7826928779
 20
4.1512865778
 30
0.0
  0
SPLINE
  5
434
100
AcDbEntity
  8
ALL_ASSEMBLY_MEMBERS
100
AcDbSpline
 62
9
  6
CONTINUOUS
 70
0
 71
3
 72
26
 73
22
 74
0
 42
0.0000001
 43
0.0000001
 44
0.0000000001
 40
0.0
 40
0.0
 40
0.0
 40
0.0
 40
0.074098605
 40
0.1462197681
 40
0.2161715994
 40
0.2838871315
 40
0.349353191
 40
0.4126462504
 40
0.4739369793
 40
0.5334889056
 40
0.5627355554
 40
0.5916873143
 40
0.6489042573
 40
0.70566028
 40
0.7340438157
 40
0.7625073027
 40
0.7911145484
 40
0.8199272541
 40
0.8783693269
 40
0.9382819667
 40
1.0
 40
1.0
 40
1.0
 40
1.0
 10
4.5710116296
 20
3.7032422645
 30
0.0
 10
4.5854086638
 20
3.7091198291
 30
0.0
 10
4.6133875923
 20
3.7218144954
 30
0.0
 10
4.6530803287
 20
3.7438880705
 30
0.0
 10
4.6896126088
 20
3.7685651928
 30
0.0
 10
4.7226427014
 20
3.7956177715
 30
0.0
 10
4.7518666687
 20
3.824806663
 30
0.0
 10
4.7770100514
 20
3.855870424
 30
0.0
 10
4.7978316331
 20
3.8885253802
 30
0.0
 10
4.811495998
 20
3.9170028449
 30
0.0
 10
4.8200185476
 20
3.9402143743
 30
0.0
 10
4.8268832789
 20
3.9634579162
 30
0.0
 10
4.8325270008
 20
3.9930132564
 30
0.0
 10
4.8341128108
 20
4.0229455032
 30
0.0
 10
4.8329387897
 20
4.0467730826
 30
0.0
 10
4.8308419506
 20
4.0645980119
 30
0.0
 10
4.827535689
 20
4.082330009
 30
0.0
 10
4.821497234
 20
4.1058988427
 30
0.0
 10
4.8108901522
 20
4.1350054703
 30
0.0
 10
4.7935697509
 20
4.1686914329
 30
0.0
 10
4.7792588748
 20
4.1899084967
 30
0.0
 10
4.7714393107
 20
4.2002340822
 30
0.0
  0
SPLINE
  5
435
100
AcDbEntity
  8
ALL_ASSEMBLY_MEMBERS
100
AcDbSpline
 62
9
  6
CONTINUOUS
 70
0
 71
3
 72
43
 73
39
 74
0
 42
0.0000001
 43
0.0000001
 44
0.0000000001
 40
0.0
 40
0.0
 40
0.0
 40
0.0
 40
0.0343895584
 40
0.069492256
 40
0.1051420732
 40
0.1411927823
 40
0.1774765187
 40
0.2138186903
 40
0.2500454569
 40
0.285985245
 40
0.3214734157
 40
0.3563564914
 40
0.3904972511
 40
0.423778479
 40
0.4561078243
 40
0.4874234292
 40
0.5176974999
 40
0.546941448
 40
0.5752100882
 40
0.6026027581
 40
0.6292639371
 40
0.6553795734
 40
0.6811684936
 40
0.6940227197
 40
0.7068861103
 40
0.7197893332
 40
0.7327623896
 40
0.7590178289
 40
0.7723672039
 40
0.785891255
 40
0.8135296078
 40
0.8420781815
 40
0.8716235016
 40
0.8867889897
 40
0.9022146139
 40
0.9338324321
 40
0.9664585289
 40
1.0
 40
1.0
 40
1.0
 40
1.0
 10
4.5089156029
 20
3.9171234974
 30
0.0
 10
4.4974323867
 20
3.912435494
 30
0.0
 10
4.4738389423
 20
3.9038894397
 30
0.0
 10
4.4372794158
 20
3.89369421
 30
0.0
 10
4.3994850416
 20
3.8860757446
 30
0.0
 10
4.3608244732
 20
3.8811059824
 30
0.0
 10
4.3216626053
 20
3.878829431
 30
0.0
 10
4.2823737454
 20
3.8792694392
 30
0.0
 10
4.2433333087
 20
3.8824224897
 30
0.0
 10
4.2049134861
 20
3.8882567541
 30
0.0
 10
4.1674809259
 20
3.8967180745
 30
0.0
 10
4.1313930482
 20
3.9077274587
 30
0.0
 10
4.0969933838
 20
3.9211791059
 30
0.0
 10
4.0646103643
 20
3.9369478322
 30
0.0
 10
4.0345535386
 20
3.9548864701
 30
0.0
 10
4.00710925
 20
3.9748256677
 30
0.0
 10
3.9825421139
 20
3.9965813139
 30
0.0
 10
3.9610906691
 20
4.0199511566
 30
0.0
 10
3.9429642878
 20
4.0447161285
 30
0.0
 10
3.9283471396
 20
4.0706449136
 30
0.0
 10
3.9173910791
 20
4.0974910063
 30
0.0
 10
3.9102114541
 20
4.1249892538
 30
0.0
 10
3.9074426117
 20
4.1482628265
 30
0.0
 10
3.9071788624
 20
4.1668502481
 30
0.0
 10
3.9079489044
 20
4.1807698666
 30
0.0
 10
3.9096833456
 20
4.1946456283
 30
0.0
 10
3.9132891819
 20
4.2131107462
 30
0.0
 10
3.9188217428
 20
4.231318765
 30
0.0
 10
3.9261497279
 20
4.2490348476
 30
0.0
 10
3.9348083307
 20
4.2666996897
 30
0.0
 10
3.9479646105
 20
4.2882034355
 30
0.0
 10
3.9670929711
 20
4.3125768812
 30
0.0
 10
3.9855982255
 20
4.3315103271
 30
0.0
 10
4.0018881098
 20
4.345841349
 30
0.0
 10
4.0194443174
 20
4.3598253294
 30
0.0
 10
4.0431797275
 20
4.37610008
 30
0.0
 10
4.0739536886
 20
4.393410472
 30
0.0
 10
4.0956840976
 20
4.4033503545
 30
0.0
 10
4.1068737974
 20
4.4079479602
 30
0.0
  0
LINE
  5
436
100
AcDbEntity
  8
ALL_ASSEMBLY_MEMBERS
100
AcDbLine
 62
9
  6
CONTINUOUS
 10
4.1068737974
 20
4.4079479602
 11
4.1078370046
 21
4.4083424536
  0
SPLINE
  5
437
100
AcDbEntity
  8
ALL_ASSEMBLY_MEMBERS
100
AcDbSpline
 62
9
  6
CONTINUOUS
 70
0
 71
3
 72
30
 73
26
 74
0
 42
0.0000001
 43
0.0000001
 44
0.0000000001
 40
0.0
 40
0.0
 40
0.0
 40
0.0
 40
0.0330522054
 40
0.0665975443
 40
0.134847827
 40
0.2042578492
 40
0.2742764662
 40
0.3443181129
 40
0.4137997855
 40
0.4821610761
 40
0.5488910543
 40
0.6135538633
 40
0.6450137513
 40
0.6758422859
 40
0.7355007896
 40
0.7643491458
 40
0.7925451814
 40
0.8201115971
 40
0.8470847765
 40
0.8735128991
 40
0.8994572146
 40
0.9249904471
 40
0.9501960074
 40
0.9751662494
 40
1.0
 40
1.0
 40
1.0
 40
1.0
 10
4.5108763038
 20
3.9112698481
 30
0.0
 10
4.5032452671
 20
3.9081544904
 30
0.0
 10
4.4877003432
 20
3.902282625
 30
0.0
 10
4.4556701423
 20
3.8920037117
 30
0.0
 10
4.4140875713
 20
3.8820027528
 30
0.0
 10
4.3627429116
 20
3.874689451
 30
0.0
 10
4.310495863
 20
3.8721082698
 30
0.0
 10
4.258214118
 20
3.8743035571
 30
0.0
 10
4.2067631122
 20
3.8812382088
 30
0.0
 10
4.1569934355
 20
3.8928000857
 30
0.0
 10
4.1097323521
 20
3.908799293
 30
0.0
 10
4.0727432008
 20
3.9257730586
 30
0.0
 10
4.0451701306
 20
3.9413627435
 30
0.0
 10
4.0195993393
 20
3.9578455362
 30
0.0
 10
3.9960557829
 20
3.9762034844
 30
0.0
 10
3.9749981643
 20
3.9963189044
 30
0.0
 10
3.9607721448
 20
4.0119268091
 30
0.0
 10
3.9480042446
 20
4.0281579003
 30
0.0
 10
3.9367460511
 20
4.044943805
 30
0.0
 10
3.9270475937
 20
4.0622156126
 30
0.0
 10
3.9189505302
 20
4.0799007514
 30
0.0
 10
3.9124897495
 20
4.0979245881
 30
0.0
 10
3.9076958468
 20
4.1162119235
 30
0.0
 10
3.9045873616
 20
4.1346821368
 30
0.0
 10
3.9036493123
 20
4.1470872074
 30
0.0
 10
3.903465737
 20
4.1532774536
 30
0.0
  0
SPLINE
  5
438
100
AcDbEntity
  8
ALL_ASSEMBLY_MEMBERS
100
AcDbSpline
 62
9
  6
CONTINUOUS
 70
0
 71
3
 72
36
 73
32
 74
0
 42
0.0000001
 43
0.0000001
 44
0.0000000001
 40
0.0
 40
0.0
 40
0.0
 40
0.0
 40
0.0258771379
 40
0.0514550596
 40
0.0768604861
 40
0.1022265207
 40
0.1276875094
 40
0.1533746042
 40
0.1794104769
 40
0.2059060877
 40
0.2329568972
 40
0.2606415462
 40
0.2890201401
 40
0.31813451
 40
0.3786078225
 40
0.4100030632
 40
0.4421294924
 40
0.4749491689
 40
0.5084120407
 40
0.5424577923
 40
0.5770168389
 40
0.6473350828
 40
0.6829479053
 40
0.7187333349
 40
0.7545970184
 40
0.7904441283
 40
0.8261797639
 40
0.8617089843
 40
0.9317665658
 40
0.9661614425
 40
1.0
 40
1.0
 40
1.0
 40
1.0
 10
3.9121260902
 20
4.2186791373
 30
0.0
 10
3.9097834493
 20
4.2119174056
 30
0.0
 10
3.9057748661
 20
4.1982356753
 30
0.0
 10
3.9018717679
 20
4.1773065917
 30
0.0
 10
3.9001402467
 20
4.1562261685
 30
0.0
 10
3.9005933786
 20
4.1351122982
 30
0.0
 10
3.903226432
 20
4.1140801583
 30
0.0
 10
3.9080255026
 20
4.0932451813
 30
0.0
 10
3.9149614855
 20
4.0727202684
 30
0.0
 10
3.9239954191
 20
4.0526162693
 30
0.0
 10
3.9350759234
 20
4.0330401616
 30
0.0
 10
3.948141308
 20
4.0140959392
 30
0.0
 10
3.9631212898
 20
3.9958821729
 30
0.0
 10
3.9858165888
 20
3.9724098039
 30
0.0
 10
4.0118023854
 20
3.9511133482
 30
0.0
 10
4.0404117885
 20
3.9321821654
 30
0.0
 10
4.063564346
 20
3.9189592115
 30
0.0
 10
4.0880123665
 20
3.9069674644
 30
0.0
 10
4.1136277627
 20
3.8962662193
 30
0.0
 10
4.1402761472
 20
3.8869137314
 30
0.0
 10
4.1771992165
 20
3.8762463128
 30
0.0
 10
4.2153733651
 20
3.8685581303
 30
0.0
 10
4.2542930364
 20
3.8638555053
 30
0.0
 10
4.28390029
 20
3.8618300912
 30
0.0
 10
4.3136360655
 20
3.8613356067
 30
0.0
 10
4.3433441406
 20
3.8623714651
 30
0.0
 10
4.3728680549
 20
3.8649358962
 30
0.0
 10
4.4115859692
 20
3.8703432144
 30
0.0
 10
4.4494721565
 20
3.8787218349
 30
0.0
 10
4.4860094787
 20
3.8900649409
 30
0.0
 10
4.5036959243
 20
3.8966782492
 30
0.0
 10
4.5123594622
 20
3.9002151237
 30
0.0
  0
SPLINE
  5
439
100
AcDbEntity
  8
ALL_ASSEMBLY_MEMBERS
100
AcDbSpline
 62
9
  6
CONTINUOUS
 70
0
 71
3
 72
47
 73
43
 74
0
 42
0.0000001
 43
0.0000001
 44
0.0000000001
 40
0.0
 40
0.0
 40
0.0
 40
0.0
 40
0.0343918114
 40
0.0694936548
 40
0.1051436207
 40
0.1411951215
 40
0.1774795804
 40
0.2138235098
 40
0.2500535518
 40
0.285998157
 40
0.3214931181
 40
0.3563853822
 40
0.3905374064
 40
0.423832254
 40
0.4561776264
 40
0.4875107203
 40
0.5178036937
 40
0.5470674021
 40
0.5753551025
 40
0.5891683351
 40
0.6027782258
 40
0.6294546785
 40
0.6555815021
 40
0.6685134942
 40
0.6813918587
 40
0.6942470478
 40
0.7071097749
 40
0.7200107852
 40
0.7329800293
 40
0.7460464086
 40
0.7592373916
 40
0.7725782134
 40
0.7860921208
 40
0.7997998592
 40
0.8137191226
 40
0.8422393608
 40
0.8717530131
 40
0.8869022442
 40
0.9023115137
 40
0.933895536
 40
0.9664869287
 40
1.0
 40
1.0
 40
1.0
 40
1.0
 10
4.5409394598
 20
3.8472165671
 30
0.0
 10
4.5276377069
 20
3.8417861492
 30
0.0
 10
4.5003097797
 20
3.8318855774
 30
0.0
 10
4.457964138
 20
3.820071352
 30
0.0
 10
4.4141892467
 20
3.8112378796
 30
0.0
 10
4.3694102594
 20
3.8054678513
 30
0.0
 10
4.3240491273
 20
3.8028150279
 30
0.0
 10
4.2785387675
 20
3.8033045558
 30
0.0
 10
4.2333126629
 20
3.8069325585
 30
0.0
 10
4.1888013015
 20
3.8136645905
 30
0.0
 10
4.1454282373
 20
3.8234360382
 30
0.0
 10
4.1036064525
 20
3.8361559147
 30
0.0
 10
4.0637340604
 20
3.8517048467
 30
0.0
 10
4.026189905
 20
3.8699356205
 30
0.0
 10
3.9913317079
 20
3.8906786537
 30
0.0
 10
3.9594928714
 20
3.9137412209
 30
0.0
 10
3.9309771803
 20
3.9389086042
 30
0.0
 10
3.9060618827
 20
3.9659443596
 30
0.0
 10
3.8883603
 20
3.990022539
 30
0.0
 10
3.8762939985
 20
4.0099390668
 30
0.0
 10
3.8657771574
 20
4.0299572251
 30
0.0
 10
3.8551883596
 20
4.0556888366
 30
0.0
 10
3.8481519353
 20
4.0823258611
 30
0.0
 10
3.8447845126
 20
4.1037748925
 30
0.0
 10
3.8433825262
 20
4.1198802713
 30
0.0
 10
3.8430977603
 20
4.1360145141
 30
0.0
 10
3.843931861
 20
4.1521393752
 30
0.0
 10
3.8458842122
 20
4.1682151323
 30
0.0
 10
3.8489471277
 20
4.1842031214
 30
0.0
 10
3.8531146134
 20
4.2000644142
 30
0.0
 10
3.8583770304
 20
4.2157602099
 30
0.0
 10
3.864718942
 20
4.2312535383
 30
0.0
 10
3.8721264802
 20
4.246506381
 30
0.0
 10
3.8805819377
 20
4.2614822381
 30
0.0
 10
3.8933231494
 20
4.2811903202
 30
0.0
 10
3.9118404382
 20
4.3049563667
 30
0.0
 10
3.9331769506
 20
4.3269342486
 30
0.0
 10
3.9519714258
 20
4.3435774182
 30
0.0
 10
3.9722326614
 20
4.3598228386
 30
0.0
 10
3.9996366091
 20
4.3787399541
 30
0.0
 10
4.035184814
 20
4.398879847
 30
0.0
 10
4.0602968517
 20
4.4104564288
 30
0.0
 10
4.0732309671
 20
4.4158156048
 30
0.0
  0
SPLINE
  5
43A
100
AcDbEntity
  8
ALL_ASSEMBLY_MEMBERS
100
AcDbSpline
 62
9
  6
CONTINUOUS
 70
0
 71
3
 72
32
 73
28
 74
0
 42
0.0000001
 43
0.0000001
 44
0.0000000001
 40
0.0
 40
0.0
 40
0.0
 40
0.0
 40
0.0327910247
 40
0.0660566295
 40
0.1337138827
 40
0.2025156625
 40
0.2719595951
 40
0.3415058267
 40
0.4106153266
 40
0.4787646667
 40
0.5123352013
 40
0.545488858
 40
0.5781744408
 40
0.610346965
 40
0.6419663566
 40
0.6730002999
 40
0.7331920091
 40
0.7623512852
 40
0.7908761145
 40
0.8187791733
 40
0.8460827288
 40
0.8728214773
 40
0.8990403788
 40
0.9247961586
 40
0.9501557235
 40
0.9751954592
 40
1.0
 40
1.0
 40
1.0
 40
1.0
 10
4.5465013038
 20
3.8282927112
 30
0.0
 10
4.5378514238
 20
3.8247614125
 30
0.0
 10
4.5202419513
 20
3.8180905704
 30
0.0
 10
4.4839863644
 20
3.8063472181
 30
0.0
 10
4.4369530389
 20
3.794773605
 30
0.0
 10
4.3788680291
 20
3.7860029991
 30
0.0
 10
4.3196952199
 20
3.7823976218
 30
0.0
 10
4.2603474392
 20
3.7840154778
 30
0.0
 10
4.2017426246
 20
3.7908298518
 30
0.0
 10
4.1540252748
 20
3.8008051555
 30
0.0
 10
4.1170471032
 20
3.8113080466
 30
0.0
 10
4.0901919489
 20
3.8203478322
 30
0.0
 10
4.0641865672
 20
3.8305568637
 30
0.0
 10
4.0391305971
 20
3.841891861
 30
0.0
 10
4.0151211634
 20
3.8543133111
 30
0.0
 10
3.9849443945
 20
3.87206964
 30
0.0
 10
3.9568674778
 20
3.8919389696
 30
0.0
 10
3.931361313
 20
3.9138170556
 30
0.0
 10
3.9138983358
 20
3.9308642032
 30
0.0
 10
3.8979704824
 20
3.9486504256
 30
0.0
 10
3.8836428902
 20
3.9671111027
 30
0.0
 10
3.870969656
 20
3.9861721652
 30
0.0
 10
3.8600033665
 20
4.0057615781
 30
0.0
 10
3.8507876364
 20
4.0258023475
 30
0.0
 10
3.8433588209
 20
4.0462165302
 30
0.0
 10
3.8377505685
 20
4.0669225628
 30
0.0
 10
3.8352286031
 20
4.0809202315
 30
0.0
 10
3.8342827992
 20
4.087924059
 30
0.0
  0
SPLINE
  5
43B
100
AcDbEntity
  8
ALL_ASSEMBLY_MEMBERS
100
AcDbSpline
 62
9
  6
CONTINUOUS
 70
0
 71
3
 72
22
 73
18
 74
0
 42
0.0000001
 43
0.0000001
 44
0.0000000001
 40
0.0
 40
0.0
 40
0.0
 40
0.0
 40
0.0552231337
 40
0.1106814275
 40
0.1666024214
 40
0.2232013933
 40
0.2806732858
 40
0.339191393
 40
0.3989006153
 40
0.4599191613
 40
0.5223356474
 40
0.5862108358
 40
0.6515749549
 40
0.7184285657
 40
0.8564660278
 40
0.9276126734
 40
1.0
 40
1.0
 40
1.0
 40
1.0
 10
4.7133759562
 20
4.159280685
 30
0.0
 10
4.713376116
 20
4.1530306654
 30
0.0
 10
4.7127950533
 20
4.140496277
 30
0.0
 10
4.7101838008
 20
4.1217968811
 30
0.0
 10
4.705847746
 20
4.1032596816
 30
0.0
 10
4.6998026675
 20
4.084968652
 30
0.0
 10
4.69208051
 20
4.0670007935
 30
0.0
 10
4.6827117495
 20
4.0494353889
 30
0.0
 10
4.6717419223
 20
4.0323454
 30
0.0
 10
4.659216325
 20
4.0158053322
 30
0.0
 10
4.6451915682
 20
3.9998835565
 30
0.0
 10
4.6297271893
 20
3.9846487298
 30
0.0
 10
4.612890083
 20
3.9701642474
 30
0.0
 10
4.5884534258
 20
3.9517410128
 30
0.0
 10
4.5617876805
 20
3.9352952105
 30
0.0
 10
4.5333437744
 20
3.9209034983
 30
0.0
 10
4.518461197
 20
3.9143663678
 30
0.0
 10
4.5108763038
 20
3.9112698481
 30
0.0
  0
SPLINE
  5
43C
100
AcDbEntity
  8
ALL_ASSEMBLY_MEMBERS
100
AcDbSpline
 62
9
  6
CONTINUOUS
 70
0
 71
3
 72
35
 73
31
 74
0
 42
0.0000001
 43
0.0000001
 44
0.0000000001
 40
0.0
 40
0.0
 40
0.0
 40
0.0
 40
0.0734704321
 40
0.1093346638
 40
0.144527552
 40
0.2126791251
 40
0.2456103097
 40
0.2777486441
 40
0.3090992427
 40
0.3396838403
 40
0.369541794
 40
0.3987297804
 40
0.4273228254
 40
0.4554120342
 40
0.4831044786
 40
0.5105191456
 40
0.5377847719
 40
0.5650347976
 40
0.5924033582
 40
0.6200205468
 40
0.6480080734
 40
0.6764759027
 40
0.7055191545
 40
0.7352162811
 40
0.7967533712
 40
0.8287091971
 40
0.861455805
 40
0.9292571449
 40
0.9642977792
 40
1.0
 40
1.0
 40
1.0
 40
1.0
 10
4.4521488255
 20
4.4274908742
 30
0.0
 10
4.4694573487
 20
4.4227914785
 30
0.0
 10
4.4948812033
 20
4.4144404819
 30
0.0
 10
4.5273579137
 20
4.4006150151
 30
0.0
 10
4.5578087702
 20
4.3854974001
 30
0.0
 10
4.5862454215
 20
4.3680282238
 30
0.0
 10
4.61212256
 20
4.3482963642
 30
0.0
 10
4.6298157109
 20
4.3327417567
 30
0.0
 10
4.6459228105
 20
4.3163430249
 30
0.0
 10
4.6603631781
 20
4.2991780373
 30
0.0
 10
4.6730660039
 20
4.2813323061
 30
0.0
 10
4.6839639639
 20
4.2628910682
 30
0.0
 10
4.6930048188
 20
4.2439471782
 30
0.0
 10
4.7001369456
 20
4.2245922856
 30
0.0
 10
4.7053278716
 20
4.2049249332
 30
0.0
 10
4.7085441133
 20
4.185042601
 30
0.0
 10
4.7097741266
 20
4.1650470621
 30
0.0
 10
4.7090054223
 20
4.1450396694
 30
0.0
 10
4.7062475993
 20
4.1251221802
 30
0.0
 10
4.7015108827
 20
4.1053962472
 30
0.0
 10
4.6948245686
 20
4.0859604259
 30
0.0
 10
4.6862213687
 20
4.0669131759
 30
0.0
 10
4.6757471429
 20
4.0483469702
 30
0.0
 10
4.659169641
 20
4.0240784392
 30
0.0
 10
4.6391685288
 20
4.0014268147
 30
0.0
 10
4.6163498162
 20
3.9806880066
 30
0.0
 10
4.5909245539
 20
3.9606545384
 30
0.0
 10
4.5628872747
 20
3.942859305
 30
0.0
 10
4.5327936037
 20
3.9273985958
 30
0.0
 10
4.5169844976
 20
3.9204176098
 30
0.0
 10
4.5089156029
 20
3.9171234974
 30
0.0
  0
SPLINE
  5
43D
100
AcDbEntity
  8
ALL_ASSEMBLY_MEMBERS
100
AcDbSpline
 62
9
  6
CONTINUOUS
 70
0
 71
3
 72
22
 73
18
 74
0
 42
0.0000001
 43
0.0000001
 44
0.0000000001
 40
0.0
 40
0.0
 40
0.0
 40
0.0
 40
0.0552231337
 40
0.1106814275
 40
0.1666024214
 40
0.2232013933
 40
0.2806732858
 40
0.339191393
 40
0.3989006153
 40
0.4599191613
 40
0.5223356474
 40
0.5862108358
 40
0.6515749549
 40
0.7184285658
 40
0.8564660278
 40
0.9276126734
 40
1.0
 40
1.0
 40
1.0
 40
1.0
 10
4.7846258951
 20
4.1199350839
 30
0.0
 10
4.7846260829
 20
4.1125855239
 30
0.0
 10
4.7839427962
 20
4.0978460115
 30
0.0
 10
4.7808721567
 20
4.0758569072
 30
0.0
 10
4.7757732774
 20
4.0540585337
 30
0.0
 10
4.7686647129
 20
4.0325496378
 30
0.0
 10
4.7595840276
 20
4.0114207671
 30
0.0
 10
4.7485670593
 20
3.9907651525
 30
0.0
 10
4.7356673551
 20
3.9706685916
 30
0.0
 10
4.7209381805
 20
3.951218697
 30
0.0
 10
4.7044461053
 20
3.9324958682
 30
0.0
 10
4.6862611413
 20
3.9145808406
 30
0.0
 10
4.6664619515
 20
3.8975481622
 30
0.0
 10
4.6377262528
 20
3.875883803
 30
0.0
 10
4.6063693115
 20
3.8565447577
 30
0.0
 10
4.572921385
 20
3.8396211702
 30
0.0
 10
4.5554205763
 20
3.831933989
 30
0.0
 10
4.5465013038
 20
3.8282927112
 30
0.0
  0
SPLINE
  5
43E
100
AcDbEntity
  8
ALL_ASSEMBLY_MEMBERS
100
AcDbSpline
 62
9
  6
CONTINUOUS
 70
0
 71
3
 72
11
 73
7
 74
0
 42
0.0000001
 43
0.0000001
 44
0.0000000001
 40
0.0
 40
0.0
 40
0.0
 40
0.0
 40
0.2482912388
 40
0.497273851
 40
0.747626263
 40
1.0
 40
1.0
 40
1.0
 40
1.0
 10
4.7846263038
 20
4.0875763169
 30
0.0
 10
4.7846263037
 20
4.0816378195
 30
0.0
 10
4.7841802535
 20
4.0697395779
 30
0.0
 10
4.7821782867
 20
4.0519546813
 30
0.0
 10
4.7788471906
 20
4.0342709972
 30
0.0
 10
4.7757620243
 20
4.022636853
 30
0.0
 10
4.774007851
 20
4.016861226
 30
0.0
  0
SPLINE
  5
43F
100
AcDbEntity
  8
ALL_ASSEMBLY_MEMBERS
100
AcDbSpline
 62
9
  6
CONTINUOUS
 70
0
 71
3
 72
17
 73
13
 74
0
 42
0.0000001
 43
0.0000001
 44
0.0000000001
 40
0.0
 40
0.0
 40
0.0
 40
0.0
 40
0.0551685191
 40
0.1110197365
 40
0.1676614154
 40
0.2251889704
 40
0.3431568015
 40
0.4654627377
 40
0.5923597094
 40
0.7238797007
 40
0.8598739538
 40
1.0
 40
1.0
 40
1.0
 40
1.0
 10
4.774007851
 20
4.016861226
 30
0.0
 10
4.7722577018
 20
4.0110988485
 30
0.0
 10
4.7683212998
 20
3.9996243886
 30
0.0
 10
4.7611944501
 20
3.9827522669
 30
0.0
 10
4.7528313605
 20
3.9661675232
 30
0.0
 10
4.7399594376
 20
3.9443221981
 30
0.0
 10
4.7208008389
 20
3.9179479017
 30
0.0
 10
4.6935316422
 20
3.8884592231
 30
0.0
 10
4.6620891423
 20
3.8611625701
 30
0.0
 10
4.6268202362
 20
3.8363470782
 30
0.0
 10
4.5881117411
 20
3.8142758187
 30
0.0
 10
4.5606630253
 20
3.801715443
 30
0.0
 10
4.5465013038
 20
3.7959339444
 30
0.0
  0
SPLINE
  5
440
100
AcDbEntity
  8
ALL_ASSEMBLY_MEMBERS
100
AcDbSpline
 62
9
  6
CONTINUOUS
 70
0
 71
3
 72
37
 73
33
 74
0
 42
0.0000001
 43
0.0000001
 44
0.0000000001
 40
0.0
 40
0.0
 40
0.0
 40
0.0
 40
0.0280461132
 40
0.055386504
 40
0.0821214438
 40
0.1083743737
 40
0.1342888077
 40
0.1600225227
 40
0.1857415115
 40
0.2116124988
 40
0.2377952476
 40
0.264436011
 40
0.2916623173
 40
0.3195784412
 40
0.3482644709
 40
0.3777745002
 40
0.40813779
 40
0.4393601601
 40
0.4714248232
 40
0.5042959195
 40
0.5379191925
 40
0.5722253466
 40
0.6071317973
 40
0.6425445857
 40
0.6783612251
 40
0.7144718526
 40
0.7870840663
 40
0.8594709257
 40
0.8953013231
 40
0.9307335001
 40
0.9656716846
 40
1.0
 40
1.0
 40
1.0
 40
1.0
 10
3.8454196714
 20
4.2003748638
 30
0.0
 10
3.8388258399
 20
4.1916761427
 30
0.0
 10
3.8265869987
 20
4.1738840668
 30
0.0
 10
3.8111283208
 20
4.1458502971
 30
0.0
 10
3.7989186115
 20
4.117005661
 30
0.0
 10
3.7900473316
 20
4.0875422885
 30
0.0
 10
3.7845746311
 20
4.0576561927
 30
0.0
 10
3.7825449191
 20
4.027547917
 30
0.0
 10
3.783969303
 20
3.9974218161
 30
0.0
 10
3.7888395125
 20
3.9674819074
 30
0.0
 10
3.7971197426
 20
3.9379303078
 30
0.0
 10
3.8087481298
 20
3.9089631518
 30
0.0
 10
3.823645874
 20
3.880772737
 30
0.0
 10
3.8417062866
 20
3.853540606
 30
0.0
 10
3.8628092482
 20
3.8274438307
 30
0.0
 10
3.8868126344
 20
3.802649127
 30
0.0
 10
3.9135571226
 20
3.7793139773
 30
0.0
 10
3.9428688835
 20
3.7575895616
 30
0.0
 10
3.9745545092
 20
3.7376117816
 30
0.0
 10
4.008409317
 20
3.7195110563
 30
0.0
 10
4.0442123532
 20
3.7034019243
 30
0.0
 10
4.0817310912
 20
3.6893876823
 30
0.0
 10
4.120722524
 20
3.6775602743
 30
0.0
 10
4.1609322802
 20
3.6679931449
 30
0.0
 10
4.2021014117
 20
3.6607506963
 30
0.0
 10
4.258004523
 20
3.6542433447
 30
0.0
 10
4.3286235822
 20
3.6521483544
 30
0.0
 10
4.3989175887
 20
3.6580773765
 30
0.0
 10
4.454031428
 20
3.667626211
 30
0.0
 10
4.4942927021
 20
3.677092211
 30
0.0
 10
4.5333408168
 20
3.6888242637
 30
0.0
 10
4.5586422815
 20
3.6981924993
 30
0.0
 10
4.5710116296
 20
3.7032422645
 30
0.0
  0
SPLINE
  5
441
100
AcDbEntity
  8
ALL_ASSEMBLY_MEMBERS
100
AcDbSpline
 62
7
  6
CONTINUOUS
 70
0
 71
3
 72
28
 73
24
 74
0
 42
0.0000001
 43
0.0000001
 44
0.0000000001
 40
0.0
 40
0.0
 40
0.0
 40
0.0
 40
0.0661501026
 40
0.1338639052
 40
0.2026836053
 40
0.2721084927
 40
0.3416100925
 40
0.410659261
 40
0.478743475
 40
0.5453888195
 40
0.6101809656
 40
0.6727875004
 40
0.7329809323
 40
0.7621500407
 40
0.7906911709
 40
0.8186150608
 40
0.8459441067
 40
0.8727105415
 40
0.8989583999
 40
0.9247419327
 40
0.9501259986
 40
0.9751846808
 40
1.0
 40
1.0
 40
1.0
 40
1.0
 10
4.5722462395
 20
3.6813273125
 30
0.0
 10
4.5526578483
 20
3.6735224404
 30
0.0
 10
4.5121991831
 20
3.6597156221
 30
0.0
 10
4.4492808699
 20
3.64466449
 30
0.0
 10
4.3842258599
 20
3.6352010396
 30
0.0
 10
4.3180254314
 20
3.6314684199
 30
0.0
 10
4.2516782955
 20
3.6335226118
 30
0.0
 10
4.1861892446
 20
3.641332353
 30
0.0
 10
4.1225483587
 20
3.6547814611
 30
0.0
 10
4.0617182289
 20
3.6736691897
 30
0.0
 10
4.0046164448
 20
3.697716786
 30
0.0
 10
3.9521118537
 20
3.7265655886
 30
0.0
 10
3.9124260698
 20
3.7545566347
 30
0.0
 10
3.8838226905
 20
3.778968088
 30
0.0
 10
3.8642116633
 20
3.7979839672
 30
0.0
 10
3.8463004154
 20
3.8178261584
 30
0.0
 10
3.8301545711
 20
3.8384173152
 30
0.0
 10
3.8158396991
 20
3.8596815212
 30
0.0
 10
3.8034099632
 20
3.8815365373
 30
0.0
 10
3.7929153456
 20
3.9038995339
 30
0.0
 10
3.7843980197
 20
3.9266853817
 30
0.0
 10
3.777890857
 20
3.9498034115
 30
0.0
 10
3.7749007773
 20
3.9654412426
 30
0.0
 10
3.7737539747
 20
3.9732678139
 30
0.0
  0
SPLINE
  5
442
100
AcDbEntity
  8
ALL_ASSEMBLY_MEMBERS
100
AcDbSpline
 62
9
  6
CONTINUOUS
 70
0
 71
3
 72
28
 73
24
 74
0
 42
0.0000001
 43
0.0000001
 44
0.0000000001
 40
0.0
 40
0.0
 40
0.0
 40
0.0
 40
0.0248650503
 40
0.049835839
 40
0.0750151667
 40
0.1004994942
 40
0.1263772037
 40
0.1527255366
 40
0.2070443919
 40
0.2351484958
 40
0.2639085863
 40
0.3234118207
 40
0.3855628009
 40
0.4501683408
 40
0.5168978559
 40
0.5853126868
 40
0.6548946671
 40
0.7250729581
 40
0.7952519098
 40
0.8648327015
 40
0.933250022
 40
0.9668741979
 40
1.0
 40
1.0
 40
1.0
 40
1.0
 10
3.9033766513
 20
4.1532723211
 30
0.0
 10
3.903376811
 20
4.1470222864
 30
0.0
 10
3.9039577375
 20
4.134487941
 30
0.0
 10
3.9065683279
 20
4.1157883859
 30
0.0
 10
3.9109056301
 20
4.0972514842
 30
0.0
 10
3.9169490149
 20
4.0789601024
 30
0.0
 10
3.9246734958
 20
4.0609922194
 30
0.0
 10
3.9372855049
 20
4.0373385508
 30
0.0
 10
3.9530752325
 20
4.0148580373
 30
0.0
 10
3.9715610566
 20
3.9938765801
 30
0.0
 10
3.9924125692
 20
3.9733316809
 30
0.0
 10
4.0220042545
 20
3.9496143208
 30
0.0
 10
4.0619427217
 20
3.9249842497
 30
0.0
 10
4.1060446203
 20
3.9042525128
 30
0.0
 10
4.1535604375
 20
3.8877621981
 30
0.0
 10
4.2036900701
 20
3.8757837618
 30
0.0
 10
4.2555873957
 20
3.8685161988
 30
0.0
 10
4.3083762249
 20
3.8660798331
 30
0.0
 10
4.3611655868
 20
3.8685163084
 30
0.0
 10
4.4130609614
 20
3.8757830126
 30
0.0
 10
4.4550921778
 20
3.885826039
 30
0.0
 10
4.4874614714
 20
3.8961864741
 30
0.0
 10
4.5031675159
 20
3.9021143858
 30
0.0
 10
4.5108763038
 20
3.9052614853
 30
0.0
  0
SPLINE
  5
443
100
AcDbEntity
  8
ALL_ASSEMBLY_MEMBERS
100
AcDbSpline
 62
9
  6
CONTINUOUS
 70
0
 71
3
 72
11
 73
7
 74
0
 42
0.0000001
 43
0.0000001
 44
0.0000000001
 40
0.0
 40
0.0
 40
0.0
 40
0.0
 40
0.2482912375
 40
0.4972738493
 40
0.7476262637
 40
1.0
 40
1.0
 40
1.0
 40
1.0
 10
3.8321263038
 20
4.0875763169
 30
0.0
 10
3.8321263037
 20
4.0816378195
 30
0.0
 10
3.8325723538
 20
4.0697395779
 30
0.0
 10
3.8345743207
 20
4.0519546814
 30
0.0
 10
3.8379054173
 20
4.0342709973
 30
0.0
 10
3.8409905836
 20
4.0226368531
 30
0.0
 10
3.8427447568
 20
4.0168612261
 30
0.0
  0
SPLINE
  5
444
100
AcDbEntity
  8
ALL_ASSEMBLY_MEMBERS
100
AcDbSpline
 62
9
  6
CONTINUOUS
 70
0
 71
3
 72
25
 73
21
 74
0
 42
0.0000001
 43
0.0000001
 44
0.0000000001
 40
0.0
 40
0.0
 40
0.0
 40
0.0
 40
0.0249904489
 40
0.0503362504
 40
0.0760980906
 40
0.1023280604
 40
0.1563250779
 40
0.2125951907
 40
0.2712270476
 40
0.3321763932
 40
0.3952828906
 40
0.4602887489
 40
0.5268575181
 40
0.5945923711
 40
0.6630537012
 40
0.7317761774
 40
0.8002853085
 40
0.8681142184
 40
0.9348195942
 40
1.0
 40
1.0
 40
1.0
 40
1.0
 10
3.8427447568
 20
4.0168612261
 30
0.0
 10
3.844717814
 20
4.0103649221
 30
0.0
 10
3.8492195906
 20
3.9974341421
 30
0.0
 10
3.8575196589
 20
3.978478619
 30
0.0
 10
3.8673827162
 20
3.959903865
 30
0.0
 10
3.8827112666
 20
3.9355031448
 30
0.0
 10
3.9057321524
 20
3.9062720258
 30
0.0
 10
3.9386153341
 20
3.8741064944
 30
0.0
 10
3.9765694397
 20
3.8449188464
 30
0.0
 10
4.0190647256
 20
3.8191002467
 30
0.0
 10
4.0655183829
 20
3.7969911514
 30
0.0
 10
4.1152943206
 20
3.7788868441
 30
0.0
 10
4.1677120231
 20
3.7650299142
 30
0.0
 10
4.222054672
 20
3.755607014
 30
0.0
 10
4.2775787829
 20
3.7507453996
 30
0.0
 10
4.3335245486
 20
3.7505109439
 30
0.0
 10
4.3891257414
 20
3.7549065856
 30
0.0
 10
4.4436229724
 20
3.7638736005
 30
0.0
 10
4.4962645893
 20
3.777288194
 30
0.0
 10
4.5301068806
 20
3.7892409492
 30
0.0
 10
4.5465013038
 20
3.7959339444
 30
0.0
  0
SPLINE
  5
445
100
AcDbEntity
  8
ALL_ASSEMBLY_MEMBERS
100
AcDbSpline
 62
9
  6
CONTINUOUS
 70
0
 71
3
 72
22
 73
18
 74
0
 42
0.0000001
 43
0.0000001
 44
0.0000000001
 40
0.0
 40
0.0
 40
0.0
 40
0.0
 40
0.0624218766
 40
0.1239733172
 40
0.1848259607
 40
0.2451675241
 40
0.3051972551
 40
0.3651224194
 40
0.4251524388
 40
0.4854944773
 40
0.5463478286
 40
0.6079004169
 40
0.6703231616
 40
0.733769646
 40
0.7983702264
 40
0.864234712
 40
1.0
 40
1.0
 40
1.0
 40
1.0
 10
3.8341105597
 20
4.1513924937
 30
0.0
 10
3.830976795
 20
4.1448277459
 30
0.0
 10
3.8252414642
 20
4.1315492612
 30
0.0
 10
3.8182679644
 20
4.111147683
 30
0.0
 10
3.8130159903
 20
4.0904846469
 30
0.0
 10
3.8095024892
 20
4.0696355855
 30
0.0
 10
3.8077447361
 20
4.0486737431
 30
0.0
 10
3.8077447974
 20
4.0276745506
 30
0.0
 10
3.809506644
 20
4.0067129522
 30
0.0
 10
3.8130209429
 20
3.9858638357
 30
0.0
 10
3.8182755791
 20
3.9652013967
 30
0.0
 10
3.8252518045
 20
3.9447994452
 30
0.0
 10
3.833921689
 20
3.9247288713
 30
0.0
 10
3.8442566576
 20
3.9050622355
 30
0.0
 10
3.8562168778
 20
3.8858647845
 30
0.0
 10
3.8744534724
 20
3.8607421747
 30
0.0
 10
3.8901946949
 20
3.8431777639
 30
0.0
 10
3.9014549092
 20
3.8320635057
 30
0.0
  0
SPLINE
  5
446
100
AcDbEntity
  8
ALL_ASSEMBLY_MEMBERS
100
AcDbSpline
 62
9
  6
CONTINUOUS
 70
0
 71
3
 72
23
 73
19
 74
0
 42
0.0000001
 43
0.0000001
 44
0.0000000001
 40
0.0
 40
0.0
 40
0.0
 40
0.0
 40
0.0547456797
 40
0.1112630142
 40
0.1695138599
 40
0.229408036
 40
0.2908088931
 40
0.3535400009
 40
0.4173929183
 40
0.4821326715
 40
0.5475042332
 40
0.613239079
 40
0.6790605105
 40
0.7446913701
 40
0.8098555788
 40
0.8742869676
 40
0.9377547283
 40
1.0
 40
1.0
 40
1.0
 40
1.0
 10
3.9014549092
 20
3.8320635057
 30
0.0
 10
3.9105424017
 20
3.8230938063
 30
0.0
 10
3.9299211445
 20
3.8057656834
 30
0.0
 10
3.9617071138
 20
3.7821731134
 30
0.0
 10
3.9964116436
 20
3.7607485435
 30
0.0
 10
4.0337393761
 20
3.7416733292
 30
0.0
 10
4.0733773394
 20
3.7251049322
 30
0.0
 10
4.1149913307
 20
3.7111795763
 30
0.0
 10
4.1582318902
 20
3.7000136007
 30
0.0
 10
4.2027355941
 20
3.6917010039
 30
0.0
 10
4.2481278587
 20
3.6863096526
 30
0.0
 10
4.2940269512
 20
3.6838849986
 30
0.0
 10
4.3400469287
 20
3.6844482647
 30
0.0
 10
4.3858004012
 20
3.6879938519
 30
0.0
 10
4.4309016924
 20
3.6944915479
 30
0.0
 10
4.4749754028
 20
3.7038884986
 30
0.0
 10
4.5176430668
 20
3.7161064733
 30
0.0
 10
4.5452148584
 20
3.7261715193
 30
0.0
 10
4.5586557345
 20
3.7316587339
 30
0.0
  0
SPLINE
  5
447
100
AcDbEntity
  8
ALL_ASSEMBLY_MEMBERS
100
AcDbSpline
 62
40
  6
CONTINUOUS
 70
0
 71
3
 72
107
 73
103
 74
0
 42
0.0000001
 43
0.0000001
 44
0.0000000001
 40
0.0
 40
0.0
 40
0.0
 40
0.0
 40
0.0625
 40
0.09375
 40
0.109375
 40
0.125
 40
0.140625
 40
0.1484375
 40
0.15625
 40
0.16015625
 40
0.1640625
 40
0.166015625
 40
0.1669921875
 40
0.16796875
 40
0.169921875
 40
0.171875
 40
0.1796875
 40
0.1875
 40
0.1953125
 40
0.203125
 40
0.21875
 40
0.25
 40
0.28125
 40
0.296875
 40
0.3046875
 40
0.3125
 40
0.3203125
 40
0.328125
 40
0.330078125
 40
0.33203125
 40
0.3330078125
 40
0.333984375
 40
0.3359375
 40
0.33984375
 40
0.34375
 40
0.3515625
 40
0.359375
 40
0.375
 40
0.390625
 40
0.40625
 40
0.421875
 40
0.4375
 40
0.453125
 40
0.46875
 40
0.4765625
 40
0.484375
 40
0.4921875
 40
0.49609375
 40
0.498046875
 40
0.5
 40
0.501953125
 40
0.50390625
 40
0.5078125
 40
0.515625
 40
0.5234375
 40
0.53125
 40
0.546875
 40
0.5625
 40
0.578125
 40
0.59375
 40
0.609375
 40
0.625
 40
0.640625
 40
0.6484375
 40
0.65234375
 40
0.65625
 40
0.66015625
 40
0.6640625
 40
0.6650390625
 40
0.666015625
 40
0.6665039062
 40
0.6669921875
 40
0.66796875
 40
0.669921875
 40
0.671875
 40
0.67578125
 40
0.6796875
 40
0.6875
 40
0.6953125
 40
0.703125
 40
0.71875
 40
0.734375
 40
0.75
 40
0.78125
 40
0.796875
 40
0.8046875
 40
0.8125
 40
0.8203125
 40
0.828125
 40
0.830078125
 40
0.83203125
 40
0.833984375
 40
0.8359375
 40
0.83984375
 40
0.84375
 40
0.8515625
 40
0.859375
 40
0.875
 40
0.890625
 40
0.90625
 40
0.9375
 40
1.0
 40
1.0
 40
1.0
 40
1.0
 10
4.1070538422
 20
4.4090589045
 30
0.0
 10
4.108263122
 20
4.4079872973
 30
0.0
 10
4.1100770418
 20
4.4063798869
 30
0.0
 10
4.1121932817
 20
4.4045045734
 30
0.0
 10
4.1134025613
 20
4.4034329676
 30
0.0
 10
4.1143095218
 20
4.4026292578
 30
0.0
 10
4.1150653197
 20
4.401959517
 30
0.0
 10
4.1156699638
 20
4.4014236854
 30
0.0
 10
4.1160478531
 20
4.4010888793
 30
0.0
 10
4.116350195
 20
4.4008208315
 30
0.0
 10
4.1165390889
 20
4.4006537647
 30
0.0
 10
4.1166714547
 20
4.4005358898
 30
0.0
 10
4.1167468732
 20
4.4004699849
 30
0.0
 10
4.1168214665
 20
4.4004095501
 30
0.0
 10
4.1169149902
 20
4.4003321368
 30
0.0
 10
4.117139215
 20
4.4001478839
 30
0.0
 10
4.1174756497
 20
4.3998708582
 30
0.0
 10
4.1179241735
 20
4.3995018599
 30
0.0
 10
4.1183727123
 20
4.3991327629
 30
0.0
 10
4.1189707588
 20
4.398640668
 30
0.0
 10
4.1200173426
 20
4.3977794857
 30
0.0
 10
4.1215124608
 20
4.3965492345
 30
0.0
 10
4.1230075801
 20
4.3953189772
 30
0.0
 10
4.1240541625
 20
4.3944578036
 30
0.0
 10
4.1246522112
 20
4.393965695
 30
0.0
 10
4.1251007432
 20
4.3935966399
 30
0.0
 10
4.1255492925
 20
4.3932274841
 30
0.0
 10
4.125885656
 20
4.3929508997
 30
0.0
 10
4.1261099737
 20
4.3927660707
 30
0.0
 10
4.1262033272
 20
4.3926897125
 30
0.0
 10
4.1262782716
 20
4.3926271007
 30
0.0
 10
4.1263522596
 20
4.3925700668
 30
0.0
 10
4.1264812941
 20
4.3924728493
 30
0.0
 10
4.126665861
 20
4.392332615
 30
0.0
 10
4.1269610384
 20
4.3921089957
 30
0.0
 10
4.1273300545
 20
4.3918292128
 30
0.0
 10
4.1279204555
 20
4.3913817049
 30
0.0
 10
4.1286584653
 20
4.3908222703
 30
0.0
 10
4.1295440734
 20
4.3901509701
 30
0.0
 10
4.1304296823
 20
4.3894796642
 30
0.0
 10
4.1313152915
 20
4.3888083599
 30
0.0
 10
4.132200899
 20
4.3881370546
 30
0.0
 10
4.1330865129
 20
4.3874657517
 30
0.0
 10
4.1338245046
 20
4.3869063256
 30
0.0
 10
4.1344149424
 20
4.3864588004
 30
0.0
 10
4.1348576494
 20
4.3861231136
 30
0.0
 10
4.135226958
 20
4.385843511
 30
0.0
 10
4.1354847162
 20
4.3856475216
 30
0.0
 10
4.1356331899
 20
4.3855359455
 30
0.0
 10
4.1357412119
 20
4.3854510863
 30
0.0
 10
4.1358619751
 20
4.3853707264
 30
0.0
 10
4.1360185485
 20
4.3852620105
 30
0.0
 10
4.1362946225
 20
4.3850724887
 30
0.0
 10
4.1366879314
 20
4.3848013611
 30
0.0
 10
4.1371603654
 20
4.3844761717
 30
0.0
 10
4.1377901156
 20
4.3840425285
 30
0.0
 10
4.1385773589
 20
4.3835004942
 30
0.0
 10
4.139522027
 20
4.3828500446
 30
0.0
 10
4.1404667016
 20
4.3821995973
 30
0.0
 10
4.1414113743
 20
4.3815491494
 30
0.0
 10
4.1423560477
 20
4.3808987015
 30
0.0
 10
4.1433007203
 20
4.3802482544
 30
0.0
 10
4.1440879496
 20
4.3797062123
 30
0.0
 10
4.1446390061
 20
4.3793267884
 30
0.0
 10
4.1449539017
 20
4.3791099662
 30
0.0
 10
4.145190056
 20
4.3789473736
 30
0.0
 10
4.1454262766
 20
4.378784689
 30
0.0
 10
4.1456032563
 20
4.3786629334
 30
0.0
 10
4.1457215317
 20
4.378581362
 30
0.0
 10
4.1457703832
 20
4.3785479707
 30
0.0
 10
4.1458104673
 20
4.3785198653
 30
0.0
 10
4.1458468837
 20
4.3784968522
 30
0.0
 10
4.1459089083
 20
4.3784589452
 30
0.0
 10
4.1459984041
 20
4.378403558
 30
0.0
 10
4.1461411003
 20
4.3783156282
 30
0.0
 10
4.1463196408
 20
4.3782054798
 30
0.0
 10
4.1466052105
 20
4.3780293744
 30
0.0
 10
4.1469622053
 20
4.3778091974
 30
0.0
 10
4.147390585
 20
4.3775450043
 30
0.0
 10
4.1479617629
 20
4.3771927401
 30
0.0
 10
4.1486757335
 20
4.3767524122
 30
0.0
 10
4.149532499
 20
4.3762240177
 30
0.0
 10
4.1506748526
 20
4.3755194919
 30
0.0
 10
4.1518172076
 20
4.374814967
 30
0.0
 10
4.1528167647
 20
4.3741985052
 30
0.0
 10
4.1533879455
 20
4.3738462451
 30
0.0
 10
4.1538163162
 20
4.3735820393
 30
0.0
 10
4.1542447436
 20
4.3733178748
 30
0.0
 10
4.1545659053
 20
4.3731196356
 30
0.0
 10
4.1547802602
 20
4.3729876562
 30
0.0
 10
4.1548869964
 20
4.372921345
 30
0.0
 10
4.1549954483
 20
4.3728562838
 30
0.0
 10
4.1551482147
 20
4.3727754833
 30
0.0
 10
4.1553363773
 20
4.3726724462
 30
0.0
 10
4.1556389998
 20
4.3725087249
 30
0.0
 10
4.1560167429
 20
4.3723036837
 30
0.0
 10
4.1566214309
 20
4.3719758354
 30
0.0
 10
4.1573771883
 20
4.3715659504
 30
0.0
 10
4.1582841412
 20
4.3710741204
 30
0.0
 10
4.1594933962
 20
4.3704183359
 30
0.0
 10
4.1616095998
 20
4.3692707182
 30
0.0
 10
4.1634234862
 20
4.368287044
 30
0.0
 10
4.1646327443
 20
4.3676312617
 30
0.0
  0
ELLIPSE
  5
448
100
AcDbEntity
  8
ALL_ASSEMBLY_MEMBERS
100
AcDbEllipse
 62
7
  6
CONTINUOUS
 10
4.3083763038
 20
4.4732596491
 30
0.0
 11
0.1130741804
 21
0.0402989548
 31
0.0
 40
0.084133201
 41
4.9269927592
 42
5.4850315861
  0
ENDSEC
  0
SECTION
  2
OBJECTS
  0
DICTIONARY
  5
C
100
AcDbDictionary
280
0
281
1
  3
ACAD_GROUP
350
D
  3
ACAD_MLINESTYLE
350
17
  3
ACAD_LAYOUT
350
1A
  3
ACAD_PLOTSETTINGS
350
19
  3
ACAD_PLOTSTYLENAME
350
E
  0
DICTIONARY
  5
D
102
{ACAD_REACTORS
330
C
102
}
100
AcDbDictionary
280
0
281
1
  0
ACDBDICTIONARYWDFLT
  5
E
102
{ACAD_REACTORS
330
C
102
}
100
AcDbDictionary
281
1
  3
Normal
350
F
100
AcDbDictionaryWithDefault
340
F
  0
DICTIONARY
  5
17
102
{ACAD_REACTORS
330
C
102
}
100
AcDbDictionary
280
0
281
1
  3
Standard
350
18
  0
DICTIONARY
  5
19
102
{ACAD_REACTORS
330
C
102
}
100
AcDbDictionary
281
1
  0
DICTIONARY
  5
1A
102
{ACAD_REACTORS
330
C
102
}
100
AcDbDictionary
281
1
  3
Model
350
449
  3
Layout1
350
44A
  0
ACDBPLACEHOLDER
  5
F
102
{ACAD_REACTORS
330
E
102
}
  0
MLINESTYLE
  5
18
102
{ACAD_REACTORS
330
17
102
}
100
AcDbMlineStyle
  2
STANDARD
 70
0
  3

 62
256
 51
90.0
 52
90.0
 71
2
 49
0.5
 62
256
  6
BYLAYER
 49
-0.5
 62
256
  6
BYLAYER
  0
LAYOUT
  5
449
102
{ACAD_REACTORS
330
1A
102
}
100
AcDbPlotSettings
  1

  2
none_device
  4
ANSI_A_(11.00_x_8.50_Inches)
  6

 40
0.0
 41
0.0
 42
0.0
 43
0.0
 44
279.4
 45
215.9
 46
0.0
 47
0.0
 48
0.0
 49
0.0
140
0.0
141
0.0
142
1.0
143
1.0
 70
1024
 72
0
 73
0
 74
0
  7

 75
0
147
1.0
148
0.0
149
0.0
100
AcDbLayout
  1
Model
 70
0
 71
0
 10
0.0
 20
0.0
 11
11.0
 21
8.5
 12
0.0
 22
0.0
 32
0.0
 14
0.0
 24
0.0
 34
0.0
 15
0.0
 25
0.0
 35
0.0
146
0.0
 13
0.0
 23
0.0
 33
0.0
 16
1.0
 26
0.0
 36
0.0
 17
0.0
 27
1.0
 37
0.0
 76
0
330
256
345
0
346
0
  0
LAYOUT
  5
44A
102
{ACAD_REACTORS
330
1A
102
}
100
AcDbPlotSettings
  1

  2
none_device
  4
ANSI_A_(11.00_x_8.50_Inches)
  6

 40
0.0
 41
0.0
 42
0.0
 43
0.0
 44
279.4
 45
215.9
 46
0.0
 47
0.0
 48
0.0
 49
0.0
140
0.0
141
0.0
142
1.0
143
1.0
 70
0
 72
0
 73
0
 74
0
  7

 75
0
147
1.0
148
0.0
149
0.0
100
AcDbLayout
  1
Layout1
 70
0
 71
1
 10
0.0
 20
0.0
 11
11.0
 21
8.5
 12
0.0
 22
0.0
 32
0.0
 14
0.0
 24
0.0
 34
0.0
 15
0.0
 25
0.0
 35
0.0
146
0.0
 13
0.0
 23
0.0
 33
0.0
 16
1.0
 26
0.0
 36
0.0
 17
0.0
 27
1.0
 37
0.0
 76
0
330
257
345
0
346
0
  0
ENDSEC
  0
EOF
