999
DXF file: E:\BT Custom\CADOUTPUT\_RIGHT.dxf
999
Pro/ENGINEER 2018400 by Parametric Technology Corporation
  0
SECTION
  2
HEADER
  9
$ACADVER
  1
AC1018
  9
$DWGCODEPAGE
  3
ANSI_1252
  9
$EXTMAX
 10
22.0
 20
17.0
 30
0.0
  9
$EXTMIN
 10
0.0
 20
0.0
 30
0.0
  9
$LIMMIN
 10
0.0
 20
0.0
  9
$LIMMAX
 10
22.0
 20
17.0
  9
$VIEWCTR
 10
11.0
 20
8.5
  9
$VIEWSIZE
 40
17.0
  9
$CLAYER
  8
0
  9
$LTSCALE
 40
1.21
  9
$CELTYPE
  6
BYLAYER
  9
$DIMSCALE
 40
1.0
  9
$DIMASZ
 40
0.1
  9
$DIMEXO
 40
0.0625
  9
$DIMDLI
 40
0.836
  9
$DIMEXE
 40
0.125
  9
$DIMCEN
 40
0.198
  9
$DIMLFAC
 40
1.0
  9
$DIMBLK
  1
_FILLED
  9
$DIMALT
 70
1
  9
$DIMALTD
 70
2
  9
$DIMALTTD
 70
2
  9
$DIMALTF
 40
25.4
  9
$DIMTXT
 40
0.08
  9
$DIMTOL
 70
1
  9
$DIMLIM
 70
0
  9
$DIMTFAC
 40
1.0
  9
$DIMTP
 40
0.001
  9
$DIMTM
 40
0.001
  9
$DIMGAP
 40
0.09
  9
$DIMDSEP
 70
46
  9
$AUNITS
 70
0
  9
$PDMODE
 70
3
  9
$PDSIZE
 40
0.06
  9
$HANDSEED
  5
56B
  9
$TILEMODE
 70
1
  9
$MEASUREMENT
 70
0
  9
$INSUNITS
 70
1
  0
ENDSEC
  0
SECTION
  2
CLASSES
  0
CLASS
  1
ACDBDICTIONARYWDFLT
  2
AcDbDictionaryWithDefault
  3
AutoCAD 2000
 90
0
 91
1
280
0
281
0
  0
CLASS
  1
ACDBPLACEHOLDER
  2
AcDbPlaceHolder
  3
AutoCAD 2000
 90
0
 91
1
280
0
281
0
  0
CLASS
  1
LAYOUT
  2
AcDbLayout
  3
AutoCAD 2000
 90
0
 91
0
280
0
281
0
  0
ENDSEC
  0
SECTION
  2
TABLES
  0
TABLE
  2
VPORT
  5
8
100
AcDbSymbolTable
 70
2
  0
VPORT
  5
1F4
100
AcDbSymbolTableRecord
100
AcDbViewportTableRecord
  2
*ACTIVE
 70
0
 10
0.0
 20
0.0
 11
1.0
 21
1.0
 12
11.0
 22
8.5
 13
0.0
 23
0.0
 14
1.0
 24
1.0
 15
0.0
 25
0.0
 16
0.0
 26
0.0
 36
1.0
 17
0.0
 27
0.0
 37
0.0
 40
17.0
 41
1.2941176471
 42
50.0
 43
0.0
 44
0.0
 50
0.0
 51
0.0
 71
0
 72
100
 73
1
 74
1
 75
0
 76
0
 77
0
 78
0
  0
ENDTAB
  0
TABLE
  2
LTYPE
  5
5
100
AcDbSymbolTable
 70
6
  0
LTYPE
  5
14
100
AcDbSymbolTableRecord
100
AcDbLinetypeTableRecord
  2
BYBLOCK
 70
0
  3

 72
65
 73
0
 40
0.0
  0
LTYPE
  5
15
100
AcDbSymbolTableRecord
100
AcDbLinetypeTableRecord
  2
BYLAYER
 70
0
  3

 72
65
 73
0
 40
0.0
  0
LTYPE
  5
16
100
AcDbSymbolTableRecord
100
AcDbLinetypeTableRecord
  2
CONTINUOUS
 70
64
  3
Solid line
 72
65
 73
0
 40
0.0
  0
LTYPE
  5
1F5
100
AcDbSymbolTableRecord
100
AcDbLinetypeTableRecord
  2
CENTER
 70
64
  3
____ _ ____ _ ____ _ ____ _ ____ _ ____ _ ____
 72
65
 73
4
 40
0.6
 49
0.375
 74
0
 49
-0.075
 74
0
 49
0.075
 74
0
 49
-0.075
 74
0
  0
LTYPE
  5
1F6
100
AcDbSymbolTableRecord
100
AcDbLinetypeTableRecord
  2
HIDDEN
 70
64
  3
- - - - - - - - - - - - - - - - - - - -
 72
65
 73
2
 40
0.2
 49
0.1
 74
0
 49
-0.1
 74
0
  0
LTYPE
  5
1F7
100
AcDbSymbolTableRecord
100
AcDbLinetypeTableRecord
  2
PHANTOM
 70
64
  3
_____ _ _ _____ _ _ _____ _ _ _____
 72
65
 73
6
 40
0.8
 49
0.45
 74
0
 49
-0.05
 74
0
 49
0.1
 74
0
 49
-0.05
 74
0
 49
0.1
 74
0
 49
-0.05
 74
0
  0
LTYPE
  5
1F8
100
AcDbSymbolTableRecord
100
AcDbLinetypeTableRecord
  2
DOT
 70
64
  3
. . . . . . . . . . . . . . . . . . . .
 72
65
 73
2
 40
0.2
 49
0.1
 74
0
 49
-0.1
 74
0
  0
LTYPE
  5
1F9
100
AcDbSymbolTableRecord
100
AcDbLinetypeTableRecord
  2
DASHED
 70
64
  3
- - - - - - - - - - - - - - - - - - - -
 72
65
 73
2
 40
0.2
 49
0.1
 74
0
 49
-0.1
 74
0
  0
ENDTAB
  0
TABLE
  2
LAYER
  5
2
100
AcDbSymbolTable
 70
36
  0
LAYER
  5
10
100
AcDbSymbolTableRecord
100
AcDbLayerTableRecord
  2
0
 70
0
 62
7
  6
CONTINUOUS
370
-3
390
F
  0
LAYER
  5
1FA
100
AcDbSymbolTableRecord
100
AcDbLayerTableRecord
  2
DEFAULT_1
 70
0
 62
7
  6
CENTER
370
-3
390
F
  0
LAYER
  5
1FB
100
AcDbSymbolTableRecord
100
AcDbLayerTableRecord
  2
DEFAULT_2
 70
0
 62
8
  6
HIDDEN
370
-3
390
F
  0
LAYER
  5
1FC
100
AcDbSymbolTableRecord
100
AcDbLayerTableRecord
  2
DEFAULT_3
 70
0
 62
7
  6
PHANTOM
370
-3
390
F
  0
LAYER
  5
1FD
100
AcDbSymbolTableRecord
100
AcDbLayerTableRecord
  2
ALL_FEATURES
 70
0
 62
7
  6
CONTINUOUS
370
-3
390
F
  0
LAYER
  5
1FE
100
AcDbSymbolTableRecord
100
AcDbLayerTableRecord
  2
AXES_FEATURES
 70
0
 62
7
  6
CONTINUOUS
370
-3
390
F
  0
LAYER
  5
1FF
100
AcDbSymbolTableRecord
100
AcDbLayerTableRecord
  2
DEFAULT_COORDINATE_SYSTEM
 70
0
 62
7
  6
CONTINUOUS
370
-3
390
F
  0
LAYER
  5
200
100
AcDbSymbolTableRecord
100
AcDbLayerTableRecord
  2
DEFAULT_DATUM_AXES
 70
0
 62
7
  6
CONTINUOUS
370
-3
390
F
  0
LAYER
  5
201
100
AcDbSymbolTableRecord
100
AcDbLayerTableRecord
  2
DEFAULT_DATUM_PLANES
 70
0
 62
7
  6
CONTINUOUS
370
-3
390
F
  0
LAYER
  5
202
100
AcDbSymbolTableRecord
100
AcDbLayerTableRecord
  2
DIMENSIONS
 70
0
 62
7
  6
CONTINUOUS
370
-3
390
F
  0
ENDTAB
  0
TABLE
  2
STYLE
  5
3
100
AcDbSymbolTable
 70
1
  0
STYLE
  5
11
100
AcDbSymbolTableRecord
100
AcDbTextStyleTableRecord
  2
STANDARD
 70
0
 40
0.0
 41
0.8
 50
0.0
 71
0
 42
0.2
  3
txt
  4

  0
STYLE
  5
203
100
AcDbSymbolTableRecord
100
AcDbTextStyleTableRecord
  2
TEXTSTYLE_1
 70
0
 40
0.0
 41
0.8
 50
0.0
 71
0
 42
0.2
  3
gdt
  4

  0
ENDTAB
  0
TABLE
  2
VIEW
  5
6
100
AcDbSymbolTable
 70
0
  0
ENDTAB
  0
TABLE
  2
UCS
  5
7
100
AcDbSymbolTable
 70
0
  0
ENDTAB
  0
TABLE
  2
APPID
  5
9
100
AcDbSymbolTable
 70
1
  0
APPID
  5
204
100
AcDbSymbolTableRecord
100
AcDbRegAppTableRecord
  2
ACAD
 70
0
  0
ENDTAB
  0
TABLE
  2
BLOCK_RECORD
  5
1
100
AcDbSymbolTable
 70
0
  0
BLOCK_RECORD
  5
205
100
AcDbSymbolTableRecord
100
AcDbBlockTableRecord
  2
*Model_Space
  0
BLOCK_RECORD
  5
206
100
AcDbSymbolTableRecord
100
AcDbBlockTableRecord
  2
*Paper_Space
  0
BLOCK_RECORD
  5
207
100
AcDbSymbolTableRecord
100
AcDbBlockTableRecord
  2
_FILLED
  0
ENDTAB
  0
TABLE
  2
DIMSTYLE
  5
A
100
AcDbSymbolTable
 70
1
100
AcDbDimStyleTable
 71
0
  0
DIMSTYLE
105
208
100
AcDbSymbolTableRecord
100
AcDbDimStyleTableRecord
  2
STANDARD
 70
0
  3

  4

 40
1.0
 41
0.1
 42
0.0625
 43
0.38
 44
0.125
 45
0.0
 46
0.0
 47
0.001
 48
0.001
140
0.08
141
0.09
142
0.0
143
25.4
144
1.0
145
0.0
146
1.0
147
0.09
 71
1.0
 72
0.0
 73
1
 74
1
 75
0
 76
0
 77
0
 78
4
 79
1
170
1
171
2
172
0
173
0
174
0
175
0
176
0
177
0
178
0
270
2
179
3
271
3
272
3
273
2
274
2
275
0
280
0
281
0
282
0
283
1
284
4
285
0
286
0
287
3
288
0
340
11
278
46
341
207
342
207
343
207
344
207
  0
ENDTAB
  0
ENDSEC
  0
SECTION
  2
BLOCKS
  0
BLOCK
  5
20
100
AcDbEntity
  8
0
100
AcDbBlockBegin
  2
*Model_Space
 70
0
 10
0.0
 20
0.0
 30
0.0
  3
*Model_Space
  1

  0
ENDBLK
  5
21
100
AcDbEntity
  8
0
100
AcDbBlockEnd
  0
BLOCK
  5
1C
100
AcDbEntity
  8
0
100
AcDbBlockBegin
  2
*Paper_Space
 70
0
 10
0.0
 20
0.0
 30
0.0
  3
*Paper_Space
  1

  0
ENDBLK
  5
1D
100
AcDbEntity
  8
0
100
AcDbBlockEnd
  0
BLOCK
  5
209
100
AcDbEntity
  8
0
100
AcDbBlockBegin
  2
_FILLED
 70
64
 10
0.0
 20
0.0
  3
_FILLED
  1

  0
SOLID
  5
20A
100
AcDbEntity
  8
0
  6
BYBLOCK
 62
0
100
AcDbTrace
 10
0.0
 20
0.0
 11
-1.0
 21
0.2
 12
-1.0
 22
-0.2
 13
-1.0
 23
-0.2
  0
ENDBLK
  5
20B
100
AcDbEntity
  8
0
  6
BYBLOCK
 62
0
100
AcDbBlockEnd
  0
ENDSEC
  0
SECTION
  2
ENTITIES
  0
LINE
  5
20C
100
AcDbEntity
  8
0
100
AcDbLine
 62
7
  6
CONTINUOUS
 10
11.5961426102
 20
0.8876974619
 11
11.1211426102
 21
0.8876974619
  0
LINE
  5
20D
100
AcDbEntity
  8
0
100
AcDbLine
 62
9
  6
CONTINUOUS
 10
11.5748391385
 20
1.0177552974
 11
11.1424460819
 21
1.0177552974
  0
LINE
  5
20E
100
AcDbEntity
  8
0
100
AcDbLine
 62
7
  6
CONTINUOUS
 10
11.5771426102
 20
1.2106974619
 11
11.1401426102
 21
1.2106974619
  0
LINE
  5
20F
100
AcDbEntity
  8
0
100
AcDbLine
 62
9
  6
CONTINUOUS
 10
11.7528919186
 20
1.5544572068
 11
10.9643933018
 21
1.5544572068
  0
LINE
  5
210
100
AcDbEntity
  8
0
100
AcDbLine
 62
7
  6
CONTINUOUS
 10
7.2083858367
 20
14.8951412589
 11
7.0789507695
 21
14.7657061916
  0
LINE
  5
211
100
AcDbEntity
  8
0
100
AcDbLine
 62
7
  6
CONTINUOUS
 10
6.8279197819
 20
14.2203072079
 11
6.8032277429
 21
14.1956151688
  0
LINE
  5
212
100
AcDbEntity
  8
0
100
AcDbLine
 62
7
  6
CONTINUOUS
 10
6.8668117997
 20
14.1814151901
 11
6.8421197606
 21
14.156723151
  0
LINE
  5
213
100
AcDbEntity
  8
0
100
AcDbLine
 62
7
  6
CONTINUOUS
 10
7.5672936726
 20
14.8509982295
 11
7.5432602215
 21
14.8269647784
  0
LINE
  5
214
100
AcDbEntity
  8
0
100
AcDbLine
 62
7
  6
CONTINUOUS
 10
6.9808374262
 20
14.0673895636
 11
6.9561453872
 21
14.0426975245
  0
LINE
  5
215
100
AcDbEntity
  8
0
100
AcDbLine
 62
7
  6
CONTINUOUS
 10
6.9527066622
 20
14.0080137701
 11
6.9423896174
 21
13.9976967254
  0
LINE
  5
216
100
AcDbEntity
  8
0
100
AcDbLine
 62
7
  6
CONTINUOUS
 10
7.0189503162
 20
13.9405225167
 11
7.0092570711
 21
13.9308292717
  0
LINE
  5
217
100
AcDbEntity
  8
0
100
AcDbLine
 62
7
  6
CONTINUOUS
 10
7.0886030418
 20
13.9413088421
 11
7.0730685557
 21
13.925774356
  0
LINE
  5
218
100
AcDbEntity
  8
0
100
AcDbLine
 62
7
  6
CONTINUOUS
 10
7.1622260035
 20
13.8860009863
 11
7.1375339645
 21
13.8613089472
  0
LINE
  5
219
100
AcDbEntity
  8
0
100
AcDbLine
 62
7
  6
CONTINUOUS
 10
7.123957509
 20
13.8450899921
 11
7.1094769299
 21
13.8306094129
  0
LINE
  5
21A
100
AcDbEntity
  8
0
100
AcDbLine
 62
7
  6
CONTINUOUS
 10
7.1481283171
 20
13.8113445158
 11
7.138435072
 21
13.8016512708
  0
LINE
  5
21B
100
AcDbEntity
  8
0
100
AcDbLine
 62
7
  6
CONTINUOUS
 10
7.1183426963
 20
13.7535134117
 11
7.1135515095
 21
13.7487222248
  0
LINE
  5
21C
100
AcDbEntity
  8
0
100
AcDbLine
 62
9
  6
CONTINUOUS
 10
11.5478525374
 20
2.6092933789
 11
11.169432683
 21
2.6092933789
  0
LINE
  5
21D
100
AcDbEntity
  8
0
100
AcDbLine
 62
7
  6
CONTINUOUS
 10
14.0808926102
 20
2.6826974619
 11
14.0668926102
 21
2.6826974619
  0
LINE
  5
21E
100
AcDbEntity
  8
0
100
AcDbLine
 62
7
  6
CONTINUOUS
 10
7.2353640844
 20
13.573496413
 11
7.2348764914
 21
13.5729789049
  0
LINE
  5
21F
100
AcDbEntity
  8
0
100
AcDbLine
 62
7
  6
CONTINUOUS
 10
7.2721480389
 20
13.7620766846
 11
7.254457133
 21
13.7443857787
  0
LINE
  5
220
100
AcDbEntity
  8
0
100
AcDbLine
 62
7
  6
CONTINUOUS
 10
7.2544436309
 20
13.7172201122
 11
7.2386549308
 21
13.701431412
  0
LINE
  5
221
100
AcDbEntity
  8
0
100
AcDbLine
 62
7
  6
CONTINUOUS
 10
7.2174138927
 20
13.5908506605
 11
7.198685357
 21
13.5721221248
  0
LINE
  5
222
100
AcDbEntity
  8
0
100
AcDbLine
 62
7
  6
CONTINUOUS
 10
7.2348758822
 20
13.5729786878
 11
7.2163523381
 21
13.5544551436
  0
LINE
  5
223
100
AcDbEntity
  8
0
100
AcDbLine
 62
7
  6
CONTINUOUS
 10
7.3509827928
 20
13.6488284299
 11
7.3211203529
 21
13.6189659899
  0
LINE
  5
224
100
AcDbEntity
  8
0
100
AcDbLine
 62
7
  6
CONTINUOUS
 10
7.3986161998
 20
13.64961079
 11
7.3739241607
 21
13.6249187509
  0
LINE
  5
225
100
AcDbEntity
  8
0
100
AcDbLine
 62
7
  6
CONTINUOUS
 10
7.2888943574
 20
13.5176874184
 11
7.2710072104
 21
13.4998002713
  0
LINE
  5
226
100
AcDbEntity
  8
0
100
AcDbLine
 62
7
  6
CONTINUOUS
 10
7.4310334567
 20
13.5284393762
 11
7.4213402116
 21
13.5187461312
  0
LINE
  5
227
100
AcDbEntity
  8
0
100
AcDbLine
 62
7
  6
CONTINUOUS
 10
7.3759312468
 20
13.4042845903
 11
7.3712270691
 21
13.3995804126
  0
LINE
  5
228
100
AcDbEntity
  8
0
100
AcDbLine
 62
7
  6
CONTINUOUS
 10
7.5113499567
 20
13.5284982098
 11
7.4908473293
 21
13.5079955824
  0
LINE
  5
229
100
AcDbEntity
  8
0
100
AcDbLine
 62
7
  6
CONTINUOUS
 10
7.3859660097
 20
13.3922437672
 11
7.3822648621
 21
13.3885426196
  0
LINE
  5
22A
100
AcDbEntity
  8
0
100
AcDbLine
 62
7
  6
CONTINUOUS
 10
7.5724536795
 20
13.422813595
 11
7.5448632137
 21
13.3952231291
  0
LINE
  5
22B
100
AcDbEntity
  8
0
100
AcDbLine
 62
7
  6
CONTINUOUS
 10
9.4419279646
 20
15.2477793489
 11
8.7772475903
 21
14.5830989745
  0
LINE
  5
22C
100
AcDbEntity
  8
0
100
AcDbLine
 62
7
  6
CONTINUOUS
 10
9.4524168181
 20
15.2372904954
 11
9.2049294446
 21
14.989803122
  0
LINE
  5
22D
100
AcDbEntity
  8
0
100
AcDbLine
 62
7
  6
CONTINUOUS
 10
7.6738984139
 20
13.3743285759
 11
7.6492063748
 21
13.3496365369
  0
LWPOLYLINE
  5
22E
100
AcDbEntity
  8
0
100
AcDbPolyline
 62
7
  6
CONTINUOUS
 90
5
 70
0
 10
7.3759288347
 20
13.4042853213
 10
7.3768763639
 20
13.4051341538
 10
7.3788130421
 20
13.4063880863
 10
7.3808605429
 20
13.40720269
 10
7.3828477212
 20
13.407592215
  0
LINE
  5
22F
100
AcDbEntity
  8
0
100
AcDbLine
 62
7
  6
CONTINUOUS
 10
11.6086426102
 20
3.4026974619
 11
11.1086426102
 21
3.4026974619
  0
LINE
  5
230
100
AcDbEntity
  8
0
100
AcDbLine
 62
7
  6
CONTINUOUS
 10
11.6086426102
 20
3.4476974619
 11
11.1086426102
 21
3.4476974619
  0
LINE
  5
231
100
AcDbEntity
  8
0
100
AcDbLine
 62
7
  6
CONTINUOUS
 10
11.5836682453
 20
3.4726974619
 11
11.1339297968
 21
3.4726974619
  0
LINE
  5
232
100
AcDbEntity
  8
0
100
AcDbLine
 62
7
  6
CONTINUOUS
 10
11.9916426102
 20
3.5001974619
 11
12.0416426102
 21
3.5001974619
  0
LINE
  5
233
100
AcDbEntity
  8
0
100
AcDbLine
 62
7
  6
CONTINUOUS
 10
11.0086426102
 20
3.5221974619
 11
11.0796426102
 21
3.5221974619
  0
LINE
  5
234
100
AcDbEntity
  8
0
100
AcDbLine
 62
7
  6
CONTINUOUS
 10
10.9376426102
 20
3.5806974619
 11
10.9616426102
 21
3.5806974619
  0
LINE
  5
235
100
AcDbEntity
  8
0
100
AcDbLine
 62
7
  6
CONTINUOUS
 10
12.0416426102
 20
3.6526974619
 11
12.0728926102
 21
3.6526974619
  0
LINE
  5
236
100
AcDbEntity
  8
0
100
AcDbLine
 62
7
  6
CONTINUOUS
 10
12.2779976001
 20
3.4180319183
 11
12.139000756
 21
3.4425408122
  0
LINE
  5
237
100
AcDbEntity
  8
0
100
AcDbLine
 62
7
  6
CONTINUOUS
 10
7.38737797
 20
13.3563652526
 11
7.3523138448
 21
13.2811699935
  0
LINE
  5
238
100
AcDbEntity
  8
0
100
AcDbLine
 62
7
  6
CONTINUOUS
 10
7.6547763175
 20
13.3046965154
 11
7.6450830724
 21
13.2950032704
  0
LINE
  5
239
100
AcDbEntity
  8
0
100
AcDbLine
 62
7
  6
CONTINUOUS
 10
10.0447364956
 20
15.6773467184
 11
9.8169577083
 21
15.4495679311
  0
LINE
  5
23A
100
AcDbEntity
  8
0
100
AcDbLine
 62
7
  6
CONTINUOUS
 10
9.9658705651
 20
15.5794359536
 11
9.8264801254
 21
15.440045514
  0
LINE
  5
23B
100
AcDbEntity
  8
0
100
AcDbLine
 62
7
  6
CONTINUOUS
 10
11.0601936133
 20
16.6273964588
 11
10.282890745
 21
15.8500935906
  0
LINE
  5
23C
100
AcDbEntity
  8
0
100
AcDbLine
 62
7
  6
CONTINUOUS
 10
10.2520590072
 20
15.8192618528
 11
10.245604375
 21
15.8128072205
  0
LINE
  5
23D
100
AcDbEntity
  8
0
100
AcDbLine
 62
7
  6
CONTINUOUS
 10
10.2136001223
 20
15.7808029678
 11
10.1958268243
 21
15.7630296699
  0
LINE
  5
23E
100
AcDbEntity
  8
0
100
AcDbLine
 62
7
  6
CONTINUOUS
 10
10.1623603752
 20
15.7295632207
 11
10.1461793334
 21
15.713382179
  0
LINE
  5
23F
100
AcDbEntity
  8
0
100
AcDbLine
 62
7
  6
CONTINUOUS
 10
10.1109905794
 20
15.678193425
 11
10.0963706735
 21
15.663573519
  0
LINE
  5
240
100
AcDbEntity
  8
0
100
AcDbLine
 62
7
  6
CONTINUOUS
 10
9.5710022303
 20
15.1187050832
 11
9.3235148569
 21
14.8712177098
  0
LINE
  5
241
100
AcDbEntity
  8
0
100
AcDbLine
 62
7
  6
CONTINUOUS
 10
10.276924509
 20
15.8125991617
 11
10.2895534361
 21
15.8252280888
  0
LINE
  5
242
100
AcDbEntity
  8
0
100
AcDbLine
 62
7
  6
CONTINUOUS
 10
10.2527025592
 20
15.7863465284
 11
10.2402802982
 21
15.7739242674
  0
LINE
  5
243
100
AcDbEntity
  8
0
100
AcDbLine
 62
7
  6
CONTINUOUS
 10
10.203459497
 20
15.73457083
 11
10.1910381999
 21
15.7221495329
  0
LINE
  5
244
100
AcDbEntity
  8
0
100
AcDbLine
 62
7
  6
CONTINUOUS
 10
10.1544413118
 20
15.6825694768
 11
10.1420212685
 21
15.6701494335
  0
LINE
  5
245
100
AcDbEntity
  8
0
100
AcDbLine
 62
7
  6
CONTINUOUS
 10
10.1051469307
 20
15.6308504458
 11
10.0981898495
 21
15.6238933645
  0
LINE
  5
246
100
AcDbEntity
  8
0
100
AcDbLine
 62
7
  6
CONTINUOUS
 10
7.6494362956
 20
13.1486709849
 11
7.6357863962
 21
13.1350210855
  0
LINE
  5
247
100
AcDbEntity
  8
0
100
AcDbLine
 62
7
  6
CONTINUOUS
 10
7.7899085193
 20
13.2564923443
 11
7.7661295433
 21
13.2327133683
  0
LINE
  5
248
100
AcDbEntity
  8
0
100
AcDbLine
 62
7
  6
CONTINUOUS
 10
10.0539933487
 20
15.49131317
 11
9.9146029091
 21
15.3519227303
  0
LINE
  5
249
100
AcDbEntity
  8
0
100
AcDbLine
 62
7
  6
CONTINUOUS
 10
7.8194735895
 20
13.1707280359
 11
7.7944159482
 21
13.1456703946
  0
LINE
  5
24A
100
AcDbEntity
  8
0
100
AcDbLine
 62
7
  6
CONTINUOUS
 10
7.7449403071
 20
13.0437352789
 11
7.736006255
 21
13.0348012268
  0
LINE
  5
24B
100
AcDbEntity
  8
0
100
AcDbLine
 62
7
  6
CONTINUOUS
 10
7.8005920052
 20
12.9939641545
 11
7.7887176662
 21
12.9820898155
  0
LINE
  5
24C
100
AcDbEntity
  8
0
100
AcDbLine
 62
7
  6
CONTINUOUS
 10
7.9170726435
 20
13.0678873724
 11
7.8946358069
 21
13.0454505359
  0
LINE
  5
24D
100
AcDbEntity
  8
0
100
AcDbLine
 62
7
  6
CONTINUOUS
 10
7.9693126177
 20
13.0789143721
 11
7.9446205786
 21
13.054222333
  0
LINE
  5
24E
100
AcDbEntity
  8
0
100
AcDbLine
 62
7
  6
CONTINUOUS
 10
7.8996461117
 20
12.8925785434
 11
7.888937525
 21
12.8818699567
  0
LINE
  5
24F
100
AcDbEntity
  8
0
100
AcDbLine
 62
7
  6
CONTINUOUS
 10
7.954697972
 20
12.8362385843
 11
7.9446334347
 21
12.826174047
  0
LINE
  5
250
100
AcDbEntity
  8
0
100
AcDbLine
 62
7
  6
CONTINUOUS
 10
8.0862357863
 20
12.9619912036
 11
8.0615437472
 21
12.9372991645
  0
LINE
  5
251
100
AcDbEntity
  8
0
100
AcDbLine
 62
7
  6
CONTINUOUS
 10
8.0752087865
 20
12.9097512293
 11
8.05277195
 21
12.8873143928
  0
LWPOLYLINE
  5
252
100
AcDbEntity
  8
0
100
AcDbPolyline
 62
7
  6
CONTINUOUS
 90
7
 70
0
 10
8.0573700256
 20
12.7384703516
 10
8.0586325698
 20
12.7395479689
 10
8.0606473412
 20
12.7406898117
 10
8.06260004
 20
12.7412936179
 10
8.0641763739
 20
12.7414645819
 10
8.0651969327
 20
12.7414125394
 10
8.0655961401
 20
12.7413458012
  0
LWPOLYLINE
  5
253
100
AcDbEntity
  8
0
100
AcDbPolyline
 62
7
  6
CONTINUOUS
 90
7
 70
0
 10
7.8996422465
 20
12.8925774431
 10
7.9009824066
 20
12.893710129
 10
7.9030810715
 20
12.8948620947
 10
7.9051153821
 20
12.8954436123
 10
7.9067339585
 20
12.8955741287
 10
7.9077610198
 20
12.8954898056
 10
7.9081496686
 20
12.8954121218
  0
LWPOLYLINE
  5
254
100
AcDbEntity
  8
0
100
AcDbPolyline
 62
7
  6
CONTINUOUS
 90
8
 70
0
 10
7.7449405014
 20
13.0437375995
 10
7.7463324183
 20
13.0449090172
 10
7.748407247
 20
13.0460456416
 10
7.7504080382
 20
13.046632402
 10
7.7520625006
 20
13.0467894767
 10
7.7532257962
 20
13.046714542
 10
7.7539205352
 20
13.0465795744
 10
7.7541410751
 20
13.0465157062
  0
LINE
  5
255
100
AcDbEntity
  8
0
100
AcDbLine
 62
7
  6
CONTINUOUS
 10
12.2779976001
 20
4.2873630055
 11
12.139000756
 21
4.2628541116
  0
LINE
  5
256
100
AcDbEntity
  8
0
100
AcDbLine
 62
7
  6
CONTINUOUS
 10
12.0416426102
 20
4.0526974619
 11
12.0728926102
 21
4.0526974619
  0
LINE
  5
257
100
AcDbEntity
  8
0
100
AcDbLine
 62
7
  6
CONTINUOUS
 10
10.9376426102
 20
4.1246974619
 11
10.9616426102
 21
4.1246974619
  0
LINE
  5
258
100
AcDbEntity
  8
0
100
AcDbLine
 62
7
  6
CONTINUOUS
 10
11.0086426102
 20
4.1831974619
 11
11.0796426102
 21
4.1831974619
  0
LINE
  5
259
100
AcDbEntity
  8
0
100
AcDbLine
 62
7
  6
CONTINUOUS
 10
11.9916426102
 20
4.2051974619
 11
12.0416426102
 21
4.2051974619
  0
LINE
  5
25A
100
AcDbEntity
  8
0
100
AcDbLine
 62
7
  6
CONTINUOUS
 10
6.7974621283
 20
14.181695744
 11
6.7974621283
 21
14.1701641586
  0
LINE
  5
25B
100
AcDbEntity
  8
0
100
AcDbLine
 62
7
  6
CONTINUOUS
 10
10.8201259149
 20
15.2698086037
 11
10.8201198573
 21
15.2698023764
  0
LINE
  5
25C
100
AcDbEntity
  8
0
100
AcDbLine
 62
7
  6
CONTINUOUS
 10
8.0573716215
 20
12.7384725163
 11
8.0448532935
 21
12.7259541882
  0
LINE
  5
25D
100
AcDbEntity
  8
0
100
AcDbLine
 62
7
  6
CONTINUOUS
 10
8.17804945
 20
12.8121521753
 11
8.1529918088
 21
12.787094534
  0
LINE
  5
25E
100
AcDbEntity
  8
0
100
AcDbLine
 62
7
  6
CONTINUOUS
 10
8.2638137585
 20
12.7825871052
 11
8.2400347825
 21
12.7588081292
  0
LINE
  5
25F
100
AcDbEntity
  8
0
100
AcDbLine
 62
7
  6
CONTINUOUS
 10
10.6514774626
 20
15.109770789
 11
10.6638971583
 21
15.1221904848
  0
LINE
  5
260
100
AcDbEntity
  8
0
100
AcDbLine
 62
7
  6
CONTINUOUS
 10
10.7033156199
 20
15.1589531102
 11
10.7157363756
 21
15.1713738658
  0
LINE
  5
261
100
AcDbEntity
  8
0
100
AcDbLine
 62
7
  6
CONTINUOUS
 10
10.7551237898
 20
15.2081580476
 11
10.7675455157
 21
15.2205797735
  0
LINE
  5
262
100
AcDbEntity
  8
0
100
AcDbLine
 62
7
  6
CONTINUOUS
 10
10.8069739702
 20
15.2573258561
 11
10.8193967295
 21
15.2697486154
  0
LINE
  5
263
100
AcDbEntity
  8
0
100
AcDbLine
 62
7
  6
CONTINUOUS
 10
10.8201198573
 20
15.2698023764
 11
10.8325495029
 21
15.282232022
  0
LINE
  5
264
100
AcDbEntity
  8
0
100
AcDbLine
 62
7
  6
CONTINUOUS
 10
11.634717873
 20
16.0528721991
 11
10.8574150047
 21
15.2755693309
  0
LINE
  5
265
100
AcDbEntity
  8
0
100
AcDbLine
 62
7
  6
CONTINUOUS
 10
10.8137716774
 20
15.2319260036
 11
10.7952556574
 21
15.2134099836
  0
LINE
  5
266
100
AcDbEntity
  8
0
100
AcDbLine
 62
7
  6
CONTINUOUS
 10
10.7624887045
 20
15.1806430306
 11
10.7454985407
 21
15.1636528668
  0
LINE
  5
267
100
AcDbEntity
  8
0
100
AcDbLine
 62
7
  6
CONTINUOUS
 10
10.7112285403
 20
15.1293828664
 11
10.6957565604
 21
15.1139108866
  0
LINE
  5
268
100
AcDbEntity
  8
0
100
AcDbLine
 62
7
  6
CONTINUOUS
 10
10.6599532694
 20
15.0781075955
 11
10.6519644439
 21
15.0701187701
  0
LINE
  5
269
100
AcDbEntity
  8
0
100
AcDbLine
 62
7
  6
CONTINUOUS
 10
10.6846681326
 20
15.0374150814
 11
10.4568893452
 21
14.8096362941
  0
LINE
  5
26A
100
AcDbEntity
  8
0
100
AcDbLine
 62
7
  6
CONTINUOUS
 10
8.3120179296
 20
12.6474549033
 11
8.3023246845
 21
12.6377616583
  0
LINE
  5
26B
100
AcDbEntity
  8
0
100
AcDbLine
 62
7
  6
CONTINUOUS
 10
8.3816499901
 20
12.6665769997
 11
8.356957951
 21
12.6418849606
  0
LINE
  5
26C
100
AcDbEntity
  8
0
100
AcDbLine
 62
7
  6
CONTINUOUS
 10
10.255100763
 20
14.4346065505
 11
9.5904203887
 21
13.7699261762
  0
LINE
  5
26D
100
AcDbEntity
  8
0
100
AcDbLine
 62
7
  6
CONTINUOUS
 10
8.4301350091
 20
12.5651322653
 11
8.4025445433
 21
12.5375417995
  0
LINE
  5
26E
100
AcDbEntity
  8
0
100
AcDbLine
 62
7
  6
CONTINUOUS
 10
8.3589796789
 20
12.4224694104
 11
8.3536588751
 21
12.4171486066
  0
LINE
  5
26F
100
AcDbEntity
  8
0
100
AcDbLine
 62
7
  6
CONTINUOUS
 10
8.5358196239
 20
12.5040285426
 11
8.5153169965
 21
12.4835259151
  0
LINE
  5
270
100
AcDbEntity
  8
0
100
AcDbLine
 62
7
  6
CONTINUOUS
 10
8.5357607904
 20
12.4237120425
 11
8.5260675453
 21
12.4140187975
  0
LINE
  5
271
100
AcDbEntity
  8
0
100
AcDbLine
 62
7
  6
CONTINUOUS
 10
8.471147783
 20
12.3341977969
 11
8.4538787339
 21
12.3169287478
  0
LWPOLYLINE
  5
272
100
AcDbEntity
  8
0
100
AcDbPolyline
 62
7
  6
CONTINUOUS
 90
9
 70
0
 10
8.4711447067
 20
12.3341961136
 10
8.4723335064
 20
12.3352305294
 10
8.4743382032
 20
12.3364381889
 10
8.4763840991
 20
12.3371616484
 10
8.4782299694
 20
12.3374486171
 10
8.4796622604
 20
12.3374413492
 10
8.4806097235
 20
12.3373146546
 10
8.4811324145
 20
12.337192192
 10
8.4812842447
 20
12.3371455458
  0
LINE
  5
273
100
AcDbEntity
  8
0
100
AcDbLine
 62
7
  6
CONTINUOUS
 10
8.3584399316
 20
12.377609963
 11
8.2884914077
 21
12.3449924307
  0
LINE
  5
274
100
AcDbEntity
  8
0
100
AcDbLine
 62
7
  6
CONTINUOUS
 10
14.0808926102
 20
5.0226974619
 11
14.0668926102
 21
5.0226974619
  0
LINE
  5
275
100
AcDbEntity
  8
0
100
AcDbLine
 62
7
  6
CONTINUOUS
 10
6.8363541461
 20
14.1428028814
 11
6.8363541461
 21
14.1312721043
  0
LINE
  5
276
100
AcDbEntity
  8
0
100
AcDbLine
 62
7
  6
CONTINUOUS
 10
6.9366240029
 20
13.9837768866
 11
6.9366240029
 21
13.9722456155
  0
LINE
  5
277
100
AcDbEntity
  8
0
100
AcDbLine
 62
7
  6
CONTINUOUS
 10
6.9503797726
 20
14.0287772549
 11
6.9503797726
 21
14.0172464778
  0
LINE
  5
278
100
AcDbEntity
  8
0
100
AcDbLine
 62
7
  6
CONTINUOUS
 10
7.0034914566
 20
13.9169094329
 11
7.0034914566
 21
13.9053781618
  0
LINE
  5
279
100
AcDbEntity
  8
0
100
AcDbLine
 62
7
  6
CONTINUOUS
 10
7.1317683499
 20
13.8473886776
 11
7.1317683499
 21
13.8358579005
  0
LINE
  5
27A
100
AcDbEntity
  8
0
100
AcDbLine
 62
7
  6
CONTINUOUS
 10
7.1326694575
 20
13.787731432
 11
7.1326694575
 21
13.7762001609
  0
LINE
  5
27B
100
AcDbEntity
  8
0
100
AcDbLine
 62
7
  6
CONTINUOUS
 10
7.1952259882
 20
13.563770408
 11
7.1952259882
 21
13.5457161877
  0
LINE
  5
27C
100
AcDbEntity
  8
0
100
AcDbLine
 62
7
  6
CONTINUOUS
 10
7.2128929693
 20
13.5461034269
 11
7.2128929693
 21
13.5280491592
  0
LINE
  5
27D
100
AcDbEntity
  8
0
100
AcDbLine
 62
7
  6
CONTINUOUS
 10
7.2675478416
 20
13.4914485546
 11
7.2675478416
 21
13.4733942869
  0
LINE
  5
27E
100
AcDbEntity
  8
0
100
AcDbLine
 62
7
  6
CONTINUOUS
 10
7.3153547383
 20
13.6050461512
 11
7.3153547383
 21
13.59351488
  0
LINE
  5
27F
100
AcDbEntity
  8
0
100
AcDbLine
 62
7
  6
CONTINUOUS
 10
7.3681585462
 20
13.6109984813
 11
7.3681585462
 21
13.5994677042
  0
LINE
  5
280
100
AcDbEntity
  8
0
100
AcDbLine
 62
7
  6
CONTINUOUS
 10
7.3788054934
 20
13.3801909029
 11
7.3788054934
 21
13.3621366352
  0
LINE
  5
281
100
AcDbEntity
  8
0
100
AcDbLine
 62
7
  6
CONTINUOUS
 10
7.4104209561
 20
13.1965908798
 11
7.4104209561
 21
13.1850596026
  0
LINE
  5
282
100
AcDbEntity
  8
0
100
AcDbLine
 62
7
  6
CONTINUOUS
 10
8.6569322041
 20
12.3912947857
 11
8.6322401651
 21
12.3666027466
  0
LINE
  5
283
100
AcDbEntity
  8
0
100
AcDbLine
 62
7
  6
CONTINUOUS
 10
8.5488901654
 20
12.258240696
 11
8.5307284756
 21
12.2400790061
  0
LINE
  5
284
100
AcDbEntity
  8
0
100
AcDbLine
 62
7
  6
CONTINUOUS
 10
8.6561498441
 20
12.3436613787
 11
8.6262874041
 21
12.3137989387
  0
LINE
  5
285
100
AcDbEntity
  8
0
100
AcDbLine
 62
7
  6
CONTINUOUS
 10
8.591082718
 20
12.2170205046
 11
8.5724348476
 21
12.1983726341
  0
LINE
  5
286
100
AcDbEntity
  8
0
100
AcDbLine
 62
7
  6
CONTINUOUS
 10
8.7245415263
 20
12.2471222168
 11
8.7087528262
 21
12.2313335166
  0
LINE
  5
287
100
AcDbEntity
  8
0
100
AcDbLine
 62
7
  6
CONTINUOUS
 10
8.7693980987
 20
12.2648266247
 11
8.7517071928
 21
12.2471357188
  0
LINE
  5
288
100
AcDbEntity
  8
0
100
AcDbLine
 62
7
  6
CONTINUOUS
 10
8.7608348259
 20
12.1110212822
 11
8.756043639
 21
12.1062300953
  0
LINE
  5
289
100
AcDbEntity
  8
0
100
AcDbLine
 62
7
  6
CONTINUOUS
 10
8.81866593
 20
12.1408069029
 11
8.8089726849
 21
12.1311136579
  0
LINE
  5
28A
100
AcDbEntity
  8
0
100
AcDbLine
 62
7
  6
CONTINUOUS
 10
8.8524114062
 20
12.1166360949
 11
8.8379308271
 21
12.1021555157
  0
LINE
  5
28B
100
AcDbEntity
  8
0
100
AcDbLine
 62
7
  6
CONTINUOUS
 10
8.8933224004
 20
12.1549045894
 11
8.8686303613
 21
12.1302125503
  0
LINE
  5
28C
100
AcDbEntity
  8
0
100
AcDbLine
 62
7
  6
CONTINUOUS
 10
8.9486302563
 20
12.0812816277
 11
8.9330957701
 21
12.0657471415
  0
LINE
  5
28D
100
AcDbEntity
  8
0
100
AcDbLine
 62
7
  6
CONTINUOUS
 10
8.9478439309
 20
12.011628902
 11
8.9381506858
 21
12.001935657
  0
LINE
  5
28E
100
AcDbEntity
  8
0
100
AcDbLine
 62
7
  6
CONTINUOUS
 10
9.0153351843
 20
11.9453852481
 11
9.0050181395
 21
11.9350682033
  0
LINE
  5
28F
100
AcDbEntity
  8
0
100
AcDbLine
 62
7
  6
CONTINUOUS
 10
9.0747109777
 20
11.9735160121
 11
9.0500189386
 21
11.948823973
  0
LINE
  5
290
100
AcDbEntity
  8
0
100
AcDbLine
 62
7
  6
CONTINUOUS
 10
8.5910824147
 20
12.217021042
 11
8.591369854
 21
12.2172991588
  0
LWPOLYLINE
  5
291
100
AcDbEntity
  8
0
100
AcDbPolyline
 62
7
  6
CONTINUOUS
 90
11
 70
0
 10
8.5488908267
 20
12.2582406725
 10
8.5499269971
 20
12.2591606712
 10
8.5519582985
 20
12.2604404948
 10
8.5541074266
 20
12.2612462544
 10
8.5561249334
 20
12.2615891786
 10
8.5577723766
 20
12.2615947562
 10
8.5589590725
 20
12.2614405083
 10
8.5597485674
 20
12.2612554504
 10
8.560213408
 20
12.2611084181
 10
8.5604331352
 20
12.2610249199
 10
8.5604598216
 20
12.2610137808
  0
LWPOLYLINE
  5
292
100
AcDbEntity
  8
0
100
AcDbPolyline
 62
7
  6
CONTINUOUS
 90
9
 70
0
 10
8.591369854
 20
12.2172991588
 10
8.592861884
 20
12.2184821111
 10
8.5944709211
 20
12.2193851206
 10
8.5961385304
 20
12.2200072174
 10
8.597785868
 20
12.2203574383
 10
8.5993227295
 20
12.2204685526
 10
8.6007128874
 20
12.2203939919
 10
8.6019358134
 20
12.2201873819
 10
8.602970126
 20
12.2199031435
  0
LINE
  5
293
100
AcDbEntity
  8
0
100
AcDbLine
 62
7
  6
CONTINUOUS
 10
10.8716426102
 20
3.6826974619
 11
10.8816426102
 21
3.6726974619
  0
LINE
  5
294
100
AcDbEntity
  8
0
100
AcDbLine
 62
7
  6
CONTINUOUS
 10
11.6086426102
 20
3.4476974619
 11
11.5836426102
 21
3.4726974619
  0
LINE
  5
295
100
AcDbEntity
  8
0
100
AcDbLine
 62
7
  6
CONTINUOUS
 10
7.5390975991
 20
13.3813032904
 11
7.5390975991
 21
13.3697720192
  0
LINE
  5
296
100
AcDbEntity
  8
0
100
AcDbLine
 62
7
  6
CONTINUOUS
 10
7.588956337
 20
13.0180554966
 11
7.588956337
 21
13.0065242217
  0
LINE
  5
297
100
AcDbEntity
  8
0
100
AcDbLine
 62
7
  6
CONTINUOUS
 10
7.6323270275
 20
13.1266693687
 11
7.6323270275
 21
13.1086151018
  0
LINE
  5
298
100
AcDbEntity
  8
0
100
AcDbLine
 62
7
  6
CONTINUOUS
 10
7.6434407602
 20
13.3357162673
 11
7.6434407602
 21
13.3241854902
  0
LINE
  5
299
100
AcDbEntity
  8
0
100
AcDbLine
 62
7
  6
CONTINUOUS
 10
7.7852582975
 20
12.9737380987
 11
7.7852582975
 21
12.9556838311
  0
LINE
  5
29A
100
AcDbEntity
  8
0
100
AcDbLine
 62
7
  6
CONTINUOUS
 10
7.7886503337
 20
13.1317505559
 11
7.7886503337
 21
13.1202192847
  0
LINE
  5
29B
100
AcDbEntity
  8
0
100
AcDbLine
 62
7
  6
CONTINUOUS
 10
7.8414434939
 20
12.765568342
 11
7.8414434939
 21
12.7540370647
  0
LINE
  5
29C
100
AcDbEntity
  8
0
100
AcDbLine
 62
7
  6
CONTINUOUS
 10
7.9388549641
 20
13.0403020636
 11
7.9388549641
 21
13.0287712863
  0
LINE
  5
29D
100
AcDbEntity
  8
0
100
AcDbLine
 62
7
  6
CONTINUOUS
 10
7.941174066
 20
12.8178223303
 11
7.941174066
 21
12.7997680626
  0
LINE
  5
29E
100
AcDbEntity
  8
0
100
AcDbLine
 62
7
  6
CONTINUOUS
 10
8.0199788748
 20
12.5816349228
 11
8.0199788748
 21
12.5755016839
  0
LINE
  5
29F
100
AcDbEntity
  8
0
100
AcDbLine
 62
7
  6
CONTINUOUS
 10
8.0470063355
 20
12.873394554
 11
8.0470063355
 21
12.8618632829
  0
LINE
  5
2A0
100
AcDbEntity
  8
0
100
AcDbLine
 62
7
  6
CONTINUOUS
 10
9.8583196437
 20
12.5599722585
 11
9.8342861925
 21
12.5359388073
  0
LINE
  5
2A1
100
AcDbEntity
  8
0
100
AcDbLine
 62
7
  6
CONTINUOUS
 10
9.1887366043
 20
11.8594903855
 11
9.1640445652
 21
11.8347983465
  0
LINE
  5
2A2
100
AcDbEntity
  8
0
100
AcDbLine
 62
7
  6
CONTINUOUS
 10
9.3591239226
 20
11.7182473312
 11
9.3342660977
 21
11.6933895064
  0
LINE
  5
2A3
100
AcDbEntity
  8
0
100
AcDbLine
 62
7
  6
CONTINUOUS
 10
9.902462673
 20
12.2010644225
 11
9.7730276058
 21
12.0716293553
  0
LWPOLYLINE
  5
2A4
100
AcDbEntity
  8
0
100
AcDbPolyline
 62
7
  6
CONTINUOUS
 90
7
 70
0
 10
7.2204098882
 20
13.6024775964
 10
7.2208258084
 20
13.6002588877
 10
7.2208094916
 20
13.597980888
 10
7.2203408783
 20
13.5956973343
 10
7.2194315457
 20
13.5935493689
 10
7.2181251333
 20
13.5916291258
 10
7.2174132373
 20
13.5908513713
  0
LINE
  5
2A5
100
AcDbEntity
  8
0
100
AcDbLine
 62
7
  6
CONTINUOUS
 10
8.2342691679
 20
12.7448878596
 11
8.2342691679
 21
12.7333570825
  0
LINE
  5
2A6
100
AcDbEntity
  8
0
100
AcDbLine
 62
7
  6
CONTINUOUS
 10
8.29655907
 20
12.6238418195
 11
8.29655907
 21
12.6123105484
  0
LINE
  5
2A7
100
AcDbEntity
  8
0
100
AcDbLine
 62
7
  6
CONTINUOUS
 10
8.3501995064
 20
12.4087968899
 11
8.3501995064
 21
12.3907426222
  0
LINE
  5
2A8
100
AcDbEntity
  8
0
100
AcDbLine
 62
7
  6
CONTINUOUS
 10
8.509551382
 20
12.4696056455
 11
8.509551382
 21
12.4580748684
  0
LINE
  5
2A9
100
AcDbEntity
  8
0
100
AcDbLine
 62
7
  6
CONTINUOUS
 10
8.5203019308
 20
12.4000989587
 11
8.5203019308
 21
12.3885676876
  0
LINE
  5
2AA
100
AcDbEntity
  8
0
100
AcDbLine
 62
7
  6
CONTINUOUS
 10
8.7029872116
 20
12.2174136779
 11
8.7029872116
 21
12.2058824067
  0
LINE
  5
2AB
100
AcDbEntity
  8
0
100
AcDbLine
 62
7
  6
CONTINUOUS
 10
8.7459415783
 20
12.2332154492
 11
8.7459415783
 21
12.2216846721
  0
LWPOLYLINE
  5
2AC
100
AcDbEntity
  8
0
100
AcDbPolyline
 62
7
  6
CONTINUOUS
 90
8
 70
0
 10
7.2379428133
 20
13.58408291
 10
7.238157196
 20
13.583075688
 10
7.2382916275
 20
13.5818233589
 10
7.2382717835
 20
13.5803368866
 10
7.2380151698
 20
13.5786520724
 10
7.2374570667
 20
13.5768751632
 10
7.2365744926
 20
13.5751295737
 10
7.2353640844
 20
13.573496413
  0
LINE
  5
2AD
100
AcDbEntity
  8
0
100
AcDbLine
 62
7
  6
CONTINUOUS
 10
8.8321652125
 20
12.088235677
 11
8.8321652125
 21
12.0767044058
  0
LINE
  5
2AE
100
AcDbEntity
  8
0
100
AcDbLine
 62
7
  6
CONTINUOUS
 10
8.9273301556
 20
12.0518268719
 11
8.9273301556
 21
12.0402960948
  0
LINE
  5
2AF
100
AcDbEntity
  8
0
100
AcDbLine
 62
7
  6
CONTINUOUS
 10
9.0413557821
 20
11.9378012454
 11
9.0413557821
 21
11.9262704683
  0
LWPOLYLINE
  5
2B0
100
AcDbEntity
  8
0
100
AcDbPolyline
 62
7
  6
CONTINUOUS
 90
11
 70
0
 10
7.2917841841
 20
13.5286378966
 10
7.29175968
 20
13.5286946783
 10
7.2918075275
 20
13.5285639161
 10
7.2919268618
 20
13.528171939
 10
7.2920870916
 20
13.5274545035
 10
7.2922200561
 20
13.5263572454
 10
7.2922071811
 20
13.5248036741
 10
7.2918744275
 20
13.5228593025
 10
7.2910890076
 20
13.5207549111
 10
7.2898288448
 20
13.5187429969
 10
7.2888955403
 20
13.5176887072
  0
LINE
  5
2B1
100
AcDbEntity
  8
0
100
AcDbLine
 62
7
  6
CONTINUOUS
 10
7.2196018167
 20
13.6045330511
 11
7.2204098882
 21
13.6024775964
  0
LWPOLYLINE
  5
2B2
100
AcDbEntity
  8
0
100
AcDbPolyline
 62
7
  6
CONTINUOUS
 90
8
 70
0
 10
7.8034429817
 20
13.0022929195
 10
7.803425656
 20
13.0023445235
 10
7.8035071125
 20
13.0019356131
 10
7.8035800729
 20
13.0009306534
 10
7.8034398471
 20
12.9993561619
 10
7.8028713522
 20
12.9973939254
 10
7.8017610436
 20
12.9953563888
 10
7.800589311
 20
12.9939609153
  0
LWPOLYLINE
  5
2B3
100
AcDbEntity
  8
0
100
AcDbPolyline
 62
7
  6
CONTINUOUS
 90
8
 70
0
 10
7.6523349896
 20
13.156985711
 10
7.6523170762
 20
13.1570408868
 10
7.6523950749
 20
13.1566221893
 10
7.6524569037
 20
13.1556126266
 10
7.6523019446
 20
13.1540383159
 10
7.651722113
 20
13.1520871887
 10
7.6506064778
 20
13.1500596805
 10
7.6494388474
 20
13.1486728324
  0
LINE
  5
2B4
100
AcDbEntity
  8
0
100
AcDbLine
 62
7
  6
CONTINUOUS
 10
9.7618937831
 20
15.3166318562
 11
9.7618937831
 21
15.2433156914
  0
LINE
  5
2B5
100
AcDbEntity
  8
0
100
AcDbLine
 62
7
  6
CONTINUOUS
 10
10.1461280245
 20
15.7126712039
 11
10.1461793334
 21
15.713382179
  0
LINE
  5
2B6
100
AcDbEntity
  8
0
100
AcDbLine
 62
7
  6
CONTINUOUS
 10
10.0963197985
 20
15.662869503
 11
10.0963706735
 21
15.663573519
  0
LINE
  5
2B7
100
AcDbEntity
  8
0
100
AcDbLine
 62
7
  6
CONTINUOUS
 10
10.1957757646
 20
15.7623232122
 11
10.1958268243
 21
15.7630296699
  0
LWPOLYLINE
  5
2B8
100
AcDbEntity
  8
0
100
AcDbPolyline
 62
7
  6
CONTINUOUS
 90
6
 70
0
 10
7.2373562794
 20
13.5857100907
 10
7.237345077
 20
13.5857309146
 10
7.237395777
 20
13.5856270588
 10
7.2375220786
 20
13.585341047
 10
7.2377154376
 20
13.5848321123
 10
7.2379428133
 20
13.58408291
  0
LWPOLYLINE
  5
2B9
100
AcDbEntity
  8
0
100
AcDbPolyline
 62
7
  6
CONTINUOUS
 90
9
 70
0
 10
7.9575886144
 20
12.844784535
 10
7.9575066121
 20
12.8449878067
 10
7.9575172755
 20
12.844943844
 10
7.9576263942
 20
12.8444151034
 10
7.9577096692
 20
12.8433476317
 10
7.9575703942
 20
12.8417037388
 10
7.9569728712
 20
12.8396472877
 10
7.9558036145
 20
12.8375408584
 10
7.9546968368
 20
12.8362378617
  0
LINE
  5
2BA
100
AcDbEntity
  8
0
100
AcDbLine
 62
7
  6
CONTINUOUS
 10
10.7112831208
 20
15.1301373944
 11
10.7112285403
 21
15.1293828664
  0
LINE
  5
2BB
100
AcDbEntity
  8
0
100
AcDbLine
 62
7
  6
CONTINUOUS
 10
10.7625427388
 20
15.1813904936
 11
10.7624887045
 21
15.1806430306
  0
LINE
  5
2BC
100
AcDbEntity
  8
0
100
AcDbLine
 62
7
  6
CONTINUOUS
 10
10.8138258132
 20
15.2326747827
 11
10.8137716774
 21
15.2319260036
  0
LINE
  5
2BD
100
AcDbEntity
  8
0
100
AcDbLine
 62
7
  6
CONTINUOUS
 10
7.1135515095
 20
13.7487222248
 11
7.2186985998
 21
13.6060272607
  0
LWPOLYLINE
  5
2BE
100
AcDbEntity
  8
0
100
AcDbPolyline
 62
7
  6
CONTINUOUS
 90
12
 70
0
 10
8.3613072724
 20
12.4347365412
 10
8.3612715602
 20
12.4347915339
 10
8.3612996847
 20
12.4347415087
 10
8.3614649937
 20
12.4344121053
 10
8.3617259015
 20
12.4337688645
 10
8.3620059539
 20
12.4328211231
 10
8.3622279284
 20
12.4315295447
 10
8.3622732318
 20
12.429834145
 10
8.3619702748
 20
12.4277750628
 10
8.3611823722
 20
12.4255759515
 10
8.3598938763
 20
12.4235011612
 10
8.3589785989
 20
12.4224677157
  0
LINE
  5
2BF
100
AcDbEntity
  8
0
100
AcDbLine
 62
7
  6
CONTINUOUS
 10
7.2184821242
 20
13.6063265539
 11
7.2196018167
 21
13.6045330511
  0
LINE
  5
2C0
100
AcDbEntity
  8
0
100
AcDbLine
 62
7
  6
CONTINUOUS
 10
11.5478525374
 20
2.6092933789
 11
11.7528919186
 21
1.5544572068
  0
LINE
  5
2C1
100
AcDbEntity
  8
0
100
AcDbLine
 62
7
  6
CONTINUOUS
 10
10.8716426102
 20
3.6826974619
 11
10.8716426102
 21
4.0226974619
  0
LINE
  5
2C2
100
AcDbEntity
  8
0
100
AcDbLine
 62
7
  6
CONTINUOUS
 10
10.8816426102
 20
3.6726974619
 11
10.8816426102
 21
4.0326974619
  0
LINE
  5
2C3
100
AcDbEntity
  8
0
100
AcDbLine
 62
7
  6
CONTINUOUS
 10
10.9376426102
 20
3.5806986401
 11
10.9376426102
 21
4.1246962837
  0
LINE
  5
2C4
100
AcDbEntity
  8
0
100
AcDbLine
 62
7
  6
CONTINUOUS
 10
10.9616426102
 20
4.1361974619
 11
10.9616426102
 21
3.5691974619
  0
LINE
  5
2C5
100
AcDbEntity
  8
0
100
AcDbLine
 62
9
  6
CONTINUOUS
 10
11.0086426102
 20
3.5221974619
 11
11.0086426102
 21
4.1831974619
  0
LINE
  5
2C6
100
AcDbEntity
  8
0
100
AcDbLine
 62
7
  6
CONTINUOUS
 10
11.0796426102
 20
3.5221974619
 11
11.0796426102
 21
4.1831974619
  0
LINE
  5
2C7
100
AcDbEntity
  8
0
100
AcDbLine
 62
7
  6
CONTINUOUS
 10
11.1086426102
 20
3.4476974619
 11
11.1086426102
 21
3.4026974619
  0
LINE
  5
2C8
100
AcDbEntity
  8
0
100
AcDbLine
 62
7
  6
CONTINUOUS
 10
7.4161905264
 20
13.1711371033
 11
7.5689005988
 21
13.0184270309
  0
LINE
  5
2C9
100
AcDbEntity
  8
0
100
AcDbLine
 62
7
  6
CONTINUOUS
 10
7.5947234327
 20
12.992604197
 11
7.7474384541
 21
12.8398891755
  0
LINE
  5
2CA
100
AcDbEntity
  8
0
100
AcDbLine
 62
7
  6
CONTINUOUS
 10
7.8472105643
 20
12.7401170654
 11
7.9999256365
 21
12.5874019932
  0
LINE
  5
2CB
100
AcDbEntity
  8
0
100
AcDbLine
 62
7
  6
CONTINUOUS
 10
8.0257483493
 20
12.5615792804
 11
8.1784586132
 21
12.4088690165
  0
LINE
  5
2CC
100
AcDbEntity
  8
0
100
AcDbLine
 62
9
  6
CONTINUOUS
 10
8.0138456359
 20
12.5816349228
 11
7.8414434939
 21
12.7540370647
  0
LINE
  5
2CD
100
AcDbEntity
  8
0
100
AcDbLine
 62
9
  6
CONTINUOUS
 10
7.7613584789
 20
12.8341220798
 11
7.588956337
 21
13.0065242217
  0
LINE
  5
2CE
100
AcDbEntity
  8
0
100
AcDbLine
 62
9
  6
CONTINUOUS
 10
7.582823098
 20
13.0126574606
 11
7.4104209561
 21
13.1850596026
  0
LINE
  5
2CF
100
AcDbEntity
  8
0
100
AcDbLine
 62
9
  6
CONTINUOUS
 10
7.768318394
 20
12.8341220798
 11
7.8414434939
 21
12.7609969799
  0
LINE
  5
2D0
100
AcDbEntity
  8
0
100
AcDbLine
 62
9
  6
CONTINUOUS
 10
8.2039122916
 20
12.403099542
 11
7.8414434939
 21
12.765568342
  0
LINE
  5
2D1
100
AcDbEntity
  8
0
100
AcDbLine
 62
9
  6
CONTINUOUS
 10
7.7728897538
 20
12.8341220798
 11
7.4104209561
 21
13.1965908798
  0
LINE
  5
2D2
100
AcDbEntity
  8
0
100
AcDbLine
 62
7
  6
CONTINUOUS
 10
7.3562353227
 20
13.2589311566
 11
8.2662525708
 21
12.3489139086
  0
LINE
  5
2D3
100
AcDbEntity
  8
0
100
AcDbLine
 62
9
  6
CONTINUOUS
 10
8.2884914077
 20
12.3449924307
 11
7.3523138448
 21
13.2811699935
  0
LINE
  5
2D4
100
AcDbEntity
  8
0
100
AcDbLine
 62
7
  6
CONTINUOUS
 10
7.1986841497
 20
13.5373657449
 11
7.3364661173
 21
13.3995837774
  0
LINE
  5
2D5
100
AcDbEntity
  8
0
100
AcDbLine
 62
7
  6
CONTINUOUS
 10
7.3822650977
 20
13.3537847969
 11
7.3849313772
 21
13.3511185174
  0
LINE
  5
2D6
100
AcDbEntity
  8
0
100
AcDbLine
 62
7
  6
CONTINUOUS
 10
7.6357875537
 20
13.1002623409
 11
7.7012475104
 21
13.0348023842
  0
LINE
  5
2D7
100
AcDbEntity
  8
0
100
AcDbLine
 62
7
  6
CONTINUOUS
 10
7.7887185341
 20
12.9473313605
 11
7.8541790701
 21
12.8818708245
  0
LINE
  5
2D8
100
AcDbEntity
  8
0
100
AcDbLine
 62
7
  6
CONTINUOUS
 10
7.9446339651
 20
12.7914159296
 11
8.010095176
 21
12.7259547186
  0
LINE
  5
2D9
100
AcDbEntity
  8
0
100
AcDbLine
 62
7
  6
CONTINUOUS
 10
8.3536606354
 20
12.3823892592
 11
8.4256875617
 21
12.3103623329
  0
LINE
  5
2DA
100
AcDbEntity
  8
0
100
AcDbLine
 62
7
  6
CONTINUOUS
 10
8.4305100098
 20
12.3055398848
 11
8.537683675
 21
12.1983662197
  0
LINE
  5
2DB
100
AcDbEntity
  8
0
100
AcDbLine
 62
9
  6
CONTINUOUS
 10
7.3788054934
 20
13.3621366352
 11
7.3864871804
 21
13.3544549482
  0
LINE
  5
2DC
100
AcDbEntity
  8
0
100
AcDbLine
 62
9
  6
CONTINUOUS
 10
8.0184473091
 20
12.7224948195
 11
7.941174066
 21
12.7997680626
  0
LINE
  5
2DD
100
AcDbEntity
  8
0
100
AcDbLine
 62
9
  6
CONTINUOUS
 10
7.8625315406
 20
12.878410588
 11
7.7852582975
 21
12.9556838311
  0
LINE
  5
2DE
100
AcDbEntity
  8
0
100
AcDbLine
 62
9
  6
CONTINUOUS
 10
7.7096002712
 20
13.031341858
 11
7.6323270275
 21
13.1086151018
  0
LINE
  5
2DF
100
AcDbEntity
  8
0
100
AcDbLine
 62
9
  6
CONTINUOUS
 10
7.3448210847
 20
13.3961210439
 11
7.1952259882
 21
13.5457161877
  0
LINE
  5
2E0
100
AcDbEntity
  8
0
100
AcDbLine
 62
9
  6
CONTINUOUS
 10
7.38737797
 20
13.3563652526
 11
7.6323270275
 21
13.1114161949
  0
LINE
  5
2E1
100
AcDbEntity
  8
0
100
AcDbLine
 62
9
  6
CONTINUOUS
 10
7.7124013643
 20
13.031341858
 11
7.7852582975
 21
12.9584849248
  0
LINE
  5
2E2
100
AcDbEntity
  8
0
100
AcDbLine
 62
9
  6
CONTINUOUS
 10
7.8653326344
 20
12.878410588
 11
7.941174066
 21
12.8025691563
  0
LINE
  5
2E3
100
AcDbEntity
  8
0
100
AcDbLine
 62
9
  6
CONTINUOUS
 10
8.0212484028
 20
12.7224948195
 11
8.3501995064
 21
12.3935437183
  0
LINE
  5
2E4
100
AcDbEntity
  8
0
100
AcDbLine
 62
9
  6
CONTINUOUS
 10
7.3788054934
 20
13.3801909029
 11
7.3907090238
 21
13.3682873725
  0
LINE
  5
2E5
100
AcDbEntity
  8
0
100
AcDbLine
 62
9
  6
CONTINUOUS
 10
8.5640831308
 20
12.1949132654
 11
8.3501995064
 21
12.4087968899
  0
LINE
  5
2E6
100
AcDbEntity
  8
0
100
AcDbLine
 62
9
  6
CONTINUOUS
 10
8.0365015767
 20
12.7224948195
 11
7.941174066
 21
12.8178223303
  0
LINE
  5
2E7
100
AcDbEntity
  8
0
100
AcDbLine
 62
9
  6
CONTINUOUS
 10
7.8805858083
 20
12.878410588
 11
7.7852582975
 21
12.9737380987
  0
LINE
  5
2E8
100
AcDbEntity
  8
0
100
AcDbLine
 62
9
  6
CONTINUOUS
 10
7.7276545381
 20
13.031341858
 11
7.6323270275
 21
13.1266693687
  0
LINE
  5
2E9
100
AcDbEntity
  8
0
100
AcDbLine
 62
9
  6
CONTINUOUS
 10
7.3628753524
 20
13.3961210439
 11
7.1952259882
 21
13.563770408
  0
LINE
  5
2EA
100
AcDbEntity
  8
0
100
AcDbLine
 62
9
  6
CONTINUOUS
 10
8.5724348476
 20
12.1983726341
 11
8.3536588751
 21
12.4171486066
  0
LINE
  5
2EB
100
AcDbEntity
  8
0
100
AcDbLine
 62
9
  6
CONTINUOUS
 10
8.0448532935
 20
12.7259541882
 11
7.9446334347
 21
12.826174047
  0
LINE
  5
2EC
100
AcDbEntity
  8
0
100
AcDbLine
 62
9
  6
CONTINUOUS
 10
7.888937525
 20
12.8818699567
 11
7.7887176662
 21
12.9820898155
  0
LINE
  5
2ED
100
AcDbEntity
  8
0
100
AcDbLine
 62
9
  6
CONTINUOUS
 10
7.736006255
 20
13.0348012268
 11
7.6357863962
 21
13.1350210855
  0
LINE
  5
2EE
100
AcDbEntity
  8
0
100
AcDbLine
 62
9
  6
CONTINUOUS
 10
7.3902336695
 20
13.3805738122
 11
7.3822648621
 21
13.3885426196
  0
LINE
  5
2EF
100
AcDbEntity
  8
0
100
AcDbLine
 62
9
  6
CONTINUOUS
 10
7.3712270691
 20
13.3995804126
 11
7.198685357
 21
13.5721221248
  0
LINE
  5
2F0
100
AcDbEntity
  8
0
100
AcDbLine
 62
7
  6
CONTINUOUS
 10
7.3822025105
 20
13.3978913981
 11
7.6404296097
 21
13.139664299
  0
LINE
  5
2F1
100
AcDbEntity
  8
0
100
AcDbLine
 62
7
  6
CONTINUOUS
 10
7.7406494684
 20
13.0394444402
 11
7.7933608797
 21
12.9867330289
  0
LINE
  5
2F2
100
AcDbEntity
  8
0
100
AcDbLine
 62
7
  6
CONTINUOUS
 10
7.8935807384
 20
12.8865131702
 11
7.9493853607
 21
12.8307085479
  0
LINE
  5
2F3
100
AcDbEntity
  8
0
100
AcDbLine
 62
7
  6
CONTINUOUS
 10
8.0494965069
 20
12.7305974017
 11
8.3583020886
 21
12.42179182
  0
LINE
  5
2F4
100
AcDbEntity
  8
0
100
AcDbLine
 62
9
  6
CONTINUOUS
 10
8.0199788748
 20
12.5755016839
 11
8.1923810167
 21
12.403099542
  0
LINE
  5
2F5
100
AcDbEntity
  8
0
100
AcDbLine
 62
9
  6
CONTINUOUS
 10
8.3501995064
 20
12.3907426222
 11
8.5460288613
 21
12.1949132654
  0
LINE
  5
2F6
100
AcDbEntity
  8
0
100
AcDbLine
 62
7
  6
CONTINUOUS
 10
6.6159396707
 20
14.4724007203
 11
6.7151069057
 21
14.3622643481
  0
LINE
  5
2F7
100
AcDbEntity
  8
0
100
AcDbLine
 62
7
  6
CONTINUOUS
 10
9.8297567196
 20
12.5146293127
 11
9.9194481964
 21
12.2809750273
  0
LINE
  5
2F8
100
AcDbEntity
  8
0
100
AcDbLine
 62
9
  6
CONTINUOUS
 10
11.5883508293
 20
3.4762401889
 11
11.5883508293
 21
4.2291547349
  0
LINE
  5
2F9
100
AcDbEntity
  8
0
100
AcDbLine
 62
7
  6
CONTINUOUS
 10
11.6086426102
 20
3.4476974619
 11
11.6086426102
 21
3.4026974619
  0
LINE
  5
2FA
100
AcDbEntity
  8
0
100
AcDbLine
 62
7
  6
CONTINUOUS
 10
11.9916426102
 20
3.5001974619
 11
11.9916426102
 21
4.2051974619
  0
LINE
  5
2FB
100
AcDbEntity
  8
0
100
AcDbLine
 62
7
  6
CONTINUOUS
 10
12.0416426102
 20
3.5001980485
 11
12.0416426102
 21
4.2051968753
  0
LINE
  5
2FC
100
AcDbEntity
  8
0
100
AcDbLine
 62
7
  6
CONTINUOUS
 10
12.0728926102
 20
3.5213254324
 11
12.0728926102
 21
4.1840694914
  0
LINE
  5
2FD
100
AcDbEntity
  8
0
100
AcDbLine
 62
7
  6
CONTINUOUS
 10
9.4797221345
 20
11.6086182565
 11
9.3695857623
 21
11.7077854915
  0
LINE
  5
2FE
100
AcDbEntity
  8
0
100
AcDbLine
 62
7
  6
CONTINUOUS
 10
7.1100008231
 20
13.761855285
 11
8.7691766992
 21
12.1026794089
  0
LINE
  5
2FF
100
AcDbEntity
  8
0
100
AcDbLine
 62
7
  6
CONTINUOUS
 10
8.8429229021
 20
12.0506303057
 11
7.0579517199
 21
13.835601488
  0
LINE
  5
300
100
AcDbEntity
  8
0
100
AcDbLine
 62
7
  6
CONTINUOUS
 10
6.9423832049
 20
13.9583330592
 11
7.00324581
 21
13.8974704541
  0
LINE
  5
301
100
AcDbEntity
  8
0
100
AcDbLine
 62
7
  6
CONTINUOUS
 10
7.0092585899
 20
13.8914576741
 11
7.0700912587
 21
13.8306250053
  0
LINE
  5
302
100
AcDbEntity
  8
0
100
AcDbLine
 62
7
  6
CONTINUOUS
 10
7.1384367218
 20
13.7622795422
 11
7.1992832022
 21
13.7014330618
  0
LINE
  5
303
100
AcDbEntity
  8
0
100
AcDbLine
 62
7
  6
CONTINUOUS
 10
7.3211209977
 20
13.5795952664
 11
7.3819694881
 21
13.518746776
  0
LINE
  5
304
100
AcDbEntity
  8
0
100
AcDbLine
 62
7
  6
CONTINUOUS
 10
7.5448645144
 20
13.3558517497
 11
7.605711693
 21
13.2950045711
  0
LINE
  5
305
100
AcDbEntity
  8
0
100
AcDbLine
 62
7
  6
CONTINUOUS
 10
7.7944165337
 20
13.1062997304
 11
7.8552651427
 21
13.0454511213
  0
LINE
  5
306
100
AcDbEntity
  8
0
100
AcDbLine
 62
7
  6
CONTINUOUS
 10
8.052772554
 20
12.8479437101
 11
8.1136211261
 21
12.787095138
  0
LINE
  5
307
100
AcDbEntity
  8
0
100
AcDbLine
 62
7
  6
CONTINUOUS
 10
8.3023259955
 20
12.5983902685
 11
8.3631731536
 21
12.5375431105
  0
LINE
  5
308
100
AcDbEntity
  8
0
100
AcDbLine
 62
7
  6
CONTINUOUS
 10
8.5260681544
 20
12.3746481097
 11
8.5869167163
 21
12.3137995478
  0
LINE
  5
309
100
AcDbEntity
  8
0
100
AcDbLine
 62
7
  6
CONTINUOUS
 10
8.7087543745
 20
12.1919618896
 11
8.7696010579
 21
12.1311152062
  0
LINE
  5
30A
100
AcDbEntity
  8
0
100
AcDbLine
 62
7
  6
CONTINUOUS
 10
8.837932353
 20
12.0627839111
 11
8.8987790812
 21
12.0019371829
  0
LINE
  5
30B
100
AcDbEntity
  8
0
100
AcDbLine
 62
7
  6
CONTINUOUS
 10
8.9047919979
 20
11.9959242662
 11
8.9656543436
 21
11.9350619204
  0
LINE
  5
30C
100
AcDbEntity
  8
0
100
AcDbLine
 62
9
  6
CONTINUOUS
 10
8.8332744656
 20
12.0702695925
 11
8.7770867617
 21
12.1264572964
  0
LINE
  5
30D
100
AcDbEntity
  8
0
100
AcDbLine
 62
9
  6
CONTINUOUS
 10
8.7040964647
 20
12.1994475934
 11
8.5944014808
 21
12.3091425772
  0
LINE
  5
30E
100
AcDbEntity
  8
0
100
AcDbLine
 62
9
  6
CONTINUOUS
 10
8.5214111838
 20
12.3821328742
 11
8.37065862
 21
12.532885438
  0
LINE
  5
30F
100
AcDbEntity
  8
0
100
AcDbLine
 62
9
  6
CONTINUOUS
 10
8.297668323
 20
12.605875735
 11
8.1211058855
 21
12.7824381725
  0
LINE
  5
310
100
AcDbEntity
  8
0
100
AcDbLine
 62
9
  6
CONTINUOUS
 10
8.0481155885
 20
12.8554284695
 11
7.8627498837
 21
13.0407941744
  0
LINE
  5
311
100
AcDbEntity
  8
0
100
AcDbLine
 62
9
  6
CONTINUOUS
 10
7.7897595867
 20
13.1137844714
 11
7.6131971492
 21
13.2903469089
  0
LINE
  5
312
100
AcDbEntity
  8
0
100
AcDbLine
 62
9
  6
CONTINUOUS
 10
7.5402068522
 20
13.3633372059
 11
7.3894542884
 21
13.5140897697
  0
LINE
  5
313
100
AcDbEntity
  8
0
100
AcDbLine
 62
9
  6
CONTINUOUS
 10
7.3164639914
 20
13.5870800667
 11
7.2067690075
 21
13.6967750505
  0
LINE
  5
314
100
AcDbEntity
  8
0
100
AcDbLine
 62
9
  6
CONTINUOUS
 10
7.1337787105
 20
13.7697653475
 11
7.0775910066
 21
13.8259530514
  0
LINE
  5
315
100
AcDbEntity
  8
0
100
AcDbLine
 62
9
  6
CONTINUOUS
 10
8.783521575
 20
12.1253480433
 11
8.7029872116
 21
12.2058824067
  0
LINE
  5
316
100
AcDbEntity
  8
0
100
AcDbLine
 62
9
  6
CONTINUOUS
 10
8.6008362942
 20
12.3080333242
 11
8.5203019308
 21
12.3885676876
  0
LINE
  5
317
100
AcDbEntity
  8
0
100
AcDbLine
 62
9
  6
CONTINUOUS
 10
8.3770934334
 20
12.531776185
 11
8.29655907
 21
12.6123105484
  0
LINE
  5
318
100
AcDbEntity
  8
0
100
AcDbLine
 62
9
  6
CONTINUOUS
 10
8.1275406989
 20
12.7813289195
 11
8.0470063355
 21
12.8618632829
  0
LINE
  5
319
100
AcDbEntity
  8
0
100
AcDbLine
 62
9
  6
CONTINUOUS
 10
7.869184697
 20
13.0396849213
 11
7.7886503337
 21
13.1202192847
  0
LINE
  5
31A
100
AcDbEntity
  8
0
100
AcDbLine
 62
9
  6
CONTINUOUS
 10
7.6196319625
 20
13.2892376558
 11
7.5390975991
 21
13.3697720192
  0
LINE
  5
31B
100
AcDbEntity
  8
0
100
AcDbLine
 62
9
  6
CONTINUOUS
 10
7.3958891017
 20
13.5129805166
 11
7.3153547383
 21
13.59351488
  0
LINE
  5
31C
100
AcDbEntity
  8
0
100
AcDbLine
 62
9
  6
CONTINUOUS
 10
7.2132038209
 20
13.6956657975
 11
7.1326694575
 21
13.7762001609
  0
LINE
  5
31D
100
AcDbEntity
  8
0
100
AcDbLine
 62
9
  6
CONTINUOUS
 10
7.08402582
 20
13.8248437984
 11
6.9366240029
 21
13.9722456155
  0
LINE
  5
31E
100
AcDbEntity
  8
0
100
AcDbLine
 62
9
  6
CONTINUOUS
 10
8.7950528462
 20
12.1253480433
 11
8.7029872116
 21
12.2174136779
  0
LINE
  5
31F
100
AcDbEntity
  8
0
100
AcDbLine
 62
9
  6
CONTINUOUS
 10
8.3886247045
 20
12.531776185
 11
8.29655907
 21
12.6238418195
  0
LINE
  5
320
100
AcDbEntity
  8
0
100
AcDbLine
 62
9
  6
CONTINUOUS
 10
7.8807159682
 20
13.0396849213
 11
7.7886503337
 21
13.1317505559
  0
LINE
  5
321
100
AcDbEntity
  8
0
100
AcDbLine
 62
9
  6
CONTINUOUS
 10
7.4074203729
 20
13.5129805166
 11
7.3153547383
 21
13.6050461512
  0
LINE
  5
322
100
AcDbEntity
  8
0
100
AcDbLine
 62
9
  6
CONTINUOUS
 10
7.0955570911
 20
13.8248437984
 11
6.9366240029
 21
13.9837768866
  0
LINE
  5
323
100
AcDbEntity
  8
0
100
AcDbLine
 62
9
  6
CONTINUOUS
 10
8.9910983008
 20
11.9293025887
 11
8.8321652125
 21
12.088235677
  0
LINE
  5
324
100
AcDbEntity
  8
0
100
AcDbLine
 62
9
  6
CONTINUOUS
 10
8.6123675653
 20
12.3080333242
 11
8.5203019308
 21
12.4000989587
  0
LINE
  5
325
100
AcDbEntity
  8
0
100
AcDbLine
 62
9
  6
CONTINUOUS
 10
8.1390719699
 20
12.7813289195
 11
8.0470063355
 21
12.873394554
  0
LINE
  5
326
100
AcDbEntity
  8
0
100
AcDbLine
 62
9
  6
CONTINUOUS
 10
7.6311632337
 20
13.2892376558
 11
7.5390975991
 21
13.3813032904
  0
LINE
  5
327
100
AcDbEntity
  8
0
100
AcDbLine
 62
9
  6
CONTINUOUS
 10
7.224735092
 20
13.6956657975
 11
7.1326694575
 21
13.787731432
  0
LINE
  5
328
100
AcDbEntity
  8
0
100
AcDbLine
 62
9
  6
CONTINUOUS
 10
8.8342850785
 20
12.0971109593
 11
8.8039281285
 21
12.1274679093
  0
LINE
  5
329
100
AcDbEntity
  8
0
100
AcDbLine
 62
9
  6
CONTINUOUS
 10
8.7051070776
 20
12.2262889602
 11
8.6212428476
 21
12.3101531902
  0
LINE
  5
32A
100
AcDbEntity
  8
0
100
AcDbLine
 62
9
  6
CONTINUOUS
 10
8.5224217968
 20
12.408974241
 11
8.3974999868
 21
12.533896051
  0
LINE
  5
32B
100
AcDbEntity
  8
0
100
AcDbLine
 62
9
  6
CONTINUOUS
 10
8.298678936
 20
12.6327171018
 11
8.1479472523
 21
12.7834487855
  0
LINE
  5
32C
100
AcDbEntity
  8
0
100
AcDbLine
 62
9
  6
CONTINUOUS
 10
8.0491262015
 20
12.8822698364
 11
7.8895912505
 21
13.0418047873
  0
LINE
  5
32D
100
AcDbEntity
  8
0
100
AcDbLine
 62
9
  6
CONTINUOUS
 10
7.7907701997
 20
13.1406258382
 11
7.640038516
 21
13.2913575219
  0
LINE
  5
32E
100
AcDbEntity
  8
0
100
AcDbLine
 62
9
  6
CONTINUOUS
 10
7.5412174651
 20
13.3901785727
 11
7.4162956552
 21
13.5151003826
  0
LINE
  5
32F
100
AcDbEntity
  8
0
100
AcDbLine
 62
9
  6
CONTINUOUS
 10
7.3174746043
 20
13.6139214335
 11
7.2336103743
 21
13.6977856635
  0
LINE
  5
330
100
AcDbEntity
  8
0
100
AcDbLine
 62
9
  6
CONTINUOUS
 10
7.1347893235
 20
13.7966067143
 11
7.1044323734
 21
13.8269636644
  0
LINE
  5
331
100
AcDbEntity
  8
0
100
AcDbLine
 62
9
  6
CONTINUOUS
 10
9.0050181395
 20
11.9350682033
 11
8.8379308271
 21
12.1021555157
  0
LINE
  5
332
100
AcDbEntity
  8
0
100
AcDbLine
 62
9
  6
CONTINUOUS
 10
8.8089726849
 20
12.1311136579
 11
8.7087528262
 21
12.2313335166
  0
LINE
  5
333
100
AcDbEntity
  8
0
100
AcDbLine
 62
9
  6
CONTINUOUS
 10
8.6262874041
 20
12.3137989387
 11
8.5260675453
 21
12.4140187975
  0
LINE
  5
334
100
AcDbEntity
  8
0
100
AcDbLine
 62
9
  6
CONTINUOUS
 10
8.4025445433
 20
12.5375417995
 11
8.3023246845
 21
12.6377616583
  0
LINE
  5
335
100
AcDbEntity
  8
0
100
AcDbLine
 62
9
  6
CONTINUOUS
 10
8.1529918088
 20
12.787094534
 11
8.05277195
 21
12.8873143928
  0
LINE
  5
336
100
AcDbEntity
  8
0
100
AcDbLine
 62
9
  6
CONTINUOUS
 10
7.8946358069
 20
13.0454505359
 11
7.7944159482
 21
13.1456703946
  0
LINE
  5
337
100
AcDbEntity
  8
0
100
AcDbLine
 62
9
  6
CONTINUOUS
 10
7.6450830724
 20
13.2950032704
 11
7.5448632137
 21
13.3952231291
  0
LINE
  5
338
100
AcDbEntity
  8
0
100
AcDbLine
 62
9
  6
CONTINUOUS
 10
7.4213402116
 20
13.5187461312
 11
7.3211203529
 21
13.6189659899
  0
LINE
  5
339
100
AcDbEntity
  8
0
100
AcDbLine
 62
9
  6
CONTINUOUS
 10
7.2386549308
 20
13.701431412
 11
7.138435072
 21
13.8016512708
  0
LINE
  5
33A
100
AcDbEntity
  8
0
100
AcDbLine
 62
9
  6
CONTINUOUS
 10
7.1094769299
 20
13.8306094129
 11
6.9423896174
 21
13.9976967254
  0
LINE
  5
33B
100
AcDbEntity
  8
0
100
AcDbLine
 62
7
  6
CONTINUOUS
 10
7.1176092906
 20
13.8387417737
 11
7.1465674328
 21
13.8097836315
  0
LINE
  5
33C
100
AcDbEntity
  8
0
100
AcDbLine
 62
7
  6
CONTINUOUS
 10
7.2467872915
 20
13.7095637728
 11
7.3292527136
 21
13.6270983507
  0
LINE
  5
33D
100
AcDbEntity
  8
0
100
AcDbLine
 62
7
  6
CONTINUOUS
 10
7.4294725724
 20
13.5268784919
 11
7.5529955744
 21
13.4033554899
  0
LINE
  5
33E
100
AcDbEntity
  8
0
100
AcDbLine
 62
7
  6
CONTINUOUS
 10
7.6532154332
 20
13.3031356311
 11
7.8025483089
 21
13.1538027553
  0
LINE
  5
33F
100
AcDbEntity
  8
0
100
AcDbLine
 62
7
  6
CONTINUOUS
 10
7.9027681677
 20
13.0535828966
 11
8.0609043107
 21
12.8954467535
  0
LINE
  5
340
100
AcDbEntity
  8
0
100
AcDbLine
 62
7
  6
CONTINUOUS
 10
8.1611241695
 20
12.7952268948
 11
8.3104570453
 21
12.645894019
  0
LINE
  5
341
100
AcDbEntity
  8
0
100
AcDbLine
 62
7
  6
CONTINUOUS
 10
8.410676904
 20
12.5456741602
 11
8.5341999061
 21
12.4221511582
  0
LINE
  5
342
100
AcDbEntity
  8
0
100
AcDbLine
 62
7
  6
CONTINUOUS
 10
8.6344197648
 20
12.3219312995
 11
8.7168851869
 21
12.2394658774
  0
LINE
  5
343
100
AcDbEntity
  8
0
100
AcDbLine
 62
7
  6
CONTINUOUS
 10
8.8171050457
 20
12.1392460186
 11
8.8460631878
 21
12.1102878765
  0
LINE
  5
344
100
AcDbEntity
  8
0
100
AcDbLine
 62
7
  6
CONTINUOUS
 10
6.8032279636
 20
14.1562448693
 11
6.9196768926
 21
14.0397959403
  0
LINE
  5
345
100
AcDbEntity
  8
0
100
AcDbLine
 62
7
  6
CONTINUOUS
 10
6.956148888
 20
14.0033239449
 11
7.0336949761
 21
13.9257778568
  0
LINE
  5
346
100
AcDbEntity
  8
0
100
AcDbLine
 62
7
  6
CONTINUOUS
 10
7.1375346271
 20
13.8219382058
 11
7.2150863916
 21
13.7443864413
  0
LINE
  5
347
100
AcDbEntity
  8
0
100
AcDbLine
 62
7
  6
CONTINUOUS
 10
7.3739249539
 20
13.585547879
 11
7.4514764574
 21
13.5079963755
  0
LINE
  5
348
100
AcDbEntity
  8
0
100
AcDbLine
 62
7
  6
CONTINUOUS
 10
7.6492077745
 20
13.3102650584
 11
7.7267580649
 21
13.232714768
  0
LINE
  5
349
100
AcDbEntity
  8
0
100
AcDbLine
 62
7
  6
CONTINUOUS
 10
7.9446219731
 20
13.0148508598
 11
8.022172274
 21
12.937300559
  0
LINE
  5
34A
100
AcDbEntity
  8
0
100
AcDbLine
 62
7
  6
CONTINUOUS
 10
8.2400361262
 20
12.7194367067
 11
8.3175865286
 21
12.6418863043
  0
LINE
  5
34B
100
AcDbEntity
  8
0
100
AcDbLine
 62
7
  6
CONTINUOUS
 10
8.5153178063
 20
12.4441550266
 11
8.5928692765
 21
12.3666035564
  0
LINE
  5
34C
100
AcDbEntity
  8
0
100
AcDbLine
 62
7
  6
CONTINUOUS
 10
8.7517078159
 20
12.2077650171
 11
8.8292596596
 21
12.1302131734
  0
LINE
  5
34D
100
AcDbEntity
  8
0
100
AcDbLine
 62
7
  6
CONTINUOUS
 10
8.9330991171
 20
12.0263737159
 11
9.010645513
 21
11.9488273199
  0
LINE
  5
34E
100
AcDbEntity
  8
0
100
AcDbLine
 62
7
  6
CONTINUOUS
 10
9.0471175233
 20
11.9123553096
 11
9.1246783598
 21
11.8347944731
  0
LINE
  5
34F
100
AcDbEntity
  8
0
100
AcDbLine
 62
9
  6
CONTINUOUS
 10
9.1385935185
 20
11.8290327319
 11
9.0413557821
 21
11.9262704683
  0
LINE
  5
350
100
AcDbEntity
  8
0
100
AcDbLine
 62
9
  6
CONTINUOUS
 10
9.0245678919
 20
11.9430583585
 11
8.9273301556
 21
12.0402960948
  0
LINE
  5
351
100
AcDbEntity
  8
0
100
AcDbLine
 62
9
  6
CONTINUOUS
 10
8.8431793146
 20
12.1244469358
 11
8.7459415783
 21
12.2216846721
  0
LINE
  5
352
100
AcDbEntity
  8
0
100
AcDbLine
 62
9
  6
CONTINUOUS
 10
8.6067891183
 20
12.360837132
 11
8.509551382
 21
12.4580748684
  0
LINE
  5
353
100
AcDbEntity
  8
0
100
AcDbLine
 62
9
  6
CONTINUOUS
 10
8.3315069043
 20
12.6361193461
 11
8.2342691679
 21
12.7333570825
  0
LINE
  5
354
100
AcDbEntity
  8
0
100
AcDbLine
 62
9
  6
CONTINUOUS
 10
8.0360927005
 20
12.9315335499
 11
7.9388549641
 21
13.0287712863
  0
LINE
  5
355
100
AcDbEntity
  8
0
100
AcDbLine
 62
9
  6
CONTINUOUS
 10
7.7406784966
 20
13.2269477538
 11
7.6434407602
 21
13.3241854902
  0
LINE
  5
356
100
AcDbEntity
  8
0
100
AcDbLine
 62
9
  6
CONTINUOUS
 10
7.4653962826
 20
13.5022299678
 11
7.3681585462
 21
13.5994677042
  0
LINE
  5
357
100
AcDbEntity
  8
0
100
AcDbLine
 62
9
  6
CONTINUOUS
 10
7.2290060863
 20
13.7386201641
 11
7.1317683499
 21
13.8358579005
  0
LINE
  5
358
100
AcDbEntity
  8
0
100
AcDbLine
 62
9
  6
CONTINUOUS
 10
7.047617509
 20
13.9200087414
 11
6.9503797726
 21
14.0172464778
  0
LINE
  5
359
100
AcDbEntity
  8
0
100
AcDbLine
 62
9
  6
CONTINUOUS
 10
6.7974621283
 20
14.1701641586
 11
6.9335918824
 21
14.034034368
  0
LINE
  5
35A
100
AcDbEntity
  8
0
100
AcDbLine
 62
9
  6
CONTINUOUS
 10
7.0591482861
 20
13.9200087414
 11
6.9576658814
 21
14.0214911461
  0
LINE
  5
35B
100
AcDbEntity
  8
0
100
AcDbLine
 62
9
  6
CONTINUOUS
 10
6.7974621283
 20
14.1816953924
 11
6.9451226596
 21
14.034034368
  0
LINE
  5
35C
100
AcDbEntity
  8
0
100
AcDbLine
 62
9
  6
CONTINUOUS
 10
9.1501242956
 20
11.8290327319
 11
9.0413557821
 21
11.9378012454
  0
LINE
  5
35D
100
AcDbEntity
  8
0
100
AcDbLine
 62
9
  6
CONTINUOUS
 10
9.0360986691
 20
11.9430583585
 11
8.9273301556
 21
12.0518268719
  0
LINE
  5
35E
100
AcDbEntity
  8
0
100
AcDbLine
 62
9
  6
CONTINUOUS
 10
8.8547100917
 20
12.1244469358
 11
8.7459415783
 21
12.2332154492
  0
LINE
  5
35F
100
AcDbEntity
  8
0
100
AcDbLine
 62
9
  6
CONTINUOUS
 10
8.6183198955
 20
12.360837132
 11
8.509551382
 21
12.4696056455
  0
LINE
  5
360
100
AcDbEntity
  8
0
100
AcDbLine
 62
9
  6
CONTINUOUS
 10
8.3430376814
 20
12.6361193461
 11
8.2342691679
 21
12.7448878596
  0
LINE
  5
361
100
AcDbEntity
  8
0
100
AcDbLine
 62
9
  6
CONTINUOUS
 10
8.0476234778
 20
12.9315335499
 11
7.9388549641
 21
13.0403020636
  0
LINE
  5
362
100
AcDbEntity
  8
0
100
AcDbLine
 62
9
  6
CONTINUOUS
 10
7.7522092737
 20
13.2269477538
 11
7.6434407602
 21
13.3357162673
  0
LINE
  5
363
100
AcDbEntity
  8
0
100
AcDbLine
 62
9
  6
CONTINUOUS
 10
7.4769270597
 20
13.5022299678
 11
7.3681585462
 21
13.6109984813
  0
LINE
  5
364
100
AcDbEntity
  8
0
100
AcDbLine
 62
9
  6
CONTINUOUS
 10
7.2405368634
 20
13.7386201641
 11
7.1317683499
 21
13.8473886776
  0
LINE
  5
365
100
AcDbEntity
  8
0
100
AcDbLine
 62
9
  6
CONTINUOUS
 10
6.957665938
 20
14.0214919342
 11
6.9503797726
 21
14.0287772549
  0
LINE
  5
366
100
AcDbEntity
  8
0
100
AcDbLine
 62
9
  6
CONTINUOUS
 10
9.1640445652
 20
11.8347983465
 11
8.9330957701
 21
12.0657471415
  0
LINE
  5
367
100
AcDbEntity
  8
0
100
AcDbLine
 62
9
  6
CONTINUOUS
 10
8.8686303613
 20
12.1302125503
 11
8.7517071928
 21
12.2471357188
  0
LINE
  5
368
100
AcDbEntity
  8
0
100
AcDbLine
 62
9
  6
CONTINUOUS
 10
8.6322401651
 20
12.3666027466
 11
8.5153169965
 21
12.4835259151
  0
LINE
  5
369
100
AcDbEntity
  8
0
100
AcDbLine
 62
9
  6
CONTINUOUS
 10
8.356957951
 20
12.6418849606
 11
8.2400347825
 21
12.7588081292
  0
LINE
  5
36A
100
AcDbEntity
  8
0
100
AcDbLine
 62
9
  6
CONTINUOUS
 10
8.0615437472
 20
12.9372991645
 11
7.9446205786
 21
13.054222333
  0
LINE
  5
36B
100
AcDbEntity
  8
0
100
AcDbLine
 62
9
  6
CONTINUOUS
 10
7.7661295433
 20
13.2327133683
 11
7.6492063748
 21
13.3496365369
  0
LINE
  5
36C
100
AcDbEntity
  8
0
100
AcDbLine
 62
9
  6
CONTINUOUS
 10
7.4908473293
 20
13.5079955824
 11
7.3739241607
 21
13.6249187509
  0
LINE
  5
36D
100
AcDbEntity
  8
0
100
AcDbLine
 62
9
  6
CONTINUOUS
 10
7.254457133
 20
13.7443857787
 11
7.1375339645
 21
13.8613089472
  0
LINE
  5
36E
100
AcDbEntity
  8
0
100
AcDbLine
 62
9
  6
CONTINUOUS
 10
7.0730685557
 20
13.925774356
 11
6.8032277429
 21
14.1956151688
  0
LINE
  5
36F
100
AcDbEntity
  8
0
100
AcDbLine
 62
7
  6
CONTINUOUS
 10
6.7792469872
 20
14.2689800026
 11
9.2749017674
 21
11.7733252224
  0
LINE
  5
370
100
AcDbEntity
  8
0
100
AcDbLine
 62
7
  6
CONTINUOUS
 10
6.7775254029
 20
14.2710461307
 11
9.2764606525
 21
11.7721108812
  0
LINE
  5
371
100
AcDbEntity
  8
0
100
AcDbLine
 62
7
  6
CONTINUOUS
 10
9.3695857623
 20
11.7077854915
 11
6.7151069057
 21
14.3622643481
  0
LINE
  5
372
100
AcDbEntity
  8
0
100
AcDbLine
 62
9
  6
CONTINUOUS
 10
9.4797221345
 20
11.6086182565
 11
6.6159396707
 21
14.4724007203
  0
LINE
  5
373
100
AcDbEntity
  8
0
100
AcDbLine
 62
7
  6
CONTINUOUS
 10
9.6456509822
 20
11.5978593044
 11
6.6051807185
 21
14.638329568
  0
LINE
  5
374
100
AcDbEntity
  8
0
100
AcDbLine
 62
9
  6
CONTINUOUS
 10
6.6896082926
 20
14.6536663968
 11
9.660987811
 21
11.6822868784
  0
LINE
  5
375
100
AcDbEntity
  8
0
100
AcDbLine
 62
9
  6
CONTINUOUS
 10
6.8126383913
 20
14.6369054994
 11
9.6442269136
 21
11.8053169772
  0
LINE
  5
376
100
AcDbEntity
  8
0
100
AcDbLine
 62
7
  6
CONTINUOUS
 10
8.756043639
 20
12.1062300953
 11
7.1135515095
 21
13.7487222248
  0
LINE
  5
377
100
AcDbEntity
  8
0
100
AcDbLine
 62
9
  6
CONTINUOUS
 10
8.8321652125
 20
12.0767044058
 11
8.9795670395
 21
11.9293025887
  0
LINE
  5
378
100
AcDbEntity
  8
0
100
AcDbLine
 62
7
  6
CONTINUOUS
 10
9.2749017631
 20
11.7733252267
 11
9.2747791452
 21
11.7734505552
  0
LINE
  5
379
100
AcDbEntity
  8
0
100
AcDbLine
 62
7
  6
CONTINUOUS
 10
10.2895534361
 20
15.8252280888
 11
10.282890745
 21
15.8500935906
  0
LINE
  5
37A
100
AcDbEntity
  8
0
100
AcDbLine
 62
7
  6
CONTINUOUS
 10
10.0963197985
 20
15.6628695029
 11
10.104898816
 21
15.6307841124
  0
LINE
  5
37B
100
AcDbEntity
  8
0
100
AcDbLine
 62
7
  6
CONTINUOUS
 10
10.1461280236
 20
15.712671203
 11
10.1541942173
 21
15.6825034167
  0
LINE
  5
37C
100
AcDbEntity
  8
0
100
AcDbLine
 62
7
  6
CONTINUOUS
 10
10.1957757648
 20
15.7623232124
 11
10.2032138813
 21
15.7345051626
  0
LINE
  5
37D
100
AcDbEntity
  8
0
100
AcDbLine
 62
7
  6
CONTINUOUS
 10
10.245553509
 20
15.8121033364
 11
10.2524580791
 21
15.7862811628
  0
LINE
  5
37E
100
AcDbEntity
  8
0
100
AcDbLine
 62
9
  6
CONTINUOUS
 10
12.139000756
 20
3.4425408122
 11
12.139000756
 21
4.2628541116
  0
LINE
  5
37F
100
AcDbEntity
  8
0
100
AcDbLine
 62
9
  6
CONTINUOUS
 10
12.2779976001
 20
4.2873630055
 11
12.2779976001
 21
3.4180319183
  0
LINE
  5
380
100
AcDbEntity
  8
0
100
AcDbLine
 62
9
  6
CONTINUOUS
 10
12.4683981303
 20
4.3771925624
 11
12.4683981303
 21
3.3282023614
  0
LINE
  5
381
100
AcDbEntity
  8
0
100
AcDbLine
 62
9
  6
CONTINUOUS
 10
12.5848926102
 20
16.4464474619
 11
12.5848926102
 21
17.2589474619
  0
LINE
  5
382
100
AcDbEntity
  8
0
100
AcDbLine
 62
7
  6
CONTINUOUS
 10
11.169432683
 20
2.6092933789
 11
10.9643933018
 21
1.5544572068
  0
LINE
  5
383
100
AcDbEntity
  8
0
100
AcDbLine
 62
9
  6
CONTINUOUS
 10
9.7730276058
 20
12.0716293553
 11
7.0789507695
 21
14.7657061916
  0
LINE
  5
384
100
AcDbEntity
  8
0
100
AcDbLine
 62
9
  6
CONTINUOUS
 10
9.902462673
 20
12.2010644225
 11
7.2083858367
 21
14.8951412589
  0
LINE
  5
385
100
AcDbEntity
  8
0
100
AcDbLine
 62
9
  6
CONTINUOUS
 10
9.9194481964
 20
12.2809750273
 11
7.2882964415
 21
14.9121267822
  0
LINE
  5
386
100
AcDbEntity
  8
0
100
AcDbLine
 62
9
  6
CONTINUOUS
 10
7.5219507269
 20
14.8224353055
 11
9.8297567196
 21
12.5146293127
  0
LINE
  5
387
100
AcDbEntity
  8
0
100
AcDbLine
 62
9
  6
CONTINUOUS
 10
7.5432602215
 20
14.8269647784
 11
9.8342861925
 21
12.5359388073
  0
LINE
  5
388
100
AcDbEntity
  8
0
100
AcDbLine
 62
9
  6
CONTINUOUS
 10
9.8583196437
 20
12.5599722585
 11
7.5672936726
 21
14.8509982295
  0
LINE
  5
389
100
AcDbEntity
  8
0
100
AcDbLine
 62
9
  6
CONTINUOUS
 10
9.8610374085
 20
12.5848728214
 11
7.5921942355
 21
14.8537159943
  0
LINE
  5
38A
100
AcDbEntity
  8
0
100
AcDbLine
 62
7
  6
CONTINUOUS
 10
10.660007412
 20
15.0788564778
 11
10.651724906
 21
15.1098369342
  0
LINE
  5
38B
100
AcDbEntity
  8
0
100
AcDbLine
 62
7
  6
CONTINUOUS
 10
10.711283121
 20
15.1301373945
 11
10.7035618006
 21
15.1590189181
  0
LINE
  5
38C
100
AcDbEntity
  8
0
100
AcDbLine
 62
7
  6
CONTINUOUS
 10
10.7625427388
 20
15.1813904936
 11
10.7553688363
 21
15.2082235552
  0
LINE
  5
38D
100
AcDbEntity
  8
0
100
AcDbLine
 62
7
  6
CONTINUOUS
 10
10.8138258132
 20
15.2326747826
 11
10.8072177988
 21
15.2573910393
  0
LINE
  5
38E
100
AcDbEntity
  8
0
100
AcDbLine
 62
9
  6
CONTINUOUS
 10
13.0068926102
 20
4.6404450254
 11
13.0068926102
 21
3.0649498984
  0
LINE
  5
38F
100
AcDbEntity
  8
0
100
AcDbLine
 62
9
  6
CONTINUOUS
 10
13.4118926102
 20
4.6681680244
 11
13.4118926102
 21
3.0372268994
  0
LWPOLYLINE
  5
390
100
AcDbEntity
  8
0
100
AcDbPolyline
 62
7
  6
CONTINUOUS
 90
5
 70
0
 10
8.602970126
 20
12.2199031435
 10
8.6037557499
 20
12.219612093
 10
8.6042614581
 20
12.2193846927
 10
8.6045271076
 20
12.2192491742
 10
8.604609307
 20
12.2192038386
  0
LINE
  5
391
100
AcDbEntity
  8
0
100
AcDbLine
 62
7
  6
CONTINUOUS
 10
9.5904201628
 20
13.7699264021
 11
8.7772478162
 21
14.5830987486
  0
LINE
  5
392
100
AcDbEntity
  8
0
100
AcDbLine
 62
9
  6
CONTINUOUS
 10
13.7008926102
 20
4.7945212321
 11
13.7008926102
 21
2.9108736917
  0
LINE
  5
393
100
AcDbEntity
  8
0
100
AcDbLine
 62
9
  6
CONTINUOUS
 10
13.7158926102
 20
4.8046456155
 11
13.7158926102
 21
2.9007493083
  0
LINE
  5
394
100
AcDbEntity
  8
0
100
AcDbLine
 62
9
  6
CONTINUOUS
 10
13.7508926102
 20
4.832041019
 11
13.7508926102
 21
2.8733539048
  0
LINE
  5
395
100
AcDbEntity
  8
0
100
AcDbLine
 62
9
  6
CONTINUOUS
 10
13.8068926102
 20
4.8691679682
 11
13.8068926102
 21
2.8362269556
  0
LINE
  5
396
100
AcDbEntity
  8
0
100
AcDbLine
 62
9
  6
CONTINUOUS
 10
13.8478926102
 20
4.8934433895
 11
13.8478926102
 21
2.8119515343
  0
LINE
  5
397
100
AcDbEntity
  8
0
100
AcDbLine
 62
9
  6
CONTINUOUS
 10
13.9058926102
 20
4.9246198315
 11
13.9058926102
 21
2.7807750923
  0
LINE
  5
398
100
AcDbEntity
  8
0
100
AcDbLine
 62
9
  6
CONTINUOUS
 10
13.9568926102
 20
4.9570691723
 11
13.9568926102
 21
2.7483257515
  0
LINE
  5
399
100
AcDbEntity
  8
0
100
AcDbLine
 62
9
  6
CONTINUOUS
 10
14.0668926102
 20
5.0226974619
 11
14.0668926102
 21
2.6826974619
  0
LINE
  5
39A
100
AcDbEntity
  8
0
100
AcDbLine
 62
7
  6
CONTINUOUS
 10
14.0808926102
 20
6.6095362015
 11
14.0808926102
 21
1.0958587223
  0
LINE
  5
39B
100
AcDbEntity
  8
0
100
AcDbLine
 62
7
  6
CONTINUOUS
 10
14.4180355079
 20
17.2999124292
 11
14.4182233165
 21
17.3032640324
  0
LINE
  5
39C
100
AcDbEntity
  8
0
100
AcDbLine
 62
7
  6
CONTINUOUS
 10
9.1501242956
 20
11.8290327319
 11
9.1385935185
 21
11.8290327319
  0
LINE
  5
39D
100
AcDbEntity
  8
0
100
AcDbLine
 62
7
  6
CONTINUOUS
 10
8.9910983008
 20
11.9293025887
 11
8.9795670395
 21
11.9293025887
  0
LINE
  5
39E
100
AcDbEntity
  8
0
100
AcDbLine
 62
7
  6
CONTINUOUS
 10
9.0360986691
 20
11.9430583585
 11
9.0245678919
 21
11.9430583585
  0
LINE
  5
39F
100
AcDbEntity
  8
0
100
AcDbLine
 62
7
  6
CONTINUOUS
 10
8.9242308471
 20
11.9961700424
 11
8.9126995759
 21
11.9961700424
  0
LINE
  5
3A0
100
AcDbEntity
  8
0
100
AcDbLine
 62
7
  6
CONTINUOUS
 10
8.8547100917
 20
12.1244469358
 11
8.8431793146
 21
12.1244469358
  0
LINE
  5
3A1
100
AcDbEntity
  8
0
100
AcDbLine
 62
7
  6
CONTINUOUS
 10
8.7950528462
 20
12.1253480433
 11
8.783521575
 21
12.1253480433
  0
LINE
  5
3A2
100
AcDbEntity
  8
0
100
AcDbLine
 62
7
  6
CONTINUOUS
 10
8.5640831308
 20
12.1949132654
 11
8.5460288613
 21
12.1949132654
  0
LINE
  5
3A3
100
AcDbEntity
  8
0
100
AcDbLine
 62
7
  6
CONTINUOUS
 10
8.5223767589
 20
12.2366196374
 11
8.5043224913
 21
12.2366196374
  0
LINE
  5
3A4
100
AcDbEntity
  8
0
100
AcDbLine
 62
7
  6
CONTINUOUS
 10
8.6123675653
 20
12.3080333242
 11
8.6008362942
 21
12.3080333242
  0
LINE
  5
3A5
100
AcDbEntity
  8
0
100
AcDbLine
 62
7
  6
CONTINUOUS
 10
8.4455270171
 20
12.3134693791
 11
8.4274727494
 21
12.3134693791
  0
LINE
  5
3A6
100
AcDbEntity
  8
0
100
AcDbLine
 62
7
  6
CONTINUOUS
 10
8.6183198955
 20
12.360837132
 11
8.6067891183
 21
12.360837132
  0
LINE
  5
3A7
100
AcDbEntity
  8
0
100
AcDbLine
 62
7
  6
CONTINUOUS
 10
8.2039122916
 20
12.403099542
 11
8.1923810167
 21
12.403099542
  0
LINE
  5
3A8
100
AcDbEntity
  8
0
100
AcDbLine
 62
7
  6
CONTINUOUS
 10
9.3235148569
 20
14.8712177098
 11
9.2049294446
 21
14.989803122
  0
LINE
  5
3A9
100
AcDbEntity
  8
0
100
AcDbLine
 62
9
  6
CONTINUOUS
 10
14.2068926102
 20
0.8787780921
 11
14.2068926102
 21
6.8266168317
  0
LINE
  5
3AA
100
AcDbEntity
  8
0
100
AcDbLine
 62
7
  6
CONTINUOUS
 10
14.3328925821
 20
7.0425380458
 11
14.3328925821
 21
0.6618651099
  0
LINE
  5
3AB
100
AcDbEntity
  8
0
100
AcDbLine
 62
9
  6
CONTINUOUS
 10
14.3328925961
 20
0.6617812841
 11
14.3328925961
 21
7.0436136397
  0
LINE
  5
3AC
100
AcDbEntity
  8
0
100
AcDbLine
 62
7
  6
CONTINUOUS
 10
14.4180355079
 20
17.299549737
 11
14.4180355079
 21
16.4058451868
  0
LINE
  5
3AD
100
AcDbEntity
  8
0
100
AcDbLine
 62
9
  6
CONTINUOUS
 10
14.4182233165
 20
16.4021308914
 11
14.4182233165
 21
17.3032640324
  0
LINE
  5
3AE
100
AcDbEntity
  8
0
100
AcDbLine
 62
9
  6
CONTINUOUS
 10
14.4588953624
 20
0.44477652
 11
14.4588953624
 21
7.2606184038
  0
LINE
  5
3AF
100
AcDbEntity
  8
0
100
AcDbLine
 62
9
  6
CONTINUOUS
 10
14.5545470859
 20
15.6993022494
 11
14.5545470859
 21
18.0060926744
  0
LINE
  5
3B0
100
AcDbEntity
  8
0
100
AcDbLine
 62
7
  6
CONTINUOUS
 10
14.5848926102
 20
7.4776974619
 11
14.5848926102
 21
0.2276974619
  0
LINE
  5
3B1
100
AcDbEntity
  8
0
100
AcDbLine
 62
9
  6
CONTINUOUS
 10
14.602719363
 20
15.6626974619
 11
14.602719363
 21
18.0426974619
  0
LINE
  5
3B2
100
AcDbEntity
  8
0
100
AcDbLine
 62
7
  6
CONTINUOUS
 10
10.8716426102
 20
4.0226974619
 11
10.8816426102
 21
4.0326974619
  0
LINE
  5
3B3
100
AcDbEntity
  8
0
100
AcDbLine
 62
7
  6
CONTINUOUS
 10
8.3886247045
 20
12.531776185
 11
8.3770934334
 21
12.531776185
  0
LINE
  5
3B4
100
AcDbEntity
  8
0
100
AcDbLine
 62
7
  6
CONTINUOUS
 10
8.0253769131
 20
12.5816349228
 11
8.0138456359
 21
12.5816349228
  0
LINE
  5
3B5
100
AcDbEntity
  8
0
100
AcDbLine
 62
7
  6
CONTINUOUS
 10
8.3430376814
 20
12.6361193461
 11
8.3315069043
 21
12.6361193461
  0
LINE
  5
3B6
100
AcDbEntity
  8
0
100
AcDbLine
 62
7
  6
CONTINUOUS
 10
8.0365015767
 20
12.7224948195
 11
8.0184473091
 21
12.7224948195
  0
LINE
  5
3B7
100
AcDbEntity
  8
0
100
AcDbLine
 62
7
  6
CONTINUOUS
 10
8.1390719699
 20
12.7813289195
 11
8.1275406989
 21
12.7813289195
  0
LINE
  5
3B8
100
AcDbEntity
  8
0
100
AcDbLine
 62
7
  6
CONTINUOUS
 10
7.7728897538
 20
12.8341220798
 11
7.7613584789
 21
12.8341220798
  0
LINE
  5
3B9
100
AcDbEntity
  8
0
100
AcDbLine
 62
7
  6
CONTINUOUS
 10
7.8805858083
 20
12.878410588
 11
7.8625315406
 21
12.878410588
  0
LINE
  5
3BA
100
AcDbEntity
  8
0
100
AcDbLine
 62
7
  6
CONTINUOUS
 10
8.0476234778
 20
12.9315335499
 11
8.0360927005
 21
12.9315335499
  0
LINE
  5
3BB
100
AcDbEntity
  8
0
100
AcDbLine
 62
7
  6
CONTINUOUS
 10
7.588956337
 20
13.0126574606
 11
7.582823098
 21
13.0126574606
  0
LINE
  5
3BC
100
AcDbEntity
  8
0
100
AcDbLine
 62
7
  6
CONTINUOUS
 10
7.7276545381
 20
13.031341858
 11
7.7096002712
 21
13.031341858
  0
LINE
  5
3BD
100
AcDbEntity
  8
0
100
AcDbLine
 62
7
  6
CONTINUOUS
 10
7.8807159682
 20
13.0396849213
 11
7.869184697
 21
13.0396849213
  0
LINE
  5
3BE
100
AcDbEntity
  8
0
100
AcDbLine
 62
7
  6
CONTINUOUS
 10
10.2551007717
 20
14.4346065418
 11
9.4419279559
 21
15.2477793576
  0
LINE
  5
3BF
100
AcDbEntity
  8
0
100
AcDbLine
 62
9
  6
CONTINUOUS
 10
10.1706371137
 20
14.6745362889
 11
9.681857703
 21
15.1633156996
  0
LINE
  5
3C0
100
AcDbEntity
  8
0
100
AcDbLine
 62
9
  6
CONTINUOUS
 10
10.2506371056
 20
14.754572369
 11
9.7618937831
 21
15.2433156914
  0
LINE
  5
3C1
100
AcDbEntity
  8
0
100
AcDbLine
 62
9
  6
CONTINUOUS
 10
9.7618937831
 20
15.3166318562
 11
10.3239532704
 21
14.754572369
  0
LINE
  5
3C2
100
AcDbEntity
  8
0
100
AcDbLine
 62
9
  6
CONTINUOUS
 10
9.8169577083
 20
15.4495679311
 11
9.8264801254
 21
15.440045514
  0
LINE
  5
3C3
100
AcDbEntity
  8
0
100
AcDbLine
 62
9
  6
CONTINUOUS
 10
9.9146029091
 20
15.3519227303
 11
10.4568893452
 21
14.8096362941
  0
LINE
  5
3C4
100
AcDbEntity
  8
0
100
AcDbLine
 62
7
  6
CONTINUOUS
 10
14.4180355079
 20
16.4054824946
 11
14.4182233165
 21
16.4021308914
  0
LINE
  5
3C5
100
AcDbEntity
  8
0
100
AcDbLine
 62
7
  6
CONTINUOUS
 10
14.8348926102
 20
-0.0223025381
 11
14.8348926102
 21
7.7276974619
  0
LINE
  5
3C6
100
AcDbEntity
  8
0
100
AcDbLine
 62
7
  6
CONTINUOUS
 10
14.8348926102
 20
15.662697852
 11
14.8348926102
 21
18.0426970718
  0
LINE
  5
3C7
100
AcDbEntity
  8
0
100
AcDbLine
 62
7
  6
CONTINUOUS
 10
11.1086426102
 20
3.4476974619
 11
11.1336685308
 21
3.4727233825
  0
LWPOLYLINE
  5
3C8
100
AcDbEntity
  8
0
100
AcDbPolyline
 62
7
  6
CONTINUOUS
 90
8
 70
0
 10
7.3828477212
 20
13.407592215
 10
7.3845998512
 20
13.407639585
 10
7.3860668156
 20
13.4074655143
 10
7.3872832376
 20
13.4071622815
 10
7.3882474898
 20
13.4068037449
 10
7.3888998004
 20
13.4064875993
 10
7.3892388272
 20
13.4062902935
 10
7.3893108572
 20
13.4062436533
  0
LINE
  5
3C9
100
AcDbEntity
  8
0
100
AcDbLine
 62
7
  6
CONTINUOUS
 10
7.7522092737
 20
13.2269477538
 11
7.7406784966
 21
13.2269477538
  0
LINE
  5
3CA
100
AcDbEntity
  8
0
100
AcDbLine
 62
7
  6
CONTINUOUS
 10
7.6311632337
 20
13.2892376558
 11
7.6196319625
 21
13.2892376558
  0
LINE
  5
3CB
100
AcDbEntity
  8
0
100
AcDbLine
 62
7
  6
CONTINUOUS
 10
7.3628753524
 20
13.3961210439
 11
7.3448210847
 21
13.3961210439
  0
LINE
  5
3CC
100
AcDbEntity
  8
0
100
AcDbLine
 62
7
  6
CONTINUOUS
 10
7.4769270597
 20
13.5022299678
 11
7.4653962826
 21
13.5022299678
  0
LINE
  5
3CD
100
AcDbEntity
  8
0
100
AcDbLine
 62
7
  6
CONTINUOUS
 10
7.4074203729
 20
13.5129805166
 11
7.3958891017
 21
13.5129805166
  0
LINE
  5
3CE
100
AcDbEntity
  8
0
100
AcDbLine
 62
7
  6
CONTINUOUS
 10
7.224735092
 20
13.6956657975
 11
7.2132038209
 21
13.6956657975
  0
LINE
  5
3CF
100
AcDbEntity
  8
0
100
AcDbLine
 62
7
  6
CONTINUOUS
 10
7.5219507269
 20
14.8224353055
 11
7.2882964415
 21
14.9121267822
  0
LINE
  5
3D0
100
AcDbEntity
  8
0
100
AcDbLine
 62
7
  6
CONTINUOUS
 10
9.9658705651
 20
15.5794359536
 11
10.0539933487
 21
15.49131317
  0
LINE
  5
3D1
100
AcDbEntity
  8
0
100
AcDbLine
 62
7
  6
CONTINUOUS
 10
10.684667568
 20
15.0374156461
 11
10.0447370602
 21
15.6773461538
  0
LINE
  5
3D2
100
AcDbEntity
  8
0
100
AcDbLine
 62
7
  6
CONTINUOUS
 10
10.2520590072
 20
15.8192618528
 11
10.3424261057
 21
15.7288947543
  0
LINE
  5
3D3
100
AcDbEntity
  8
0
100
AcDbLine
 62
7
  6
CONTINUOUS
 10
10.8198304795
 20
15.2696931912
 11
10.276924509
 21
15.8125991617
  0
LINE
  5
3D4
100
AcDbEntity
  8
0
100
AcDbLine
 62
7
  6
CONTINUOUS
 10
10.8325495029
 20
15.282232022
 11
10.2895534361
 21
15.8252280888
  0
LINE
  5
3D5
100
AcDbEntity
  8
0
100
AcDbLine
 62
7
  6
CONTINUOUS
 10
10.8574150047
 20
15.2755693309
 11
10.282890745
 21
15.8500935906
  0
LINE
  5
3D6
100
AcDbEntity
  8
0
100
AcDbLine
 62
7
  6
CONTINUOUS
 10
11.5837030875
 20
3.4726974619
 11
11.5883508293
 21
3.4762401889
  0
LINE
  5
3D7
100
AcDbEntity
  8
0
100
AcDbLine
 62
7
  6
CONTINUOUS
 10
7.2405368634
 20
13.7386201641
 11
7.2290060863
 21
13.7386201641
  0
LINE
  5
3D8
100
AcDbEntity
  8
0
100
AcDbLine
 62
7
  6
CONTINUOUS
 10
7.0955570911
 20
13.8248437984
 11
7.08402582
 21
13.8248437984
  0
LINE
  5
3D9
100
AcDbEntity
  8
0
100
AcDbLine
 62
7
  6
CONTINUOUS
 10
7.0591482861
 20
13.9200087414
 11
7.047617509
 21
13.9200087414
  0
LINE
  5
3DA
100
AcDbEntity
  8
0
100
AcDbLine
 62
7
  6
CONTINUOUS
 10
6.9451226596
 20
14.034034368
 11
6.9335918824
 21
14.034034368
  0
LINE
  5
3DB
100
AcDbEntity
  8
0
100
AcDbLine
 62
7
  6
CONTINUOUS
 10
10.3239532704
 20
14.754572369
 11
10.2506371056
 21
14.754572369
  0
LINE
  5
3DC
100
AcDbEntity
  8
0
100
AcDbLine
 62
7
  6
CONTINUOUS
 10
10.663325757
 20
15.1223432505
 11
10.6950527715
 21
15.1138600257
  0
LINE
  5
3DD
100
AcDbEntity
  8
0
100
AcDbLine
 62
7
  6
CONTINUOUS
 10
10.7151678537
 20
15.1715258671
 11
10.7448005479
 21
15.163602404
  0
LINE
  5
3DE
100
AcDbEntity
  8
0
100
AcDbLine
 62
7
  6
CONTINUOUS
 10
10.7669796535
 20
15.2207310635
 11
10.794550424
 21
15.2133590221
  0
LINE
  5
3DF
100
AcDbEntity
  8
0
100
AcDbLine
 62
9
  6
CONTINUOUS
 10
11.634717873
 20
16.0528721991
 11
11.0601936133
 21
16.6273964588
  0
LINE
  5
3E0
100
AcDbEntity
  8
0
100
AcDbLine
 62
7
  6
CONTINUOUS
 10
10.6950527716
 20
15.1138600258
 11
10.6957565604
 21
15.1139108866
  0
LINE
  5
3E1
100
AcDbEntity
  8
0
100
AcDbLine
 62
7
  6
CONTINUOUS
 10
10.7448005489
 20
15.163602405
 11
10.7454985407
 21
15.1636528668
  0
LINE
  5
3E2
100
AcDbEntity
  8
0
100
AcDbLine
 62
7
  6
CONTINUOUS
 10
10.794550424
 20
15.2133590221
 11
10.7952556574
 21
15.2134099836
  0
LINE
  5
3E3
100
AcDbEntity
  8
0
100
AcDbLine
 62
7
  6
CONTINUOUS
 10
10.1117331397
 20
15.6782470328
 11
10.1109905794
 21
15.678193425
  0
LINE
  5
3E4
100
AcDbEntity
  8
0
100
AcDbLine
 62
7
  6
CONTINUOUS
 10
10.8198304795
 20
15.2696931912
 11
10.819646814
 21
15.2696817534
  0
LINE
  5
3E5
100
AcDbEntity
  8
0
100
AcDbLine
 62
7
  6
CONTINUOUS
 10
14.602719363
 20
15.6626974619
 11
14.8348926102
 21
15.6626974619
  0
LINE
  5
3E6
100
AcDbEntity
  8
0
100
AcDbLine
 62
7
  6
CONTINUOUS
 10
10.142591667
 20
15.6699969537
 11
10.1117331387
 21
15.6782470318
  0
LINE
  5
3E7
100
AcDbEntity
  8
0
100
AcDbLine
 62
7
  6
CONTINUOUS
 10
10.1916051751
 20
15.7219979659
 11
10.1631064513
 21
15.729617163
  0
LINE
  5
3E8
100
AcDbEntity
  8
0
100
AcDbLine
 62
7
  6
CONTINUOUS
 10
10.24084464
 20
15.7737734025
 11
10.2143489376
 21
15.7808571034
  0
LINE
  5
3E9
100
AcDbEntity
  8
0
100
AcDbLine
 62
7
  6
CONTINUOUS
 10
10.8325495029
 20
15.282232022
 11
10.8574150047
 21
15.2755693309
  0
LINE
  5
3EA
100
AcDbEntity
  8
0
100
AcDbLine
 62
7
  6
CONTINUOUS
 10
10.2520590072
 20
15.8192618528
 11
10.276924509
 21
15.8125991617
  0
LINE
  5
3EB
100
AcDbEntity
  8
0
100
AcDbLine
 62
7
  6
CONTINUOUS
 10
10.1631064511
 20
15.7296171628
 11
10.1623603752
 21
15.7295632207
  0
LINE
  5
3EC
100
AcDbEntity
  8
0
100
AcDbLine
 62
7
  6
CONTINUOUS
 10
10.2143489376
 20
15.7808571034
 11
10.2136001223
 21
15.7808029678
  0
LINE
  5
3ED
100
AcDbEntity
  8
0
100
AcDbLine
 62
7
  6
CONTINUOUS
 10
14.4180355079
 20
16.4464474619
 11
12.5848926102
 21
16.4464474619
  0
LINE
  5
3EE
100
AcDbEntity
  8
0
100
AcDbLine
 62
7
  6
CONTINUOUS
 10
14.4180355079
 20
17.2589474619
 11
12.5848926102
 21
17.2589474619
  0
LINE
  5
3EF
100
AcDbEntity
  8
0
100
AcDbLine
 62
7
  6
CONTINUOUS
 10
14.602719363
 20
18.0426974619
 11
14.8348926102
 21
18.0426974619
  0
ARC
  5
3F0
100
AcDbEntity
  8
0
100
AcDbCircle
 62
7
  6
CONTINUOUS
 10
9.6969919078
 20
2.895506872
 40
1.5
100
AcDbArc
 50
349.0
 51
19.7628054576
  0
ARC
  5
3F1
100
AcDbEntity
  8
0
100
AcDbCircle
 62
7
  6
CONTINUOUS
 10
12.208538329
 20
4.6812861067
 40
0.4
100
AcDbArc
 50
280.0
 51
310.5151811264
  0
ARC
  5
3F2
100
AcDbEntity
  8
0
100
AcDbCircle
 62
7
  6
CONTINUOUS
 10
12.208538329
 20
3.0241088171
 40
0.4
100
AcDbArc
 50
49.4848188736
 51
80.0
  0
ARC
  5
3F3
100
AcDbEntity
  8
0
100
AcDbCircle
 62
7
  6
CONTINUOUS
 10
11.3587030875
 20
3.7726974619
 40
0.375
100
AcDbArc
 50
221.9128908834
 51
233.1235022275
  0
ARC
  5
3F4
100
AcDbEntity
  8
0
100
AcDbCircle
 62
7
  6
CONTINUOUS
 10
11.3587030875
 20
3.9326974619
 40
0.375
100
AcDbArc
 50
52.2371948106
 51
138.0871091166
  0
ARC
  5
3F5
100
AcDbEntity
  8
0
100
AcDbCircle
 62
7
  6
CONTINUOUS
 10
11.8075152143
 20
3.1933161097
 40
0.3578813522
100
AcDbArc
 50
59.0364377797
 51
127.7628051894
  0
ARC
  5
3F6
100
AcDbEntity
  8
0
100
AcDbCircle
 62
7
  6
CONTINUOUS
 10
11.8075152143
 20
4.5120788141
 40
0.3578813522
100
AcDbArc
 50
232.2371948106
 51
300.9635622203
  0
ARC
  5
3F7
100
AcDbEntity
  8
0
100
AcDbCircle
 62
7
  6
CONTINUOUS
 10
11.4456426102
 20
1.4947339912
 40
0.313
100
AcDbArc
 50
294.842656017
 51
11.0
  0
ARC
  5
3F8
100
AcDbEntity
  8
0
100
AcDbCircle
 62
7
  6
CONTINUOUS
 10
11.2716426102
 20
1.4947339912
 40
0.313
100
AcDbArc
 50
169.0
 51
245.157343983
  0
ARC
  5
3F9
100
AcDbEntity
  8
0
100
AcDbCircle
 62
7
  6
CONTINUOUS
 10
11.3586426102
 20
0.9656691189
 40
0.249971657
100
AcDbArc
 50
198.1750968409
 51
341.8249031591
  0
ARC
  5
3FA
100
AcDbEntity
  8
0
100
AcDbCircle
 62
7
  6
CONTINUOUS
 10
11.4611426102
 20
1.1155975145
 40
0.15
100
AcDbArc
 50
319.2861651139
 51
39.3458297662
  0
ARC
  5
3FB
100
AcDbEntity
  8
0
100
AcDbCircle
 62
7
  6
CONTINUOUS
 10
11.2561426102
 20
1.1155975145
 40
0.15
100
AcDbArc
 50
140.6541702338
 51
220.7138348861
  0
ARC
  5
3FC
100
AcDbEntity
  8
0
100
AcDbCircle
 62
7
  6
CONTINUOUS
 10
11.6400251481
 20
0.9616590929
 40
0.086
100
AcDbArc
 50
139.2861651139
 51
239.3187124064
  0
ARC
  5
3FD
100
AcDbEntity
  8
0
100
AcDbCircle
 62
7
  6
CONTINUOUS
 10
11.0772600723
 20
0.9616590929
 40
0.086
100
AcDbArc
 50
300.6812875936
 51
40.7138348861
  0
ARC
  5
3FE
100
AcDbEntity
  8
0
100
AcDbCircle
 62
7
  6
CONTINUOUS
 10
12.1528926102
 20
4.1840694914
 40
0.08
100
AcDbArc
 50
100.0000000004
 51
180.0
  0
ARC
  5
3FF
100
AcDbEntity
  8
0
100
AcDbCircle
 62
7
  6
CONTINUOUS
 10
12.1528926102
 20
3.5213254324
 40
0.08
100
AcDbArc
 50
180.0
 51
259.9999999996
  0
ARC
  5
400
100
AcDbEntity
  8
0
100
AcDbCircle
 62
7
  6
CONTINUOUS
 10
10.8816426102
 20
3.6166974619
 40
0.056
100
AcDbArc
 50
0.0
 51
90.0
  0
ARC
  5
401
100
AcDbEntity
  8
0
100
AcDbCircle
 62
7
  6
CONTINUOUS
 10
10.8816426102
 20
4.0886974619
 40
0.056
100
AcDbArc
 50
270.0
 51
360.0
  0
ARC
  5
402
100
AcDbEntity
  8
0
100
AcDbCircle
 62
7
  6
CONTINUOUS
 10
11.0086426102
 20
3.5691974619
 40
0.047
100
AcDbArc
 50
180.0
 51
270.0
  0
ARC
  5
403
100
AcDbEntity
  8
0
100
AcDbCircle
 62
7
  6
CONTINUOUS
 10
11.0086426102
 20
4.1361974619
 40
0.047
100
AcDbArc
 50
90.0
 51
180.0
  0
ARC
  5
404
100
AcDbEntity
  8
0
100
AcDbCircle
 62
7
  6
CONTINUOUS
 10
6.3984337398
 20
13.4375593799
 40
0.8340482051
100
AcDbArc
 50
35.7808177887
 51
35.8944145475
  0
ARC
  5
405
100
AcDbEntity
  8
0
100
AcDbCircle
 62
7
  6
CONTINUOUS
 10
7.084026276
 20
13.8445288378
 40
0.0196850394
100
AcDbArc
 50
224.9939188646
 51
269.998672795
  0
ARC
  5
406
100
AcDbEntity
  8
0
100
AcDbCircle
 62
7
  6
CONTINUOUS
 10
7.095557505
 20
13.8445288378
 40
0.0196850394
100
AcDbArc
 50
269.9987952045
 51
315.0
  0
ARC
  5
407
100
AcDbEntity
  8
0
100
AcDbCircle
 62
7
  6
CONTINUOUS
 10
7.0644132658
 20
13.8401013266
 40
0.0078740157
100
AcDbArc
 50
155.0338927671
 51
214.8534612382
  0
ARC
  5
408
100
AcDbEntity
  8
0
100
AcDbCircle
 62
7
  6
CONTINUOUS
 10
7.4287508259
 20
13.1974253266
 40
0.2686216808
100
AcDbArc
 50
34.6111159382
 51
34.9877794476
  0
ARC
  5
409
100
AcDbEntity
  8
0
100
AcDbCircle
 62
9
  6
CONTINUOUS
 10
7.7878757118
 20
13.0993863794
 40
0.0633216367
100
AcDbArc
 50
236.2738731804
 51
236.5850265658
  0
ARC
  5
40A
100
AcDbEntity
  8
0
100
AcDbCircle
 62
7
  6
CONTINUOUS
 10
7.7522101185
 20
13.2466327931
 40
0.0196850394
100
AcDbArc
 50
269.9975411861
 51
315.0
  0
ARC
  5
40B
100
AcDbEntity
  8
0
100
AcDbCircle
 62
7
  6
CONTINUOUS
 10
7.7406788894
 20
13.2466327931
 40
0.0196850394
100
AcDbArc
 50
224.9958655024
 51
269.9988567095
  0
ARC
  5
40C
100
AcDbEntity
  8
0
100
AcDbCircle
 62
7
  6
CONTINUOUS
 10
7.869185153
 20
13.0593699607
 40
0.0196850394
100
AcDbArc
 50
224.9976249033
 51
269.9986727883
  0
ARC
  5
40D
100
AcDbEntity
  8
0
100
AcDbCircle
 62
7
  6
CONTINUOUS
 10
7.8807163821
 20
13.0593699607
 40
0.0196850394
100
AcDbArc
 50
269.9987952044
 51
315.0
  0
ARC
  5
40E
100
AcDbEntity
  8
0
100
AcDbCircle
 62
7
  6
CONTINUOUS
 10
7.808335373
 20
13.1317509698
 40
0.0196850394
100
AcDbArc
 50
135.0
 51
180.0012047956
  0
ARC
  5
40F
100
AcDbEntity
  8
0
100
AcDbCircle
 62
7
  6
CONTINUOUS
 10
7.808335373
 20
13.1202197407
 40
0.0196850394
100
AcDbArc
 50
180.0013272117
 51
225.0023750967
  0
ARC
  5
410
100
AcDbEntity
  8
0
100
AcDbCircle
 62
7
  6
CONTINUOUS
 10
7.8217584545
 20
12.7655691751
 40
0.0196850394
100
AcDbArc
 50
359.9975750786
 51
44.9960818716
  0
ARC
  5
411
100
AcDbEntity
  8
0
100
AcDbCircle
 62
7
  6
CONTINUOUS
 10
7.8611285333
 20
12.754037946
 40
0.0196850394
100
AcDbArc
 50
180.0025651318
 51
225.0048358719
  0
ARC
  5
412
100
AcDbEntity
  8
0
100
AcDbCircle
 62
7
  6
CONTINUOUS
 10
7.7613593602
 20
12.8538071191
 40
0.0196850394
100
AcDbArc
 50
224.9950855814
 51
269.9974348102
  0
ARC
  5
413
100
AcDbEntity
  8
0
100
AcDbCircle
 62
7
  6
CONTINUOUS
 10
7.7728905893
 20
12.8144370404
 40
0.0196850394
100
AcDbArc
 50
45.00392895
 51
90.0024317524
  0
ARC
  5
414
100
AcDbEntity
  8
0
100
AcDbCircle
 62
7
  6
CONTINUOUS
 10
7.5692712976
 20
13.0180563321
 40
0.0196850394
100
AcDbArc
 50
359.9975682479
 51
44.9960710504
  0
ARC
  5
415
100
AcDbEntity
  8
0
100
AcDbCircle
 62
7
  6
CONTINUOUS
 10
7.6086413763
 20
13.006525103
 40
0.0196850394
100
AcDbArc
 50
180.0025651901
 51
225.0049144191
  0
ARC
  5
416
100
AcDbEntity
  8
0
100
AcDbCircle
 62
7
  6
CONTINUOUS
 10
7.5828239793
 20
13.0323425
 40
0.0196850394
100
AcDbArc
 50
224.98622248
 51
269.9974348681
  0
ARC
  5
417
100
AcDbEntity
  8
0
100
AcDbCircle
 62
7
  6
CONTINUOUS
 10
7.3907359167
 20
13.1965917129
 40
0.0196850394
100
AcDbArc
 50
359.9975750784
 51
44.9960818714
  0
ARC
  5
418
100
AcDbEntity
  8
0
100
AcDbCircle
 62
7
  6
CONTINUOUS
 10
7.4301059955
 20
13.1850604839
 40
0.0196850394
100
AcDbArc
 50
180.0025651318
 51
225.01377752
  0
ARC
  5
419
100
AcDbEntity
  8
0
100
AcDbCircle
 62
7
  6
CONTINUOUS
 10
7.370154563
 20
13.2728507659
 40
0.0196850394
100
AcDbArc
 50
155.0000948195
 51
225.0001529654
  0
ARC
  5
41A
100
AcDbEntity
  8
0
100
AcDbCircle
 62
7
  6
CONTINUOUS
 10
7.8625315928
 20
12.8902216116
 40
0.0118110236
100
AcDbArc
 50
224.9958316547
 51
269.999746835
  0
ARC
  5
41B
100
AcDbEntity
  8
0
100
AcDbCircle
 62
7
  6
CONTINUOUS
 10
7.8805858701
 20
12.8902216116
 40
0.0118110236
100
AcDbArc
 50
269.9997000112
 51
315.0
  0
ARC
  5
41C
100
AcDbEntity
  8
0
100
AcDbCircle
 62
7
  6
CONTINUOUS
 10
7.7970693211
 20
12.9737381606
 40
0.0118110236
100
AcDbArc
 50
135.0
 51
180.0002999888
  0
ARC
  5
41D
100
AcDbEntity
  8
0
100
AcDbCircle
 62
7
  6
CONTINUOUS
 10
7.7970693211
 20
12.9556838833
 40
0.0118110236
100
AcDbArc
 50
180.0002531649
 51
225.0041683452
  0
ARC
  5
41E
100
AcDbEntity
  8
0
100
AcDbCircle
 62
7
  6
CONTINUOUS
 10
7.7096003227
 20
13.0431528817
 40
0.0118110236
100
AcDbArc
 50
224.9936484249
 51
269.9997499651
  0
ARC
  5
41F
100
AcDbEntity
  8
0
100
AcDbCircle
 62
7
  6
CONTINUOUS
 10
7.7276546001
 20
13.0431528817
 40
0.0118110236
100
AcDbArc
 50
269.9996996385
 51
315.0
  0
ARC
  5
420
100
AcDbEntity
  8
0
100
AcDbCircle
 62
7
  6
CONTINUOUS
 10
7.6441380511
 20
13.1266694306
 40
0.0118110236
100
AcDbArc
 50
135.0
 51
180.0003003629
  0
ARC
  5
421
100
AcDbEntity
  8
0
100
AcDbCircle
 62
7
  6
CONTINUOUS
 10
7.6441380511
 20
13.1086151533
 40
0.0118110236
100
AcDbArc
 50
180.0002500349
 51
225.0063515751
  0
ARC
  5
422
100
AcDbEntity
  8
0
100
AcDbCircle
 62
7
  6
CONTINUOUS
 10
7.2035522836
 20
13.4622537927
 40
0.2417411531
100
AcDbArc
 50
43.7221755227
 51
44.9889813402
  0
ARC
  5
423
100
AcDbEntity
  8
0
100
AcDbCircle
 62
9
  6
CONTINUOUS
 10
7.3512388747
 20
13.3853838049
 40
0.046377832
100
AcDbArc
 50
28.5675876339
 51
28.7800215027
  0
ARC
  5
424
100
AcDbEntity
  8
0
100
AcDbCircle
 62
7
  6
CONTINUOUS
 10
7.3516965851
 20
13.3730038185
 40
0.0393700787
100
AcDbArc
 50
334.9999170079
 51
39.208519173
  0
ARC
  5
425
100
AcDbEntity
  8
0
100
AcDbCircle
 62
7
  6
CONTINUOUS
 10
7.3958895577
 20
13.532665556
 40
0.0196850394
100
AcDbArc
 50
224.9978408484
 51
269.9986727948
  0
ARC
  5
426
100
AcDbEntity
  8
0
100
AcDbCircle
 62
7
  6
CONTINUOUS
 10
7.390616517
 20
13.3621366874
 40
0.0118110236
100
AcDbArc
 50
180.0002531639
 51
225.0004233584
  0
ARC
  5
427
100
AcDbEntity
  8
0
100
AcDbCircle
 62
7
  6
CONTINUOUS
 10
7.390616517
 20
13.3801909647
 40
0.0118110236
100
AcDbArc
 50
135.0
 51
180.0002999894
  0
ARC
  5
428
100
AcDbEntity
  8
0
100
AcDbCircle
 62
7
  6
CONTINUOUS
 10
7.224703993
 20
13.5461034887
 40
0.0118110236
100
AcDbArc
 50
135.0
 51
180.0002999879
  0
ARC
  5
429
100
AcDbEntity
  8
0
100
AcDbCircle
 62
7
  6
CONTINUOUS
 10
7.224703993
 20
13.5280492114
 40
0.0118110236
100
AcDbArc
 50
180.0002531652
 51
224.9692948978
  0
ARC
  5
42A
100
AcDbEntity
  8
0
100
AcDbCircle
 62
7
  6
CONTINUOUS
 10
7.2070370118
 20
13.5457161926
 40
0.0118110236
100
AcDbArc
 50
180.0002531643
 51
224.9948564503
  0
ARC
  5
42B
100
AcDbEntity
  8
0
100
AcDbCircle
 62
7
  6
CONTINUOUS
 10
7.2070370118
 20
13.5637704699
 40
0.0118110236
100
AcDbArc
 50
135.0
 51
180.0002999892
  0
ARC
  5
42C
100
AcDbEntity
  8
0
100
AcDbCircle
 62
7
  6
CONTINUOUS
 10
7.3448211369
 20
13.4079320675
 40
0.0118110236
100
AcDbArc
 50
224.9818568019
 51
269.9997468346
  0
ARC
  5
42D
100
AcDbEntity
  8
0
100
AcDbCircle
 62
7
  6
CONTINUOUS
 10
7.3628754142
 20
13.4079320675
 40
0.0118110236
100
AcDbArc
 50
269.9997000108
 51
315.0
  0
ARC
  5
42E
100
AcDbEntity
  8
0
100
AcDbCircle
 62
7
  6
CONTINUOUS
 10
7.2793588653
 20
13.4914486164
 40
0.0118110236
100
AcDbArc
 50
135.0
 51
180.0002999885
  0
ARC
  5
42F
100
AcDbEntity
  8
0
100
AcDbCircle
 62
7
  6
CONTINUOUS
 10
7.2793588653
 20
13.4733943391
 40
0.0118110236
100
AcDbArc
 50
180.0002531654
 51
225.0181431981
  0
ARC
  5
430
100
AcDbEntity
  8
0
100
AcDbCircle
 62
7
  6
CONTINUOUS
 10
7.3878435856
 20
13.6109993261
 40
0.0196850394
100
AcDbArc
 50
135.0
 51
180.0024588141
  0
ARC
  5
431
100
AcDbEntity
  8
0
100
AcDbCircle
 62
7
  6
CONTINUOUS
 10
7.3878435856
 20
13.599468097
 40
0.0196850394
100
AcDbArc
 50
180.00114329
 51
225.0027777387
  0
ARC
  5
432
100
AcDbEntity
  8
0
100
AcDbCircle
 62
7
  6
CONTINUOUS
 10
7.2405377082
 20
13.7583052035
 40
0.0196850394
100
AcDbArc
 50
269.9975411859
 51
315.0
  0
ARC
  5
433
100
AcDbEntity
  8
0
100
AcDbCircle
 62
7
  6
CONTINUOUS
 10
7.1514533893
 20
13.8473895224
 40
0.0196850394
100
AcDbArc
 50
135.0
 51
180.0024588136
  0
ARC
  5
434
100
AcDbEntity
  8
0
100
AcDbCircle
 62
7
  6
CONTINUOUS
 10
7.1514533893
 20
13.8358582933
 40
0.0196850394
100
AcDbArc
 50
180.0011432902
 51
225.00183548
  0
ARC
  5
435
100
AcDbEntity
  8
0
100
AcDbCircle
 62
7
  6
CONTINUOUS
 10
7.2290064791
 20
13.7583052035
 40
0.0196850394
100
AcDbArc
 50
224.99816452
 51
269.9988567098
  0
ARC
  5
436
100
AcDbEntity
  8
0
100
AcDbCircle
 62
7
  6
CONTINUOUS
 10
7.1523544969
 20
13.7877318459
 40
0.0196850394
100
AcDbArc
 50
135.0
 51
180.0012047959
  0
ARC
  5
437
100
AcDbEntity
  8
0
100
AcDbCircle
 62
7
  6
CONTINUOUS
 10
7.224735506
 20
13.7153508368
 40
0.0196850394
100
AcDbArc
 50
269.9987952046
 51
315.0
  0
ARC
  5
438
100
AcDbEntity
  8
0
100
AcDbCircle
 62
7
  6
CONTINUOUS
 10
7.2132042769
 20
13.7153508368
 40
0.0196850394
100
AcDbArc
 50
224.99535276
 51
269.9986727949
  0
ARC
  5
439
100
AcDbEntity
  8
0
100
AcDbCircle
 62
7
  6
CONTINUOUS
 10
7.1523544969
 20
13.7762006169
 40
0.0196850394
100
AcDbArc
 50
180.0013272051
 51
225.00464724
  0
ARC
  5
43A
100
AcDbEntity
  8
0
100
AcDbCircle
 62
7
  6
CONTINUOUS
 10
7.3350397777
 20
13.6050465651
 40
0.0196850394
100
AcDbArc
 50
135.0
 51
180.0012047956
  0
ARC
  5
43B
100
AcDbEntity
  8
0
100
AcDbCircle
 62
7
  6
CONTINUOUS
 10
7.3350397777
 20
13.593515336
 40
0.0196850394
100
AcDbArc
 50
180.0013272052
 51
225.0021591516
  0
ARC
  5
43C
100
AcDbEntity
  8
0
100
AcDbCircle
 62
7
  6
CONTINUOUS
 10
7.6631257996
 20
13.335717112
 40
0.0196850394
100
AcDbArc
 50
135.0
 51
180.0024588139
  0
ARC
  5
43D
100
AcDbEntity
  8
0
100
AcDbCircle
 62
7
  6
CONTINUOUS
 10
7.6631257996
 20
13.3241858829
 40
0.0196850394
100
AcDbArc
 50
180.0011432895
 51
225.0041344961
  0
ARC
  5
43E
100
AcDbEntity
  8
0
100
AcDbCircle
 62
7
  6
CONTINUOUS
 10
7.4769279045
 20
13.5219150072
 40
0.0196850394
100
AcDbArc
 50
269.9975411859
 51
315.0
  0
ARC
  5
43F
100
AcDbEntity
  8
0
100
AcDbCircle
 62
7
  6
CONTINUOUS
 10
7.4653966754
 20
13.5219150072
 40
0.0196850394
100
AcDbArc
 50
224.9972222613
 51
269.99885671
  0
ARC
  5
440
100
AcDbEntity
  8
0
100
AcDbCircle
 62
7
  6
CONTINUOUS
 10
7.5587826385
 20
13.3813037043
 40
0.0196850394
100
AcDbArc
 50
135.0
 51
180.0012047948
  0
ARC
  5
441
100
AcDbEntity
  8
0
100
AcDbCircle
 62
7
  6
CONTINUOUS
 10
7.6311636476
 20
13.3089226952
 40
0.0196850394
100
AcDbArc
 50
269.9987952044
 51
315.0
  0
ARC
  5
442
100
AcDbEntity
  8
0
100
AcDbCircle
 62
7
  6
CONTINUOUS
 10
7.6196324185
 20
13.3089226952
 40
0.0196850394
100
AcDbArc
 50
224.9958104251
 51
269.998672795
  0
ARC
  5
443
100
AcDbEntity
  8
0
100
AcDbCircle
 62
7
  6
CONTINUOUS
 10
7.5587826385
 20
13.3697724752
 40
0.0196850394
100
AcDbArc
 50
180.0013272057
 51
225.0041895759
  0
ARC
  5
444
100
AcDbEntity
  8
0
100
AcDbCircle
 62
7
  6
CONTINUOUS
 10
7.4074207868
 20
13.532665556
 40
0.0196850394
100
AcDbArc
 50
269.9987952051
 51
315.0
  0
ARC
  5
445
100
AcDbEntity
  8
0
100
AcDbCircle
 62
7
  6
CONTINUOUS
 10
8.4427951409
 20
11.3882246445
 40
0.8376103167
100
AcDbArc
 50
54.1057747134
 51
54.2229071703
  0
ARC
  5
446
100
AcDbEntity
  8
0
100
AcDbCircle
 62
7
  6
CONTINUOUS
 10
8.2058985767
 20
12.4230872693
 40
0.2666029742
100
AcDbArc
 50
55.0222233034
 51
55.3900571346
  0
ARC
  5
447
100
AcDbEntity
  8
0
100
AcDbCircle
 62
7
  6
CONTINUOUS
 10
8.4639401067
 20
12.190467553
 40
0.2498010841
100
AcDbArc
 50
45.0314580218
 51
46.2573386908
  0
ARC
  5
448
100
AcDbEntity
  8
0
100
AcDbCircle
 62
7
  6
CONTINUOUS
 10
8.6183207402
 20
12.3805221714
 40
0.0196850394
100
AcDbArc
 50
269.9975411863
 51
315.0
  0
ARC
  5
449
100
AcDbEntity
  8
0
100
AcDbCircle
 62
7
  6
CONTINUOUS
 10
8.5292364213
 20
12.4696064903
 40
0.0196850394
100
AcDbArc
 50
135.0
 51
180.0024588143
  0
ARC
  5
44A
100
AcDbEntity
  8
0
100
AcDbCircle
 62
7
  6
CONTINUOUS
 10
8.5292364213
 20
12.4580752612
 40
0.0196850394
100
AcDbArc
 50
180.0011432902
 51
225.0027964971
  0
ARC
  5
44B
100
AcDbEntity
  8
0
100
AcDbCircle
 62
7
  6
CONTINUOUS
 10
8.6067895111
 20
12.3805221714
 40
0.0196850394
100
AcDbArc
 50
224.9972035029
 51
269.9988567098
  0
ARC
  5
44C
100
AcDbEntity
  8
0
100
AcDbCircle
 62
7
  6
CONTINUOUS
 10
8.5399869702
 20
12.4000993726
 40
0.0196850394
100
AcDbArc
 50
135.0
 51
180.0012047959
  0
ARC
  5
44D
100
AcDbEntity
  8
0
100
AcDbCircle
 62
7
  6
CONTINUOUS
 10
8.6123679793
 20
12.3277183635
 40
0.0196850394
100
AcDbArc
 50
269.9987952047
 51
315.0
  0
ARC
  5
44E
100
AcDbEntity
  8
0
100
AcDbCircle
 62
7
  6
CONTINUOUS
 10
8.6008367502
 20
12.3277183635
 40
0.0196850394
100
AcDbArc
 50
224.9980045294
 51
269.998672795
  0
ARC
  5
44F
100
AcDbEntity
  8
0
100
AcDbCircle
 62
7
  6
CONTINUOUS
 10
8.5399869702
 20
12.3885681436
 40
0.0196850394
100
AcDbArc
 50
180.0013272051
 51
225.0019954706
  0
ARC
  5
450
100
AcDbEntity
  8
0
100
AcDbCircle
 62
7
  6
CONTINUOUS
 10
8.3770938894
 20
12.5514612243
 40
0.0196850394
100
AcDbArc
 50
224.9957394013
 51
269.998672795
  0
ARC
  5
451
100
AcDbEntity
  8
0
100
AcDbCircle
 62
7
  6
CONTINUOUS
 10
8.3886251185
 20
12.5514612243
 40
0.0196850394
100
AcDbArc
 50
269.9987952045
 51
315.0
  0
ARC
  5
452
100
AcDbEntity
  8
0
100
AcDbCircle
 62
7
  6
CONTINUOUS
 10
8.722672251
 20
12.2174140918
 40
0.0196850394
100
AcDbArc
 50
135.0
 51
180.0012047956
  0
ARC
  5
453
100
AcDbEntity
  8
0
100
AcDbCircle
 62
7
  6
CONTINUOUS
 10
8.722672251
 20
12.2058828627
 40
0.0196850394
100
AcDbArc
 50
180.0013272052
 51
225.0042591499
  0
ARC
  5
454
100
AcDbEntity
  8
0
100
AcDbCircle
 62
7
  6
CONTINUOUS
 10
8.0253777462
 20
12.5619498834
 40
0.0196850394
100
AcDbArc
 50
45.0039181287
 51
90.0024249216
  0
ARC
  5
455
100
AcDbEntity
  8
0
100
AcDbCircle
 62
7
  6
CONTINUOUS
 10
8.192381898
 20
12.4227845813
 40
0.0196850394
100
AcDbArc
 50
224.9866301356
 51
269.9974348102
  0
ARC
  5
456
100
AcDbEntity
  8
0
100
AcDbCircle
 62
7
  6
CONTINUOUS
 10
8.2039131271
 20
12.3834145026
 40
0.0196850394
100
AcDbArc
 50
45.00392895
 51
90.0024317524
  0
ARC
  5
457
100
AcDbEntity
  8
0
100
AcDbCircle
 62
7
  6
CONTINUOUS
 10
8.2801721801
 20
12.3628331489
 40
0.0196850394
100
AcDbArc
 50
224.9998470346
 51
294.9999051805
  0
ARC
  5
458
100
AcDbEntity
  8
0
100
AcDbCircle
 62
7
  6
CONTINUOUS
 10
8.4274728017
 20
12.3252804027
 40
0.0118110236
100
AcDbArc
 50
224.9918137509
 51
269.9997466605
  0
ARC
  5
459
100
AcDbEntity
  8
0
100
AcDbCircle
 62
7
  6
CONTINUOUS
 10
8.445527079
 20
12.3252804027
 40
0.0118110236
100
AcDbArc
 50
269.9997000109
 51
315.0
  0
ARC
  5
45A
100
AcDbEntity
  8
0
100
AcDbCircle
 62
7
  6
CONTINUOUS
 10
8.36201053
 20
12.4087969517
 40
0.0118110236
100
AcDbArc
 50
135.0
 51
180.0002999879
  0
ARC
  5
45B
100
AcDbEntity
  8
0
100
AcDbCircle
 62
7
  6
CONTINUOUS
 10
8.36201053
 20
12.3907426744
 40
0.0118110236
100
AcDbArc
 50
180.0002533395
 51
225.0081862491
  0
ARC
  5
45C
100
AcDbEntity
  8
0
100
AcDbCircle
 62
7
  6
CONTINUOUS
 10
8.5460289154
 20
12.206724289
 40
0.0118110236
100
AcDbArc
 50
225.046466486
 51
269.9997468347
  0
ARC
  5
45D
100
AcDbEntity
  8
0
100
AcDbCircle
 62
7
  6
CONTINUOUS
 10
8.5640831927
 20
12.206724289
 40
0.0118110236
100
AcDbArc
 50
269.9996999689
 51
315.0
  0
ARC
  5
45E
100
AcDbEntity
  8
0
100
AcDbCircle
 62
7
  6
CONTINUOUS
 10
8.5043225434
 20
12.248430661
 40
0.0118110236
100
AcDbArc
 50
224.990812678
 51
269.9997472495
  0
ARC
  5
45F
100
AcDbEntity
  8
0
100
AcDbCircle
 62
7
  6
CONTINUOUS
 10
8.5223768207
 20
12.248430661
 40
0.0118110236
100
AcDbArc
 50
269.9997000847
 51
315.0
  0
ARC
  5
460
100
AcDbEntity
  8
0
100
AcDbCircle
 62
7
  6
CONTINUOUS
 10
8.4388602717
 20
12.3138929327
 40
0.0118110236
100
AcDbArc
 50
182.2498505468
 51
225.0091873219
  0
ARC
  5
461
100
AcDbEntity
  8
0
100
AcDbCircle
 62
7
  6
CONTINUOUS
 10
8.434041354
 20
12.3187118504
 40
0.0118110236
100
AcDbArc
 50
224.9886659131
 51
241.8518773465
  0
ARC
  5
462
100
AcDbEntity
  8
0
100
AcDbCircle
 62
7
  6
CONTINUOUS
 10
9.4810821107
 20
11.8382777057
 40
0.5118110236
100
AcDbArc
 50
169.7158850771
 51
249.6710480593
  0
ARC
  5
463
100
AcDbEntity
  8
0
100
AcDbCircle
 62
7
  6
CONTINUOUS
 10
9.0751070636
 20
11.2983742644
 40
0.4724409449
100
AcDbArc
 50
34.4249168973
 51
56.7360171921
  0
ARC
  5
464
100
AcDbEntity
  8
0
100
AcDbCircle
 62
9
  6
CONTINUOUS
 10
9.4806976618
 20
11.8378846968
 40
0.4449133295
100
AcDbArc
 50
169.6569711083
 51
249.6684952278
  0
ARC
  5
465
100
AcDbEntity
  8
0
100
AcDbCircle
 62
7
  6
CONTINUOUS
 10
9.3511454759
 20
11.4875580874
 40
0.1377952756
100
AcDbArc
 50
249.6710480599
 51
34.4249168912
  0
ARC
  5
466
100
AcDbEntity
  8
0
100
AcDbCircle
 62
7
  6
CONTINUOUS
 10
9.1501251404
 20
11.8487177713
 40
0.0196850394
100
AcDbArc
 50
269.9975411861
 51
315.0
  0
ARC
  5
467
100
AcDbEntity
  8
0
100
AcDbCircle
 62
7
  6
CONTINUOUS
 10
9.0610408215
 20
11.9262708611
 40
0.0196850394
100
AcDbArc
 50
180.0011432895
 51
224.9846661657
  0
ARC
  5
468
100
AcDbEntity
  8
0
100
AcDbCircle
 62
7
  6
CONTINUOUS
 10
9.1385939113
 20
11.8487177713
 40
0.0196850394
100
AcDbArc
 50
225.0153338328
 51
269.9988567094
  0
ARC
  5
469
100
AcDbEntity
  8
0
100
AcDbCircle
 62
7
  6
CONTINUOUS
 10
9.2805742386
 20
11.7789995205
 40
0.0080233997
100
AcDbArc
 50
225.009415502
 51
239.1562475688
  0
ARC
  5
46A
100
AcDbEntity
  8
0
100
AcDbCircle
 62
7
  6
CONTINUOUS
 10
9.0610408215
 20
11.9378020902
 40
0.0196850394
100
AcDbArc
 50
161.2637548569
 51
180.0024588139
  0
ARC
  5
46B
100
AcDbEntity
  8
0
100
AcDbCircle
 62
7
  6
CONTINUOUS
 10
9.0360995138
 20
11.9627433978
 40
0.0196850394
100
AcDbArc
 50
269.9975411858
 51
315.0
  0
ARC
  5
46C
100
AcDbEntity
  8
0
100
AcDbCircle
 62
7
  6
CONTINUOUS
 10
8.9470151949
 20
12.0518277167
 40
0.0196850394
100
AcDbArc
 50
135.0
 51
180.0024588142
  0
ARC
  5
46D
100
AcDbEntity
  8
0
100
AcDbCircle
 62
7
  6
CONTINUOUS
 10
8.9470151949
 20
12.0402964876
 40
0.0196850394
100
AcDbArc
 50
180.00114329
 51
225.0134346003
  0
ARC
  5
46E
100
AcDbEntity
  8
0
100
AcDbCircle
 62
7
  6
CONTINUOUS
 10
9.0245682847
 20
11.9627433978
 40
0.0196850394
100
AcDbArc
 50
224.9865653997
 51
269.99885671
  0
ARC
  5
46F
100
AcDbEntity
  8
0
100
AcDbCircle
 62
7
  6
CONTINUOUS
 10
8.8547109365
 20
12.1441319751
 40
0.0196850394
100
AcDbArc
 50
269.9975411859
 51
315.0
  0
ARC
  5
470
100
AcDbEntity
  8
0
100
AcDbCircle
 62
7
  6
CONTINUOUS
 10
8.7656266176
 20
12.233216294
 40
0.0196850394
100
AcDbArc
 50
135.0
 51
180.0024588136
  0
ARC
  5
471
100
AcDbEntity
  8
0
100
AcDbCircle
 62
7
  6
CONTINUOUS
 10
8.7656266176
 20
12.2216850649
 40
0.0196850394
100
AcDbArc
 50
180.0011432902
 51
225.0017020294
  0
ARC
  5
472
100
AcDbEntity
  8
0
100
AcDbCircle
 62
7
  6
CONTINUOUS
 10
8.8431797074
 20
12.1441319751
 40
0.0196850394
100
AcDbArc
 50
224.9982979706
 51
269.9988567098
  0
ARC
  5
473
100
AcDbEntity
  8
0
100
AcDbCircle
 62
7
  6
CONTINUOUS
 10
8.8518502519
 20
12.0882360909
 40
0.0196850394
100
AcDbArc
 50
135.0
 51
180.0012047948
  0
ARC
  5
474
100
AcDbEntity
  8
0
100
AcDbCircle
 62
7
  6
CONTINUOUS
 10
8.924231261
 20
12.0158550818
 40
0.0196850394
100
AcDbArc
 50
269.9987952044
 51
315.0
  0
ARC
  5
475
100
AcDbEntity
  8
0
100
AcDbCircle
 62
7
  6
CONTINUOUS
 10
8.9127000319
 20
12.0158550818
 40
0.0196850394
100
AcDbArc
 50
224.9939262618
 51
269.998672795
  0
ARC
  5
476
100
AcDbEntity
  8
0
100
AcDbCircle
 62
7
  6
CONTINUOUS
 10
8.8518502519
 20
12.0767048618
 40
0.0196850394
100
AcDbArc
 50
180.0013272057
 51
225.0060737392
  0
ARC
  5
477
100
AcDbEntity
  8
0
100
AcDbCircle
 62
7
  6
CONTINUOUS
 10
8.783522031
 20
12.1450330827
 40
0.0196850394
100
AcDbArc
 50
224.9957408501
 51
269.9986727947
  0
ARC
  5
478
100
AcDbEntity
  8
0
100
AcDbCircle
 62
7
  6
CONTINUOUS
 10
8.7950532601
 20
12.1450330827
 40
0.0196850394
100
AcDbArc
 50
269.9987952051
 51
315.0
  0
ARC
  5
479
100
AcDbEntity
  8
0
100
AcDbCircle
 62
7
  6
CONTINUOUS
 10
8.9795674856
 20
11.9489876281
 40
0.0196850394
100
AcDbArc
 50
225.024692783
 51
269.9986727884
  0
ARC
  5
47A
100
AcDbEntity
  8
0
100
AcDbCircle
 62
7
  6
CONTINUOUS
 10
8.9910987147
 20
11.9489876281
 40
0.0196850394
100
AcDbArc
 50
269.9987952044
 51
315.0
  0
ARC
  5
47B
100
AcDbEntity
  8
0
100
AcDbCircle
 62
7
  6
CONTINUOUS
 10
8.9187177056
 20
12.0098374081
 40
0.0196850394
100
AcDbArc
 50
212.4770259276
 51
224.975307217
  0
ARC
  5
47C
100
AcDbEntity
  8
0
100
AcDbCircle
 62
7
  6
CONTINUOUS
 10
8.8474227408
 20
12.0570918517
 40
0.0078740157
100
AcDbArc
 50
235.1465387618
 51
294.9661125862
  0
ARC
  5
47D
100
AcDbEntity
  8
0
100
AcDbCircle
 62
7
  6
CONTINUOUS
 10
8.3430385262
 20
12.6558043855
 40
0.0196850394
100
AcDbArc
 50
269.9975411863
 51
315.0
  0
ARC
  5
47E
100
AcDbEntity
  8
0
100
AcDbCircle
 62
7
  6
CONTINUOUS
 10
8.2539542073
 20
12.7448887044
 40
0.0196850394
100
AcDbArc
 50
135.0
 51
180.0024588147
  0
ARC
  5
47F
100
AcDbEntity
  8
0
100
AcDbCircle
 62
7
  6
CONTINUOUS
 10
8.2539542073
 20
12.7333574753
 40
0.0196850394
100
AcDbArc
 50
180.0011432896
 51
225.0039193772
  0
ARC
  5
480
100
AcDbEntity
  8
0
100
AcDbCircle
 62
7
  6
CONTINUOUS
 10
8.3315072971
 20
12.6558043855
 40
0.0196850394
100
AcDbArc
 50
224.9960806215
 51
269.9988567094
  0
ARC
  5
481
100
AcDbEntity
  8
0
100
AcDbCircle
 62
7
  6
CONTINUOUS
 10
8.0476243223
 20
12.9512185893
 40
0.0196850394
100
AcDbArc
 50
269.9975417674
 51
315.0
  0
ARC
  5
482
100
AcDbEntity
  8
0
100
AcDbCircle
 62
7
  6
CONTINUOUS
 10
7.9585400035
 20
13.0403029082
 40
0.0196850394
100
AcDbArc
 50
135.0
 51
180.0024582326
  0
ARC
  5
483
100
AcDbEntity
  8
0
100
AcDbCircle
 62
7
  6
CONTINUOUS
 10
7.9585400035
 20
13.0287716791
 40
0.0196850394
100
AcDbArc
 50
180.0011432897
 51
225.00468718
  0
ARC
  5
484
100
AcDbEntity
  8
0
100
AcDbCircle
 62
7
  6
CONTINUOUS
 10
8.0360930933
 20
12.9512185893
 40
0.0196850394
100
AcDbArc
 50
224.99531282
 51
269.9988567103
  0
ARC
  5
485
100
AcDbEntity
  8
0
100
AcDbCircle
 62
7
  6
CONTINUOUS
 10
8.0666913748
 20
12.873394968
 40
0.0196850394
100
AcDbArc
 50
135.0
 51
180.0012049649
  0
ARC
  5
486
100
AcDbEntity
  8
0
100
AcDbCircle
 62
7
  6
CONTINUOUS
 10
8.1390723839
 20
12.8010139589
 40
0.0196850394
100
AcDbArc
 50
269.9987950343
 51
315.0
  0
ARC
  5
487
100
AcDbEntity
  8
0
100
AcDbCircle
 62
7
  6
CONTINUOUS
 10
8.1275411548
 20
12.8010139589
 40
0.0196850394
100
AcDbArc
 50
224.997547682
 51
269.9986727936
  0
ARC
  5
488
100
AcDbEntity
  8
0
100
AcDbCircle
 62
7
  6
CONTINUOUS
 10
8.0666913748
 20
12.8618637389
 40
0.0196850394
100
AcDbArc
 50
180.0013272064
 51
225.002452318
  0
ARC
  5
489
100
AcDbEntity
  8
0
100
AcDbCircle
 62
7
  6
CONTINUOUS
 10
8.3162441094
 20
12.6238422334
 40
0.0196850394
100
AcDbArc
 50
135.0
 51
180.0012047948
  0
ARC
  5
48A
100
AcDbEntity
  8
0
100
AcDbCircle
 62
7
  6
CONTINUOUS
 10
8.3162441094
 20
12.6123110044
 40
0.0196850394
100
AcDbArc
 50
180.0013272052
 51
225.004260599
  0
ARC
  5
48B
100
AcDbEntity
  8
0
100
AcDbCircle
 62
7
  6
CONTINUOUS
 10
8.0138465172
 20
12.6013199622
 40
0.0196850394
100
AcDbArc
 50
224.9951641281
 51
269.9974348682
  0
ARC
  5
48C
100
AcDbEntity
  8
0
100
AcDbCircle
 62
7
  6
CONTINUOUS
 10
8.0396639141
 20
12.5755025652
 40
0.0196850394
100
AcDbArc
 50
180.0025651901
 51
225.0133698649
  0
ARC
  5
48D
100
AcDbEntity
  8
0
100
AcDbCircle
 62
7
  6
CONTINUOUS
 10
8.0184473613
 20
12.7343058431
 40
0.0118110236
100
AcDbArc
 50
224.9972333239
 51
269.9997468357
  0
ARC
  5
48E
100
AcDbEntity
  8
0
100
AcDbCircle
 62
7
  6
CONTINUOUS
 10
8.0365016386
 20
12.7343058431
 40
0.0118110236
100
AcDbArc
 50
269.9997000107
 51
315.0
  0
ARC
  5
48F
100
AcDbEntity
  8
0
100
AcDbCircle
 62
7
  6
CONTINUOUS
 10
7.9529850896
 20
12.8178223921
 40
0.0118110236
100
AcDbArc
 50
135.0
 51
180.000299988
  0
ARC
  5
490
100
AcDbEntity
  8
0
100
AcDbCircle
 62
7
  6
CONTINUOUS
 10
7.9529850896
 20
12.7997681148
 40
0.0118110236
100
AcDbArc
 50
180.0002531656
 51
225.0027666779
  0
ARC
  5
491
100
AcDbEntity
  8
0
100
AcDbCircle
 62
7
  6
CONTINUOUS
 10
8.6142448282
 20
16.4554065344
 40
1.9
100
AcDbArc
 50
237.4577510794
 51
275.4956073781
  0
ARC
  5
492
100
AcDbEntity
  8
0
100
AcDbCircle
 62
7
  6
CONTINUOUS
 10
6.7607527179
 20
15.0839042432
 40
0.45
100
AcDbArc
 50
276.6210152008
 51
315.0
  0
ARC
  5
493
100
AcDbEntity
  8
0
100
AcDbCircle
 62
7
  6
CONTINUOUS
 10
6.7838130172
 20
14.8852381348
 40
0.25
100
AcDbArc
 50
247.8632234306
 51
276.6210152008
  0
ARC
  5
494
100
AcDbEntity
  8
0
100
AcDbCircle
 62
7
  6
CONTINUOUS
 10
6.6594627807
 20
14.5795634406
 40
0.08
100
AcDbArc
 50
67.8632234306
 51
132.7285491583
  0
ARC
  5
495
100
AcDbEntity
  8
0
100
AcDbCircle
 62
7
  6
CONTINUOUS
 10
7.2614188453
 20
14.8421082503
 40
0.075
100
AcDbArc
 50
69.0
 51
135.0
  0
ARC
  5
496
100
AcDbEntity
  8
0
100
AcDbCircle
 62
7
  6
CONTINUOUS
 10
7.5291180859
 20
14.841106914
 40
0.02
100
AcDbArc
 50
249.0
 51
315.0
  0
ARC
  5
497
100
AcDbEntity
  8
0
100
AcDbCircle
 62
7
  6
CONTINUOUS
 10
7.5814358083
 20
14.8368560939
 40
0.02
100
AcDbArc
 50
57.4577510794
 51
135.0
  0
ARC
  5
498
100
AcDbEntity
  8
0
100
AcDbCircle
 62
7
  6
CONTINUOUS
 10
7.0591491309
 20
13.9396937808
 40
0.0196850394
100
AcDbArc
 50
269.9975411863
 51
315.0
  0
ARC
  5
499
100
AcDbEntity
  8
0
100
AcDbCircle
 62
7
  6
CONTINUOUS
 10
6.970064812
 20
14.0287780997
 40
0.0196850394
100
AcDbArc
 50
135.0
 51
180.0024588143
  0
ARC
  5
49A
100
AcDbEntity
  8
0
100
AcDbCircle
 62
7
  6
CONTINUOUS
 10
6.970064812
 20
14.0172468706
 40
0.0196850394
100
AcDbArc
 50
180.0011432902
 51
225.0141027316
  0
ARC
  5
49B
100
AcDbEntity
  8
0
100
AcDbCircle
 62
7
  6
CONTINUOUS
 10
6.8171471677
 20
14.1701645149
 40
0.0196850394
100
AcDbArc
 50
180.0010369649
 51
225.0009085171
  0
ARC
  5
49C
100
AcDbEntity
  8
0
100
AcDbCircle
 62
7
  6
CONTINUOUS
 10
6.8171471677
 20
14.181695744
 40
0.0196850394
100
AcDbArc
 50
135.0
 51
180.0010232871
  0
ARC
  5
49D
100
AcDbEntity
  8
0
100
AcDbCircle
 62
7
  6
CONTINUOUS
 10
7.0476179018
 20
13.9396937808
 40
0.0196850394
100
AcDbArc
 50
224.9858972684
 51
269.9988567098
  0
ARC
  5
49E
100
AcDbEntity
  8
0
100
AcDbCircle
 62
7
  6
CONTINUOUS
 10
6.9451235043
 20
14.0537194073
 40
0.0196850394
100
AcDbArc
 50
269.9975411863
 51
288.7362451431
  0
ARC
  5
49F
100
AcDbEntity
  8
0
100
AcDbCircle
 62
7
  6
CONTINUOUS
 10
6.8560391854
 20
14.1428037262
 40
0.0196850394
100
AcDbArc
 50
135.0
 51
180.0024588147
  0
ARC
  5
4A0
100
AcDbEntity
  8
0
100
AcDbCircle
 62
7
  6
CONTINUOUS
 10
6.8560391854
 20
14.1312724971
 40
0.0196850394
100
AcDbArc
 50
180.0011432896
 51
224.9839638501
  0
ARC
  5
4A1
100
AcDbEntity
  8
0
100
AcDbCircle
 62
7
  6
CONTINUOUS
 10
6.9335922752
 20
14.0537194073
 40
0.0196850394
100
AcDbArc
 50
225.0160361486
 51
269.9988567095
  0
ARC
  5
4A2
100
AcDbEntity
  8
0
100
AcDbCircle
 62
7
  6
CONTINUOUS
 10
6.9563090423
 20
13.9837773005
 40
0.0196850394
100
AcDbArc
 50
135.0
 51
180.0012049649
  0
ARC
  5
4A3
100
AcDbEntity
  8
0
100
AcDbCircle
 62
7
  6
CONTINUOUS
 10
7.0171588223
 20
13.9113962914
 40
0.0196850394
100
AcDbArc
 50
225.0252021648
 51
237.5229740722
  0
ARC
  5
4A4
100
AcDbEntity
  8
0
100
AcDbCircle
 62
7
  6
CONTINUOUS
 10
6.9563090423
 20
13.9722460715
 40
0.0196850394
100
AcDbArc
 50
180.0013272064
 51
224.9747978352
  0
ARC
  5
4A5
100
AcDbEntity
  8
0
100
AcDbCircle
 62
7
  6
CONTINUOUS
 10
7.0231764959
 20
13.9169098469
 40
0.0196850394
100
AcDbArc
 50
135.0
 51
180.0012047948
  0
ARC
  5
4A6
100
AcDbEntity
  8
0
100
AcDbCircle
 62
7
  6
CONTINUOUS
 10
7.0231764959
 20
13.9053786178
 40
0.0196850394
100
AcDbArc
 50
180.0013272052
 51
225.0060811357
  0
ARC
  5
4A7
100
AcDbEntity
  8
0
100
AcDbCircle
 62
7
  6
CONTINUOUS
 10
6.7842951873
 20
14.2750673423
 40
0.0078740157
100
AcDbArc
 50
210.7100596427
 51
225.0
  0
ARC
  5
4A8
100
AcDbEntity
  8
0
100
AcDbCircle
 62
7
  6
CONTINUOUS
 10
11.4627279485
 20
13.606923414
 40
1.9
100
AcDbArc
 50
174.5043926219
 51
212.5422489206
  0
ARC
  5
4A9
100
AcDbEntity
  8
0
100
AcDbCircle
 62
7
  6
CONTINUOUS
 10
10.0912256573
 20
11.7534313038
 40
0.45
100
AcDbArc
 50
135.0
 51
173.3789847992
  0
ARC
  5
4AA
100
AcDbEntity
  8
0
100
AcDbCircle
 62
7
  6
CONTINUOUS
 10
9.892559549
 20
11.7764916031
 40
0.25
100
AcDbArc
 50
173.3789847992
 51
202.1367765694
  0
ARC
  5
4AB
100
AcDbEntity
  8
0
100
AcDbCircle
 62
7
  6
CONTINUOUS
 10
9.5868848548
 20
11.6521413665
 40
0.08
100
AcDbArc
 50
317.2714508417
 51
22.1367765694
  0
ARC
  5
4AC
100
AcDbEntity
  8
0
100
AcDbCircle
 62
7
  6
CONTINUOUS
 10
9.8494296644
 20
12.2540974311
 40
0.075
100
AcDbArc
 50
315.0
 51
21.0
  0
ARC
  5
4AD
100
AcDbEntity
  8
0
100
AcDbCircle
 62
7
  6
CONTINUOUS
 10
9.8484283281
 20
12.5217966717
 40
0.02
100
AcDbArc
 50
135.0
 51
201.0
  0
ARC
  5
4AE
100
AcDbEntity
  8
0
100
AcDbCircle
 62
7
  6
CONTINUOUS
 10
9.8441775081
 20
12.5741143941
 40
0.02
100
AcDbArc
 50
315.0
 51
32.5422489206
  0
ARC
  5
4AF
100
AcDbEntity
  8
0
100
AcDbCircle
 62
7
  6
CONTINUOUS
 10
9.6046776979
 20
14.5973562837
 40
2.5590551181
100
AcDbArc
 50
222.3528405071
 51
227.6471594929
  0
ARC
  5
4B0
100
AcDbEntity
  8
0
100
AcDbCircle
 62
7
  6
CONTINUOUS
 10
12.5848926102
 20
15.1026974619
 40
2.15625
100
AcDbArc
 50
90.0
 51
135.0
  0
ARC
  5
4B1
100
AcDbEntity
  8
0
100
AcDbCircle
 62
7
  6
CONTINUOUS
 10
12.5848926102
 20
15.1026974619
 40
1.34375
100
AcDbArc
 50
90.0
 51
135.0
  0
ARC
  5
4B2
100
AcDbEntity
  8
0
100
AcDbCircle
 62
7
  6
CONTINUOUS
 10
9.6816371635
 20
14.6743157493
 40
0.489
100
AcDbArc
 50
343.8676339181
 51
0.0258404644
  0
ARC
  5
4B3
100
AcDbEntity
  8
0
100
AcDbCircle
 62
7
  6
CONTINUOUS
 10
9.6816371635
 20
14.6743157493
 40
0.489
100
AcDbArc
 50
89.9741595356
 51
106.1323660819
  0
ARC
  5
4B4
100
AcDbEntity
  8
0
100
AcDbCircle
 62
7
  6
CONTINUOUS
 10
10.3239532704
 20
14.942572369
 40
0.188
100
AcDbArc
 50
270.0
 51
315.0
  0
ARC
  5
4B5
100
AcDbEntity
  8
0
100
AcDbCircle
 62
7
  6
CONTINUOUS
 10
9.9498937831
 20
15.3166318562
 40
0.188
100
AcDbArc
 50
135.0
 51
180.0
  0
ARC
  5
4B6
100
AcDbEntity
  8
0
100
AcDbCircle
 62
7
  6
CONTINUOUS
 10
10.2506371056
 20
14.674572369
 40
0.08
100
AcDbArc
 50
90.0
 51
180.0258404644
  0
ARC
  5
4B7
100
AcDbEntity
  8
0
100
AcDbCircle
 62
7
  6
CONTINUOUS
 10
9.6818937831
 20
15.2433156914
 40
0.08
100
AcDbArc
 50
269.9741595356
 51
360.0
  0
ARC
  5
4B8
100
AcDbEntity
  8
0
100
AcDbCircle
 62
7
  6
CONTINUOUS
 10
13.3122668472
 20
3.1514364373
 40
1.52
100
AcDbArc
 50
86.2419535375
 51
101.5898335018
  0
ARC
  5
4B9
100
AcDbEntity
  8
0
100
AcDbCircle
 62
7
  6
CONTINUOUS
 10
13.3122668472
 20
4.5539584865
 40
1.52
100
AcDbArc
 50
258.4101664982
 51
273.7580464625
  0
ARC
  5
4BA
100
AcDbEntity
  8
0
100
AcDbCircle
 62
7
  6
CONTINUOUS
 10
13.0202933126
 20
2.895506872
 40
1.5
100
AcDbArc
 50
160.2371945424
 51
191.0
  0
ARC
  5
4BB
100
AcDbEntity
  8
0
100
AcDbCircle
 62
7
  6
CONTINUOUS
 10
13.2479775341
 20
3.4649119295
 40
1.2
100
AcDbArc
 50
101.5898335018
 51
130.5151811264
  0
ARC
  5
4BC
100
AcDbEntity
  8
0
100
AcDbCircle
 62
7
  6
CONTINUOUS
 10
13.2479775341
 20
4.2404829943
 40
1.2
100
AcDbArc
 50
229.4848188736
 51
258.4101664982
  0
ARC
  5
4BD
100
AcDbEntity
  8
0
100
AcDbCircle
 62
7
  6
CONTINUOUS
 10
13.4343739502
 20
5.0104304812
 40
0.343
100
AcDbArc
 50
266.2419535375
 51
320.9887457037
  0
ARC
  5
4BE
100
AcDbEntity
  8
0
100
AcDbCircle
 62
7
  6
CONTINUOUS
 10
13.4343739502
 20
2.6949644426
 40
0.343
100
AcDbArc
 50
39.0112542963
 51
93.7580464625
  0
ARC
  5
4BF
100
AcDbEntity
  8
0
100
AcDbCircle
 62
7
  6
CONTINUOUS
 10
14.5829035595
 20
0.6618651099
 40
0.2500109774
100
AcDbArc
 50
180.0192106228
 51
240.2635604814
  0
ARC
  5
4C0
100
AcDbEntity
  8
0
100
AcDbCircle
 62
7
  6
CONTINUOUS
 10
14.5829035595
 20
7.0435298139
 40
0.2500109774
100
AcDbArc
 50
119.7364395186
 51
179.9807893772
  0
ARC
  5
4C1
100
AcDbEntity
  8
0
100
AcDbCircle
 62
7
  6
CONTINUOUS
 10
14.8348926102
 20
0.2276974619
 40
0.25
100
AcDbArc
 50
180.0
 51
270.0
  0
ARC
  5
4C2
100
AcDbEntity
  8
0
100
AcDbCircle
 62
7
  6
CONTINUOUS
 10
14.3348926102
 20
0.2276974619
 40
0.25
100
AcDbArc
 50
0.0
 51
60.2635604814
  0
ARC
  5
4C3
100
AcDbEntity
  8
0
100
AcDbCircle
 62
7
  6
CONTINUOUS
 10
14.0828926102
 20
0.6616974619
 40
0.25
100
AcDbArc
 50
0.0192106228
 51
60.2642868924
  0
ARC
  5
4C4
100
AcDbEntity
  8
0
100
AcDbCircle
 62
7
  6
CONTINUOUS
 10
14.3308926102
 20
1.0958587223
 40
0.25
100
AcDbArc
 50
180.0
 51
240.2642868924
  0
ARC
  5
4C5
100
AcDbEntity
  8
0
100
AcDbCircle
 62
7
  6
CONTINUOUS
 10
14.8348926102
 20
7.4776974619
 40
0.25
100
AcDbArc
 50
90.0
 51
180.0
  0
ARC
  5
4C6
100
AcDbEntity
  8
0
100
AcDbCircle
 62
7
  6
CONTINUOUS
 10
14.3348926102
 20
7.4776974619
 40
0.25
100
AcDbArc
 50
299.7364395186
 51
360.0
  0
ARC
  5
4C7
100
AcDbEntity
  8
0
100
AcDbCircle
 62
7
  6
CONTINUOUS
 10
14.0828926102
 20
7.0436974619
 40
0.25
100
AcDbArc
 50
299.7357131076
 51
359.9807893772
  0
ARC
  5
4C8
100
AcDbEntity
  8
0
100
AcDbCircle
 62
7
  6
CONTINUOUS
 10
14.3308926102
 20
6.6095362015
 40
0.25
100
AcDbArc
 50
119.7357131076
 51
180.0
  0
ARC
  5
4C9
100
AcDbEntity
  8
0
100
AcDbCircle
 62
7
  6
CONTINUOUS
 10
14.0668926102
 20
4.8976974619
 40
0.125
100
AcDbArc
 50
90.0
 51
151.6423634237
  0
ARC
  5
4CA
100
AcDbEntity
  8
0
100
AcDbCircle
 62
7
  6
CONTINUOUS
 10
14.0668926102
 20
2.8076974619
 40
0.125
100
AcDbArc
 50
208.3576365763
 51
270.0
  0
ARC
  5
4CB
100
AcDbEntity
  8
0
100
AcDbCircle
 62
7
  6
CONTINUOUS
 10
13.9103713199
 20
4.84674852
 40
0.078
100
AcDbArc
 50
93.291697165
 51
143.2265724874
  0
ARC
  5
4CC
100
AcDbEntity
  8
0
100
AcDbCircle
 62
7
  6
CONTINUOUS
 10
13.9103713199
 20
2.8586464038
 40
0.078
100
AcDbArc
 50
216.7734275126
 51
266.708302835
  0
ARC
  5
4CD
100
AcDbEntity
  8
0
100
AcDbCircle
 62
7
  6
CONTINUOUS
 10
13.8177906747
 20
4.7919330526
 40
0.078
100
AcDbArc
 50
98.03157335
 51
149.0556893899
  0
ARC
  5
4CE
100
AcDbEntity
  8
0
100
AcDbCircle
 62
7
  6
CONTINUOUS
 10
13.8177906747
 20
2.9134618712
 40
0.078
100
AcDbArc
 50
210.9443106101
 51
261.96842665
  0
ARC
  5
4CF
100
AcDbEntity
  8
0
100
AcDbCircle
 62
7
  6
CONTINUOUS
 10
13.9023326102
 20
4.9865175407
 40
0.062
100
AcDbArc
 50
273.291697165
 51
331.6423634237
  0
ARC
  5
4D0
100
AcDbEntity
  8
0
100
AcDbCircle
 62
7
  6
CONTINUOUS
 10
13.9023326102
 20
2.7188773831
 40
0.062
100
AcDbArc
 50
28.3576365763
 51
86.708302835
  0
ARC
  5
4D1
100
AcDbEntity
  8
0
100
AcDbCircle
 62
7
  6
CONTINUOUS
 10
13.7982300461
 20
4.9305598242
 40
0.062
100
AcDbArc
 50
278.03157335
 51
323.2265724874
  0
ARC
  5
4D2
100
AcDbEntity
  8
0
100
AcDbCircle
 62
7
  6
CONTINUOUS
 10
13.7982300461
 20
2.7748350996
 40
0.062
100
AcDbArc
 50
36.7734275126
 51
81.96842665
  0
ARC
  5
4D3
100
AcDbEntity
  8
0
100
AcDbCircle
 62
7
  6
CONTINUOUS
 10
13.6977172256
 20
4.8639217102
 40
0.062
100
AcDbArc
 50
287.0467181651
 51
329.0556893899
  0
ARC
  5
4D4
100
AcDbEntity
  8
0
100
AcDbCircle
 62
7
  6
CONTINUOUS
 10
13.6977172256
 20
2.8414732136
 40
0.062
100
AcDbArc
 50
30.9443106101
 51
72.9532818349
  0
ARC
  5
4D5
100
AcDbEntity
  8
0
100
AcDbCircle
 62
7
  6
CONTINUOUS
 10
13.7249803025
 20
4.7750075682
 40
0.031
100
AcDbArc
 50
107.0467181651
 51
140.9887457037
  0
ARC
  5
4D6
100
AcDbEntity
  8
0
100
AcDbCircle
 62
7
  6
CONTINUOUS
 10
13.7249803025
 20
2.9303873556
 40
0.031
100
AcDbArc
 50
219.0112542963
 51
252.9532818349
  0
ARC
  5
4D7
100
AcDbEntity
  8
0
100
AcDbCircle
 62
7
  6
CONTINUOUS
 10
12.9371484384
 20
17.9298465874
 40
7.1691060897
100
AcDbArc
 50
219.1377473243
 51
219.2089918143
  0
ARC
  5
4D8
100
AcDbEntity
  8
0
100
AcDbCircle
 62
7
  6
CONTINUOUS
 10
12.9371680015
 20
17.9298270243
 40
7.1691060897
100
AcDbArc
 50
232.7966168456
 51
234.3230697234
  0
ARC
  5
4D9
100
AcDbEntity
  8
0
100
AcDbCircle
 62
7
  6
CONTINUOUS
 10
12.9371734063
 20
17.9298715553
 40
7.1643816803
100
AcDbArc
 50
214.8532231336
 51
215.5750973652
  0
ARC
  5
4DA
100
AcDbEntity
  8
0
100
AcDbCircle
 62
7
  6
CONTINUOUS
 10
12.9371929694
 20
17.9298519921
 40
7.1643816803
100
AcDbArc
 50
234.4249026348
 51
235.1467768664
  0
ARC
  5
4DB
100
AcDbEntity
  8
0
100
AcDbCircle
 62
7
  6
CONTINUOUS
 10
12.9371734063
 20
17.9298715553
 40
7.1643816803
100
AcDbArc
 50
210.0673065852
 51
210.7102731828
  0
ARC
  5
4DC
100
AcDbEntity
  8
0
100
AcDbCircle
 62
7
  6
CONTINUOUS
 10
12.9367693826
 20
17.929554296
 40
7.1632441833
100
AcDbArc
 50
239.2705208902
 51
239.9166489963
  0
ARC
  5
4DD
100
AcDbEntity
  8
0
100
AcDbCircle
 62
9
  6
CONTINUOUS
 10
12.9406917243
 20
17.9357917422
 40
7.1507436036
100
AcDbArc
 50
238.2880417734
 51
238.6171785401
  0
ARC
  5
4DE
100
AcDbEntity
  8
0
100
AcDbCircle
 62
9
  6
CONTINUOUS
 10
12.806892957
 20
17.7087420488
 40
6.9265790661
100
AcDbArc
 50
239.2610109886
 51
240.0308013472
  0
ARC
  5
4DF
100
AcDbEntity
  8
0
100
AcDbCircle
 62
7
  6
CONTINUOUS
 10
18.890052026
 20
16.9048713741
 40
4.5
100
AcDbArc
 50
186.4144817261
 51
195.5395954904
  0
ARC
  5
4E0
100
AcDbEntity
  8
0
100
AcDbCircle
 62
7
  6
CONTINUOUS
 10
18.890052026
 20
16.8005235497
 40
4.5
100
AcDbArc
 50
164.4604045096
 51
173.5855182739
  0
ARC
  5
4E1
100
AcDbEntity
  8
0
100
AcDbCircle
 62
7
  6
CONTINUOUS
 10
14.602719363
 20
17.9926974619
 40
0.05
100
AcDbArc
 50
90.0
 51
164.4604045096
  0
ARC
  5
4E2
100
AcDbEntity
  8
0
100
AcDbCircle
 62
7
  6
CONTINUOUS
 10
14.602719363
 20
15.7126974619
 40
0.05
100
AcDbArc
 50
195.5395954904
 51
270.0
  0
LINE
  5
4E3
100
AcDbEntity
  8
0
100
AcDbLine
 62
7
  6
CONTINUOUS
 10
10.6599532532
 20
15.0781076117
 11
10.6600073806
 21
15.0788565092
  0
LINE
  5
4E4
100
AcDbEntity
  8
0
100
AcDbLine
 62
7
  6
CONTINUOUS
 10
7.238233566
 20
13.5806912665
 11
7.2354458873
 21
13.5842984897
  0
LINE
  5
4E5
100
AcDbEntity
  8
0
100
AcDbLine
 62
7
  6
CONTINUOUS
 10
7.2354458873
 20
13.5842984897
 11
7.2347565406
 21
13.5851906639
  0
LINE
  5
4E6
100
AcDbEntity
  8
0
100
AcDbLine
 62
7
  6
CONTINUOUS
 10
7.2347565406
 20
13.5851906639
 11
7.218698776
 21
13.6060270282
  0
LINE
  5
4E7
100
AcDbEntity
  8
0
100
AcDbLine
 62
7
  6
CONTINUOUS
 10
10.2456044026
 20
15.812807193
 11
10.2455535306
 21
15.8121033147
  0
SPLINE
  5
4E8
100
AcDbEntity
  8
0
100
AcDbSpline
 62
7
  6
CONTINUOUS
 70
0
 71
3
 72
24
 73
20
 74
0
 42
0.0000001
 43
0.0000001
 44
0.0000000001
 40
0.0
 40
0.0
 40
0.0
 40
0.0
 40
0.0103272194
 40
0.0208925723
 40
0.0440627035
 40
0.0572906847
 40
0.0718522945
 40
0.0878778468
 40
0.1054612612
 40
0.1455273121
 40
0.1923552167
 40
0.2460194499
 40
0.3064530834
 40
0.3734905276
 40
0.4468909679
 40
0.5263442285
 40
0.6114883997
 40
0.7971210476
 40
1.0
 40
1.0
 40
1.0
 40
1.0
 10
7.5724536964
 20
13.4228135754
 30
0.0
 10
7.5725661821
 20
13.4229260782
 30
0.0
 10
7.5728171417
 20
13.4231316264
 30
0.0
 10
7.5734201379
 20
13.4234515421
 30
0.0
 10
7.5741426642
 20
13.4236023824
 30
0.0
 10
7.5749280639
 20
13.4236133417
 30
0.0
 10
7.5756014195
 20
13.4235490716
 30
0.0
 10
7.5763314344
 20
13.4234118159
 30
0.0
 10
7.5774288011
 20
13.4231186115
 30
0.0
 10
7.5789394762
 20
13.4225533072
 30
0.0
 10
7.5808942457
 20
13.4216178153
 30
0.0
 10
7.5830550621
 20
13.4203995684
 30
0.0
 10
7.585411595
 20
13.4189034112
 30
0.0
 10
7.5879522158
 20
13.4171355154
 30
0.0
 10
7.5906636311
 20
13.4151040661
 30
0.0
 10
7.5935315504
 20
13.4128191833
 30
0.0
 10
7.5976633848
 20
13.4093489502
 30
0.0
 10
7.6030859647
 20
13.4044632658
 30
0.0
 10
7.6073836177
 20
13.4002960696
 30
0.0
 10
7.6095935756
 20
13.3980861118
 30
0.0
  0
SPLINE
  5
4E9
100
AcDbEntity
  8
0
100
AcDbSpline
 62
7
  6
CONTINUOUS
 70
0
 71
3
 72
21
 73
17
 74
0
 42
0.0000001
 43
0.0000001
 44
0.0000000001
 40
0.0
 40
0.0
 40
0.0
 40
0.0
 40
0.2100861167
 40
0.3981039755
 40
0.5618122849
 40
0.6340195644
 40
0.6995751522
 40
0.7583886223
 40
0.8104291529
 40
0.8557663819
 40
0.8945931605
 40
0.9273282149
 40
0.9547428246
 40
0.9782140832
 40
0.9891637638
 40
1.0
 40
1.0
 40
1.0
 40
1.0
 10
8.6404791392
 20
12.3672005482
 30
0.0
 10
8.6419335413
 20
12.365746146
 30
0.0
 10
8.6446521747
 20
12.3629521158
 30
0.0
 10
8.6483490598
 20
12.3588778072
 30
0.0
 10
8.6510017809
 20
12.3556828427
 30
0.0
 10
8.652779036
 20
12.3533257284
 30
0.0
 10
8.6538810726
 20
12.351747292
 30
0.0
 10
8.6548063807
 20
12.3502881201
 30
0.0
 10
8.6555526766
 20
12.3489522835
 30
0.0
 10
8.6561188477
 20
12.3477433127
 30
0.0
 10
8.6565042716
 20
12.3466632461
 30
0.0
 10
8.6567085452
 20
12.3457120558
 30
0.0
 10
8.6567300985
 20
12.3448873384
 30
0.0
 10
8.656581036
 20
12.3442891695
 30
0.0
 10
8.6563624933
 20
12.3439011683
 30
0.0
 10
8.6562248513
 20
12.3437364036
 30
0.0
 10
8.6561498259
 20
12.343661393
 30
0.0
  0
SPLINE
  5
4EA
100
AcDbEntity
  8
0
100
AcDbSpline
 62
7
  6
CONTINUOUS
 70
0
 71
3
 72
26
 73
22
 74
0
 42
0.0000001
 43
0.0000001
 44
0.0000000001
 40
0.0
 40
0.0
 40
0.0
 40
0.0
 40
0.1933023516
 40
0.3756078211
 40
0.4608172003
 40
0.5411766611
 40
0.6160997814
 40
0.6850674632
 40
0.7476410555
 40
0.8034723198
 40
0.8523205446
 40
0.8740942172
 40
0.8941009472
 40
0.9123632544
 40
0.9289217464
 40
0.9438472691
 40
0.9572494128
 40
0.9692890024
 40
0.980200011
 40
0.9903021685
 40
1.0
 40
1.0
 40
1.0
 40
1.0
 10
8.1432192099
 20
12.8644604774
 30
0.0
 10
8.1461745559
 20
12.8615051315
 30
0.0
 10
8.1518147286
 20
12.8556590378
 30
0.0
 10
8.1584492775
 20
12.8482213026
 30
0.0
 10
8.1632575944
 20
12.8424364745
 30
0.0
 10
8.1664789553
 20
12.838353905
 30
0.0
 10
8.1693724567
 20
12.8344623386
 30
0.0
 10
8.1719162171
 20
12.8307927849
 30
0.0
 10
8.1740921493
 20
12.8273738829
 30
0.0
 10
8.1758852873
 20
12.8242317304
 30
0.0
 10
8.1770947803
 20
12.8217767248
 30
0.0
 10
8.1778480571
 20
12.8199670989
 30
0.0
 10
8.1782885518
 20
12.8187452647
 30
0.0
 10
8.1786263386
 20
12.8176081498
 30
0.0
 10
8.178860882
 20
12.8165573828
 30
0.0
 10
8.1789919242
 20
12.8155943529
 30
0.0
 10
8.1790192025
 20
12.8147200351
 30
0.0
 10
8.1789417956
 20
12.8139351614
 30
0.0
 10
8.178758202
 20
12.8132406199
 30
0.0
 10
8.1784667182
 20
12.8126389498
 30
0.0
 10
8.178197705
 20
12.8123004542
 30
0.0
 10
8.1780494286
 20
12.8121521958
 30
0.0
  0
SPLINE
  5
4EB
100
AcDbEntity
  8
0
100
AcDbSpline
 62
7
  6
CONTINUOUS
 70
0
 71
3
 72
26
 73
22
 74
0
 42
0.0000001
 43
0.0000001
 44
0.0000000001
 40
0.0
 40
0.0
 40
0.0
 40
0.0
 40
0.0089375172
 40
0.0185025442
 40
0.0291562047
 40
0.0412271922
 40
0.0549295353
 40
0.0703966089
 40
0.0877068989
 40
0.1068988069
 40
0.1279867164
 40
0.150962404
 40
0.2024711136
 40
0.261116717
 40
0.3264329175
 40
0.3978336613
 40
0.4746291769
 40
0.5560372302
 40
0.6411957645
 40
0.8189774656
 40
1.0
 40
1.0
 40
1.0
 40
1.0
 10
8.0752088095
 20
12.9097512076
 30
0.0
 10
8.0753857039
 20
12.9099281199
 30
0.0
 10
8.0758040019
 20
12.9102452737
 30
0.0
 10
8.076562448
 20
12.9105643187
 30
0.0
 10
8.0774542186
 20
12.9107395682
 30
0.0
 10
8.0784765439
 20
12.9107746226
 30
0.0
 10
8.0796286232
 20
12.9106720264
 30
0.0
 10
8.0809090439
 20
12.9104325728
 30
0.0
 10
8.0823155509
 20
12.9100567813
 30
0.0
 10
8.0838452399
 20
12.9095454507
 30
0.0
 10
8.0854945159
 20
12.9088994315
 30
0.0
 10
8.0879422874
 20
12.9078182666
 30
0.0
 10
8.0912645284
 20
12.9061238263
 30
0.0
 10
8.0955153299
 20
12.9036596028
 30
0.0
 10
8.1001250472
 20
12.9007148031
 30
0.0
 10
8.105044352
 20
12.8973187182
 30
0.0
 10
8.1102195044
 20
12.8935060192
 30
0.0
 10
8.1155927766
 20
12.8893174038
 30
0.0
 10
8.1230465494
 20
12.8832045105
 30
0.0
 10
8.1323794535
 20
12.8749921954
 30
0.0
 10
8.1396361682
 20
12.8680435192
 30
0.0
 10
8.14321921
 20
12.8644604774
 30
0.0
  0
SPLINE
  5
4EC
100
AcDbEntity
  8
0
100
AcDbSpline
 62
7
  6
CONTINUOUS
 70
0
 71
3
 72
13
 73
9
 74
0
 42
0.0000001
 43
0.0000001
 44
0.0000000001
 40
0.0
 40
0.0
 40
0.0
 40
0.0
 40
0.1219678571
 40
0.2479396378
 40
0.50556362
 40
0.7602750557
 40
0.8827261151
 40
1.0
 40
1.0
 40
1.0
 40
1.0
 10
7.6095935755
 20
13.3980861118
 30
0.0
 10
7.6113474788
 20
13.3963322085
 30
0.0
 10
7.6148691962
 20
13.3927229139
 30
0.0
 10
7.6218844309
 20
13.385205839
 30
0.0
 10
7.6304392531
 20
13.3754375839
 30
0.0
 10
7.6385515524
 20
13.3653905311
 30
0.0
 10
7.6446108204
 20
13.357365341
 30
0.0
 10
7.6474581787
 20
13.3534073885
 30
0.0
 10
7.6488256824
 20
13.351453457
 30
0.0
  0
SPLINE
  5
4ED
100
AcDbEntity
  8
0
100
AcDbSpline
 62
7
  6
CONTINUOUS
 70
0
 71
3
 72
20
 73
16
 74
0
 42
0.0000001
 43
0.0000001
 44
0.0000000001
 40
0.0
 40
0.0
 40
0.0
 40
0.0
 40
0.2081099353
 40
0.3946855436
 40
0.5580288368
 40
0.6967163291
 40
0.7564776011
 40
0.8097236981
 40
0.8564224262
 40
0.896616848
 40
0.9304621991
 40
0.9583323052
 40
0.9702619261
 40
0.9810396468
 40
1.0
 40
1.0
 40
1.0
 40
1.0
 10
7.2459523683
 20
13.7393650313
 30
0.0
 10
7.2467809155
 20
13.737903031
 30
0.0
 10
7.248323934
 20
13.7351140661
 30
0.0
 10
7.250401868
 20
13.7311150271
 30
0.0
 10
7.2521040615
 20
13.7275548382
 30
0.0
 10
7.2532480911
 20
13.7248649163
 30
0.0
 10
7.253948307
 20
13.7229564935
 30
0.0
 10
7.2543429203
 20
13.7217282673
 30
0.0
 10
7.2546329188
 20
13.7206338222
 30
0.0
 10
7.2548178901
 20
13.7196754469
 30
0.0
 10
7.254897226
 20
13.7188550074
 30
0.0
 10
7.2548745759
 20
13.7182574882
 30
0.0
 10
7.2547927707
 20
13.7178561687
 30
0.0
 10
7.2546837327
 20
13.7175375759
 30
0.0
 10
7.2545518603
 20
13.7173284088
 30
0.0
 10
7.2544436121
 20
13.717220138
 30
0.0
  0
SPLINE
  5
4EE
100
AcDbEntity
  8
0
100
AcDbSpline
 62
7
  6
CONTINUOUS
 70
0
 71
3
 72
15
 73
11
 74
0
 42
0.0000001
 43
0.0000001
 44
0.0000000001
 40
0.0
 40
0.0
 40
0.0
 40
0.0
 40
0.3275872937
 40
0.4754920692
 40
0.6108013475
 40
0.7321212772
 40
0.8381661801
 40
0.9277847726
 40
0.9661212142
 40
1.0
 40
1.0
 40
1.0
 40
1.0
 10
6.9509584205
 20
14.0972597305
 30
0.0
 10
6.9534218579
 20
14.0931187534
 30
0.0
 10
6.9569596261
 20
14.0870853074
 30
0.0
 10
6.9614000317
 20
14.0792752692
 30
0.0
 10
6.9642874604
 20
14.0740725954
 30
0.0
 10
6.9668175002
 20
14.069376137
 30
0.0
 10
6.9689626098
 20
14.0652363371
 30
0.0
 10
6.9704807214
 20
14.0621468984
 30
0.0
 10
6.9714766028
 20
14.0599847844
 30
0.0
 10
6.9719011339
 20
14.0590110004
 30
0.0
 10
6.9720937131
 20
14.0585514108
 30
0.0
  0
SPLINE
  5
4EF
100
AcDbEntity
  8
0
100
AcDbSpline
 62
7
  6
CONTINUOUS
 70
0
 71
3
 72
20
 73
16
 74
0
 42
0.0000001
 43
0.0000001
 44
0.0000000001
 40
0.0
 40
0.0
 40
0.0
 40
0.0
 40
0.2077366819
 40
0.3947547502
 40
0.5590564808
 40
0.6321353844
 40
0.6989088178
 40
0.7592114892
 40
0.812917493
 40
0.8599399403
 40
0.9002620187
 40
0.933970025
 40
0.9484280687
 40
0.961364233
 40
1.0
 40
1.0
 40
1.0
 40
1.0
 10
7.0777005344
 20
13.9705176166
 30
0.0
 10
7.0787371491
 20
13.968581298
 30
0.0
 10
7.0806728672
 20
13.9648832738
 30
0.0
 10
7.0832899679
 20
13.9595828674
 30
0.0
 10
7.0851572402
 20
13.9555016569
 30
0.0
 10
7.0864035167
 20
13.9525369815
 30
0.0
 10
7.0871763937
 20
13.9505667212
 30
0.0
 10
7.0878222701
 20
13.948767453
 30
0.0
 10
7.0883391094
 20
13.9471447556
 30
0.0
 10
7.0887254591
 20
13.9457037279
 30
0.0
 10
7.0889799546
 20
13.9444481451
 30
0.0
 10
7.0890877945
 20
13.9435177486
 30
0.0
 10
7.0890970095
 20
13.9428694973
 30
0.0
 10
7.0890519304
 20
13.9421793539
 30
0.0
 10
7.0888918433
 20
13.941597737
 30
0.0
 10
7.0886030172
 20
13.9413088789
 30
0.0
  0
SPLINE
  5
4F0
100
AcDbEntity
  8
0
100
AcDbSpline
 62
7
  6
CONTINUOUS
 70
0
 71
3
 72
15
 73
11
 74
0
 42
0.0000001
 43
0.0000001
 44
0.0000000001
 40
0.0
 40
0.0
 40
0.0
 40
0.0
 40
0.0338768707
 40
0.0722117113
 40
0.1618279672
 40
0.2678716269
 40
0.3891913746
 40
0.5245014223
 40
0.6724077196
 40
1.0
 40
1.0
 40
1.0
 40
1.0
 10
9.0658720837
 20
11.9647726095
 30
0.0
 10
9.0663316589
 20
11.9645800448
 30
0.0
 10
9.0673054194
 20
11.964155539
 30
0.0
 10
9.0694675051
 20
11.9631596948
 30
0.0
 10
9.0725569423
 20
11.9616416059
 30
0.0
 10
9.0766967785
 20
11.959496496
 30
0.0
 10
9.0813933222
 20
11.9569664234
 30
0.0
 10
9.0865961248
 20
11.9540789324
 30
0.0
 10
9.0944064064
 20
11.9496383964
 30
0.0
 10
9.1004400492
 20
11.9461005144
 30
0.0
 10
9.1045811671
 20
11.943636993
 30
0.0
  0
SPLINE
  5
4F1
100
AcDbEntity
  8
0
100
AcDbSpline
 62
7
  6
CONTINUOUS
 70
0
 71
3
 72
19
 73
15
 74
0
 42
0.0000001
 43
0.0000001
 44
0.0000000001
 40
0.0
 40
0.0
 40
0.0
 40
0.0
 40
0.1965399819
 40
0.3726324123
 40
0.5276748827
 40
0.6613273929
 40
0.7201545743
 40
0.7737165107
 40
0.8221451803
 40
0.8656509215
 40
0.9045642849
 40
0.9393900782
 40
0.9708615346
 40
1.0
 40
1.0
 40
1.0
 40
1.0
 10
7.2691882974
 20
13.7790298536
 30
0.0
 10
7.2696390993
 20
13.7779557698
 30
0.0
 10
7.2704621718
 20
13.7759057779
 30
0.0
 10
7.2715101995
 20
13.7729580383
 30
0.0
 10
7.2723001617
 20
13.770317676
 30
0.0
 10
7.2727587381
 20
13.7683070792
 30
0.0
 10
7.2729791812
 20
13.7668649732
 30
0.0
 10
7.2730696369
 20
13.7659155253
 30
0.0
 10
7.2730923924
 20
13.7650526782
 30
0.0
 10
7.2730470325
 20
13.764277346
 30
0.0
 10
7.2729330201
 20
13.7635902578
 30
0.0
 10
7.2727494067
 20
13.762991889
 30
0.0
 10
7.2724947645
 20
13.7624834597
 30
0.0
 10
7.2722701409
 20
13.7621988214
 30
0.0
 10
7.272148019
 20
13.762076712
 30
0.0
  0
SPLINE
  5
4F2
100
AcDbEntity
  8
0
100
AcDbSpline
 62
7
  6
CONTINUOUS
 70
0
 71
3
 72
29
 73
25
 74
0
 42
0.0000001
 43
0.0000001
 44
0.0000000001
 40
0.0
 40
0.0
 40
0.0
 40
0.0
 40
0.0017814977
 40
0.0038894802
 40
0.0064528307
 40
0.0095426601
 40
0.0131973839
 40
0.0174374962
 40
0.0277112964
 40
0.0404008847
 40
0.0554910186
 40
0.072945495
 40
0.0927095181
 40
0.1147193575
 40
0.1388991916
 40
0.1934328956
 40
0.2555714263
 40
0.3244837907
 40
0.3992638771
 40
0.4789435658
 40
0.5625009253
 40
0.6488697627
 40
0.8255972891
 40
1.0
 40
1.0
 40
1.0
 40
1.0
 10
8.8524114133
 20
12.11663609
 30
0.0
 10
8.8524510146
 20
12.1166756774
 30
0.0
 10
8.8525558106
 20
12.1167441566
 30
0.0
 10
8.8527524401
 20
12.1168006073
 30
0.0
 10
8.852996539
 20
12.1168213882
 30
0.0
 10
8.8532893284
 20
12.1168071714
 30
0.0
 10
8.8536314828
 20
12.1167583466
 30
0.0
 10
8.8541902578
 20
12.1166389394
 30
0.0
 10
8.8550104714
 20
12.1163933836
 30
0.0
 10
8.8561332718
 20
12.1159801404
 30
0.0
 10
8.8574453072
 20
12.1154314643
 30
0.0
 10
8.8589414625
 20
12.1147493355
 30
0.0
 10
8.8606162025
 20
12.1139360381
 30
0.0
 10
8.8624632022
 20
12.1129945471
 30
0.0
 10
8.8652607335
 20
12.1115122419
 30
0.0
 10
8.8691300832
 20
12.1093600661
 30
0.0
 10
8.8741726635
 20
12.1064272923
 30
0.0
 10
8.8797147542
 20
12.1030891675
 30
0.0
 10
8.8856824293
 20
12.0993902548
 30
0.0
 10
8.891997407
 20
12.0953788421
 30
0.0
 10
8.8985778829
 20
12.0911068032
 30
0.0
 10
8.9076620504
 20
12.0850902409
 30
0.0
 10
8.9190271096
 20
12.0773475508
 30
0.0
 10
8.9280427808
 20
12.0709807046
 30
0.0
 10
8.9324900751
 20
12.0677759038
 30
0.0
  0
SPLINE
  5
4F3
100
AcDbEntity
  8
0
100
AcDbSpline
 62
7
  6
CONTINUOUS
 70
0
 71
3
 72
15
 73
11
 74
0
 42
0.0000001
 43
0.0000001
 44
0.0000000001
 40
0.0
 40
0.0
 40
0.0
 40
0.0
 40
0.1687599802
 40
0.3232404955
 40
0.4638937183
 40
0.5914482966
 40
0.7069754105
 40
0.8120234148
 40
0.9087547724
 40
1.0
 40
1.0
 40
1.0
 40
1.0
 10
7.5123721351
 20
13.5358460159
 30
0.0
 10
7.5124462645
 20
13.535420571
 30
0.0
 10
7.5125679014
 20
13.5346018731
 30
0.0
 10
7.5126693111
 20
13.5334182321
 30
0.0
 10
7.5126811001
 20
13.5323354353
 30
0.0
 10
7.512602955
 20
13.5313549512
 30
0.0
 10
7.5124342163
 20
13.5304779895
 30
0.0
 10
7.5121735557
 20
13.5297057649
 30
0.0
 10
7.5118198258
 20
13.5290404174
 30
0.0
 10
7.5115150665
 20
13.5286633136
 30
0.0
 10
7.5113499519
 20
13.5284982158
 30
0.0
  0
LINE
  5
4F4
100
AcDbEntity
  8
0
100
AcDbLine
 62
7
  6
CONTINUOUS
 10
7.7906798071
 20
13.2575393058
 11
7.7899085181
 21
13.2564923457
  0
SPLINE
  5
4F5
100
AcDbEntity
  8
0
100
AcDbSpline
 62
7
  6
CONTINUOUS
 70
0
 71
3
 72
21
 73
17
 74
0
 42
0.0000001
 43
0.0000001
 44
0.0000000001
 40
0.0
 40
0.0
 40
0.0
 40
0.0
 40
0.0108362331
 40
0.0217859181
 40
0.0452571513
 40
0.0726717872
 40
0.105406821
 40
0.1442336021
 40
0.1895708415
 40
0.2416113482
 40
0.3004248487
 40
0.3659804132
 40
0.4381877278
 40
0.6018959776
 40
0.7899139346
 40
1.0
 40
1.0
 40
1.0
 40
1.0
 10
7.3509828066
 20
13.6488284125
 30
0.0
 10
7.3510578172
 20
13.6489034379
 30
0.0
 10
7.3512225825
 20
13.6490410792
 30
0.0
 10
7.3516105842
 20
13.64925962
 30
0.0
 10
7.3522087522
 20
13.6494086861
 30
0.0
 10
7.3530334698
 20
13.6493871296
 30
0.0
 10
7.3539846601
 20
13.649182858
 30
0.0
 10
7.3550647267
 20
13.6487974334
 30
0.0
 10
7.3562736973
 20
13.6482312623
 30
0.0
 10
7.3576095343
 20
13.647484967
 30
0.0
 10
7.3590687056
 20
13.6465596582
 30
0.0
 10
7.3606471429
 20
13.6454576221
 30
0.0
 10
7.3630042562
 20
13.6436803665
 30
0.0
 10
7.3661992217
 20
13.6410276457
 30
0.0
 10
7.3702735299
 20
13.6373307603
 30
0.0
 10
7.3730675605
 20
13.6346121268
 30
0.0
 10
7.3745219623
 20
13.633157725
 30
0.0
  0
SPLINE
  5
4F6
100
AcDbEntity
  8
0
100
AcDbSpline
 62
7
  6
CONTINUOUS
 70
0
 71
3
 72
26
 73
22
 74
0
 42
0.0000001
 43
0.0000001
 44
0.0000000001
 40
0.0
 40
0.0
 40
0.0
 40
0.0
 40
0.0096978194
 40
0.0197999736
 40
0.0307109668
 40
0.0427505823
 40
0.0561527359
 40
0.0710782505
 40
0.0876367794
 40
0.1058990843
 40
0.1259057985
 40
0.1476794964
 40
0.1965276839
 40
0.2523589481
 40
0.3149325522
 40
0.3839002212
 40
0.45882334
 40
0.5391828102
 40
0.6243921925
 40
0.80669763
 40
1.0
 40
1.0
 40
1.0
 40
1.0
 10
7.819473609
 20
13.1707280154
 30
0.0
 10
7.8196218669
 20
13.170876292
 30
0.0
 10
7.8199603645
 20
13.1711453025
 30
0.0
 10
7.8205620334
 20
13.1714367859
 30
0.0
 10
7.8212565741
 20
13.1716203836
 30
0.0
 10
7.8220414488
 20
13.1716977868
 30
0.0
 10
7.822915767
 20
13.1716705094
 30
0.0
 10
7.8238787981
 20
13.171539469
 30
0.0
 10
7.8249295651
 20
13.1713049229
 30
0.0
 10
7.8260666806
 20
13.170967137
 30
0.0
 10
7.8272885153
 20
13.170526643
 30
0.0
 10
7.8290981397
 20
13.1697733642
 30
0.0
 10
7.8315531461
 20
13.1685638735
 30
0.0
 10
7.8346952976
 20
13.1667707347
 30
0.0
 10
7.8381141993
 20
13.1645948023
 30
0.0
 10
7.8417837532
 20
13.1620510423
 30
0.0
 10
7.8456753196
 20
13.159157541
 30
0.0
 10
7.849757889
 20
13.1559361798
 30
0.0
 10
7.8555427168
 20
13.1511278631
 30
0.0
 10
7.862980452
 20
13.1444933145
 30
0.0
 10
7.8688265454
 20
13.138853142
 30
0.0
 10
7.8717818916
 20
13.1358977958
 30
0.0
  0
SPLINE
  5
4F7
100
AcDbEntity
  8
0
100
AcDbSpline
 62
7
  6
CONTINUOUS
 70
0
 71
3
 72
20
 73
16
 74
0
 42
0.0000001
 43
0.0000001
 44
0.0000000001
 40
0.0
 40
0.0
 40
0.0
 40
0.0
 40
0.0386357717
 40
0.0515719461
 40
0.0660300003
 40
0.0997380157
 40
0.1400601301
 40
0.1870825813
 40
0.2407886015
 40
0.301091292
 40
0.3678647725
 40
0.440943704
 40
0.6052453967
 40
0.7922634974
 40
1.0
 40
1.0
 40
1.0
 40
1.0
 10
8.9486302929
 20
12.0812816031
 30
0.0
 10
8.9489191515
 20
12.0815704292
 30
0.0
 10
8.9495007688
 20
12.0817305167
 30
0.0
 10
8.950190913
 20
12.0817755953
 30
0.0
 10
8.9508391651
 20
12.08176638
 30
0.0
 10
8.9517695629
 20
12.0816585401
 30
0.0
 10
8.9530251469
 20
12.0814040435
 30
0.0
 10
8.9544661762
 20
12.0810176937
 30
0.0
 10
8.9560888749
 20
12.0805008532
 30
0.0
 10
8.9578881451
 20
12.079854976
 30
0.0
 10
8.9598584075
 20
12.0790820976
 30
0.0
 10
8.9628230852
 20
12.0778358198
 30
0.0
 10
8.9669042986
 20
12.0759685457
 30
0.0
 10
8.9722047067
 20
12.0733514433
 30
0.0
 10
8.975902732
 20
12.0714157246
 30
0.0
 10
8.9778390502
 20
12.0703791099
 30
0.0
  0
SPLINE
  5
4F8
100
AcDbEntity
  8
0
100
AcDbSpline
 62
7
  6
CONTINUOUS
 70
0
 71
3
 72
13
 73
9
 74
0
 42
0.0000001
 43
0.0000001
 44
0.0000000001
 40
0.0
 40
0.0
 40
0.0
 40
0.0
 40
0.1172413441
 40
0.2396744055
 40
0.4943840371
 40
0.7520331472
 40
0.8780198824
 40
1.0
 40
1.0
 40
1.0
 40
1.0
 10
8.3587310427
 20
12.6415349362
 30
0.0
 10
8.3606864122
 20
12.6401669959
 30
0.0
 10
8.3646474902
 20
12.6373184216
 30
0.0
 10
8.3726797019
 20
12.6312555887
 30
0.0
 10
8.3827364335
 20
12.6231370697
 30
0.0
 10
8.3925143444
 20
12.6145748027
 30
0.0
 10
8.4000390108
 20
12.607552928
 30
0.0
 10
8.4036519087
 20
12.6040277787
 30
0.0
 10
8.405407526
 20
12.6022721614
 30
0.0
  0
SPLINE
  5
4F9
100
AcDbEntity
  8
0
100
AcDbSpline
 62
7
  6
CONTINUOUS
 70
0
 71
3
 72
32
 73
28
 74
0
 42
0.0000001
 43
0.0000001
 44
0.0000000001
 40
0.0
 40
0.0
 40
0.0
 40
0.0
 40
0.2231986735
 40
0.3256317973
 40
0.4215961891
 40
0.5108475894
 40
0.5931520107
 40
0.668299311
 40
0.7360974498
 40
0.7963740926
 40
0.8489798091
 40
0.8723647722
 40
0.8937864436
 40
0.9132329941
 40
0.9306937984
 40
0.9461621195
 40
0.9596339796
 40
0.9711085237
 40
0.9805926408
 40
0.9845944102
 40
0.9881078494
 40
0.9911399143
 40
0.9937018897
 40
0.9958133151
 40
0.9975098928
 40
0.9988607634
 40
1.0
 40
1.0
 40
1.0
 40
1.0
 10
10.3424261057
 20
15.7288947543
 30
0.0
 10
10.3354146166
 20
15.735395053
 30
0.0
 10
10.325169417
 20
15.744861444
 30
0.0
 10
10.3118590311
 20
15.7570676503
 30
0.0
 10
10.3027534038
 20
15.7653693721
 30
0.0
 10
10.2942584051
 20
15.7730609535
 30
0.0
 10
10.286395057
 20
15.7801214394
 30
0.0
 10
10.2791829136
 20
15.7865314872
 30
0.0
 10
10.272639771
 20
15.792273633
 30
0.0
 10
10.2667816491
 20
15.7973320779
 30
0.0
 10
10.2623239721
 20
15.8011009852
 30
0.0
 10
10.2591075046
 20
15.8037594066
 30
0.0
 10
10.2569708015
 20
15.8054944657
 30
0.0
 10
10.2550147736
 20
15.8070492532
 30
0.0
 10
10.2532405726
 20
15.8084226898
 30
0.0
 10
10.2516492639
 20
15.8096138942
 30
0.0
 10
10.2502418128
 20
15.8106223108
 30
0.0
 10
10.2490190012
 20
15.8114473137
 30
0.0
 10
10.2481095194
 20
15.812010526
 30
0.0
 10
10.2474726806
 20
15.8123639593
 30
0.0
 10
10.2470691289
 20
15.8125674631
 30
0.0
 10
10.2467119599
 20
15.812724998
 30
0.0
 10
10.2464009793
 20
15.8128367117
 30
0.0
 10
10.2461355887
 20
15.8129030025
 30
0.0
 10
10.2459144083
 20
15.8129238109
 30
0.0
 10
10.2457342089
 20
15.8128981249
 30
0.0
 10
10.2456389152
 20
15.8128416957
 30
0.0
 10
10.2456044026
 20
15.812807193
 30
0.0
  0
SPLINE
  5
4FA
100
AcDbEntity
  8
0
100
AcDbSpline
 62
7
  6
CONTINUOUS
 70
0
 71
3
 72
20
 73
16
 74
0
 42
0.0000001
 43
0.0000001
 44
0.0000000001
 40
0.0
 40
0.0
 40
0.0
 40
0.0
 40
0.0189600598
 40
0.0297376259
 40
0.0416670119
 40
0.0695371833
 40
0.1033826848
 40
0.1435771957
 40
0.1902764078
 40
0.2435226362
 40
0.3032843246
 40
0.4419721341
 40
0.6053153896
 40
0.7918906229
 40
1.0
 40
1.0
 40
1.0
 40
1.0
 10
8.7245415494
 20
12.2471222
 30
0.0
 10
8.7246498273
 20
12.2472304533
 30
0.0
 10
8.7248590117
 20
12.2473623257
 30
0.0
 10
8.7251776231
 20
12.2474713652
 30
0.0
 10
8.7255789691
 20
12.2475531761
 30
0.0
 10
8.7261765328
 20
12.2475758068
 30
0.0
 10
8.7269970316
 20
12.2474964511
 30
0.0
 10
8.7279554794
 20
12.2473114519
 30
0.0
 10
8.729050003
 20
12.2470214094
 30
0.0
 10
8.7302783218
 20
12.2466267533
 30
0.0
 10
8.7321868785
 20
12.2459264569
 30
0.0
 10
8.7348769883
 20
12.2447823175
 30
0.0
 10
8.738437417
 20
12.243079968
 30
0.0
 10
8.7424367201
 20
12.2410018554
 30
0.0
 10
8.7452258681
 20
12.2394587092
 30
0.0
 10
8.7466879637
 20
12.2386300939
 30
0.0
  0
SPLINE
  5
4FB
100
AcDbEntity
  8
0
100
AcDbSpline
 62
9
  6
CONTINUOUS
 70
0
 71
3
 72
35
 73
31
 74
0
 42
0.0000001
 43
0.0000001
 44
0.0000000001
 40
0.0
 40
0.0
 40
0.0
 40
0.0
 40
0.0217659576
 40
0.0466331429
 40
0.0744206883
 40
0.1049379871
 40
0.1732711639
 40
0.2496908865
 40
0.3320403045
 40
0.4180254576
 40
0.5052875223
 40
0.5914667483
 40
0.6742580485
 40
0.7514593512
 40
0.8210171087
 40
0.8523397589
 40
0.8810711912
 40
0.9070167555
 40
0.9300010856
 40
0.9498690023
 40
0.9664912543
 40
0.973554294
 40
0.979772682
 40
0.985142024
 40
0.9896643465
 40
0.9933501469
 40
0.9962300161
 40
0.9973907378
 40
0.998386306
 40
1.0
 40
1.0
 40
1.0
 40
1.0
 10
7.2953978025
 20
13.5128671051
 30
0.0
 10
7.2960948328
 20
13.5121708319
 30
0.0
 10
7.2975669177
 20
13.5106577401
 30
0.0
 10
7.2998673139
 20
13.5081967459
 30
0.0
 10
7.30239467
 20
13.5054063305
 30
0.0
 10
7.3061889731
 20
13.5011095793
 30
0.0
 10
7.3113431647
 20
13.4950778466
 30
0.0
 10
7.3178976522
 20
13.4871585923
 30
0.0
 10
7.3248454665
 20
13.4785290427
 30
0.0
 10
7.3319944709
 20
13.4694325189
 30
0.0
 10
7.3391469581
 20
13.4601191869
 30
0.0
 10
7.3461094382
 20
13.4508431042
 30
0.0
 10
7.3526947093
 20
13.4418541772
 30
0.0
 10
7.3587270343
 20
13.4333938566
 30
0.0
 10
7.3633071204
 20
13.4267602269
 30
0.0
 10
7.3665670832
 20
13.4218824586
 30
0.0
 10
7.3686924242
 20
13.4186210496
 30
0.0
 10
7.3705702469
 20
13.4156492175
 30
0.0
 10
7.3721878244
 20
13.4129879758
 30
0.0
 10
7.3735339353
 20
13.4106563651
 30
0.0
 10
7.3744672086
 20
13.4089192208
 30
0.0
 10
7.3750639757
 20
13.4077041505
 30
0.0
 10
7.3754133357
 20
13.406935434
 30
0.0
 10
7.3756889928
 20
13.4062601113
 30
0.0
 10
7.375891036
 20
13.4056791949
 30
0.0
 10
7.3760191863
 20
13.4051934503
 30
0.0
 10
7.3760692925
 20
13.4048456663
 30
0.0
 10
7.3760641905
 20
13.4046168802
 30
0.0
 10
7.3760367401
 20
13.4044487054
 30
0.0
 10
7.3759828095
 20
13.4043361474
 30
0.0
 10
7.3759311508
 20
13.4042845088
 30
0.0
  0
SPLINE
  5
4FC
100
AcDbEntity
  8
0
100
AcDbSpline
 62
7
  6
CONTINUOUS
 70
0
 71
3
 72
45
 73
41
 74
0
 42
0.0000001
 43
0.0000001
 44
0.0000000001
 40
0.0
 40
0.0
 40
0.0
 40
0.0
 40
0.0292396808
 40
0.060810748
 40
0.1301997213
 40
0.2065621602
 40
0.2881307673
 40
0.3730179481
 40
0.4592597096
 40
0.5448613071
 40
0.6278436214
 40
0.6677496798
 40
0.7062890647
 40
0.7432390137
 40
0.7783860073
 40
0.8115270956
 40
0.8424710732
 40
0.8710395722
 40
0.8970681874
 40
0.9204075058
 40
0.9409240816
 40
0.9500867574
 40
0.9585016226
 40
0.9661567698
 40
0.9730420615
 40
0.9791481634
 40
0.9844677831
 40
0.9889950027
 40
0.9909603738
 40
0.9927267229
 40
0.994294194
 40
0.9956633101
 40
0.9968353871
 40
0.9978129085
 40
0.9986004592
 40
0.9992072829
 40
0.9994492487
 40
0.9996560691
 40
0.9998356782
 40
1.0
 40
1.0
 40
1.0
 40
1.0
 10
10.1618448681
 20
15.5602383459
 30
0.0
 10
10.1666418991
 20
15.5558675065
 30
0.0
 10
10.1765990237
 20
15.5467559991
 30
0.0
 10
10.1978543494
 20
15.5271785548
 30
0.0
 10
10.2266970093
 20
15.5004012489
 30
0.0
 10
10.2635593362
 20
15.4659529975
 30
0.0
 10
10.3028569889
 20
15.4290730133
 30
0.0
 10
10.3437068894
 20
15.3906429457
 30
0.0
 10
10.3851902781
 20
15.3515799303
 30
0.0
 10
10.4263742847
 20
15.3128156864
 30
0.0
 10
10.4600990209
 20
15.2811312345
 30
0.0
 10
10.4862440494
 20
15.2566339978
 30
0.0
 10
10.5049536746
 20
15.2391437584
 30
0.0
 10
10.5229157409
 20
15.2224006008
 30
0.0
 10
10.5400297769
 20
15.2065049045
 30
0.0
 10
10.5562002093
 20
15.1915520867
 30
0.0
 10
10.5713369216
 20
15.177632049
 30
0.0
 10
10.5853557716
 20
15.1648286632
 30
0.0
 10
10.5981789978
 20
15.1532191717
 30
0.0
 10
10.6097358219
 20
15.1428739559
 30
0.0
 10
10.6185614459
 20
15.1350904845
 30
0.0
 10
10.6249472632
 20
15.1295490858
 30
0.0
 10
10.6291999651
 20
15.125905099
 30
0.0
 10
10.6330938225
 20
15.1226193519
 30
0.0
 10
10.6366235452
 20
15.1196969296
 30
0.0
 10
10.639784431
 20
15.1171422107
 30
0.0
 10
10.6425722329
 20
15.1149591268
 30
0.0
 10
10.6446694486
 20
15.1133853922
 30
0.0
 10
10.646161013
 20
15.1123197458
 30
0.0
 10
10.6471306581
 20
15.1116539406
 30
0.0
 10
10.6480047387
 20
15.1110832019
 30
0.0
 10
10.648783043
 20
15.1106076279
 30
0.0
 10
10.6494653409
 20
15.1102271991
 30
0.0
 10
10.650051879
 20
15.1099413093
 30
0.0
 10
10.6505426908
 20
15.1097497299
 30
0.0
 10
10.6508971702
 20
15.1096604979
 30
0.0
 10
10.6511317398
 20
15.1096459059
 30
0.0
 10
10.6512713312
 20
15.1096602188
 30
0.0
 10
10.6513883645
 20
15.1096997692
 30
0.0
 10
10.651451637
 20
15.1097450372
 30
0.0
 10
10.6514774257
 20
15.1097708259
 30
0.0
  0
SPLINE
  5
4FD
100
AcDbEntity
  8
0
100
AcDbSpline
 62
9
  6
CONTINUOUS
 70
0
 71
3
 72
15
 73
11
 74
0
 42
0.0000001
 43
0.0000001
 44
0.0000000001
 40
0.0
 40
0.0
 40
0.0
 40
0.0
 40
0.1242553036
 40
0.2430432653
 40
0.3551414227
 40
0.4643717356
 40
0.5835680321
 40
0.7137712462
 40
0.8535219093
 40
1.0
 40
1.0
 40
1.0
 40
1.0
 10
7.2972798127
 20
13.5275265811
 30
0.0
 10
7.2976719635
 20
13.5269895818
 30
0.0
 10
7.2983290749
 20
13.5258537715
 30
0.0
 10
7.2989323306
 20
13.5240397621
 30
0.0
 10
7.2991869407
 20
13.5222283916
 30
0.0
 10
7.2991399655
 20
13.5203991873
 30
0.0
 10
7.2987831959
 20
13.518504835
 30
0.0
 10
7.2980623292
 20
13.5165403264
 30
0.0
 10
7.2969441513
 20
13.5146004511
 30
0.0
 10
7.2959551432
 20
13.513418319
 30
0.0
 10
7.2954006643
 20
13.5128642414
 30
0.0
  0
SPLINE
  5
4FE
100
AcDbEntity
  8
0
100
AcDbSpline
 62
9
  6
CONTINUOUS
 70
0
 71
3
 72
18
 73
14
 74
0
 42
0.0000001
 43
0.0000001
 44
0.0000000001
 40
0.0
 40
0.0
 40
0.0
 40
0.0
 40
0.0231397053
 40
0.0534099266
 40
0.0905677035
 40
0.13431516
 40
0.1842895101
 40
0.2400756096
 40
0.3671991108
 40
0.5115330658
 40
0.6684397763
 40
0.8329661271
 40
1.0
 40
1.0
 40
1.0
 40
1.0
 10
7.2364655924
 20
13.5717993153
 30
0.0
 10
7.2368799185
 20
13.5713856116
 30
0.0
 10
7.2378072551
 20
13.5704018807
 30
0.0
 10
7.2393319451
 20
13.5686909513
 30
0.0
 10
7.2411644631
 20
13.566556446
 30
0.0
 10
7.2432901947
 20
13.564017029
 30
0.0
 10
7.245690896
 20
13.5610933043
 30
0.0
 10
7.2493961124
 20
13.5565112171
 30
0.0
 10
7.2545411099
 20
13.5500231661
 30
0.0
 10
7.2612003495
 20
13.5414710295
 30
0.0
 10
7.268373152
 20
13.5321197037
 30
0.0
 10
7.2758333177
 20
13.5222652524
 30
0.0
 10
7.2808572837
 20
13.5155462992
 30
0.0
 10
7.2833781313
 20
13.5121538992
 30
0.0
  0
SPLINE
  5
4FF
100
AcDbEntity
  8
0
100
AcDbSpline
 62
7
  6
CONTINUOUS
 70
0
 71
3
 72
19
 73
15
 74
0
 42
0.0000001
 43
0.0000001
 44
0.0000000001
 40
0.0
 40
0.0
 40
0.0
 40
0.0
 40
0.0291384645
 40
0.0606099082
 40
0.0954357075
 40
0.134349082
 40
0.1778548355
 40
0.2262835509
 40
0.2798455214
 40
0.3386726886
 40
0.4723251995
 40
0.6273677246
 40
0.8034601836
 40
1.0
 40
1.0
 40
1.0
 40
1.0
 10
8.7693981264
 20
12.2648266047
 30
0.0
 10
8.7695202359
 20
12.2649487266
 30
0.0
 10
8.7698048743
 20
12.2651733505
 30
0.0
 10
8.7703133039
 20
12.2654279934
 30
0.0
 10
8.7709116734
 20
12.2656116063
 30
0.0
 10
8.7715987626
 20
12.2657256185
 30
0.0
 10
8.7723740959
 20
12.2657709784
 30
0.0
 10
8.7732369443
 20
12.2657482223
 30
0.0
 10
8.7741863934
 20
12.2656577661
 30
0.0
 10
8.7756285009
 20
12.2654373229
 30
0.0
 10
8.7776390997
 20
12.2649787449
 30
0.0
 10
8.7802794647
 20
12.2641887813
 30
0.0
 10
8.7832272064
 20
12.2631407521
 30
0.0
 10
8.7852771994
 20
12.262317679
 30
0.0
 10
8.7863512832
 20
12.2618668769
 30
0.0
  0
SPLINE
  5
500
100
AcDbEntity
  8
0
100
AcDbSpline
 62
9
  6
CONTINUOUS
 70
0
 71
3
 72
16
 73
12
 74
0
 42
0.0000001
 43
0.0000001
 44
0.0000000001
 40
0.0
 40
0.0
 40
0.0
 40
0.0
 40
0.1302554677
 40
0.2533692191
 40
0.3679048715
 40
0.4778700757
 40
0.5961283817
 40
0.7235574568
 40
0.8588626902
 40
0.9288776149
 40
1.0
 40
1.0
 40
1.0
 40
1.0
 10
7.2377327972
 20
13.5870735967
 30
0.0
 10
7.2381680893
 20
13.5864939752
 30
0.0
 10
7.238907441
 20
13.5852808871
 30
0.0
 10
7.2396287726
 20
13.5833533045
 30
0.0
 10
7.2399852027
 20
13.5814426866
 30
0.0
 10
7.240026249
 20
13.57952781
 30
0.0
 10
7.2397457656
 20
13.5775591397
 30
0.0
 10
7.2390868044
 20
13.5755322286
 30
0.0
 10
7.2381956762
 20
13.5738954524
 30
0.0
 10
7.2372777627
 20
13.5726586133
 30
0.0
 10
7.2367487006
 20
13.572075946
 30
0.0
 10
7.2364687188
 20
13.5717961869
 30
0.0
  0
SPLINE
  5
501
100
AcDbEntity
  8
0
100
AcDbSpline
 62
9
  6
CONTINUOUS
 70
0
 71
3
 72
33
 73
29
 74
0
 42
0.0000001
 43
0.0000001
 44
0.0000000001
 40
0.0
 40
0.0
 40
0.0
 40
0.0
 40
0.0019765745
 40
0.0043616978
 40
0.007338631
 40
0.0110000799
 40
0.015391162
 40
0.0205341892
 40
0.0264395749
 40
0.0331089215
 40
0.0487234485
 40
0.0673214783
 40
0.0888092452
 40
0.1130677324
 40
0.139959253
 40
0.1693273355
 40
0.2010011041
 40
0.234796337
 40
0.3079493028
 40
0.3870810246
 40
0.4703378918
 40
0.5557531773
 40
0.6412851111
 40
0.7248603303
 40
0.8044236542
 40
0.8779960107
 40
0.9437334931
 40
1.0
 40
1.0
 40
1.0
 40
1.0
 10
8.3589797692
 20
12.4224694949
 30
0.0
 10
8.3590403868
 20
12.4225300987
 30
0.0
 10
8.3592075215
 20
12.4226310781
 30
0.0
 10
8.3595229235
 20
12.4226943807
 30
0.0
 10
8.3599159886
 20
12.4226901182
 30
0.0
 10
8.3603899799
 20
12.4226190534
 30
0.0
 10
8.3609461004
 20
12.422481813
 30
0.0
 10
8.3615842886
 20
12.4222780835
 30
0.0
 10
8.3623038639
 20
12.4220079929
 30
0.0
 10
8.3634309763
 20
12.42153407
 30
0.0
 10
8.365031375
 20
12.4207691853
 30
0.0
 10
8.3671670194
 20
12.4196397772
 30
0.0
 10
8.3695934548
 20
12.418261191
 30
0.0
 10
8.3722956478
 20
12.4166418949
 30
0.0
 10
8.3752569813
 20
12.4147914691
 30
0.0
 10
8.3784593667
 20
12.4127209133
 30
0.0
 10
8.381883481
 20
12.410442587
 30
0.0
 10
8.386849947
 20
12.4070553066
 30
0.0
 10
8.393445775
 20
12.4024054292
 30
0.0
 10
8.4016958075
 20
12.3963820178
 30
0.0
 10
8.4102807985
 20
12.3899175863
 30
0.0
 10
8.4189957886
 20
12.383166166
 30
0.0
 10
8.4276301511
 20
12.3762897382
 30
0.0
 10
8.4359721217
 20
12.3694551415
 30
0.0
 10
8.4438149467
 20
12.3628314078
 30
0.0
 10
8.4509624485
 20
12.3565851218
 30
0.0
 10
8.4572361503
 20
12.3508768349
 30
0.0
 10
8.4610540929
 20
12.347212316
 30
0.0
 10
8.4627787271
 20
12.3454861806
 30
0.0
  0
SPLINE
  5
502
100
AcDbEntity
  8
0
100
AcDbSpline
 62
9
  6
CONTINUOUS
 70
0
 71
3
 72
15
 73
11
 74
0
 42
0.0000001
 43
0.0000001
 44
0.0000000001
 40
0.0
 40
0.0
 40
0.0
 40
0.0
 40
0.3361705487
 40
0.4898632614
 40
0.6297999841
 40
0.7531339483
 40
0.8573202205
 40
0.9401864382
 40
0.973062892
 40
1.0
 40
1.0
 40
1.0
 40
1.0
 10
8.5443371795
 20
12.2536854969
 30
0.0
 10
8.5494305518
 20
12.2498667075
 30
0.0
 10
8.5568366309
 20
12.2442807016
 30
0.0
 10
8.5663182803
 20
12.2370462789
 30
0.0
 10
8.5725746719
 20
12.2322292661
 30
0.0
 10
8.578065581
 20
12.2279548706
 30
0.0
 10
8.5826779072
 20
12.2243114822
 30
0.0
 10
8.5859206034
 20
12.2216978013
 30
0.0
 10
8.5880005819
 20
12.2199732521
 30
0.0
 10
8.5888631316
 20
12.219239007
 30
0.0
 10
8.5892476315
 20
12.2189038016
 30
0.0
  0
LINE
  5
503
100
AcDbEntity
  8
0
100
AcDbLine
 62
9
  6
CONTINUOUS
 10
8.5892476315
 20
12.2189038016
 11
8.590613146
 21
12.2176517616
  0
SPLINE
  5
504
100
AcDbEntity
  8
0
100
AcDbSpline
 62
7
  6
CONTINUOUS
 70
0
 71
3
 72
15
 73
11
 74
0
 42
0.0000001
 43
0.0000001
 44
0.0000000001
 40
0.0
 40
0.0
 40
0.0
 40
0.0
 40
0.0912451993
 40
0.1879765296
 40
0.2930245361
 40
0.4085516919
 40
0.5361063829
 40
0.6767596538
 40
0.8312400888
 40
1.0
 40
1.0
 40
1.0
 40
1.0
 10
8.5358196302
 20
12.5040285376
 30
0.0
 10
8.5359847281
 20
12.5041936525
 30
0.0
 10
8.5363618319
 20
12.5044984127
 30
0.0
 10
8.5370271806
 20
12.5048521424
 30
0.0
 10
8.5377994065
 20
12.5051128028
 30
0.0
 10
8.5386763699
 20
12.5052815416
 30
0.0
 10
8.5396568559
 20
12.5053596858
 30
0.0
 10
8.5407396545
 20
12.5053478965
 30
0.0
 10
8.5419232969
 20
12.5052464865
 30
0.0
 10
8.5427419955
 20
12.5051248491
 30
0.0
 10
8.5431674408
 20
12.5050507193
 30
0.0
  0
SPLINE
  5
505
100
AcDbEntity
  8
0
100
AcDbSpline
 62
9
  6
CONTINUOUS
 70
0
 71
3
 72
18
 73
14
 74
0
 42
0.0000001
 43
0.0000001
 44
0.0000000001
 40
0.0
 40
0.0
 40
0.0
 40
0.0
 40
0.1339638552
 40
0.2786130454
 40
0.427348871
 40
0.5733266852
 40
0.7097151148
 40
0.7722573516
 40
0.8300047201
 40
0.8822522242
 40
0.9283590258
 40
0.9677662151
 40
1.0
 40
1.0
 40
1.0
 40
1.0
 10
8.4638778854
 20
12.3269856229
 30
0.0
 10
8.4676775956
 20
12.324305751
 30
0.0
 10
8.4755322343
 20
12.3186642813
 30
0.0
 10
8.4874650879
 20
12.3098538561
 30
0.0
 10
8.4996240562
 20
12.3006494315
 30
0.0
 10
8.5114459543
 20
12.2914765868
 30
0.0
 10
8.5208080473
 20
12.2840151339
 30
0.0
 10
8.5277061771
 20
12.2783772208
 30
0.0
 10
8.5323076701
 20
12.2745445172
 30
0.0
 10
8.536432396
 20
12.2710312278
 30
0.0
 10
8.5400300173
 20
12.2678813311
 30
0.0
 10
8.5430555905
 20
12.2651336074
 30
0.0
 10
8.5448523703
 20
12.2634138848
 30
0.0
 10
8.5456427967
 20
12.262622111
 30
0.0
  0
SPLINE
  5
506
100
AcDbEntity
  8
0
100
AcDbSpline
 62
9
  6
CONTINUOUS
 70
0
 71
3
 72
27
 73
23
 74
0
 42
0.0000001
 43
0.0000001
 44
0.0000000001
 40
0.0
 40
0.0
 40
0.0
 40
0.0
 40
0.0072841805
 40
0.0152019179
 40
0.0242718094
 40
0.0348365377
 40
0.0471043967
 40
0.0611997145
 40
0.0771901255
 40
0.0951103193
 40
0.1149728469
 40
0.1367706916
 40
0.1860902271
 40
0.24282124
 40
0.3065930599
 40
0.3769422159
 40
0.4533238717
 40
0.5351228077
 40
0.6216637277
 40
0.7122170455
 40
0.8059998498
 40
1.0
 40
1.0
 40
1.0
 40
1.0
 10
7.8005922167
 20
12.9939643529
 30
0.0
 10
7.8007079095
 20
12.9940800262
 30
0.0
 10
7.8009905788
 20
12.9942828978
 30
0.0
 10
7.8015124832
 20
12.9944597755
 30
0.0
 10
7.8021322002
 20
12.9945212708
 30
0.0
 10
7.8028493981
 20
12.9944720711
 30
0.0
 10
7.8036651567
 20
12.9943140427
 30
0.0
 10
7.804579335
 20
12.9940474244
 30
0.0
 10
7.8055910408
 20
12.9936726204
 30
0.0
 10
7.8066986866
 20
12.9931899741
 30
0.0
 10
7.8079002682
 20
12.9926001529
 30
0.0
 10
7.8096998535
 20
12.9916314096
 30
0.0
 10
7.8121607346
 20
12.9901486903
 30
0.0
 10
7.815335666
 20
12.988033423
 30
0.0
 10
7.8188162651
 20
12.9855302353
 30
0.0
 10
7.8225732661
 20
12.982659282
 30
0.0
 10
7.826574636
 20
12.9794439621
 30
0.0
 10
7.8307859082
 20
12.9759113653
 30
0.0
 10
7.8351704713
 20
12.9720917524
 30
0.0
 10
7.8396896927
 20
12.9680183101
 30
0.0
 10
7.8459121516
 20
12.9622312915
 30
0.0
 10
7.8505446833
 20
12.9577221294
 30
0.0
 10
7.8536247273
 20
12.9546401803
 30
0.0
  0
SPLINE
  5
507
100
AcDbEntity
  8
0
100
AcDbSpline
 62
9
  6
CONTINUOUS
 70
0
 71
3
 72
25
 73
21
 74
0
 42
0.0000001
 43
0.0000001
 44
0.0000000001
 40
0.0
 40
0.0
 40
0.0
 40
0.0
 40
0.0077502334
 40
0.0159677513
 40
0.025125846
 40
0.0355685256
 40
0.0475226235
 40
0.0611334902
 40
0.0764941988
 40
0.0936595157
 40
0.1335010077
 40
0.1807425915
 40
0.2352888605
 40
0.2969374506
 40
0.3654089038
 40
0.4403523525
 40
0.521364302
 40
0.6079906714
 40
0.7960194048
 40
1.0
 40
1.0
 40
1.0
 40
1.0
 10
7.6494384953
 20
13.1486731762
 30
0.0
 10
7.6495300939
 20
13.1487643822
 30
0.0
 10
7.649746633
 20
13.1489262442
 30
0.0
 10
7.6501406842
 20
13.1490803263
 30
0.0
 10
7.6506022884
 20
13.1491507344
 30
0.0
 10
7.6511303729
 20
13.149140186
 30
0.0
 10
7.6517254579
 20
13.1490503688
 30
0.0
 10
7.6523877621
 20
13.1488817136
 30
0.0
 10
7.6531170599
 20
13.1486343503
 30
0.0
 10
7.6542344233
 20
13.1481763517
 30
0.0
 10
7.6557895178
 20
13.1473934277
 30
0.0
 10
7.6578240587
 20
13.1461911303
 30
0.0
 10
7.6600990494
 20
13.1446878087
 30
0.0
 10
7.6626014888
 20
13.1428912622
 30
0.0
 10
7.6653167393
 20
13.1408108597
 30
0.0
 10
7.6682287141
 20
13.1384584375
 30
0.0
 10
7.6713199427
 20
13.1358476861
 30
0.0
 10
7.6757785411
 20
13.1319344874
 30
0.0
 10
7.6816431683
 20
13.1265164067
 30
0.0
 10
7.6863200601
 20
13.1219464219
 30
0.0
 10
7.6887249232
 20
13.1195399845
 30
0.0
  0
LINE
  5
508
100
AcDbEntity
  8
0
100
AcDbLine
 62
7
  6
CONTINUOUS
 10
8.2638137598
 20
12.782587104
 11
8.2648607125
 21
12.7833583894
  0
SPLINE
  5
509
100
AcDbEntity
  8
0
100
AcDbSpline
 62
9
  6
CONTINUOUS
 70
0
 71
3
 72
28
 73
24
 74
0
 42
0.0000001
 43
0.0000001
 44
0.0000000001
 40
0.0
 40
0.0
 40
0.0
 40
0.0
 40
0.0033163441
 40
0.0067543486
 40
0.014344335
 40
0.0233654786
 40
0.0341485699
 40
0.0468743981
 40
0.0616337253
 40
0.0784670787
 40
0.0973828123
 40
0.1183660019
 40
0.1413882186
 40
0.193362158
 40
0.2528526722
 40
0.3192723218
 40
0.3919259508
 40
0.4700242845
 40
0.5526964005
 40
0.6390007148
 40
0.7279397671
 40
0.8184670541
 40
1.0
 40
1.0
 40
1.0
 40
1.0
 10
7.9546982103
 20
12.8362387993
 30
0.0
 10
7.9547646125
 20
12.8363051887
 30
0.0
 10
7.954912901
 20
12.8364279551
 30
0.0
 10
7.9552685001
 20
12.8366279782
 30
0.0
 10
7.9558248181
 20
12.8367776555
 30
0.0
 10
7.9566042441
 20
12.8368007957
 30
0.0
 10
7.9575204176
 20
12.8366821753
 30
0.0
 10
7.9585739065
 20
12.8364221068
 30
0.0
 10
7.9597641482
 20
12.8360213855
 30
0.0
 10
7.9610887072
 20
12.8354803323
 30
0.0
 10
7.9625443694
 20
12.8347999664
 30
0.0
 10
7.9641273933
 20
12.8339818897
 30
0.0
 10
7.9664995075
 20
12.8326551865
 30
0.0
 10
7.9697423419
 20
12.8306561897
 30
0.0
 10
7.9739208544
 20
12.8278426181
 30
0.0
 10
7.9784819767
 20
12.8245543058
 30
0.0
 10
7.9833736351
 20
12.8208276208
 30
0.0
 10
7.98853893
 20
12.8167037388
 30
0.0
 10
7.9939174128
 20
12.8122298056
 30
0.0
 10
7.9994461922
 20
12.8074585584
 30
0.0
 10
8.0050595062
 20
12.8024464774
 30
0.0
 10
8.012572938
 20
12.7955163195
 30
0.0
 10
8.0181093562
 20
12.7901579209
 30
0.0
 10
8.0217426009
 20
12.7865223066
 30
0.0
  0
SPLINE
  5
50A
100
AcDbEntity
  8
0
100
AcDbSpline
 62
9
  6
CONTINUOUS
 70
0
 71
3
 72
25
 73
21
 74
0
 42
0.0000001
 43
0.0000001
 44
0.0000000001
 40
0.0
 40
0.0
 40
0.0
 40
0.0
 40
0.1978426072
 40
0.3836231788
 40
0.4702112136
 40
0.5517202498
 40
0.6275583515
 40
0.6971900021
 40
0.7601476126
 40
0.8160368752
 40
0.8645503933
 40
0.90549706
 40
0.92312152
 40
0.9388633756
 40
0.9527646664
 40
0.9649047056
 40
0.9754143989
 40
0.9845108518
 40
0.9925391218
 40
1.0
 40
1.0
 40
1.0
 40
1.0
 10
8.0217426009
 20
12.7865223066
 30
0.0
 10
8.0245927481
 20
12.7836736361
 30
0.0
 10
8.0300472922
 20
12.778077343
 30
0.0
 10
8.036532608
 20
12.7710276913
 30
0.0
 10
8.041275087
 20
12.7655993966
 30
0.0
 10
8.0444733072
 20
12.7617966883
 30
0.0
 10
8.0473732666
 20
12.7581956886
 30
0.0
 10
8.0499526827
 20
12.7548232414
 30
0.0
 10
8.0521931125
 20
12.7517050613
 30
0.0
 10
8.0540794807
 20
12.7488645038
 30
0.0
 10
8.0555991904
 20
12.7463224693
 30
0.0
 10
8.056598931
 20
12.7443810446
 30
0.0
 10
8.057192307
 20
12.7429878652
 30
0.0
 10
8.0575173471
 20
12.74208092
 30
0.0
 10
8.0577450222
 20
12.7412598924
 30
0.0
 10
8.0578751824
 20
12.7405254097
 30
0.0
 10
8.0579073285
 20
12.7398773737
 30
0.0
 10
8.0578396195
 20
12.7393149694
 30
0.0
 10
8.0576682969
 20
12.7388388754
 30
0.0
 10
8.0574788453
 20
12.7385797425
 30
0.0
 10
8.0573713803
 20
12.7384722983
 30
0.0
  0
SPLINE
  5
50B
100
AcDbEntity
  8
0
100
AcDbSpline
 62
7
  6
CONTINUOUS
 70
0
 71
3
 72
21
 73
17
 74
0
 42
0.0000001
 43
0.0000001
 44
0.0000000001
 40
0.0
 40
0.0
 40
0.0
 40
0.0
 40
0.0454645939
 40
0.0912832191
 40
0.1377966077
 40
0.1853798593
 40
0.2344295319
 40
0.2853731827
 40
0.3386780252
 40
0.3948547508
 40
0.4544574545
 40
0.5180693261
 40
0.6593808578
 40
0.738003356
 40
0.8217784669
 40
1.0
 40
1.0
 40
1.0
 40
1.0
 10
9.8145337053
 20
15.3399763102
 30
0.0
 10
9.8133371733
 20
15.3411728421
 30
0.0
 10
9.8110539101
 20
15.3436978321
 30
0.0
 10
9.8080089277
 20
15.347834939
 30
0.0
 10
9.80535329
 20
15.3523246956
 30
0.0
 10
9.803109689
 20
15.3571667998
 30
0.0
 10
9.8013060624
 20
15.3623645115
 30
0.0
 10
9.7999772813
 20
15.3679228398
 30
0.0
 10
9.7991682092
 20
15.3738484441
 30
0.0
 10
9.7989322995
 20
15.3801471282
 30
0.0
 10
9.7993346389
 20
15.3868227915
 30
0.0
 10
9.8008777405
 20
15.3965593532
 30
0.0
 10
9.8040910605
 20
15.4066932818
 30
0.0
 10
9.8089762088
 20
15.4169015405
 30
0.0
 10
9.8155304225
 20
15.4277711201
 30
0.0
 10
9.8217897116
 20
15.4353551001
 30
0.0
 10
9.8264801254
 20
15.440045514
 30
0.0
  0
SPLINE
  5
50C
100
AcDbEntity
  8
0
100
AcDbSpline
 62
9
  6
CONTINUOUS
 70
0
 71
3
 72
17
 73
13
 74
0
 42
0.0000001
 43
0.0000001
 44
0.0000000001
 40
0.0
 40
0.0
 40
0.0
 40
0.0
 40
0.0232903767
 40
0.0527215333
 40
0.08811112
 40
0.1288027498
 40
0.2220255675
 40
0.3299560884
 40
0.4631688447
 40
0.6224309681
 40
0.8039438465
 40
1.0
 40
1.0
 40
1.0
 40
1.0
 10
8.0312031095
 20
12.7936053379
 30
0.0
 10
8.0311107026
 20
12.7936133216
 30
0.0
 10
8.0308988043
 20
12.793592465
 30
0.0
 10
8.0305613058
 20
12.7934943254
 30
0.0
 10
8.030172706
 20
12.793332564
 30
0.0
 10
8.0295714072
 20
12.7930267532
 30
0.0
 10
8.0287502709
 20
12.7925208703
 30
0.0
 10
8.0276615808
 20
12.7917534725
 30
0.0
 10
8.0264027835
 20
12.7907737482
 30
0.0
 10
8.0249597831
 20
12.7895562338
 30
0.0
 10
8.023375347
 20
12.7881203546
 30
0.0
 10
8.0222946984
 20
12.7870743854
 30
0.0
 10
8.0217426536
 20
12.7865222542
 30
0.0
  0
SPLINE
  5
50D
100
AcDbEntity
  8
0
100
AcDbSpline
 62
7
  6
CONTINUOUS
 70
0
 71
3
 72
21
 73
17
 74
0
 42
0.0000001
 43
0.0000001
 44
0.0000000001
 40
0.0
 40
0.0
 40
0.0
 40
0.0
 40
0.1782224793
 40
0.2619980319
 40
0.3406205826
 40
0.4819316268
 40
0.5455432161
 40
0.6051458056
 40
0.6613224251
 40
0.7146271564
 40
0.7655707261
 40
0.814620366
 40
0.8622035505
 40
0.9087168245
 40
0.9545353969
 40
1.0
 40
1.0
 40
1.0
 40
1.0
 10
9.9146029091
 20
15.3519227303
 30
0.0
 10
9.9099124704
 20
15.3472322916
 30
0.0
 10
9.9023284436
 20
15.3409729767
 30
0.0
 10
9.8914588127
 20
15.3344187443
 30
0.0
 10
9.8812505446
 20
15.3295336149
 30
0.0
 10
9.8711166362
 20
15.3263203217
 30
0.0
 10
9.8613801051
 20
15.3247772392
 30
0.0
 10
9.8547044607
 20
15.3243749035
 30
0.0
 10
9.8484057888
 20
15.3246108151
 30
0.0
 10
9.8424801972
 20
15.3254198977
 30
0.0
 10
9.8369218777
 20
15.3267486773
 30
0.0
 10
9.8317241713
 20
15.3285522996
 30
0.0
 10
9.8268820795
 20
15.3307959079
 30
0.0
 10
9.8223923277
 20
15.3334515359
 30
0.0
 10
9.8182552264
 20
15.3364965162
 30
0.0
 10
9.8157302375
 20
15.338779778
 30
0.0
 10
9.8145337053
 20
15.3399763102
 30
0.0
  0
SPLINE
  5
50E
100
AcDbEntity
  8
0
100
AcDbSpline
 62
7
  6
CONTINUOUS
 70
0
 71
3
 72
63
 73
59
 74
0
 42
0.0000001
 43
0.0000001
 44
0.0000000001
 40
0.0
 40
0.0
 40
0.0
 40
0.0
 40
0.0001733332
 40
0.0003738811
 40
0.0006199431
 40
0.0009216217
 40
0.0012843816
 40
0.0017113301
 40
0.0022043472
 40
0.0027646262
 40
0.0040895849
 40
0.0056897952
 40
0.0075667279
 40
0.0097208811
 40
0.0121518897
 40
0.0148589669
 40
0.0178411391
 40
0.0210971051
 40
0.0284234727
 40
0.0368231834
 40
0.0462778817
 40
0.0567669546
 40
0.0682668152
 40
0.0807517571
 40
0.108561741
 40
0.1399452904
 40
0.1746174821
 40
0.2122631558
 40
0.2525397551
 40
0.2950806619
 40
0.3394985041
 40
0.3853887489
 40
0.4323334047
 40
0.4799047929
 40
0.5276695902
 40
0.5751925814
 40
0.622040909
 40
0.6677877429
 40
0.7120164442
 40
0.7543241607
 40
0.7943256949
 40
0.8316569029
 40
0.8659781514
 40
0.8969774967
 40
0.9243735907
 40
0.9366416802
 40
0.9479186675
 40
0.9581794768
 40
0.9674010521
 40
0.9755633272
 40
0.9826486847
 40
0.9886427279
 40
0.9912270224
 40
0.9935348702
 40
0.9955656138
 40
0.9973192518
 40
0.9987966726
 40
1.0
 40
1.0
 40
1.0
 40
1.0
 10
10.8137716774
 20
15.2319260036
 30
0.0
 10
10.813738485
 20
15.2318928112
 30
0.0
 10
10.8136499293
 20
15.2318372644
 30
0.0
 10
10.8134827948
 20
15.231804835
 30
0.0
 10
10.8132791922
 20
15.2318139909
 30
0.0
 10
10.8130369288
 20
15.2318632897
 30
0.0
 10
10.8127547741
 20
15.2319525422
 30
0.0
 10
10.8124321667
 20
15.2320820091
 30
0.0
 10
10.8120688763
 20
15.2322518393
 30
0.0
 10
10.8114975148
 20
15.2325494265
 30
0.0
 10
10.8106836462
 20
15.233028614
 30
0.0
 10
10.8095919567
 20
15.2337357257
 30
0.0
 10
10.8083379723
 20
15.2346039729
 30
0.0
 10
10.8069222875
 20
15.2356329582
 30
0.0
 10
10.8053456284
 20
15.2368222761
 30
0.0
 10
10.8036088266
 20
15.2381712507
 30
0.0
 10
10.8017127695
 20
15.2396791127
 30
0.0
 10
10.7988595539
 20
15.2419929421
 30
0.0
 10
10.7949068187
 20
15.2452798314
 30
0.0
 10
10.789713821
 20
15.2496999158
 30
0.0
 10
10.7839128383
 20
15.2547266499
 30
0.0
 10
10.777516371
 20
15.260347848
 30
0.0
 10
10.7705381598
 20
15.2665499877
 30
0.0
 10
10.7600970136
 20
15.275916617
 30
0.0
 10
10.7457239153
 20
15.2889637834
 30
0.0
 10
10.7269938186
 20
15.3061501946
 30
0.0
 10
10.7063774222
 20
15.3252202912
 30
0.0
 10
10.6840558893
 20
15.3459934626
 30
0.0
 10
10.660225967
 20
15.3682736319
 30
0.0
 10
10.635098028
 20
15.3918507928
 30
0.0
 10
10.6088942343
 20
15.416503078
 30
0.0
 10
10.5818465196
 20
15.4419987693
 30
0.0
 10
10.5541944971
 20
15.4680984288
 30
0.0
 10
10.5261832678
 20
15.4945571029
 30
0.0
 10
10.4980612179
 20
15.52112654
 30
0.0
 10
10.4700777204
 20
15.5475574957
 30
0.0
 10
10.4424809109
 20
15.5736019701
 30
0.0
 10
10.4155153817
 20
15.5990155205
 30
0.0
 10
10.3894200065
 20
15.6235594526
 30
0.0
 10
10.3644257272
 20
15.6470030459
 30
0.0
 10
10.3407535028
 20
15.6691256468
 30
0.0
 10
10.3186122683
 20
15.6897186999
 30
0.0
 10
10.2981971451
 20
15.7085877859
 30
0.0
 10
10.2796874628
 20
15.7255541532
 30
0.0
 10
10.2655087376
 20
15.7384065109
 30
0.0
 10
10.2552309162
 20
15.7476090108
 30
0.0
 10
10.2483809076
 20
15.753683079
 30
0.0
 10
10.2421158447
 20
15.7591730846
 30
0.0
 10
10.2364491357
 20
15.7640657626
 30
0.0
 10
10.2313930791
 20
15.7683494594
 30
0.0
 10
10.2269583963
 20
15.7720137715
 30
0.0
 10
10.2236434667
 20
15.7746611154
 30
0.0
 10
10.2213045116
 20
15.7764559189
 30
0.0
 10
10.2197993968
 20
15.7775739249
 30
0.0
 10
10.2184556163
 20
15.7785313754
 30
0.0
 10
10.2172737966
 20
15.7793279657
 30
0.0
 10
10.2162545629
 20
15.7799634794
 30
0.0
 10
10.2156192891
 20
15.7803162434
 30
0.0
 10
10.2153275729
 20
15.7804614957
 30
0.0
  0
LINE
  5
50F
100
AcDbEntity
  8
0
100
AcDbLine
 62
7
  6
CONTINUOUS
 10
10.2153275729
 20
15.7804614957
 11
10.2143490246
 21
15.7808570162
  0
SPLINE
  5
510
100
AcDbEntity
  8
0
100
AcDbSpline
 62
7
  6
CONTINUOUS
 70
0
 71
3
 72
64
 73
60
 74
0
 42
0.0000001
 43
0.0000001
 44
0.0000000001
 40
0.0
 40
0.0
 40
0.0
 40
0.0
 40
0.00016859
 40
0.0003650574
 40
0.0006078127
 40
0.0009068101
 40
0.0012673537
 40
0.0016924323
 40
0.0021838425
 40
0.0027427202
 40
0.0040653452
 40
0.0056636714
 40
0.007539046
 40
0.0096918902
 40
0.0121217877
 40
0.014827916
 40
0.0178092758
 40
0.0210645464
 40
0.0283898212
 40
0.0367887656
 40
0.0462429679
 40
0.0567317763
 40
0.0682315748
 40
0.0807166347
 40
0.0941587138
 40
0.1085273657
 40
0.139912171
 40
0.1745860799
 40
0.2122338659
 40
0.2525129107
 40
0.2950565437
 40
0.3394773375
 40
0.3853707094
 40
0.4323186161
 40
0.4798933297
 40
0.5276614751
 40
0.5751877877
 40
0.6220393588
 40
0.6677893067
 40
0.712020942
 40
0.7543313579
 40
0.7943353037
 40
0.8316685785
 40
0.865991484
 40
0.8969920083
 40
0.924388715
 40
0.9366568623
 40
0.9479337182
 40
0.9581941826
 40
0.9674151675
 40
0.9755765636
 40
0.9826606907
 40
0.9886530554
 40
0.9912362928
 40
0.9935429019
 40
0.9955721818
 40
0.9973240687
 40
0.9987993536
 40
1.0
 40
1.0
 40
1.0
 40
1.0
 10
10.1958268243
 20
15.7630296699
 30
0.0
 10
10.1958591054
 20
15.7630619509
 30
0.0
 10
10.195946109
 20
15.7631156224
 30
0.0
 10
10.196110462
 20
15.7631449624
 30
0.0
 10
10.1963111252
 20
15.7631329364
 30
0.0
 10
10.1965504877
 20
15.7630808458
 30
0.0
 10
10.1968297793
 20
15.7629888349
 30
0.0
 10
10.1971495533
 20
15.7628566116
 30
0.0
 10
10.197510027
 20
15.7626840218
 30
0.0
 10
10.1980775786
 20
15.7623824437
 30
0.0
 10
10.1988866763
 20
15.7618984258
 30
0.0
 10
10.1999727789
 20
15.761185851
 30
0.0
 10
10.2012211876
 20
15.7603121127
 30
0.0
 10
10.2026313039
 20
15.7592776147
 30
0.0
 10
10.2042023968
 20
15.7580827707
 30
0.0
 10
10.2059336335
 20
15.7567282604
 30
0.0
 10
10.2078241259
 20
15.7552148558
 30
0.0
 10
10.2106696809
 20
15.7528932701
 30
0.0
 10
10.2146129234
 20
15.7495968384
 30
0.0
 10
10.2197948422
 20
15.7451657365
 30
0.0
 10
10.2255847377
 20
15.7401279606
 30
0.0
 10
10.2319701167
 20
15.7344957086
 30
0.0
 10
10.2389372135
 20
15.72828248
 30
0.0
 10
10.2464708922
 20
15.7215032085
 30
0.0
 10
10.2545548109
 20
15.7141741543
 30
0.0
 10
10.266396369
 20
15.7033703046
 30
0.0
 10
10.2824252134
 20
15.6886258707
 30
0.0
 10
10.3030195569
 20
15.6695337979
 30
0.0
 10
10.3253189098
 20
15.648738485
 30
0.0
 10
10.3491266455
 20
15.6264361671
 30
0.0
 10
10.3742323549
 20
15.6028368062
 30
0.0
 10
10.4004138853
 20
15.5781622826
 30
0.0
 10
10.4274392974
 20
15.5526443091
 30
0.0
 10
10.4550689766
 20
15.5265223224
 30
0.0
 10
10.4830578178
 20
15.5000412723
 30
0.0
 10
10.5111574363
 20
15.473449412
 30
0.0
 10
10.5391184622
 20
15.4469959899
 30
0.0
 10
10.5666927627
 20
15.4209290093
 30
0.0
 10
10.5936357485
 20
15.395492917
 30
0.0
 10
10.6197085488
 20
15.370926412
 30
0.0
 10
10.6446802257
 20
15.34746022
 30
0.0
 10
10.6683298245
 20
15.3253150019
 30
0.0
 10
10.6904484152
 20
15.3046993218
 30
0.0
 10
10.710840885
 20
15.2858076132
 30
0.0
 10
10.7293279107
 20
15.2688186406
 30
0.0
 10
10.7434871905
 20
15.2559467798
 30
0.0
 10
10.7537492614
 20
15.246728425
 30
0.0
 10
10.7605878467
 20
15.2406429539
 30
0.0
 10
10.7668414866
 20
15.2351415558
 30
0.0
 10
10.7724967733
 20
15.2302374995
 30
0.0
 10
10.7775414117
 20
15.2259424525
 30
0.0
 10
10.7819646807
 20
15.2222668265
 30
0.0
 10
10.7852697887
 20
15.2196096066
 30
0.0
 10
10.7876007952
 20
15.2178067068
 30
0.0
 10
10.789100166
 20
15.2166830058
 30
0.0
 10
10.7904381995
 20
15.2157198776
 30
0.0
 10
10.7916142602
 20
15.2149176362
 30
0.0
 10
10.7926277196
 20
15.2142765086
 30
0.0
 10
10.7932589769
 20
15.2139194531
 30
0.0
 10
10.7935487101
 20
15.213771944
 30
0.0
  0
LINE
  5
511
100
AcDbEntity
  8
0
100
AcDbLine
 62
7
  6
CONTINUOUS
 10
10.7935487101
 20
15.213771944
 11
10.7945503362
 21
15.2133591101
  0
SPLINE
  5
512
100
AcDbEntity
  8
0
100
AcDbSpline
 62
7
  6
CONTINUOUS
 70
0
 71
3
 72
63
 73
59
 74
0
 42
0.0000001
 43
0.0000001
 44
0.0000000001
 40
0.0
 40
0.0
 40
0.0
 40
0.0
 40
0.0001731831
 40
0.0003736005
 40
0.0006195556
 40
0.000921147
 40
0.0012838343
 40
0.0017107214
 40
0.0022036855
 40
0.0027639182
 40
0.0040887997
 40
0.0056889478
 40
0.0075658293
 40
0.0097199398
 40
0.0121509128
 40
0.0148579603
 40
0.0178401077
 40
0.0210960534
 40
0.0284223929
 40
0.0368220903
 40
0.0462767854
 40
0.0567658627
 40
0.0682657383
 40
0.0807507066
 40
0.108560762
 40
0.139944408
 40
0.1746167275
 40
0.212262539
 40
0.2525393045
 40
0.2950803833
 40
0.3394984238
 40
0.385388858
 40
0.4323337252
 40
0.479905308
 40
0.5276703044
 40
0.5751934903
 40
0.6220419898
 40
0.6677889919
 40
0.7120178303
 40
0.7543256735
 40
0.7943272954
 40
0.8316585729
 40
0.8659798378
 40
0.8969791684
 40
0.9243751965
 40
0.9366432315
 40
0.9479201532
 40
0.9581808817
 40
0.9674023549
 40
0.9755645073
 40
0.9826497196
 40
0.9886435883
 40
0.9912277812
 40
0.9935355158
 40
0.9955661319
 40
0.9973196244
 40
0.9987968756
 40
1.0
 40
1.0
 40
1.0
 40
1.0
 10
10.7624887045
 20
15.1806430306
 30
0.0
 10
10.762455541
 20
15.1806098671
 30
0.0
 10
10.762367035
 20
15.1805543797
 30
0.0
 10
10.7621999889
 20
15.1805220488
 30
0.0
 10
10.7619964806
 20
15.1805312972
 30
0.0
 10
10.7617543111
 20
15.1805806869
 30
0.0
 10
10.7614722499
 20
15.1806700299
 30
0.0
 10
10.7611497358
 20
15.1807995878
 30
0.0
 10
10.7607865387
 20
15.18096951
 30
0.0
 10
10.7602153044
 20
15.1812672309
 30
0.0
 10
10.759401597
 20
15.1817465826
 30
0.0
 10
10.7583100988
 20
15.1824538829
 30
0.0
 10
10.7570563079
 20
15.1833223224
 30
0.0
 10
10.7556408192
 20
15.1843515037
 30
0.0
 10
10.7540643586
 20
15.1855410209
 30
0.0
 10
10.7523277581
 20
15.1868901979
 30
0.0
 10
10.7504319047
 20
15.1883982656
 30
0.0
 10
10.7475789734
 20
15.1907123869
 30
0.0
 10
10.7436265969
 20
15.1939996438
 30
0.0
 10
10.738434028
 20
15.1984201645
 30
0.0
 10
10.7326334853
 20
15.2034473469
 30
0.0
 10
10.726237469
 20
15.2090690051
 30
0.0
 10
10.7192597191
 20
15.2152716173
 30
0.0
 10
10.7088192227
 20
15.2246389197
 30
0.0
 10
10.694446956
 20
15.2376869467
 30
0.0
 10
10.6757178696
 20
15.2548744036
 30
0.0
 10
10.6551025269
 20
15.2739455926
 30
0.0
 10
10.6327820886
 20
15.294719905
 30
0.0
 10
10.608953305
 20
15.3170012602
 30
0.0
 10
10.5838265438
 20
15.340579656
 30
0.0
 10
10.5576239728
 20
15.3652332196
 30
0.0
 10
10.530577521
 20
15.3907302369
 30
0.0
 10
10.5029268084
 20
15.4168312632
 30
0.0
 10
10.4749169319
 20
15.4432913488
 30
0.0
 10
10.4467962809
 20
15.4698622384
 30
0.0
 10
10.4188142286
 20
15.4962946883
 30
0.0
 10
10.3912189078
 20
15.5223406957
 30
0.0
 10
10.3642549075
 20
15.5477558071
 30
0.0
 10
10.3381610911
 20
15.5723013257
 30
0.0
 10
10.3131683994
 20
15.5957465191
 30
0.0
 10
10.2894977806
 20
15.6178707313
 30
0.0
 10
10.2673581697
 20
15.6384653936
 30
0.0
 10
10.2469446777
 20
15.6573360833
 30
0.0
 10
10.2284366318
 20
15.6743040377
 30
0.0
 10
10.2142593052
 20
15.6871577511
 30
0.0
 10
10.2039826112
 20
15.6963613388
 30
0.0
 10
10.1971334183
 20
15.7024361809
 30
0.0
 10
10.1908691671
 20
15.7079269517
 30
0.0
 10
10.1852032654
 20
15.7128203848
 30
0.0
 10
10.1801480108
 20
15.7171048249
 30
0.0
 10
10.1757141229
 20
15.7207698682
 30
0.0
 10
10.1723998698
 20
15.7234178427
 30
0.0
 10
10.1700614571
 20
15.7252131569
 30
0.0
 10
10.168556733
 20
15.7263315182
 30
0.0
 10
10.1672133412
 20
15.7272893199
 30
0.0
 10
10.1660319085
 20
15.7280862565
 30
0.0
 10
10.1650130604
 20
15.7287221112
 30
0.0
 10
10.1643780523
 20
15.7290751347
 30
0.0
 10
10.1640864667
 20
15.7292205226
 30
0.0
  0
LINE
  5
513
100
AcDbEntity
  8
0
100
AcDbLine
 62
7
  6
CONTINUOUS
 10
10.1640864667
 20
15.7292205226
 11
10.1631065383
 21
15.7296170758
  0
SPLINE
  5
514
100
AcDbEntity
  8
0
100
AcDbSpline
 62
7
  6
CONTINUOUS
 70
0
 71
3
 72
63
 73
59
 74
0
 42
0.0000001
 43
0.0000001
 44
0.0000000001
 40
0.0
 40
0.0
 40
0.0
 40
0.0
 40
0.0001690345
 40
0.0003658682
 40
0.000608908
 40
0.0009081263
 40
0.0012688451
 40
0.0016940651
 40
0.0021855917
 40
0.0027445666
 40
0.0040673426
 40
0.0056657794
 40
0.0075412363
 40
0.0096941422
 40
0.0121240858
 40
0.014830248
 40
0.0178116321
 40
0.0210669195
 40
0.0283922115
 40
0.036791159
 40
0.0462453532
 40
0.0567341454
 40
0.0682339268
 40
0.0807189729
 40
0.0941610387
 40
0.1085296789
 40
0.1399144753
 40
0.1745884094
 40
0.212236237
 40
0.2525153672
 40
0.2950591064
 40
0.3394800507
 40
0.3853735822
 40
0.4323216864
 40
0.4798965941
 40
0.5276649493
 40
0.5751914731
 40
0.6220432353
 40
0.6677933686
 40
0.7120251504
 40
0.7543356909
 40
0.7943397061
 40
0.8316730081
 40
0.8659958625
 40
0.8969962683
 40
0.9243927629
 40
0.9366607633
 40
0.947937446
 40
0.9581977045
 40
0.9674184421
 40
0.9755795458
 40
0.9826633273
 40
0.9886552774
 40
0.9935444686
 40
0.9955734431
 40
0.9973249791
 40
0.9987998521
 40
1.0
 40
1.0
 40
1.0
 40
1.0
 10
10.1461793334
 20
15.713382179
 30
0.0
 10
10.1462116994
 20
15.7134145449
 30
0.0
 10
10.1462988424
 20
15.7134683913
 30
0.0
 10
10.1464634468
 20
15.7134980108
 30
0.0
 10
10.146664364
 20
15.7134862312
 30
0.0
 10
10.1469039653
 20
15.7134343703
 30
0.0
 10
10.1471834813
 20
15.7133425767
 30
0.0
 10
10.1475034664
 20
15.713210561
 30
0.0
 10
10.1478641395
 20
15.7130381697
 30
0.0
 10
10.1484319444
 20
15.7127368662
 30
0.0
 10
10.1492413328
 20
15.7122531524
 30
0.0
 10
10.1503277385
 20
15.7115408842
 30
0.0
 10
10.15157641
 20
15.7106674178
 30
0.0
 10
10.1529867499
 20
15.709633157
 30
0.0
 10
10.1545580279
 20
15.7084385147
 30
0.0
 10
10.1562894119
 20
15.707084171
 30
0.0
 10
10.1581800145
 20
15.7055708978
 30
0.0
 10
10.1610256686
 20
15.7032494483
 30
0.0
 10
10.1649689374
 20
15.6999530861
 30
0.0
 10
10.1701507524
 20
15.695521929
 30
0.0
 10
10.1759404091
 20
15.6904839672
 30
0.0
 10
10.1823254186
 20
15.6848514013
 30
0.0
 10
10.1892920201
 20
15.6786377328
 30
0.0
 10
10.1968250826
 20
15.6718578983
 30
0.0
 10
10.2049082674
 20
15.6645281621
 30
0.0
 10
10.2167486621
 20
15.6537232144
 30
0.0
 10
10.232775776
 20
15.6389771182
 30
0.0
 10
10.2533676961
 20
15.6198826923
 30
0.0
 10
10.2756642592
 20
15.5990846349
 30
0.0
 10
10.2994688669
 20
15.5767792139
 30
0.0
 10
10.3245711471
 20
15.553176416
 30
0.0
 10
10.3507489721
 20
15.5284981576
 30
0.0
 10
10.3777704385
 20
15.502976178
 30
0.0
 10
10.4053959548
 20
15.4768499521
 30
0.0
 10
10.4333804507
 20
15.4503644588
 30
0.0
 10
10.4614755634
 20
15.4237679827
 30
0.0
 10
10.4894319463
 20
15.3973097979
 30
0.0
 10
10.5170014898
 20
15.3712379345
 30
0.0
 10
10.5439396244
 20
15.3457968697
 30
0.0
 10
10.5700075068
 20
15.3212253253
 30
0.0
 10
10.5949742174
 20
15.2977540593
 30
0.0
 10
10.6186188293
 20
15.2756037556
 30
0.0
 10
10.6407324308
 20
15.2549830113
 30
0.0
 10
10.6611199368
 20
15.2360862849
 30
0.0
 10
10.6796020453
 20
15.2190923724
 30
0.0
 10
10.6937571673
 20
15.2062163295
 30
0.0
 10
10.7040159239
 20
15.1969946451
 30
0.0
 10
10.7108521309
 20
15.1909068106
 30
0.0
 10
10.7171034282
 20
15.1854030988
 30
0.0
 10
10.7227563881
 20
15.1804967366
 30
0.0
 10
10.7277987901
 20
15.1761995415
 30
0.0
 10
10.7322197004
 20
15.1725214859
 30
0.0
 10
10.7360097704
 20
15.169471505
 30
0.0
 10
10.7387836283
 20
15.1673427652
 30
0.0
 10
10.7406877671
 20
15.1659692773
 30
0.0
 10
10.7418628007
 20
15.1651660641
 30
0.0
 10
10.7428752153
 20
15.1645239459
 30
0.0
 10
10.743505758
 20
15.16416615
 30
0.0
 10
10.74379514
 20
15.1640182545
 30
0.0
  0
LINE
  5
515
100
AcDbEntity
  8
0
100
AcDbLine
 62
7
  6
CONTINUOUS
 10
10.74379514
 20
15.1640182545
 11
10.7448004599
 21
15.1636024921
  0
SPLINE
  5
516
100
AcDbEntity
  8
0
100
AcDbSpline
 62
7
  6
CONTINUOUS
 70
0
 71
3
 72
64
 73
60
 74
0
 42
0.0000001
 43
0.0000001
 44
0.0000000001
 40
0.0
 40
0.0
 40
0.0
 40
0.0
 40
0.0001683059
 40
0.0003645284
 40
0.0006070851
 40
0.0009059209
 40
0.0012663305
 40
0.0016912954
 40
0.0021826075
 40
0.0027413993
 40
0.0040638802
 40
0.0056620887
 40
0.0075373651
 40
0.0096901258
 40
0.0121199517
 40
0.0148260181
 40
0.0178073241
 40
0.0210625481
 40
0.0283877477
 40
0.0367866369
 40
0.0462408007
 40
0.0567295849
 40
0.0682293718
 40
0.0807144314
 40
0.0941565208
 40
0.1085251926
 40
0.1399100627
 40
0.1745840659
 40
0.2122319719
 40
0.252511157
 40
0.2950549483
 40
0.3394759131
 40
0.3853694659
 40
0.4323175591
 40
0.4798924619
 40
0.5276607951
 40
0.5751872921
 40
0.6220390408
 40
0.6677891564
 40
0.7120209477
 40
0.7543315045
 40
0.7943355743
 40
0.8316689543
 40
0.8659919416
 40
0.8969925246
 40
0.9243892627
 40
0.9366574144
 40
0.9479342669
 40
0.9581947189
 40
0.9674156813
 40
0.9755770437
 40
0.9826611239
 40
0.9886534256
 40
0.9912366238
 40
0.9935431873
 40
0.9955724141
 40
0.9973242381
 40
0.9987994472
 40
1.0
 40
1.0
 40
1.0
 40
1.0
 10
10.0963706735
 20
15.663573519
 30
0.0
 10
10.0964029
 20
15.6636057455
 30
0.0
 10
10.0964898107
 20
15.6636593043
 30
0.0
 10
10.096653996
 20
15.6636884578
 30
0.0
 10
10.096854481
 20
15.6636762582
 30
0.0
 10
10.0970936671
 20
15.6636239977
 30
0.0
 10
10.0973727836
 20
15.663531818
 30
0.0
 10
10.0976923834
 20
15.663399425
 30
0.0
 10
10.0980526833
 20
15.6632266645
 30
0.0
 10
10.0986199981
 20
15.6629248384
 30
0.0
 10
10.0994287973
 20
15.6624405179
 30
0.0
 10
10.1005145477
 20
15.6617275976
 30
0.0
 10
10.1017626018
 20
15.660853509
 30
0.0
 10
10.1031723612
 20
15.6598186564
 30
0.0
 10
10.1047430945
 20
15.658623454
 30
0.0
 10
10.1064739689
 20
15.6572685818
 30
0.0
 10
10.1083640965
 20
15.6557548122
 30
0.0
 10
10.1112091459
 20
15.6534327122
 30
0.0
 10
10.1151517554
 20
15.6501356407
 30
0.0
 10
10.1203329275
 20
15.6457037906
 30
0.0
 10
10.1261220682
 20
15.6406652568
 30
0.0
 10
10.1325066851
 20
15.635032238
 30
0.0
 10
10.1394730134
 20
15.6288182351
 30
0.0
 10
10.1470059182
 20
15.6220381827
 30
0.0
 10
10.1550890584
 20
15.6147083419
 30
0.0
 10
10.1669295446
 20
15.6039034021
 30
0.0
 10
10.1829570531
 20
15.5891576111
 30
0.0
 10
10.2035498264
 20
15.570063947
 30
0.0
 10
10.2258476085
 20
15.54926704
 30
0.0
 10
10.2496537793
 20
15.5269631323
 30
0.0
 10
10.2747579354
 20
15.5033621932
 30
0.0
 10
10.3009379305
 20
15.4786861101
 30
0.0
 10
10.3279618309
 20
15.4531666029
 30
0.0
 10
10.3555900281
 20
15.4270431151
 30
0.0
 10
10.3835774233
 20
15.4005606042
 30
0.0
 10
10.4116756339
 20
15.3739673255
 30
0.0
 10
10.4396352892
 20
15.3475125273
 30
0.0
 10
10.4672082568
 20
15.3214442132
 30
0.0
 10
10.4941499474
 20
15.29600683
 30
0.0
 10
10.5202214905
 20
15.2714390768
 30
0.0
 10
10.5451919483
 20
15.2479716795
 30
0.0
 10
10.5688403664
 20
15.2258252987
 30
0.0
 10
10.590957815
 20
15.2052084988
 30
0.0
 10
10.6113491821
 20
15.1863157133
 30
0.0
 10
10.6298351447
 20
15.169325707
 30
0.0
 10
10.6439935465
 20
15.1564529898
 30
0.0
 10
10.6542549288
 20
15.147233962
 30
0.0
 10
10.6610930251
 20
15.1411480171
 30
0.0
 10
10.6673461864
 20
15.135646156
 30
0.0
 10
10.6730010048
 20
15.1307416472
 30
0.0
 10
10.6780451853
 20
15.1264461588
 30
0.0
 10
10.6824680073
 20
15.1227701027
 30
0.0
 10
10.6857727394
 20
15.1201125157
 30
0.0
 10
10.6881034475
 20
15.1183093207
 30
0.0
 10
10.6896026056
 20
15.1171854145
 30
0.0
 10
10.6909404288
 20
15.1162220841
 30
0.0
 10
10.6921162816
 20
15.1154196439
 30
0.0
 10
10.6931295352
 20
15.1147783212
 30
0.0
 10
10.6937606508
 20
15.1144211183
 30
0.0
 10
10.6940503145
 20
15.1142735322
 30
0.0
  0
LINE
  5
517
100
AcDbEntity
  8
0
100
AcDbLine
 62
7
  6
CONTINUOUS
 10
10.6940503145
 20
15.1142735322
 11
10.6950526837
 21
15.1138601137
  0
SPLINE
  5
518
100
AcDbEntity
  8
0
100
AcDbSpline
 62
7
  6
CONTINUOUS
 70
0
 71
3
 72
63
 73
59
 74
0
 42
0.0000001
 43
0.0000001
 44
0.0000000001
 40
0.0
 40
0.0
 40
0.0
 40
0.0
 40
0.0001739916
 40
0.0003751132
 40
0.0006216459
 40
0.0009237109
 40
0.0012867935
 40
0.0017140172
 40
0.0022072731
 40
0.0027677627
 40
0.0040930774
 40
0.0056935815
 40
0.0075707629
 40
0.0097251302
 40
0.0121563256
 40
0.0148635671
 40
0.0178458848
 40
0.02110198
 40
0.0284285651
 40
0.0368284481
 40
0.0462832813
 40
0.0567724572
 40
0.0682723927
 40
0.0807573844
 40
0.1085674028
 40
0.1399509126
 40
0.1746230027
 40
0.2122685241
 40
0.2525449295
 40
0.2950856109
 40
0.3395032043
 40
0.3853931857
 40
0.4323375714
 40
0.4799086906
 40
0.5276732264
 40
0.57519597
 40
0.6220440686
 40
0.6677906958
 40
0.7120192153
 40
0.7543267755
 40
0.7943281783
 40
0.8316592767
 40
0.8659804317
 40
0.8969796915
 40
0.9243756956
 40
0.9366437326
 40
0.9479206584
 40
0.9581813933
 40
0.9674028757
 40
0.9755650325
 40
0.9826502355
 40
0.9886440725
 40
0.9912282365
 40
0.9935359297
 40
0.9955664877
 40
0.9973198992
 40
0.9987970371
 40
1.0
 40
1.0
 40
1.0
 40
1.0
 10
10.7112285403
 20
15.1293828664
 30
0.0
 10
10.7111952216
 20
15.1293495477
 30
0.0
 10
10.7111064482
 20
15.1292937416
 30
0.0
 10
10.7109389271
 20
15.1292608822
 30
0.0
 10
10.7107349121
 20
15.1292696326
 30
0.0
 10
10.7104922376
 20
15.1293185341
 30
0.0
 10
10.7102096738
 20
15.1294073909
 30
0.0
 10
10.7098866584
 20
15.1295364593
 30
0.0
 10
10.7095229593
 20
15.1297058877
 30
0.0
 10
10.7089510408
 20
15.1300028898
 30
0.0
 10
10.7081364671
 20
15.1304813603
 30
0.0
 10
10.7070439415
 20
15.1311876496
 30
0.0
 10
10.7057891122
 20
15.1320550592
 30
0.0
 10
10.7043725737
 20
15.1330831932
 30
0.0
 10
10.7027950516
 20
15.1342716473
 30
0.0
 10
10.7010573778
 20
15.1356197467
 30
0.0
 10
10.6991604399
 20
15.1371267229
 30
0.0
 10
10.6963060002
 20
15.1394392999
 30
0.0
 10
10.6923517265
 20
15.1427246235
 30
0.0
 10
10.6871569056
 20
15.147142868
 30
0.0
 10
10.6813540734
 20
15.1521677294
 30
0.0
 10
10.6749557337
 20
15.1577870261
 30
0.0
 10
10.6679756302
 20
15.1639872395
 30
0.0
 10
10.6575318532
 20
15.1733511651
 30
0.0
 10
10.6431554686
 20
15.1863949566
 30
0.0
 10
10.6244215102
 20
15.2035774111
 30
0.0
 10
10.6038012441
 20
15.222643531
 30
0.0
 10
10.5814758572
 20
15.2434127333
 30
0.0
 10
10.5576421203
 20
15.2656889696
 30
0.0
 10
10.5325104292
 20
15.2892622612
 30
0.0
 10
10.5063029692
 20
15.3139107684
 30
0.0
 10
10.4792516966
 20
15.3394028003
 30
0.0
 10
10.4515962476
 20
15.3654989461
 30
0.0
 10
10.4235817462
 20
15.3919542793
 30
0.0
 10
10.3954566017
 20
15.4185205747
 30
0.0
 10
10.3674702105
 20
15.4449486141
 30
0.0
 10
10.339870732
 20
15.4709904232
 30
0.0
 10
10.3129027827
 20
15.4964015845
 30
0.0
 10
10.2868052611
 20
15.5209434282
 30
0.0
 10
10.2618091339
 20
15.5443852574
 30
0.0
 10
10.238135386
 20
15.5665064414
 30
0.0
 10
10.2159929781
 20
15.5870984468
 30
0.0
 10
10.1955770578
 20
15.6059668751
 30
0.0
 10
10.1770669817
 20
15.6229329947
 30
0.0
 10
10.1628882811
 20
15.6357855085
 30
0.0
 10
10.1526107322
 20
15.6449883913
 30
0.0
 10
10.1457610427
 20
15.6510628501
 30
0.0
 10
10.1394964217
 20
15.6565533639
 30
0.0
 10
10.1338302806
 20
15.6614466698
 30
0.0
 10
10.1287749213
 20
15.6657311147
 30
0.0
 10
10.1243410687
 20
15.6693962963
 30
0.0
 10
10.121026966
 20
15.6720445104
 30
0.0
 10
10.1186887577
 20
15.6738401048
 30
0.0
 10
10.1171842211
 20
15.6749586983
 30
0.0
 10
10.1158410554
 20
15.6759167672
 30
0.0
 10
10.114659889
 20
15.6767140056
 30
0.0
 10
10.1136413481
 20
15.677350196
 30
0.0
 10
10.1130065775
 20
15.6777035051
 30
0.0
 10
10.1127151159
 20
15.6778490528
 30
0.0
  0
LINE
  5
519
100
AcDbEntity
  8
0
100
AcDbLine
 62
7
  6
CONTINUOUS
 10
10.1127151159
 20
15.6778490528
 11
10.1117332258
 21
15.6782469445
  0
SPLINE
  5
51A
100
AcDbEntity
  8
0
100
AcDbSpline
 62
7
  6
CONTINUOUS
 70
0
 71
3
 72
34
 73
30
 74
0
 42
0.0000001
 43
0.0000001
 44
0.0000000001
 40
0.0
 40
0.0
 40
0.0
 40
0.0
 40
0.2188930215
 40
0.3202581831
 40
0.415729739
 40
0.5049486752
 40
0.5875832327
 40
0.6633269283
 40
0.7318985169
 40
0.7930449586
 40
0.8465428598
 40
0.8703622293
 40
0.8921997845
 40
0.9120363561
 40
0.9298563698
 40
0.945645568
 40
0.9593937228
 40
0.9710951752
 40
0.980749139
 40
0.984811696
 40
0.988368232
 40
0.9914238974
 40
0.9939873929
 40
0.9960744243
 40
0.9977153836
 40
0.9983878522
 40
0.9989779226
 40
0.9995059411
 40
1.0
 40
1.0
 40
1.0
 40
1.0
 10
10.5250594168
 20
15.1970237972
 30
0.0
 10
10.5346725453
 20
15.1880474377
 30
0.0
 10
10.5487545275
 20
15.1749326674
 30
0.0
 10
10.5670857149
 20
15.1579635472
 30
0.0
 10
10.5797266935
 20
15.1463173396
 30
0.0
 10
10.5915708764
 20
15.1354673602
 30
0.0
 10
10.6025756702
 20
15.1254560498
 30
0.0
 10
10.6127017019
 20
15.1163225528
 30
0.0
 10
10.6219127991
 20
15.1081026287
 30
0.0
 10
10.6301762465
 20
15.1008286829
 30
0.0
 10
10.6364698455
 20
15.0953869812
 30
0.0
 10
10.6410136608
 20
15.0915333924
 30
0.0
 10
10.6440337432
 20
15.0890103567
 30
0.0
 10
10.6467975996
 20
15.0867430767
 30
0.0
 10
10.6493028126
 20
15.0847337838
 30
0.0
 10
10.6515472394
 20
15.0829844454
 30
0.0
 10
10.6535289073
 20
15.0814965283
 30
0.0
 10
10.6552461333
 20
15.0802714056
 30
0.0
 10
10.6565192399
 20
15.0794267099
 30
0.0
 10
10.65740742
 20
15.078889466
 30
0.0
 10
10.6579675992
 20
15.0785766905
 30
0.0
 10
10.6584609527
 20
15.0783300894
 30
0.0
 10
10.6588878025
 20
15.0781493019
 30
0.0
 10
10.6592483458
 20
15.0780340625
 30
0.0
 10
10.6595108005
 20
15.07798889
 30
0.0
 10
10.6596857882
 20
15.0779923617
 30
0.0
 10
10.6597922046
 20
15.0780119313
 30
0.0
 10
10.6598825596
 20
15.0780490943
 30
0.0
 10
10.6599322585
 20
15.0780866238
 30
0.0
 10
10.6599532532
 20
15.0781076117
 30
0.0
  0
SPLINE
  5
51B
100
AcDbEntity
  8
0
100
AcDbSpline
 62
9
  6
CONTINUOUS
 70
0
 71
3
 72
28
 73
24
 74
0
 42
0.0000001
 43
0.0000001
 44
0.0000000001
 40
0.0
 40
0.0
 40
0.0
 40
0.0
 40
0.1720532627
 40
0.3476426646
 40
0.4336793213
 40
0.5169420471
 40
0.5962953308
 40
0.6706761746
 40
0.7391093472
 40
0.800721776
 40
0.854757719
 40
0.8787378823
 40
0.9006051866
 40
0.9203113288
 40
0.9378223784
 40
0.9531262529
 40
0.9662413925
 40
0.9772346108
 40
0.9862598921
 40
0.9901313095
 40
0.9936507998
 40
0.9969040531
 40
1.0
 40
1.0
 40
1.0
 40
1.0
 10
7.6887249246
 20
13.119539983
 30
0.0
 10
7.6926127852
 20
13.1156541903
 30
0.0
 10
7.700317997
 20
13.10765138
 30
0.0
 10
7.7095954201
 20
13.0973572291
 30
0.0
 10
7.7167643643
 20
13.0889890556
 30
0.0
 10
7.7218246459
 20
13.0828646468
 30
0.0
 10
7.726534834
 20
13.0769357729
 30
0.0
 10
7.7308313141
 20
13.0712852589
 30
0.0
 10
7.734656486
 20
13.0659905927
 30
0.0
 10
7.737959746
 20
13.0611237398
 30
0.0
 10
7.7403295481
 20
13.0573425143
 30
0.0
 10
7.7419195871
 20
13.0545753365
 30
0.0
 10
7.7429088544
 20
13.0527289633
 30
0.0
 10
7.7437404301
 20
13.0510338163
 30
0.0
 10
7.7444119072
 20
13.0494952917
 30
0.0
 10
7.7449216104
 20
13.0481182529
 30
0.0
 10
7.7452686964
 20
13.0469060197
 30
0.0
 10
7.7454525789
 20
13.0458614131
 30
0.0
 10
7.7454704648
 20
13.0450928728
 30
0.0
 10
7.7453871776
 20
13.0445735856
 30
0.0
 10
7.7452850306
 20
13.0442477081
 30
0.0
 10
7.7451395319
 20
13.0439660452
 30
0.0
 10
7.7450114111
 20
13.0438065709
 30
0.0
 10
7.7449415632
 20
13.0437365388
 30
0.0
  0
SPLINE
  5
51C
100
AcDbEntity
  8
0
100
AcDbSpline
 62
9
  6
CONTINUOUS
 70
0
 71
3
 72
17
 73
13
 74
0
 42
0.0000001
 43
0.0000001
 44
0.0000000001
 40
0.0
 40
0.0
 40
0.0
 40
0.0
 40
0.0686898004
 40
0.1087667831
 40
0.1524889118
 40
0.1992823019
 40
0.2482164163
 40
0.3553923169
 40
0.485268725
 40
0.6388307073
 40
0.812725316
 40
1.0
 40
1.0
 40
1.0
 40
1.0
 10
7.6947102457
 20
13.1300961076
 30
0.0
 10
7.6948150462
 20
13.1298294339
 30
0.0
 10
7.6948614971
 20
13.1293616518
 30
0.0
 10
7.6947904763
 20
13.128730542
 30
0.0
 10
7.6946699408
 20
13.128197773
 30
0.0
 10
7.6944925704
 20
13.12764338
 30
0.0
 10
7.6941805843
 20
13.1268559996
 30
0.0
 10
7.6936460795
 20
13.1257871602
 30
0.0
 10
7.6927946101
 20
13.1243961524
 30
0.0
 10
7.6916796833
 20
13.1228461493
 30
0.0
 10
7.6903105825
 20
13.121190329
 30
0.0
 10
7.6892784449
 20
13.1200912212
 30
0.0
 10
7.6887259952
 20
13.1195389104
 30
0.0
  0
SPLINE
  5
51D
100
AcDbEntity
  8
0
100
AcDbSpline
 62
9
  6
CONTINUOUS
 70
0
 71
3
 72
26
 73
22
 74
0
 42
0.0000001
 43
0.0000001
 44
0.0000000001
 40
0.0
 40
0.0
 40
0.0
 40
0.0
 40
0.1862898673
 40
0.3676401323
 40
0.4540518291
 40
0.5364055732
 40
0.613859447
 40
0.6856399933
 40
0.7510515787
 40
0.8094874257
 40
0.860443408
 40
0.8829941584
 40
0.9035458553
 40
0.9220764878
 40
0.9385826517
 40
0.9530825802
 40
0.9656265458
 40
0.9763197284
 40
0.9853521612
 40
0.9930623067
 40
1.0
 40
1.0
 40
1.0
 40
1.0
 10
7.8536247288
 20
12.9546401788
 30
0.0
 10
7.8570816519
 20
12.9511849952
 30
0.0
 10
7.8637981438
 20
12.9442597026
 30
0.0
 10
7.8718265536
 20
12.9354557384
 30
0.0
 10
7.8778408497
 20
12.9285120166
 30
0.0
 10
7.881980247
 20
12.9235520285
 30
0.0
 10
7.8857770728
 20
12.9188077058
 30
0.0
 10
7.8891924852
 20
12.9143293151
 30
0.0
 10
7.892192614
 20
12.9101638515
 30
0.0
 10
7.894747723
 20
12.9063542055
 30
0.0
 10
7.8965538502
 20
12.9033990645
 30
0.0
 10
7.8977455668
 20
12.9012376731
 30
0.0
 10
7.8984770466
 20
12.8997951056
 30
0.0
 10
7.8990818252
 20
12.8984673901
 30
0.0
 10
7.8995587353
 20
12.8972576021
 30
0.0
 10
7.8999071001
 20
12.8961682877
 30
0.0
 10
7.9001263607
 20
12.8952011231
 30
0.0
 10
7.9002164355
 20
12.8943566979
 30
0.0
 10
7.9001753169
 20
12.8936336113
 30
0.0
 10
7.8999976087
 20
12.8930307141
 30
0.0
 10
7.8997746279
 20
12.8927070499
 30
0.0
 10
7.8996459094
 20
12.892578352
 30
0.0
  0
SPLINE
  5
51E
100
AcDbEntity
  8
0
100
AcDbSpline
 62
9
  6
CONTINUOUS
 70
0
 71
3
 72
18
 73
14
 74
0
 42
0.0000001
 43
0.0000001
 44
0.0000000001
 40
0.0
 40
0.0
 40
0.0
 40
0.0
 40
0.019228855
 40
0.046095831
 40
0.0798661725
 40
0.1195847179
 40
0.1641357587
 40
0.2121707864
 40
0.3205371937
 40
0.45505845
 40
0.6164448815
 40
0.800746036
 40
1.0
 40
1.0
 40
1.0
 40
1.0
 10
7.8613303662
 20
12.9634760276
 30
0.0
 10
7.8613103186
 20
12.9634033919
 30
0.0
 10
7.8612350514
 20
12.9632375989
 30
0.0
 10
7.8610768915
 20
12.9629677509
 30
0.0
 10
7.8608569949
 20
12.9626413047
 30
0.0
 10
7.8605838936
 20
12.9622679593
 30
0.0
 10
7.8602663549
 20
12.9618580339
 30
0.0
 10
7.8597717243
 20
12.9612452602
 30
0.0
 10
7.8590340605
 20
12.9603758443
 30
0.0
 10
7.8579821065
 20
12.9591911795
 30
0.0
 10
7.8567060333
 20
12.957808018
 30
0.0
 10
7.8552317152
 20
12.9562630635
 30
0.0
 10
7.8541771414
 20
12.9551919971
 30
0.0
 10
7.8536250096
 20
12.9546398961
 30
0.0
  0
SPLINE
  5
51F
100
AcDbEntity
  8
0
100
AcDbSpline
 62
9
  6
CONTINUOUS
 70
0
 71
3
 72
12
 73
8
 74
0
 42
0.0000001
 43
0.0000001
 44
0.0000000001
 40
0.0
 40
0.0
 40
0.0
 40
0.0
 40
0.3418961708
 40
0.6225514691
 40
0.8418040758
 40
0.92846999
 40
1.0
 40
1.0
 40
1.0
 40
1.0
 10
8.559747147
 20
12.2612374956
 30
0.0
 10
8.5601937593
 20
12.2609724325
 30
0.0
 10
8.5610123361
 20
12.2604985268
 30
0.0
 10
8.5621402021
 20
12.2598956782
 30
0.0
 10
8.5629465586
 20
12.2595144326
 30
0.0
 10
8.5634813194
 20
12.2593070658
 30
0.0
 10
8.5637108912
 20
12.2592349068
 30
0.0
 10
8.5638161813
 20
12.2592080741
 30
0.0
  0
SPLINE
  5
520
100
AcDbEntity
  8
0
100
AcDbSpline
 62
9
  6
CONTINUOUS
 70
0
 71
3
 72
21
 73
17
 74
0
 42
0.0000001
 43
0.0000001
 44
0.0000000001
 40
0.0
 40
0.0
 40
0.0
 40
0.0
 40
0.0540235798
 40
0.0979722277
 40
0.132796645
 40
0.1604517596
 40
0.1847453257
 40
0.2110376145
 40
0.2437237157
 40
0.2851787187
 40
0.3365460926
 40
0.3983974286
 40
0.4710363595
 40
0.5546331689
 40
0.755035233
 40
1.0
 40
1.0
 40
1.0
 40
1.0
 10
8.5638161813
 20
12.2592080741
 30
0.0
 10
8.5638828136
 20
12.2591910931
 30
0.0
 10
8.5640048426
 20
12.259164511
 30
0.0
 10
8.5641735574
 20
12.259147366
 30
0.0
 10
8.5643095635
 20
12.2591572476
 30
0.0
 10
8.5644155851
 20
12.2591968367
 30
0.0
 10
8.5644857635
 20
12.2592734376
 30
0.0
 10
8.5645107868
 20
12.2593799081
 30
0.0
 10
8.5644977129
 20
12.2595082651
 30
0.0
 10
8.5644507285
 20
12.2596616134
 30
0.0
 10
8.5643696553
 20
12.2598413767
 30
0.0
 10
8.5642543516
 20
12.2600481602
 30
0.0
 10
8.5641046264
 20
12.2602820499
 30
0.0
 10
8.5638426763
 20
12.2606529186
 30
0.0
 10
8.5634247869
 20
12.2611813338
 30
0.0
 10
8.5630542397
 20
12.2616104619
 30
0.0
 10
8.5628471347
 20
12.261843536
 30
0.0
  0
LINE
  5
521
100
AcDbEntity
  8
0
100
AcDbLine
 62
9
  6
CONTINUOUS
 10
8.5628471347
 20
12.261843536
 11
8.5605668464
 21
12.2642371405
  0
LINE
  5
522
100
AcDbEntity
  8
0
100
AcDbLine
 62
9
  6
CONTINUOUS
 10
8.6060063586
 20
12.2187976283
 11
8.6021093932
 21
12.2222740904
  0
SPLINE
  5
523
100
AcDbEntity
  8
0
100
AcDbSpline
 62
9
  6
CONTINUOUS
 70
0
 71
3
 72
13
 73
9
 74
0
 42
0.0000001
 43
0.0000001
 44
0.0000000001
 40
0.0
 40
0.0
 40
0.0
 40
0.0
 40
0.0745462129
 40
0.1666573158
 40
0.2748788154
 40
0.3976054106
 40
0.6803985483
 40
1.0
 40
1.0
 40
1.0
 40
1.0
 10
8.6021093932
 20
12.2222740904
 30
0.0
 10
8.6010376593
 20
12.223186612
 30
0.0
 10
8.5986250916
 20
12.2252071792
 30
0.0
 10
8.5946177185
 20
12.2285057183
 30
0.0
 10
8.5898844757
 20
12.2323537431
 30
0.0
 10
8.582330027
 20
12.2384390377
 30
0.0
 10
8.5716179746
 20
12.2469666859
 30
0.0
 10
8.5626812477
 20
12.2540033546
 30
0.0
 10
8.5579320196
 20
12.257726665
 30
0.0
  0
LINE
  5
524
100
AcDbEntity
  8
0
100
AcDbLine
 62
9
  6
CONTINUOUS
 10
8.5579320196
 20
12.257726665
 11
8.5536569875
 21
12.2610737916
  0
LINE
  5
525
100
AcDbEntity
  8
0
100
AcDbLine
 62
9
  6
CONTINUOUS
 10
8.6027933571
 20
12.2203827774
 11
8.604416314
 21
12.219279562
  0
SPLINE
  5
526
100
AcDbEntity
  8
0
100
AcDbSpline
 62
9
  6
CONTINUOUS
 70
0
 71
3
 72
29
 73
25
 74
0
 42
0.0000001
 43
0.0000001
 44
0.0000000001
 40
0.0
 40
0.0
 40
0.0
 40
0.0
 40
0.134744377
 40
0.2556700432
 40
0.3626971958
 40
0.455782914
 40
0.5348960194
 40
0.600024947
 40
0.6512003901
 40
0.6715986742
 40
0.6885845676
 40
0.702233679
 40
0.7126986844
 40
0.7203320529
 40
0.7260458728
 40
0.7317684858
 40
0.7394277159
 40
0.7499391909
 40
0.7636653053
 40
0.7807728087
 40
0.8013520658
 40
0.8531275
 40
0.9192847658
 40
1.0
 40
1.0
 40
1.0
 40
1.0
 10
8.604416314
 20
12.219279562
 30
0.0
 10
8.6045453795
 20
12.2191939506
 30
0.0
 10
8.6047908613
 20
12.2190323889
 30
0.0
 10
8.6051412271
 20
12.2188064496
 30
0.0
 10
8.6054536706
 20
12.2186100958
 30
0.0
 10
8.6057279713
 20
12.2184434357
 30
0.0
 10
8.6059639338
 20
12.2183064943
 30
0.0
 10
8.6061613814
 20
12.2181993541
 30
0.0
 10
8.6063026086
 20
12.2181302327
 30
0.0
 10
8.606396577
 20
12.2180909986
 30
0.0
 10
8.6064518803
 20
12.2180713524
 30
0.0
 10
8.6064975685
 20
12.2180589895
 30
0.0
 10
8.606533836
 20
12.21805404
 30
0.0
 10
8.6065615212
 20
12.2180558897
 30
0.0
 10
8.6065816698
 20
12.2180679035
 30
0.0
 10
8.6065882039
 20
12.2180904635
 30
0.0
 10
8.6065830279
 20
12.2181178127
 30
0.0
 10
8.6065690865
 20
12.218151845
 30
0.0
 10
8.6065455426
 20
12.2181932293
 30
0.0
 10
8.6065124338
 20
12.2182422161
 30
0.0
 10
8.6064502936
 20
12.2183241942
 30
0.0
 10
8.6063466348
 20
12.2184451769
 30
0.0
 10
8.6061908749
 20
12.2186121658
 30
0.0
 10
8.6060721832
 20
12.2187322488
 30
0.0
 10
8.6060063586
 20
12.2187976283
 30
0.0
  0
SPLINE
  5
527
100
AcDbEntity
  8
0
100
AcDbSpline
 62
9
  6
CONTINUOUS
 70
0
 71
3
 72
19
 73
15
 74
0
 42
0.0000001
 43
0.0000001
 44
0.0000000001
 40
0.0
 40
0.0
 40
0.0
 40
0.0
 40
0.2232353255
 40
0.4180048617
 40
0.5838803716
 40
0.7206864817
 40
0.7782471637
 40
0.8286478355
 40
0.8719992087
 40
0.9085076669
 40
0.9385390741
 40
0.9627654459
 40
0.9824754473
 40
1.0
 40
1.0
 40
1.0
 40
1.0
 10
8.5456427973
 20
12.2626221104
 30
0.0
 10
8.5459379983
 20
12.262327255
 30
0.0
 10
8.5464859258
 20
12.2617702604
 30
0.0
 10
8.5472323992
 20
12.2609740065
 30
0.0
 10
8.5478459986
 20
12.2602752599
 30
0.0
 10
8.5482672907
 20
12.2597494851
 30
0.0
 10
8.5485334165
 20
12.2593772348
 30
0.0
 10
8.5486873398
 20
12.259139837
 30
0.0
 10
8.5488075077
 20
12.2589278807
 30
0.0
 10
8.5488940648
 20
12.2587412828
 30
0.0
 10
8.5489472511
 20
12.2585796067
 30
0.0
 10
8.5489670641
 20
12.2584417634
 30
0.0
 10
8.5489516458
 20
12.2583256409
 30
0.0
 10
8.5489135758
 20
12.2582642126
 30
0.0
 10
8.5488904635
 20
12.258241004
 30
0.0
  0
LINE
  5
528
100
AcDbEntity
  8
0
100
AcDbLine
 62
9
  6
CONTINUOUS
 10
8.5906131462
 20
12.2176517614
 11
8.5910828603
 21
12.2170206308
  0
SPLINE
  5
529
100
AcDbEntity
  8
0
100
AcDbSpline
 62
9
  6
CONTINUOUS
 70
0
 71
3
 72
16
 73
12
 74
0
 42
0.0000001
 43
0.0000001
 44
0.0000000001
 40
0.0
 40
0.0
 40
0.0
 40
0.0
 40
0.1313660918
 40
0.2552895073
 40
0.3702909873
 40
0.4804074225
 40
0.5985042254
 40
0.7254231205
 40
0.8598965276
 40
0.9294100457
 40
1.0
 40
1.0
 40
1.0
 40
1.0
 10
8.6060073103
 20
12.2187990675
 30
0.0
 10
8.6054193544
 20
12.2192427846
 30
0.0
 10
8.6041910978
 20
12.2199981477
 30
0.0
 10
8.6022413819
 20
12.2207424333
 30
0.0
 10
8.6003114717
 20
12.2211186903
 30
0.0
 10
8.598379954
 20
12.2211768962
 30
0.0
 10
8.5963968694
 20
12.2209113391
 30
0.0
 10
8.5943577668
 20
12.2202644552
 30
0.0
 10
8.5927131323
 20
12.2193792592
 30
0.0
 10
8.5914729789
 20
12.2184636784
 30
0.0
 10
8.5908897123
 20
12.2179349577
 30
0.0
 10
8.5906099437
 20
12.2176549619
 30
0.0
  0
LINE
  5
52A
100
AcDbEntity
  8
0
100
AcDbLine
 62
9
  6
CONTINUOUS
 10
8.4732471421
 20
12.335816713
 11
8.4742485981
 21
12.3350621613
  0
SPLINE
  5
52B
100
AcDbEntity
  8
0
100
AcDbSpline
 62
9
  6
CONTINUOUS
 70
0
 71
3
 72
18
 73
14
 74
0
 42
0.0000001
 43
0.0000001
 44
0.0000000001
 40
0.0
 40
0.0
 40
0.0
 40
0.0
 40
0.1412565404
 40
0.2893803379
 40
0.4385088584
 40
0.5826657946
 40
0.7159768073
 40
0.7768984129
 40
0.8331393266
 40
0.8841173238
 40
0.929271824
 40
0.9680824909
 40
1.0
 40
1.0
 40
1.0
 40
1.0
 10
8.4742485981
 20
12.3350621613
 30
0.0
 10
8.478447837
 20
12.3318950375
 30
0.0
 10
8.4870117953
 20
12.3253554572
 30
0.0
 10
8.4998901266
 20
12.3153177632
 30
0.0
 10
8.5127575742
 20
12.3050915728
 30
0.0
 10
8.5250959466
 20
12.2950873663
 30
0.0
 10
8.5347953596
 20
12.2870444526
 30
0.0
 10
8.5419133299
 20
12.2810180799
 30
0.0
 10
8.5466596126
 20
12.2769351552
 30
0.0
 10
8.550926132
 20
12.2731951286
 30
0.0
 10
8.5546660287
 20
12.2698392998
 30
0.0
 10
8.5578330934
 20
12.2669085745
 30
0.0
 10
8.5597282639
 20
12.2650792732
 30
0.0
 10
8.5605668464
 20
12.2642371405
 30
0.0
  0
SPLINE
  5
52C
100
AcDbEntity
  8
0
100
AcDbSpline
 62
9
  6
CONTINUOUS
 70
0
 71
3
 72
22
 73
18
 74
0
 42
0.0000001
 43
0.0000001
 44
0.0000000001
 40
0.0
 40
0.0
 40
0.0
 40
0.0
 40
0.2200299195
 40
0.4137424478
 40
0.579947063
 40
0.6524950537
 40
0.717915162
 40
0.7761734942
 40
0.8272653639
 40
0.8712540634
 40
0.8906340471
 40
0.9083077929
 40
0.9387096942
 40
0.9630907938
 40
0.9827025312
 40
0.9914549196
 40
1.0
 40
1.0
 40
1.0
 40
1.0
 10
8.462778728
 20
12.3454861797
 30
0.0
 10
8.4635277117
 20
12.3447378275
 30
0.0
 10
8.4649231306
 20
12.343317495
 30
0.0
 10
8.4668288026
 20
12.3412783664
 30
0.0
 10
8.468199967
 20
12.3397121421
 30
0.0
 10
8.4691245028
 20
12.338577241
 30
0.0
 10
8.4697002512
 20
12.3378286628
 30
0.0
 10
8.4701898094
 20
12.3371445839
 30
0.0
 10
8.4705924977
 20
12.336525971
 30
0.0
 10
8.4708661268
 20
12.3360474085
 30
0.0
 10
8.4710383072
 20
12.3356973334
 30
0.0
 10
8.4711672518
 20
12.3353993931
 30
0.0
 10
8.4712795357
 20
12.3350680519
 30
0.0
 10
8.4713362515
 20
12.3347123371
 30
0.0
 10
8.4713056146
 20
12.334454459
 30
0.0
 10
8.4712291378
 20
12.3342925946
 30
0.0
 10
8.4711767711
 20
12.3342267857
 30
0.0
 10
8.471147692
 20
12.3341977143
 30
0.0
  0
SPLINE
  5
52D
100
AcDbEntity
  8
0
100
AcDbSpline
 62
9
  6
CONTINUOUS
 70
0
 71
3
 72
16
 73
12
 74
0
 42
0.0000001
 43
0.0000001
 44
0.0000000001
 40
0.0
 40
0.0
 40
0.0
 40
0.0
 40
0.1269081444
 40
0.247598044
 40
0.3607570751
 40
0.4702890172
 40
0.5890466441
 40
0.7180089143
 40
0.8557926805
 40
0.9272971833
 40
1.0
 40
1.0
 40
1.0
 40
1.0
 10
8.5605677449
 20
12.2642384758
 30
0.0
 10
8.5600123602
 20
12.2646493107
 30
0.0
 10
8.5588432603
 20
12.2653420957
 30
0.0
 10
8.5569800952
 20
12.2659965677
 30
0.0
 10
8.5551257048
 20
12.2662952631
 30
0.0
 10
8.5532593818
 20
12.2662863617
 30
0.0
 10
8.5513328144
 20
12.2659624885
 30
0.0
 10
8.5493414515
 20
12.2652685187
 30
0.0
 10
8.5477273976
 20
12.2643602165
 30
0.0
 10
8.5465001252
 20
12.2634354873
 30
0.0
 10
8.545919177
 20
12.262905414
 30
0.0
 10
8.5456394394
 20
12.2626254663
 30
0.0
  0
SPLINE
  5
52E
100
AcDbEntity
  8
0
100
AcDbSpline
 62
9
  6
CONTINUOUS
 70
0
 71
3
 72
14
 73
10
 74
0
 42
0.0000001
 43
0.0000001
 44
0.0000000001
 40
0.0
 40
0.0
 40
0.0
 40
0.0
 40
0.1179267611
 40
0.2322575441
 40
0.3419556787
 40
0.4505934469
 40
0.7033767661
 40
0.8478016706
 40
1.0
 40
1.0
 40
1.0
 40
1.0
 10
8.4768392642
 20
12.3479670876
 30
0.0
 10
8.4763435566
 20
12.3483172931
 30
0.0
 10
8.4752820557
 20
12.3488938815
 30
0.0
 10
8.4735790645
 20
12.3493813915
 30
0.0
 10
8.4718647433
 20
12.3495364867
 30
0.0
 10
8.4694388369
 20
12.3493525435
 30
0.0
 10
8.4669194912
 20
12.3485134634
 30
0.0
 10
8.4644990291
 20
12.3470376917
 30
0.0
 10
8.4633298111
 20
12.3460428771
 30
0.0
 10
8.4627761034
 20
12.3454888022
 30
0.0
  0
SPLINE
  5
52F
100
AcDbEntity
  8
0
100
AcDbSpline
 62
9
  6
CONTINUOUS
 70
0
 71
3
 72
17
 73
13
 74
0
 42
0.0000001
 43
0.0000001
 44
0.0000000001
 40
0.0
 40
0.0
 40
0.0
 40
0.0
 40
0.0177156775
 40
0.0375220808
 40
0.0617333631
 40
0.0916573949
 40
0.1710410925
 40
0.2784699466
 40
0.4148775018
 40
0.580570203
 40
0.7756217037
 40
1.0
 40
1.0
 40
1.0
 40
1.0
 10
7.234876315
 20
13.5729791255
 30
0.0
 10
7.2348848661
 20
13.5729875753
 30
0.0
 10
7.2349072922
 20
13.5730015196
 30
0.0
 10
7.2349495875
 20
13.5730074443
 30
0.0
 10
7.2349996747
 20
13.5730005662
 30
0.0
 10
7.2350861044
 20
13.5729723826
 30
0.0
 10
7.2352160121
 20
13.5729015825
 30
0.0
 10
7.2353960997
 20
13.5727762687
 30
0.0
 10
7.2356128091
 20
13.5726019554
 30
0.0
 10
7.235865962
 20
13.5723788863
 30
0.0
 10
7.2361553393
 20
13.572106926
 30
0.0
 10
7.2363580695
 20
13.5719071224
 30
0.0
 10
7.2364655921
 20
13.5717993156
 30
0.0
  0
SPLINE
  5
530
100
AcDbEntity
  8
0
100
AcDbSpline
 62
9
  6
CONTINUOUS
 70
0
 71
3
 72
31
 73
27
 74
0
 42
0.0000001
 43
0.0000001
 44
0.0000000001
 40
0.0
 40
0.0
 40
0.0
 40
0.0
 40
0.1245904098
 40
0.2348453176
 40
0.3309441654
 40
0.4128967294
 40
0.4806583714
 40
0.5092451534
 40
0.5343459834
 40
0.556017847
 40
0.5743502672
 40
0.5894936131
 40
0.6017187118
 40
0.6115381004
 40
0.6199138328
 40
0.6283150454
 40
0.6381926443
 40
0.6504703465
 40
0.6656255727
 40
0.6839002718
 40
0.7054221772
 40
0.730268426
 40
0.7584919287
 40
0.8251937463
 40
0.9056937151
 40
1.0
 40
1.0
 40
1.0
 40
1.0
 10
7.29727839
 20
13.5275255969
 30
0.0
 10
7.2968264944
 20
13.5279799446
 30
0.0
 10
7.295968343
 20
13.5288300945
 30
0.0
 10
7.2947366256
 20
13.5300050886
 30
0.0
 10
7.2936401289
 20
13.5310036562
 30
0.0
 10
7.2926797248
 20
13.5318262112
 30
0.0
 10
7.29195842
 20
13.5323933726
 30
0.0
 10
7.2914482689
 20
13.5327540869
 30
0.0
 10
7.2911225958
 20
13.532964518
 30
0.0
 10
7.290831712
 20
13.5331308412
 30
0.0
 10
7.2905754998
 20
13.533253314
 30
0.0
 10
7.2903534759
 20
13.5333323686
 30
0.0
 10
7.2901645262
 20
13.533368186
 30
0.0
 10
7.2900058359
 20
13.533359856
 30
0.0
 10
7.2898778295
 20
13.5332997329
 30
0.0
 10
7.2897922529
 20
13.5331868365
 30
0.0
 10
7.2897499557
 20
13.5330330412
 30
0.0
 10
7.2897434158
 20
13.5328402442
 30
0.0
 10
7.2897710961
 20
13.5326061866
 30
0.0
 10
7.2898327333
 20
13.5323300218
 30
0.0
 10
7.28992847
 20
13.5320114024
 30
0.0
 10
7.2900584329
 20
13.5316502876
 30
0.0
 10
7.2902909467
 20
13.5310796798
 30
0.0
 10
7.2906734634
 20
13.5302619431
 30
0.0
 10
7.2912468384
 20
13.5291598096
 30
0.0
 10
7.2916862693
 20
13.5283752628
 30
0.0
 10
7.2919278598
 20
13.5279546579
 30
0.0
  0
SPLINE
  5
531
100
AcDbEntity
  8
0
100
AcDbSpline
 62
9
  6
CONTINUOUS
 70
0
 71
3
 72
12
 73
8
 74
0
 42
0.0000001
 43
0.0000001
 44
0.0000000001
 40
0.0
 40
0.0
 40
0.0
 40
0.0
 40
0.3336936078
 40
0.6120218127
 40
0.8336960036
 40
0.9236213959
 40
1.0
 40
1.0
 40
1.0
 40
1.0
 10
7.3885780508
 20
13.4066288356
 30
0.0
 10
7.3889826151
 20
13.4062526904
 30
0.0
 10
7.3897325793
 20
13.4055711686
 30
0.0
 10
7.3907857777
 20
13.4046788689
 30
0.0
 10
7.3915630892
 20
13.4040860732
 30
0.0
 10
7.3920995168
 20
13.4037324481
 30
0.0
 10
7.3923381812
 20
13.4035946403
 30
0.0
 10
7.3924504124
 20
13.4035364051
 30
0.0
  0
SPLINE
  5
532
100
AcDbEntity
  8
0
100
AcDbSpline
 62
9
  6
CONTINUOUS
 70
0
 71
3
 72
21
 73
17
 74
0
 42
0.0000001
 43
0.0000001
 44
0.0000000001
 40
0.0
 40
0.0
 40
0.0
 40
0.0
 40
0.0543079773
 40
0.0985198743
 40
0.1336047699
 40
0.1615190384
 40
0.1860251434
 40
0.2123968135
 40
0.2450055579
 40
0.286277531
 40
0.3374117822
 40
0.3990199397
 40
0.471436251
 40
0.5548555013
 40
0.7550735823
 40
1.0
 40
1.0
 40
1.0
 40
1.0
 10
7.3924504124
 20
13.4035364051
 30
0.0
 10
7.3925392204
 20
13.4034903238
 30
0.0
 10
7.3927034278
 20
13.4034123404
 30
0.0
 10
7.3929370628
 20
13.403332346
 30
0.0
 10
7.3931334729
 20
13.4033013987
 30
0.0
 10
7.393297239
 20
13.4033222263
 30
0.0
 10
7.3934228229
 20
13.4034065495
 30
0.0
 10
7.3934952886
 20
13.4035476986
 30
0.0
 10
7.3935212248
 20
13.4037323774
 30
0.0
 10
7.3935074408
 20
13.4039632237
 30
0.0
 10
7.393454169
 20
13.4042424257
 30
0.0
 10
7.3933613291
 20
13.4045709727
 30
0.0
 10
7.3932285935
 20
13.4049491392
 30
0.0
 10
7.3929826549
 20
13.4055574376
 30
0.0
 10
7.3925678132
 20
13.4064391233
 30
0.0
 10
7.3921861423
 20
13.4071651601
 30
0.0
 10
7.3919703742
 20
13.4075614571
 30
0.0
  0
SPLINE
  5
533
100
AcDbEntity
  8
0
100
AcDbSpline
 62
9
  6
CONTINUOUS
 70
0
 71
3
 72
25
 73
21
 74
0
 42
0.0000001
 43
0.0000001
 44
0.0000000001
 40
0.0
 40
0.0
 40
0.0
 40
0.0
 40
0.0142375946
 40
0.0311364852
 40
0.0505986099
 40
0.0725161434
 40
0.1232094211
 40
0.1821573367
 40
0.2481799887
 40
0.3198635605
 40
0.3957273702
 40
0.4741785069
 40
0.6322619644
 40
0.7085399373
 40
0.7807721068
 40
0.8474280225
 40
0.9070676599
 40
0.9583296753
 40
0.9804466862
 40
1.0
 40
1.0
 40
1.0
 40
1.0
 10
7.391887867
 20
13.4077123233
 30
0.0
 10
7.3915386239
 20
13.4083481463
 30
0.0
 10
7.3907446234
 20
13.4097220212
 30
0.0
 10
7.3893954971
 20
13.4119191002
 30
0.0
 10
7.3877919275
 20
13.4144184423
 30
0.0
 10
7.3851982364
 20
13.4183276326
 30
0.0
 10
7.381387379
 20
13.4238427249
 30
0.0
 10
7.3761765161
 20
13.4311200805
 30
0.0
 10
7.3702346642
 20
13.4391882851
 30
0.0
 10
7.3636870238
 20
13.4478798542
 30
0.0
 10
7.3566701137
 20
13.4570100645
 30
0.0
 10
7.3468604934
 20
13.4695452383
 30
0.0
 10
7.3368817622
 20
13.4819743182
 30
0.0
 10
7.3269419489
 20
13.4940255692
 30
0.0
 10
7.3198847889
 20
13.502415339
 30
0.0
 10
7.3132894658
 20
13.510085105
 30
0.0
 10
7.3073011974
 20
13.5168667035
 30
0.0
 10
7.3027296775
 20
13.521871036
 30
0.0
 10
7.2994696127
 20
13.5253052273
 30
0.0
 10
7.2979836715
 20
13.5268219432
 30
0.0
 10
7.29727839
 20
13.5275255969
 30
0.0
  0
SPLINE
  5
534
100
AcDbEntity
  8
0
100
AcDbSpline
 62
9
  6
CONTINUOUS
 70
0
 71
3
 72
39
 73
35
 74
0
 42
0.0000001
 43
0.0000001
 44
0.0000000001
 40
0.0
 40
0.0
 40
0.0
 40
0.0
 40
0.1029197004
 40
0.20630652
 40
0.3083760175
 40
0.4073856246
 40
0.5016466985
 40
0.5895725257
 40
0.6697198472
 40
0.706471269
 40
0.7408161823
 40
0.7726239882
 40
0.801774233
 40
0.8281681145
 40
0.8517207713
 40
0.8723674068
 40
0.8900711809
 40
0.9048458006
 40
0.9111616752
 40
0.9167910663
 40
0.921770313
 40
0.9261540625
 40
0.9300251235
 40
0.9335050359
 40
0.9367608674
 40
0.9399959733
 40
0.9434175528
 40
0.9472012525
 40
0.9514773398
 40
0.9563357573
 40
0.9618371649
 40
0.9680226502
 40
0.9825412439
 40
1.0
 40
1.0
 40
1.0
 40
1.0
 10
8.0312009437
 20
12.7936030432
 30
0.0
 10
8.0286563606
 20
12.7961491053
 30
0.0
 10
8.023510334
 20
12.8012076823
 30
0.0
 10
8.0156951355
 20
12.8086413396
 30
0.0
 10
8.0078589174
 20
12.8158524443
 30
0.0
 10
8.0001389476
 20
12.8227163301
 30
0.0
 10
7.992668568
 20
12.8291140697
 30
0.0
 10
7.985576589
 20
12.834936479
 30
0.0
 10
7.9799308418
 20
12.8393477479
 30
0.0
 10
7.9756884986
 20
12.8425078695
 30
0.0
 10
7.9727657814
 20
12.8446084849
 30
0.0
 10
7.9700213355
 20
12.8465006055
 30
0.0
 10
7.9674664464
 20
12.8481764303
 30
0.0
 10
7.9651118619
 20
12.849629505
 30
0.0
 10
7.9629673372
 20
12.8508541527
 30
0.0
 10
7.9610417466
 20
12.8518460138
 30
0.0
 10
7.9593428804
 20
12.8526011411
 30
0.0
 10
7.9580612049
 20
12.8530542615
 30
0.0
 10
7.9571543595
 20
12.8532828371
 30
0.0
 10
7.9565704775
 20
12.8533842489
 30
0.0
 10
7.9560467161
 20
12.8534249781
 30
0.0
 10
7.9555828499
 20
12.8534046064
 30
0.0
 10
7.9551785959
 20
12.8533221872
 30
0.0
 10
7.9548343968
 20
12.8531757368
 30
0.0
 10
7.9545530387
 20
12.8529631189
 30
0.0
 10
7.9543390547
 20
12.8526852539
 30
0.0
 10
7.9541940309
 20
12.8523465662
 30
0.0
 10
7.9541160247
 20
12.8519502938
 30
0.0
 10
7.9541028425
 20
12.8514971028
 30
0.0
 10
7.9541534133
 20
12.8509866478
 30
0.0
 10
7.9542673831
 20
12.8504185526
 30
0.0
 10
7.9545179181
 20
12.8495361559
 30
0.0
 10
7.955006443
 20
12.8482910857
 30
0.0
 10
7.9554983458
 20
12.8472857995
 30
0.0
 10
7.9557814951
 20
12.8467447948
 30
0.0
  0
LINE
  5
535
100
AcDbEntity
  8
0
100
AcDbLine
 62
9
  6
CONTINUOUS
 10
7.9557814951
 20
12.8467447948
 11
7.9576841754
 21
12.8434765114
  0
LINE
  5
536
100
AcDbEntity
  8
0
100
AcDbLine
 62
9
  6
CONTINUOUS
 10
8.0642576847
 20
12.7413830979
 11
8.0666104818
 21
12.7401134856
  0
SPLINE
  5
537
100
AcDbEntity
  8
0
100
AcDbSpline
 62
9
  6
CONTINUOUS
 70
0
 71
3
 72
36
 73
32
 74
0
 42
0.0000001
 43
0.0000001
 44
0.0000000001
 40
0.0
 40
0.0
 40
0.0
 40
0.0
 40
0.0218478315
 40
0.0408153279
 40
0.0569435773
 40
0.0703330325
 40
0.0811939713
 40
0.0858097315
 40
0.0899877481
 40
0.0938499631
 40
0.0975523219
 40
0.1012716317
 40
0.105181004
 40
0.1094289887
 40
0.1141308796
 40
0.1251950743
 40
0.1388131263
 40
0.1551902585
 40
0.1744247795
 40
0.1965550023
 40
0.2215696801
 40
0.2494337627
 40
0.2800883224
 40
0.3134623407
 40
0.3880108767
 40
0.4722414169
 40
0.565130425
 40
0.6655832265
 40
0.7724296561
 40
0.8843630459
 40
1.0
 40
1.0
 40
1.0
 40
1.0
 10
8.0666104818
 20
12.7401134856
 30
0.0
 10
8.0671193156
 20
12.7398570567
 30
0.0
 10
8.0680800838
 20
12.7393975416
 30
0.0
 10
8.069454985
 20
12.7388336753
 30
0.0
 10
8.0706598597
 20
12.7384437962
 30
0.0
 10
8.0716927151
 20
12.7382277122
 30
0.0
 10
8.0724507656
 20
12.7381905844
 30
0.0
 10
8.0729595047
 20
12.7382658634
 30
0.0
 10
8.0732759656
 20
12.738365338
 30
0.0
 10
8.0735473398
 20
12.7385118801
 30
0.0
 10
8.0737716535
 20
12.7387062177
 30
0.0
 10
8.0739470672
 20
12.7389470699
 30
0.0
 10
8.0740731304
 20
12.7392322389
 30
0.0
 10
8.0741508252
 20
12.7395600836
 30
0.0
 10
8.0741933591
 20
12.7400818972
 30
0.0
 10
8.0741111696
 20
12.7408496215
 30
0.0
 10
8.0738368726
 20
12.7418868591
 30
0.0
 10
8.0733811242
 20
12.7430890995
 30
0.0
 10
8.0727436632
 20
12.7444544792
 30
0.0
 10
8.0719246449
 20
12.7459804723
 30
0.0
 10
8.0709258969
 20
12.7476631021
 30
0.0
 10
8.0697497837
 20
12.7494973416
 30
0.0
 10
8.0683996944
 20
12.7514777771
 30
0.0
 10
8.0662935014
 20
12.7544150871
 30
0.0
 10
8.0632475046
 20
12.7583960265
 30
0.0
 10
8.059102859
 20
12.7634863557
 30
0.0
 10
8.0543960478
 20
12.7689872797
 30
0.0
 10
8.0491843664
 20
12.7748301075
 30
0.0
 10
8.043529821
 20
12.7809415428
 30
0.0
 10
8.0375019591
 20
12.7872453692
 30
0.0
 10
8.0333346284
 20
12.7914716918
 30
0.0
 10
8.0312009437
 20
12.7936030432
 30
0.0
  0
SPLINE
  5
538
100
AcDbEntity
  8
0
100
AcDbSpline
 62
9
  6
CONTINUOUS
 70
0
 71
3
 72
49
 73
45
 74
0
 42
0.0000001
 43
0.0000001
 44
0.0000000001
 40
0.0
 40
0.0
 40
0.0
 40
0.0
 40
0.0299558704
 40
0.063319866
 40
0.0997041961
 40
0.1387791315
 40
0.2235748407
 40
0.3148177626
 40
0.4095451902
 40
0.5046528239
 40
0.551375003
 40
0.5970392852
 40
0.6412823145
 40
0.6837538103
 40
0.7241047315
 40
0.7620057388
 40
0.7971472399
 40
0.8292397433
 40
0.8580420884
 40
0.8833628963
 40
0.8946675192
 40
0.9050413686
 40
0.91446403
 40
0.9229100596
 40
0.9303538093
 40
0.9367758548
 40
0.9421670543
 40
0.9465334435
 40
0.9483475169
 40
0.9499292873
 40
0.9512952523
 40
0.9524700053
 40
0.9534908316
 40
0.9544127567
 40
0.9553081932
 40
0.9562546943
 40
0.9573178727
 40
0.9585442754
 40
0.9615932028
 40
0.9655418305
 40
0.9704457882
 40
0.9763282863
 40
0.983199768
 40
1.0
 40
1.0
 40
1.0
 40
1.0
 10
8.476838279
 20
12.3479657079
 30
0.0
 10
8.4757243083
 20
12.3490836982
 30
0.0
 10
8.4733423766
 20
12.3514197469
 30
0.0
 10
8.4695340769
 20
12.3550380258
 30
0.0
 10
8.4653266836
 20
12.3589330692
 30
0.0
 10
8.4590680506
 20
12.364600316
 30
0.0
 10
8.4505565204
 20
12.3720844932
 30
0.0
 10
8.4396998347
 20
12.3813391059
 30
0.0
 10
8.428296192
 20
12.3907873142
 30
0.0
 10
8.4185913958
 20
12.3986075884
 30
0.0
 10
8.4108360708
 20
12.4047260167
 30
0.0
 10
8.4051528163
 20
12.4091439662
 30
0.0
 10
8.3996143006
 20
12.4133828941
 30
0.0
 10
8.3942655096
 20
12.4174087811
 30
0.0
 10
8.3891498978
 20
12.4211884531
 30
0.0
 10
8.3843097529
 20
12.4246906188
 30
0.0
 10
8.3797853322
 20
12.4278863293
 30
0.0
 10
8.3756133924
 20
12.4307494699
 30
0.0
 10
8.371826551
 20
12.4332583298
 30
0.0
 10
8.368914647
 20
12.435103801
 30
0.0
 10
8.3667959464
 20
12.4363855859
 30
0.0
 10
8.3653805346
 20
12.437211306
 30
0.0
 10
8.3640811294
 20
12.4379365091
 30
0.0
 10
8.3629014545
 20
12.4385588241
 30
0.0
 10
8.3618454604
 20
12.4390757293
 30
0.0
 10
8.3609167325
 20
12.4394851721
 30
0.0
 10
8.3601185464
 20
12.4397856427
 30
0.0
 10
8.3595313474
 20
12.4399544579
 30
0.0
 10
8.3591285029
 20
12.4400269968
 30
0.0
 10
8.3588783365
 20
12.4400504295
 30
0.0
 10
8.3586605921
 20
12.4400466155
 30
0.0
 10
8.3584746419
 20
12.440015368
 30
0.0
 10
8.3583200089
 20
12.4399558162
 30
0.0
 10
8.3581975872
 20
12.4398663515
 30
0.0
 10
8.3581101935
 20
12.4397470023
 30
0.0
 10
8.3580591487
 20
12.4396007333
 30
0.0
 10
8.3580426946
 20
12.4394298065
 30
0.0
 10
8.3580667858
 20
12.4391484641
 30
0.0
 10
8.3581928742
 20
12.4387301924
 30
0.0
 10
8.3584581582
 20
12.438161238
 30
0.0
 10
8.3588503971
 20
12.4374902181
 30
0.0
 10
8.3593696261
 20
12.4367178507
 30
0.0
 10
8.3602967761
 20
12.4354664007
 30
0.0
 10
8.3610939847
 20
12.4345060324
 30
0.0
 10
8.3616723464
 20
12.4338359967
 30
0.0
  0
LINE
  5
539
100
AcDbEntity
  8
0
100
AcDbLine
 62
9
  6
CONTINUOUS
 10
7.217413893
 20
13.5908506511
 11
7.2320843492
 21
13.5709479317
  0
LINE
  5
53A
100
AcDbEntity
  8
0
100
AcDbLine
 62
9
  6
CONTINUOUS
 10
7.2320843492
 20
13.5709479317
 11
7.23241052
 21
13.5705070335
  0
SPLINE
  5
53B
100
AcDbEntity
  8
0
100
AcDbSpline
 62
9
  6
CONTINUOUS
 70
0
 71
3
 72
31
 73
27
 74
0
 42
0.0000001
 43
0.0000001
 44
0.0000000001
 40
0.0
 40
0.0
 40
0.0
 40
0.0
 40
0.0809962797
 40
0.1488667054
 40
0.1778495869
 40
0.2035325792
 40
0.2259395386
 40
0.2451292649
 40
0.2612118822
 40
0.2743918743
 40
0.2850665771
 40
0.2939953577
 40
0.3024218682
 40
0.3117885863
 40
0.3231806384
 40
0.3372118209
 40
0.354204701
 40
0.3743335417
 40
0.3976969712
 40
0.4243529038
 40
0.4876553675
 40
0.5642936619
 40
0.654108162
 40
0.7568586712
 40
0.8722589871
 40
1.0
 40
1.0
 40
1.0
 40
1.0
 10
8.4804038758
 20
12.337268284
 30
0.0
 10
8.4809625222
 20
12.3369593361
 30
0.0
 10
8.4819974028
 20
12.3364059783
 30
0.0
 10
8.4832604881
 20
12.3357964215
 30
0.0
 10
8.4841498975
 20
12.3354194951
 30
0.0
 10
8.4847183632
 20
12.3352047881
 30
0.0
 10
8.4852236115
 20
12.3350428303
 30
0.0
 10
8.4856653757
 20
12.3349335963
 30
0.0
 10
8.486043808
 20
12.3348768763
 30
0.0
 10
8.4863599386
 20
12.3348728491
 30
0.0
 10
8.486616183
 20
12.3349228637
 30
0.0
 10
8.486813426
 20
12.3350345305
 30
0.0
 10
8.4869380694
 20
12.3352128632
 30
0.0
 10
8.486983343
 20
12.3354432154
 30
0.0
 10
8.4869600862
 20
12.3357184887
 30
0.0
 10
8.4868727373
 20
12.3360423975
 30
0.0
 10
8.4867215443
 20
12.3364168367
 30
0.0
 10
8.4865062098
 20
12.3368426083
 30
0.0
 10
8.4862264659
 20
12.3373198032
 30
0.0
 10
8.4857385502
 20
12.3380682224
 30
0.0
 10
8.4849587931
 20
12.3391258432
 30
0.0
 10
8.4838165219
 20
12.3405314393
 30
0.0
 10
8.4824225975
 20
12.3421315361
 30
0.0
 10
8.4807814875
 20
12.3439202131
 30
0.0
 10
8.4788979029
 20
12.3458912766
 30
0.0
 10
8.4775508315
 20
12.3472544165
 30
0.0
 10
8.476838279
 20
12.3479657079
 30
0.0
  0
SPLINE
  5
53C
100
AcDbEntity
  8
0
100
AcDbSpline
 62
9
  6
CONTINUOUS
 70
0
 71
3
 72
36
 73
32
 74
0
 42
0.0000001
 43
0.0000001
 44
0.0000000001
 40
0.0
 40
0.0
 40
0.0
 40
0.0
 40
0.1203179994
 40
0.235065695
 40
0.3431398807
 40
0.4435488805
 40
0.5353890239
 40
0.6178706296
 40
0.6903277511
 40
0.7225726158
 40
0.7520423229
 40
0.7786598747
 40
0.8023677529
 40
0.823173318
 40
0.8411232261
 40
0.8563041264
 40
0.8688754827
 40
0.8742746934
 40
0.8791528618
 40
0.8876641032
 40
0.8915708355
 40
0.8954365762
 40
0.8994230325
 40
0.9036774997
 40
0.908321168
 40
0.9134470929
 40
0.9253906485
 40
0.9398777012
 40
0.9570941089
 40
0.9771267802
 40
1.0
 40
1.0
 40
1.0
 40
1.0
 10
7.6947089856
 20
13.1300950013
 30
0.0
 10
7.692875106
 20
13.1319338514
 30
0.0
 10
7.6892651096
 20
13.1354994733
 30
0.0
 10
7.6839172304
 20
13.1406240375
 30
0.0
 10
7.6788005375
 20
13.1453674865
 30
0.0
 10
7.6739653611
 20
13.1496857434
 30
0.0
 10
7.669458514
 20
13.1535405306
 30
0.0
 10
7.6653219997
 20
13.1568974299
 30
0.0
 10
7.6621046675
 20
13.1593431351
 30
0.0
 10
7.6597412874
 20
13.1610173542
 30
0.0
 10
7.6581568771
 20
13.1620784001
 30
0.0
 10
7.6566957348
 20
13.1629909581
 30
0.0
 10
7.655361584
 20
13.1637518034
 30
0.0
 10
7.6541575664
 20
13.164360052
 30
0.0
 10
7.6530851983
 20
13.164816286
 30
0.0
 10
7.6521454456
 20
13.1651209878
 30
0.0
 10
7.6514394321
 20
13.1652561981
 30
0.0
 10
7.6509455265
 20
13.1652766795
 30
0.0
 10
7.6505408491
 20
13.165246325
 30
0.0
 10
7.6501738328
 20
13.1651400198
 30
0.0
 10
7.6498792779
 20
13.1649438773
 30
0.0
 10
7.6497007688
 20
13.1647608001
 30
0.0
 10
7.6495595804
 20
13.1645389075
 30
0.0
 10
7.6494555024
 20
13.1642795512
 30
0.0
 10
7.649387831
 20
13.1639834566
 30
0.0
 10
7.649343332
 20
13.1635158533
 30
0.0
 10
7.6493901478
 20
13.1628323482
 30
0.0
 10
7.6495824549
 20
13.1619084611
 30
0.0
 10
7.6499144811
 20
13.16084084
 30
0.0
 10
7.6503859984
 20
13.1596310521
 30
0.0
 10
7.6507677095
 20
13.1587868304
 30
0.0
 10
7.6509798566
 20
13.1583410253
 30
0.0
  0
LINE
  5
53D
100
AcDbEntity
  8
0
100
AcDbLine
 62
9
  6
CONTINUOUS
 10
7.6509798566
 20
13.1583410253
 11
7.6523689688
 21
13.1556570826
  0
SPLINE
  5
53E
100
AcDbEntity
  8
0
100
AcDbSpline
 62
9
  6
CONTINUOUS
 70
0
 71
3
 72
40
 73
36
 74
0
 42
0.0000001
 43
0.0000001
 44
0.0000000001
 40
0.0
 40
0.0
 40
0.0
 40
0.0
 40
0.0209690804
 40
0.038666897
 40
0.0462950431
 40
0.0531192105
 40
0.0591563657
 40
0.0644369389
 40
0.0690091259
 40
0.0729492718
 40
0.0763787389
 40
0.0794810483
 40
0.0825013603
 40
0.0857053575
 40
0.0893205149
 40
0.0935091645
 40
0.098372151
 40
0.1039683729
 40
0.1103326041
 40
0.1174848895
 40
0.1341880002
 40
0.1541078945
 40
0.1772152228
 40
0.2034268085
 40
0.2326174855
 40
0.2646532678
 40
0.2993904507
 40
0.3366703558
 40
0.4181079861
 40
0.5073015923
 40
0.6023857847
 40
0.7013290244
 40
0.802033118
 40
0.9023298742
 40
1.0
 40
1.0
 40
1.0
 40
1.0
 10
7.7530045564
 20
13.0465315576
 30
0.0
 10
7.7537088069
 20
13.0460669637
 30
0.0
 10
7.7550249414
 20
13.0452362704
 30
0.0
 10
7.7566564279
 20
13.0443337271
 30
0.0
 10
7.7578275786
 20
13.0437833451
 30
0.0
 10
7.7585915829
 20
13.0434723736
 30
0.0
 10
7.7592850061
 20
13.0432422579
 30
0.0
 10
7.759907657
 20
13.0430928877
 30
0.0
 10
7.7604598715
 20
13.0430242001
 30
0.0
 10
7.7609425641
 20
13.0430368891
 30
0.0
 10
7.7613566041
 20
13.0431334005
 30
0.0
 10
7.7616996499
 20
13.0433185679
 30
0.0
 10
7.7619636726
 20
13.0435937394
 30
0.0
 10
7.7621433349
 20
13.0439520632
 30
0.0
 10
7.7622414358
 20
13.0443872807
 30
0.0
 10
7.7622616824
 20
13.0448985499
 30
0.0
 10
7.762206309
 20
13.0454865696
 30
0.0
 10
7.7620761652
 20
13.0461516761
 30
0.0
 10
7.7618716054
 20
13.0468935625
 30
0.0
 10
7.7614788999
 20
13.0480448719
 30
0.0
 10
7.7607883572
 20
13.0496674638
 30
0.0
 10
7.7597098096
 20
13.0518161323
 30
0.0
 10
7.758344746
 20
13.0542455454
 30
0.0
 10
7.7567001284
 20
13.0569430596
 30
0.0
 10
7.7547846562
 20
13.0598944177
 30
0.0
 10
7.7526079882
 20
13.0630838421
 30
0.0
 10
7.750180556
 20
13.0664951363
 30
0.0
 10
7.746515474
 20
13.0714642046
 30
0.0
 10
7.7413965077
 20
13.078081889
 30
0.0
 10
7.7346545018
 20
13.0863801776
 30
0.0
 10
7.7272862318
 20
13.0950739183
 30
0.0
 10
7.7194513356
 20
13.1039764058
 30
0.0
 10
7.7113189283
 20
13.1128939441
 30
0.0
 10
7.7030650616
 20
13.1216287679
 30
0.0
 10
7.6974893096
 20
13.1273178028
 30
0.0
 10
7.6947089856
 20
13.1300950013
 30
0.0
  0
SPLINE
  5
53F
100
AcDbEntity
  8
0
100
AcDbSpline
 62
9
  6
CONTINUOUS
 70
0
 71
3
 72
19
 73
15
 74
0
 42
0.0000001
 43
0.0000001
 44
0.0000000001
 40
0.0
 40
0.0
 40
0.0
 40
0.0
 40
0.0174158651
 40
0.0371068192
 40
0.0613976825
 40
0.0915661949
 40
0.1282660048
 40
0.171834143
 40
0.2224549477
 40
0.2802317267
 40
0.4173909421
 40
0.5833413118
 40
0.7777752568
 40
1.0
 40
1.0
 40
1.0
 40
1.0
 10
7.2888955656
 20
13.5176886042
 30
0.0
 10
7.2889298813
 20
13.5177225886
 30
0.0
 10
7.2890211221
 20
13.5177783251
 30
0.0
 10
7.2891933745
 20
13.5177999217
 30
0.0
 10
7.2893982114
 20
13.5177693832
 30
0.0
 10
7.2896388189
 20
13.5176892244
 30
0.0
 10
7.2899167173
 20
13.5175594728
 30
0.0
 10
7.2902324478
 20
13.5173798567
 30
0.0
 10
7.2905860219
 20
13.5171502273
 30
0.0
 10
7.2911400202
 20
13.5167539694
 30
0.0
 10
7.2919217344
 20
13.5161280669
 30
0.0
 10
7.2929592849
 20
13.5152181868
 30
0.0
 10
7.2941385112
 20
13.5141134436
 30
0.0
 10
7.2949623359
 20
13.5133031535
 30
0.0
 10
7.2953978018
 20
13.5128671058
 30
0.0
  0
SPLINE
  5
540
100
AcDbEntity
  8
0
100
AcDbSpline
 62
9
  6
CONTINUOUS
 70
0
 71
3
 72
29
 73
25
 74
0
 42
0.0000001
 43
0.0000001
 44
0.0000000001
 40
0.0
 40
0.0
 40
0.0
 40
0.0
 40
0.1013664254
 40
0.1871308322
 40
0.2576390225
 40
0.3132861479
 40
0.3356743332
 40
0.3545121438
 40
0.369898054
 40
0.3820130099
 40
0.398085122
 40
0.4048324707
 40
0.4130659571
 40
0.423917269
 40
0.4378844459
 40
0.4551893781
 40
0.475939448
 40
0.5001897258
 40
0.5279687366
 40
0.5941545146
 40
0.6745182901
 40
0.7690066298
 40
0.8775363309
 40
1.0
 40
1.0
 40
1.0
 40
1.0
 10
7.2377313564
 20
13.5870726305
 30
0.0
 10
7.2375903839
 20
13.5872150899
 30
0.0
 10
7.237327909
 20
13.5874758993
 30
0.0
 10
7.2369580467
 20
13.5878262671
 30
0.0
 10
7.236644339
 20
13.5881041716
 30
0.0
 10
7.2364153651
 20
13.588288387
 30
0.0
 10
7.2362584658
 20
13.5883985563
 30
0.0
 10
7.2361635297
 20
13.588457551
 30
0.0
 10
7.2360811188
 20
13.5884994765
 30
0.0
 10
7.2360021341
 20
13.5885287368
 30
0.0
 10
7.2359231493
 20
13.5885353289
 30
0.0
 10
7.2358797879
 20
13.5884866436
 30
0.0
 10
7.2358684106
 20
13.5884356615
 30
0.0
 10
7.2358702082
 20
13.5883700861
 30
0.0
 10
7.2358852293
 20
13.588287918
 30
0.0
 10
7.2359132809
 20
13.5881888782
 30
0.0
 10
7.2359545686
 20
13.5880727415
 30
0.0
 10
7.2360090973
 20
13.5879395366
 30
0.0
 10
7.2361052958
 20
13.5877264774
 30
0.0
 10
7.2362604228
 20
13.5874185326
 30
0.0
 10
7.2364893074
 20
13.5870004635
 30
0.0
 10
7.2367704451
 20
13.5865157518
 30
0.0
 10
7.2371034771
 20
13.5859650626
 30
0.0
 10
7.2373453743
 20
13.5855776512
 30
0.0
 10
7.2374747129
 20
13.5853729572
 30
0.0
  0
LINE
  5
541
100
AcDbEntity
  8
0
100
AcDbLine
 62
9
  6
CONTINUOUS
 10
7.2913252422
 20
13.5213730613
 11
7.2879794127
 21
13.525667394
  0
SPLINE
  5
542
100
AcDbEntity
  8
0
100
AcDbSpline
 62
9
  6
CONTINUOUS
 70
0
 71
3
 72
15
 73
11
 74
0
 42
0.0000001
 43
0.0000001
 44
0.0000000001
 40
0.0
 40
0.0
 40
0.0
 40
0.0
 40
0.3191140606
 40
0.4692838321
 40
0.6086565909
 40
0.7340640117
 40
0.8426608457
 40
0.9320202071
 40
0.9688004616
 40
1.0
 40
1.0
 40
1.0
 40
1.0
 10
7.2879794127
 20
13.525667394
 30
0.0
 10
7.2829738273
 20
13.5320794165
 30
0.0
 10
7.2755737047
 20
13.5414785346
 30
0.0
 10
7.2658885335
 20
13.5535995796
 30
0.0
 10
7.2592410427
 20
13.561827221
 30
0.0
 10
7.2532121023
 20
13.5691920195
 30
0.0
 10
7.247938315
 20
13.5755270413
 30
0.0
 10
7.2440595918
 20
13.5800836248
 30
0.0
 10
7.2414167675
 20
13.5831005325
 30
0.0
 10
7.2402588814
 20
13.5843898724
 30
0.0
 10
7.2397217565
 20
13.5849763905
 30
0.0
  0
LINE
  5
543
100
AcDbEntity
  8
0
100
AcDbLine
 62
9
  6
CONTINUOUS
 10
7.2397217565
 20
13.5849763905
 11
7.2377313564
 21
13.5870726305
  0
SPLINE
  5
544
100
AcDbEntity
  8
0
100
AcDbSpline
 62
9
  6
CONTINUOUS
 70
0
 71
3
 72
37
 73
33
 74
0
 42
0.0000001
 43
0.0000001
 44
0.0000000001
 40
0.0
 40
0.0
 40
0.0
 40
0.0
 40
0.1123817095
 40
0.2221243788
 40
0.327739953
 40
0.4278667378
 40
0.5212490655
 40
0.6067727638
 40
0.6832929384
 40
0.7178141915
 40
0.7496750409
 40
0.7788106575
 40
0.805169954
 40
0.8287137098
 40
0.8494167394
 40
0.8672805304
 40
0.8823447982
 40
0.8947252502
 40
0.9046747163
 40
0.9088997208
 40
0.9127526079
 40
0.9163770187
 40
0.9199467614
 40
0.9236444637
 40
0.9276341868
 40
0.9320463789
 40
0.9369770176
 40
0.9424935002
 40
0.9486420925
 40
0.9629479941
 40
0.9800520206
 40
1.0
 40
1.0
 40
1.0
 40
1.0
 10
7.861329144
 20
12.9634748429
 30
0.0
 10
7.8590822414
 20
12.9657274797
 30
0.0
 10
7.8546038592
 20
12.9701427568
 30
0.0
 10
7.847894749
 20
12.9765528276
 30
0.0
 10
7.8413353518
 20
12.9826156919
 30
0.0
 10
7.8350153634
 20
12.988253293
 30
0.0
 10
7.82901694
 20
12.993394737
 30
0.0
 10
7.8234206748
 20
12.9979756352
 30
0.0
 10
7.8190180578
 20
13.0013812547
 30
0.0
 10
7.8157490495
 20
13.0037652832
 30
0.0
 10
7.8135298322
 20
13.0053109904
 30
0.0
 10
7.8114651634
 20
13.0066730112
 30
0.0
 10
7.8095606874
 20
13.0078485981
 30
0.0
 10
7.8078216952
 20
13.0088354446
 30
0.0
 10
7.8062528788
 20
13.0096315684
 30
0.0
 10
7.8048586791
 20
13.0102357495
 30
0.0
 10
7.8036413652
 20
13.0106474057
 30
0.0
 10
7.8026029807
 20
13.010866748
 30
0.0
 10
7.801843523
 20
13.0108895527
 30
0.0
 10
7.8013406736
 20
13.0107900544
 30
0.0
 10
7.8010305033
 20
13.0106676412
 30
0.0
 10
7.8007682855
 20
13.0104923353
 30
0.0
 10
7.8005567842
 20
13.0102640661
 30
0.0
 10
7.8003975404
 20
13.0099851309
 30
0.0
 10
7.800289978
 20
13.0096578877
 30
0.0
 10
7.8002327783
 20
13.0092833908
 30
0.0
 10
7.800224998
 20
13.0088618037
 30
0.0
 10
7.8002660723
 20
13.0083930585
 30
0.0
 10
7.8003924059
 20
13.0076680224
 30
0.0
 10
7.8006857465
 20
13.0066431737
 30
0.0
 10
7.8012114593
 20
13.0052863584
 30
0.0
 10
7.8016544242
 20
13.0043346917
 30
0.0
 10
7.8019045148
 20
13.0038283342
 30
0.0
  0
LINE
  5
545
100
AcDbEntity
  8
0
100
AcDbLine
 62
9
  6
CONTINUOUS
 10
7.8019045148
 20
13.0038283342
 11
7.8035069544
 21
13.0008729457
  0
LINE
  5
546
100
AcDbEntity
  8
0
100
AcDbLine
 62
9
  6
CONTINUOUS
 10
7.9067044143
 20
12.8955359513
 11
7.9097037258
 21
12.8938309675
  0
SPLINE
  5
547
100
AcDbEntity
  8
0
100
AcDbSpline
 62
9
  6
CONTINUOUS
 70
0
 71
3
 72
39
 73
35
 74
0
 42
0.0000001
 43
0.0000001
 44
0.0000000001
 40
0.0
 40
0.0
 40
0.0
 40
0.0
 40
0.0185777821
 40
0.034271258
 40
0.0410574322
 40
0.0471547606
 40
0.0525892286
 40
0.057402355
 40
0.0616618112
 40
0.065467805
 40
0.0689595184
 40
0.0723151777
 40
0.0757338726
 40
0.0794036333
 40
0.0834771068
 40
0.0880659441
 40
0.0932474203
 40
0.0990743632
 40
0.1127898869
 40
0.12936687
 40
0.1488417744
 40
0.1712054666
 40
0.196423434
 40
0.2244393771
 40
0.2551806018
 40
0.2885459788
 40
0.3244203799
 40
0.4031627273
 40
0.4902447466
 40
0.5843133884
 40
0.6838980233
 40
0.7874749957
 40
0.8934103373
 40
1.0
 40
1.0
 40
1.0
 40
1.0
 10
7.9097037258
 20
12.8938309675
 30
0.0
 10
7.9102430996
 20
12.8935518466
 30
0.0
 10
7.9112513292
 20
12.8930617917
 30
0.0
 10
7.912499839
 20
12.8925635393
 30
0.0
 10
7.9133938016
 20
12.8922904828
 30
0.0
 10
7.9139774097
 20
12.8921539507
 30
0.0
 10
7.914506747
 20
12.8920756811
 30
0.0
 10
7.9149817148
 20
12.8920563041
 30
0.0
 10
7.9154024452
 20
12.8920963431
 30
0.0
 10
7.915769062
 20
12.8921968281
 30
0.0
 10
7.9160805179
 20
12.8923595275
 30
0.0
 10
7.9163337219
 20
12.8925852219
 30
0.0
 10
7.9165256648
 20
12.8928716221
 30
0.0
 10
7.9166562247
 20
12.8932151453
 30
0.0
 10
7.9167271873
 20
12.8936138648
 30
0.0
 10
7.9167400428
 20
12.8940675094
 30
0.0
 10
7.9166955768
 20
12.8945763354
 30
0.0
 10
7.9165517986
 20
12.8953725656
 30
0.0
 10
7.9162116679
 20
12.8965066674
 30
0.0
 10
7.9156014855
 20
12.8980161713
 30
0.0
 10
7.914769323
 20
12.8997362116
 30
0.0
 10
7.9137178013
 20
12.9016603863
 30
0.0
 10
7.9124495131
 20
12.9037820202
 30
0.0
 10
7.9109681754
 20
12.9060936511
 30
0.0
 10
7.9092783333
 20
12.908586722
 30
0.0
 10
7.9073861772
 20
12.9112520134
 30
0.0
 10
7.9045123275
 20
12.915143746
 30
0.0
 10
7.9004636626
 20
12.9203493294
 30
0.0
 10
7.8950765855
 20
12.9269200075
 30
0.0
 10
7.8891052745
 20
12.9338898763
 30
0.0
 10
7.8826449302
 20
12.9411483963
 30
0.0
 10
7.8757961562
 20
12.9485784354
 30
0.0
 10
7.8686676673
 20
12.9560600757
 30
0.0
 10
7.8637943403
 20
12.9610122649
 30
0.0
 10
7.861329144
 20
12.9634748429
 30
0.0
  0
LINE
  5
548
100
AcDbEntity
  8
0
100
AcDbLine
 62
9
  6
CONTINUOUS
 10
9.2665243672
 20
11.7553140421
 11
9.2764606671
 21
11.7721109697
  0
LINE
  5
549
100
AcDbEntity
  8
0
100
AcDbLine
 62
7
  6
CONTINUOUS
 10
9.357742566
 20
11.7196731195
 11
9.346822152
 21
11.7082813108
  0
SPLINE
  5
54A
100
AcDbEntity
  8
0
100
AcDbSpline
 62
9
  6
CONTINUOUS
 70
0
 71
3
 72
15
 73
11
 74
0
 42
0.0000001
 43
0.0000001
 44
0.0000000001
 40
0.0
 40
0.0
 40
0.0
 40
0.0
 40
0.1249905254
 40
0.2499956734
 40
0.3749960092
 40
0.4999971089
 40
0.6249989733
 40
0.7500076629
 40
0.8750023069
 40
1.0
 40
1.0
 40
1.0
 40
1.0
 10
9.2562147409
 20
11.7919796033
 30
0.0
 10
9.2553980418
 20
11.7904338519
 30
0.0
 10
9.2540577738
 20
11.7871773544
 30
0.0
 10
9.2530008978
 20
11.7820094328
 30
0.0
 10
9.2529390021
 20
11.7767323657
 30
0.0
 10
9.2538782459
 20
11.7715396021
 30
0.0
 10
9.2557848666
 20
11.766619121
 30
0.0
 10
9.2585854189
 20
11.7621465421
 30
0.0
 10
9.2621743123
 20
11.7582810981
 30
0.0
 10
9.2650173291
 20
11.7562002883
 30
0.0
 10
9.2665248935
 20
11.7553148817
 30
0.0
  0
LINE
  5
54B
100
AcDbEntity
  8
0
100
AcDbLine
 62
7
  6
CONTINUOUS
 10
9.3468286635
 20
11.7082876464
 11
9.2838668917
 21
11.6453030066
  0
SPLINE
  5
54C
100
AcDbEntity
  8
0
100
AcDbSpline
 62
9
  6
CONTINUOUS
 70
0
 71
3
 72
14
 73
10
 74
0
 42
0.0000001
 43
0.0000001
 44
0.0000000001
 40
0.0
 40
0.0
 40
0.0
 40
0.0
 40
0.2499314005
 40
0.3749411092
 40
0.4999533416
 40
0.6249656812
 40
0.7499752417
 40
0.8749917316
 40
1.0
 40
1.0
 40
1.0
 40
1.0
 10
9.2838668917
 20
11.6453030066
 30
0.0
 10
9.2962665372
 20
11.6378766063
 30
0.0
 10
9.3142691495
 20
11.6256897834
 30
0.0
 10
9.3368345765
 20
11.6076003343
 30
0.0
 10
9.3530158578
 20
11.5931423692
 30
0.0
 10
9.3684001254
 20
11.5778409015
 30
0.0
 10
9.3829447607
 20
11.5617382253
 30
0.0
 10
9.3966084465
 20
11.5448828947
 30
0.0
 10
9.4051040121
 20
11.5331728622
 30
0.0
 10
9.4091882335
 20
11.5272079331
 30
0.0
  0
SPLINE
  5
54D
100
AcDbEntity
  8
0
100
AcDbSpline
 62
9
  6
CONTINUOUS
 70
0
 71
3
 72
23
 73
19
 74
0
 42
0.0000001
 43
0.0000001
 44
0.0000000001
 40
0.0
 40
0.0
 40
0.0
 40
0.0
 40
0.0625000622
 40
0.1249986376
 40
0.1875006799
 40
0.2500017607
 40
0.3125022737
 40
0.3750021404
 40
0.4375018209
 40
0.5000016773
 40
0.5625014421
 40
0.6250008588
 40
0.6875003139
 40
0.7500003097
 40
0.8125008167
 40
0.875002287
 40
0.9375003436
 40
1.0
 40
1.0
 40
1.0
 40
1.0
 10
9.4091882335
 20
11.5272079331
 30
0.0
 10
9.4113047278
 20
11.5241413202
 30
0.0
 10
9.4150366653
 20
11.5176466306
 30
0.0
 10
9.4190205752
 20
11.5071555042
 30
0.0
 10
9.4213131007
 20
11.4961672701
 30
0.0
 10
9.4218607758
 20
11.4849557831
 30
0.0
 10
9.4206289527
 20
11.4737984127
 30
0.0
 10
9.417661358
 20
11.4629731029
 30
0.0
 10
9.4130257022
 20
11.4527503775
 30
0.0
 10
9.4068442044
 20
11.4433810536
 30
0.0
 10
9.3992624743
 20
11.435103846
 30
0.0
 10
9.3904765758
 20
11.4281181182
 30
0.0
 10
9.3807000082
 20
11.4226034926
 30
0.0
 10
9.3701786619
 20
11.4186915152
 30
0.0
 10
9.3591714585
 20
11.4164922763
 30
0.0
 10
9.3479558428
 20
11.4160397514
 30
0.0
 10
9.3368104551
 20
11.4173488242
 30
0.0
 10
9.3296025234
 20
11.4193867827
 30
0.0
 10
9.3261128406
 20
11.4206927678
 30
0.0
  0
SPLINE
  5
54E
100
AcDbEntity
  8
0
100
AcDbSpline
 62
7
  6
CONTINUOUS
 70
0
 71
3
 72
37
 73
33
 74
0
 42
0.0000001
 43
0.0000001
 44
0.0000000001
 40
0.0
 40
0.0
 40
0.0
 40
0.0
 40
0.1917060812
 40
0.2855296879
 40
0.3768714065
 40
0.4648813137
 40
0.5487264574
 40
0.627594015
 40
0.7006952115
 40
0.767275247
 40
0.7978967903
 40
0.8266253556
 40
0.8533825088
 40
0.8780915053
 40
0.9006816292
 40
0.9210902127
 40
0.9392558257
 40
0.9551225786
 40
0.9686373483
 40
0.9744983171
 40
0.979758775
 40
0.9844175945
 40
0.9884736675
 40
0.9919259153
 40
0.9947719378
 40
0.9970060392
 40
0.9978917855
 40
0.9986224376
 40
0.999197491
 40
0.9996167965
 40
0.9998814049
 40
1.0
 40
1.0
 40
1.0
 40
1.0
 10
9.2839033324
 20
11.6453164216
 30
0.0
 10
9.2870485631
 20
11.6484640097
 30
0.0
 10
9.2917515411
 20
11.6531337125
 30
0.0
 10
9.2979949716
 20
11.6592606902
 30
0.0
 10
9.3025376229
 20
11.663684346
 30
0.0
 10
9.3069304675
 20
11.6679297898
 30
0.0
 10
9.3111301123
 20
11.6719584445
 30
0.0
 10
9.3150937899
 20
11.6757331505
 30
0.0
 10
9.31877972
 20
11.6792183671
 30
0.0
 10
9.3216614795
 20
11.6819240964
 30
0.0
 10
9.3237978225
 20
11.6839190372
 30
0.0
 10
9.3252610337
 20
11.6852804965
 30
0.0
 10
9.3266260981
 20
11.6865459686
 30
0.0
 10
9.3278888978
 20
11.6877121737
 30
0.0
 10
9.3290455891
 20
11.6887760753
 30
0.0
 10
9.3300926024
 20
11.6897348647
 30
0.0
 10
9.3310266072
 20
11.6905859819
 30
0.0
 10
9.3318444835
 20
11.691326964
 30
0.0
 10
9.3324526591
 20
11.6918740238
 30
0.0
 10
9.3328792465
 20
11.6922548325
 30
0.0
 10
9.3331532004
 20
11.6924979528
 30
0.0
 10
9.3333965831
 20
11.692712405
 30
0.0
 10
9.3336093071
 20
11.6928981583
 30
0.0
 10
9.3337912612
 20
11.693055186
 30
0.0
 10
9.3339422296
 20
11.6931833428
 30
0.0
 10
9.3340488934
 20
11.6932717241
 30
0.0
 10
9.3341186434
 20
11.6933275095
 30
0.0
 10
9.3341589654
 20
11.693358738
 30
0.0
 10
9.3341909372
 20
11.6933822704
 30
0.0
 10
9.3342157406
 20
11.693399216
 30
0.0
 10
9.3342307611
 20
11.6934074831
 30
0.0
 10
9.334240696
 20
11.6934117153
 30
0.0
 10
9.3342429981
 20
11.6934102059
 30
0.0
  0
LINE
  5
54F
100
AcDbEntity
  8
0
100
AcDbLine
 62
9
  6
CONTINUOUS
 10
9.4091881164
 20
11.527207853
 11
9.4648082009
 21
11.5654572053
  0
LINE
  5
550
100
AcDbEntity
  8
0
100
AcDbLine
 62
9
  6
CONTINUOUS
 10
9.0401136458
 20
11.9435275493
 11
9.0418925112
 21
11.9421370894
  0
SPLINE
  5
551
100
AcDbEntity
  8
0
100
AcDbSpline
 62
9
  6
CONTINUOUS
 70
0
 71
3
 72
38
 73
34
 74
0
 42
0.0000001
 43
0.0000001
 44
0.0000000001
 40
0.0
 40
0.0
 40
0.0
 40
0.0
 40
0.1955079634
 40
0.2908085144
 40
0.3832665155
 40
0.4719932155
 40
0.556143501
 40
0.6349162833
 40
0.7075599574
 40
0.7733813601
 40
0.8035354782
 40
0.8317536066
 40
0.8579701614
 40
0.8821208166
 40
0.9041488636
 40
0.9240025078
 40
0.9416324009
 40
0.9569986316
 40
0.970063754
 40
0.975722934
 40
0.9807958338
 40
0.9852796243
 40
0.9891714864
 40
0.9924686308
 40
0.9951690032
 40
0.9962951133
 40
0.9972717179
 40
0.998098747
 40
0.9987761639
 40
0.9993040017
 40
0.9996824757
 40
0.9999124549
 40
1.0
 40
1.0
 40
1.0
 40
1.0
 10
9.3261129972
 20
11.4206931905
 30
0.0
 10
9.3246097777
 20
11.4166354001
 30
0.0
 10
9.3223759193
 20
11.4105988548
 30
0.0
 10
9.3194362578
 20
11.4026414525
 30
0.0
 10
9.3173178407
 20
11.3969002257
 30
0.0
 10
9.3152871509
 20
11.3913896885
 30
0.0
 10
9.313363586
 20
11.3861624897
 30
0.0
 10
9.3115654678
 20
11.3812684397
 30
0.0
 10
9.3099099336
 20
11.3767542013
 30
0.0
 10
9.3086273836
 20
11.373249362
 30
0.0
 10
9.3076844942
 20
11.3706672911
 30
0.0
 10
9.3070431748
 20
11.3689083087
 30
0.0
 10
9.3064483128
 20
11.3672738224
 30
0.0
 10
9.3059013217
 20
11.3657677139
 30
0.0
 10
9.3054035039
 20
11.364393581
 30
0.0
 10
9.304956045
 20
11.3631547115
 30
0.0
 10
9.304560001
 20
11.3620540447
 30
0.0
 10
9.304216314
 20
11.3610942248
 30
0.0
 10
9.3039634018
 20
11.3603833293
 30
0.0
 10
9.303788007
 20
11.3598866743
 30
0.0
 10
9.3036764475
 20
11.3595689072
 30
0.0
 10
9.303578496
 20
11.3592878216
 30
0.0
 10
9.3034942077
 20
11.3590435958
 30
0.0
 10
9.3034236389
 20
11.3588363996
 30
0.0
 10
9.3033736464
 20
11.3586868541
 30
0.0
 10
9.3033406633
 20
11.3585858039
 30
0.0
 10
9.3033208974
 20
11.3585240125
 30
0.0
 10
9.3033046241
 20
11.3584716552
 30
0.0
 10
9.3032916517
 20
11.3584283316
 30
0.0
 10
9.3032824595
 20
11.3583951433
 30
0.0
 10
9.3032757941
 20
11.3583694358
 30
0.0
 10
9.3032739896
 20
11.358356619
 30
0.0
 10
9.3032725173
 20
11.3583469446
 30
0.0
 10
9.3032743344
 20
11.3583462718
 30
0.0
  0
LINE
  5
552
100
AcDbEntity
  8
0
100
AcDbLine
 62
7
  6
CONTINUOUS
 10
11.1339297968
 20
3.4726974619
 11
11.1336685308
 21
3.4727233825
  0
SPLINE
  5
553
100
AcDbEntity
  8
0
100
AcDbSpline
 62
7
  6
CONTINUOUS
 70
0
 71
3
 72
24
 73
20
 74
0
 42
0.0000001
 43
0.0000001
 44
0.0000000001
 40
0.0
 40
0.0
 40
0.0
 40
0.0
 40
0.2028789472
 40
0.3885115912
 40
0.4736557775
 40
0.5531090319
 40
0.6265094572
 40
0.6935469229
 40
0.7539805289
 40
0.8076447906
 40
0.8544726758
 40
0.8945387394
 40
0.912122141
 40
0.9281477189
 40
0.9427093405
 40
0.9559372963
 40
0.9791074454
 40
0.9896727887
 40
1.0
 40
1.0
 40
1.0
 40
1.0
 10
8.405407526
 20
12.6022721614
 30
0.0
 10
8.4076174838
 20
12.6000622036
 30
0.0
 10
8.4117846799
 20
12.5957645506
 30
0.0
 10
8.4166703642
 20
12.5903419706
 30
0.0
 10
8.4201405975
 20
12.5862101363
 30
0.0
 10
8.4224254804
 20
12.583342217
 30
0.0
 10
8.4244569292
 20
12.5806308014
 30
0.0
 10
8.4262248257
 20
12.5780901814
 30
0.0
 10
8.4277209819
 20
12.5757336475
 30
0.0
 10
8.4289392302
 20
12.5735728322
 30
0.0
 10
8.4298747207
 20
12.5716180617
 30
0.0
 10
8.4304400264
 20
12.5701073873
 30
0.0
 10
8.4307332292
 20
12.5690100198
 30
0.0
 10
8.4308704861
 20
12.5682800049
 30
0.0
 10
8.4309347574
 20
12.567606649
 30
0.0
 10
8.4309237942
 20
12.5668212494
 30
0.0
 10
8.4307729578
 20
12.5660987227
 30
0.0
 10
8.4304530406
 20
12.5654957268
 30
0.0
 10
8.4302474914
 20
12.5652447686
 30
0.0
 10
8.4301349889
 20
12.5651322828
 30
0.0
  0
SPLINE
  5
554
100
AcDbEntity
  8
0
100
AcDbSpline
 62
7
  6
CONTINUOUS
 70
0
 71
3
 72
63
 73
59
 74
0
 42
0.0000001
 43
0.0000001
 44
0.0000000001
 40
0.0
 40
0.0
 40
0.0
 40
0.0
 40
0.0001853719
 40
0.0003974295
 40
0.0006546534
 40
0.0009675995
 40
0.0013421221
 40
0.0017816051
 40
0.0022881173
 40
0.0028629632
 40
0.0042205527
 40
0.0058584347
 40
0.0077783428
 40
0.0099808632
 40
0.012465647
 40
0.0152319528
 40
0.0182788163
 40
0.0216048353
 40
0.0290872278
 40
0.0376637005
 40
0.0473151051
 40
0.0580198801
 40
0.0824888277
 40
0.1108453452
 40
0.1428266779
 40
0.1781357114
 40
0.2164439753
 40
0.2573948888
 40
0.3006071883
 40
0.345678497
 40
0.3921891866
 40
0.4397062127
 40
0.4877872927
 40
0.5359848949
 40
0.5838505688
 40
0.6309390422
 40
0.6768124141
 40
0.7210442381
 40
0.7632234727
 40
0.8029583927
 40
0.8398801632
 40
0.8736464647
 40
0.9039446312
 40
0.9177044214
 40
0.9304949084
 40
0.9422868857
 40
0.9530531791
 40
0.9627696097
 40
0.9714141954
 40
0.9789681577
 40
0.9854155668
 40
0.9907442156
 40
0.9929865696
 40
0.9949470652
 40
0.9966259475
 40
0.9980247018
 40
0.9991468415
 40
1.0
 40
1.0
 40
1.0
 40
1.0
 10
10.1051469332
 20
15.6308504433
 30
0.0
 10
10.1051799591
 20
15.6308834629
 30
0.0
 10
10.1052666567
 20
15.6309392686
 30
0.0
 10
10.1054299452
 20
15.6309750647
 30
0.0
 10
10.1056281349
 20
15.6309710327
 30
0.0
 10
10.105863003
 20
15.6309287198
 30
0.0
 10
10.1061357119
 20
15.6308483836
 30
0.0
 10
10.1064468093
 20
15.6307298275
 30
0.0
 10
10.1067965327
 20
15.6305729218
 30
0.0
 10
10.1073455341
 20
15.6302966343
 30
0.0
 10
10.1081264889
 20
15.6298492032
 30
0.0
 10
10.1091727066
 20
15.6291862772
 30
0.0
 10
10.1103730564
 20
15.6283703368
 30
0.0
 10
10.1117269583
 20
15.6274017698
 30
0.0
 10
10.113233711
 20
15.6262809763
 30
0.0
 10
10.1148925082
 20
15.625008604
 30
0.0
 10
10.1167024851
 20
15.6235854003
 30
0.0
 10
10.1194247562
 20
15.6214004967
 30
0.0
 10
10.1231938873
 20
15.618294715
 30
0.0
 10
10.1281428574
 20
15.6141157439
 30
0.0
 10
10.1336683013
 20
15.6093616595
 30
0.0
 10
10.1421746344
 20
15.6019337605
 30
0.0
 10
10.1541350607
 20
15.5912975877
 30
0.0
 10
10.1699901202
 20
15.576975908
 30
0.0
 10
10.1877801953
 20
15.5607228466
 30
0.0
 10
10.2073460793
 20
15.5426968365
 30
0.0
 10
10.2285119193
 20
15.5230726662
 30
0.0
 10
10.2510872223
 20
15.5020403196
 30
0.0
 10
10.2748684465
 20
15.4798029267
 30
0.0
 10
10.2996409244
 20
15.4565748748
 30
0.0
 10
10.3251808235
 20
15.432579777
 30
0.0
 10
10.3512572437
 20
15.4080483594
 30
0.0
 10
10.3776343383
 20
15.3832163188
 30
0.0
 10
10.4040735291
 20
15.3583220976
 30
0.0
 10
10.4303357081
 20
15.3336046702
 30
0.0
 10
10.4561834757
 20
15.3093012957
 30
0.0
 10
10.4813833341
 20
15.2856453123
 30
0.0
 10
10.5057078534
 20
15.2628639599
 30
0.0
 10
10.5289377768
 20
15.2411762449
 30
0.0
 10
10.5508640465
 20
15.2207909171
 30
0.0
 10
10.5712896915
 20
15.2019044168
 30
0.0
 10
10.5900317661
 20
15.1846992315
 30
0.0
 10
10.6045383124
 20
15.1715091592
 30
0.0
 10
10.6151839206
 20
15.1619284162
 30
0.0
 10
10.6223895977
 20
15.1554950821
 30
0.0
 10
10.6290607864
 20
15.1495956013
 30
0.0
 10
10.6351829008
 20
15.1442444817
 30
0.0
 10
10.6407424571
 20
15.1394548637
 30
0.0
 10
10.6457273906
 20
15.1352385443
 30
0.0
 10
10.6501267133
 20
15.131605623
 30
0.0
 10
10.6539310263
 20
15.128565105
 30
0.0
 10
10.6567387662
 20
15.1264218451
 30
0.0
 10
10.6586871805
 20
15.125018062
 30
0.0
 10
10.6599092708
 20
15.1241797336
 30
0.0
 10
10.6609775589
 20
15.1234939517
 30
0.0
 10
10.6618918942
 20
15.1229602635
 30
0.0
 10
10.6626517116
 20
15.1225784933
 30
0.0
 10
10.66311811
 20
15.1223987604
 30
0.0
 10
10.6633257567
 20
15.1223432508
 30
0.0
  0
SPLINE
  5
555
100
AcDbEntity
  8
0
100
AcDbSpline
 62
7
  6
CONTINUOUS
 70
0
 71
3
 72
26
 73
22
 74
0
 42
0.0000001
 43
0.0000001
 44
0.0000000001
 40
0.0
 40
0.0
 40
0.0
 40
0.0
 40
0.1810223443
 40
0.3588039145
 40
0.4439623785
 40
0.5253703753
 40
0.6021658572
 40
0.6735665863
 40
0.7388827899
 40
0.7975283998
 40
0.849037104
 40
0.8720128124
 40
0.8931007086
 40
0.9122926434
 40
0.9296029809
 40
0.9450700815
 40
0.958772516
 40
0.9708435634
 40
0.981497306
 40
0.991062412
 40
1.0
 40
1.0
 40
1.0
 40
1.0
 10
7.8717818916
 20
13.1358977958
 30
0.0
 10
7.8753649295
 20
13.1323147578
 30
0.0
 10
7.8823135997
 20
13.1250580499
 30
0.0
 10
7.8905259081
 20
13.1157251545
 30
0.0
 10
7.8966387974
 20
13.1082713878
 30
0.0
 10
7.9008274107
 20
13.1028981197
 30
0.0
 10
7.9046401091
 20
13.0977229705
 30
0.0
 10
7.9080361946
 20
13.0928036677
 30
0.0
 10
7.9109809953
 20
13.0881939513
 30
0.0
 10
7.9134452207
 20
13.0839431507
 30
0.0
 10
7.9151396617
 20
13.0806209096
 30
0.0
 10
7.9162208308
 20
13.0781731399
 30
0.0
 10
7.9168668506
 20
13.076523863
 30
0.0
 10
7.917378184
 20
13.0749941733
 30
0.0
 10
7.9177539809
 20
13.0735876647
 30
0.0
 10
7.917993434
 20
13.0723072393
 30
0.0
 10
7.9180960381
 20
13.0711551557
 30
0.0
 10
7.9180609831
 20
13.0701328237
 30
0.0
 10
7.917885736
 20
13.0692410467
 30
0.0
 10
7.9175666927
 20
13.0684825922
 30
0.0
 10
7.9172495346
 20
13.068064292
 30
0.0
 10
7.9170726209
 20
13.0678873962
 30
0.0
  0
LINE
  5
556
100
AcDbEntity
  8
0
100
AcDbLine
 62
7
  6
CONTINUOUS
 10
10.1425916937
 20
15.6699969271
 11
10.143241055
 21
15.6697592118
  0
SPLINE
  5
557
100
AcDbEntity
  8
0
100
AcDbSpline
 62
7
  6
CONTINUOUS
 70
0
 71
3
 72
62
 73
58
 74
0
 42
0.0000001
 43
0.0000001
 44
0.0000000001
 40
0.0
 40
0.0
 40
0.0
 40
0.0
 40
0.0011284754
 40
0.0025302488
 40
0.0042084682
 40
0.0061645793
 40
0.0083989362
 40
0.0109110954
 40
0.0167654727
 40
0.0237180506
 40
0.0317548925
 40
0.0408587849
 40
0.0510098463
 40
0.0621852141
 40
0.0743599397
 40
0.1015941759
 40
0.132464735
 40
0.1666896801
 40
0.2039559147
 40
0.2439223284
 40
0.2862228203
 40
0.3304699885
 40
0.3762584559
 40
0.4231688682
 40
0.4707715704
 40
0.5186307052
 40
0.5663081228
 40
0.6133674462
 40
0.6593781254
 40
0.7039192477
 40
0.7465836584
 40
0.7869814073
 40
0.8247436197
 40
0.8595256876
 40
0.8910106488
 40
0.9189121148
 40
0.94297718
 40
0.9535018755
 40
0.9629893838
 40
0.9714185954
 40
0.9787716825
 40
0.9820397525
 40
0.9850334461
 40
0.9877514505
 40
0.9901926186
 40
0.9923563423
 40
0.9942425411
 40
0.9958516826
 40
0.9971853508
 40
0.997750102
 40
0.9982478004
 40
0.9986797295
 40
0.9990478995
 40
0.999355619
 40
0.9996086418
 40
0.9998173805
 40
1.0
 40
1.0
 40
1.0
 40
1.0
 10
10.143241055
 20
15.6697592118
 30
0.0
 10
10.1435021423
 20
15.6696439721
 30
0.0
 10
10.1440731568
 20
15.669353274
 30
0.0
 10
10.1449911153
 20
15.6688141158
 30
0.0
 10
10.1460618269
 20
15.6681238525
 30
0.0
 10
10.1472847288
 20
15.6672825914
 30
0.0
 10
10.1486592941
 20
15.6662904941
 30
0.0
 10
10.1508051539
 20
15.6646832326
 30
0.0
 10
10.1538549785
 20
15.6622934812
 30
0.0
 10
10.1579435457
 20
15.6589659422
 30
0.0
 10
10.1626167713
 20
15.655055803
 30
0.0
 10
10.1678646999
 20
15.6505726709
 30
0.0
 10
10.1736758977
 20
15.6455273107
 30
0.0
 10
10.180037876
 20
15.6399320498
 30
0.0
 10
10.189599636
 20
15.6314334615
 30
0.0
 10
10.2028058831
 20
15.6195380985
 30
0.0
 10
10.2200615615
 20
15.6038070207
 30
0.0
 10
10.239114194
 20
15.5862816218
 30
0.0
 10
10.2597956612
 20
15.5671294314
 30
0.0
 10
10.2819228628
 20
15.5465328277
 30
0.0
 10
10.3052996352
 20
15.524687588
 30
0.0
 10
10.3297184076
 20
15.5018009711
 30
0.0
 10
10.3549621593
 20
15.4780897728
 30
0.0
 10
10.3808063562
 20
15.4537783451
 30
0.0
 10
10.407021042
 20
15.429096493
 30
0.0
 10
10.4333729147
 20
15.4042773823
 30
0.0
 10
10.4596274761
 20
15.3795553813
 30
0.0
 10
10.4855511737
 20
15.3551639095
 30
0.0
 10
10.5109135236
 20
15.3313333034
 30
0.0
 10
10.5354892436
 20
15.308288674
 30
0.0
 10
10.55906027
 20
15.2862478678
 30
0.0
 10
10.5814177865
 20
15.2654194255
 30
0.0
 10
10.6023640563
 20
15.2460006762
 30
0.0
 10
10.6217142793
 20
15.2281759186
 30
0.0
 10
10.6392980568
 20
15.2121144951
 30
0.0
 10
10.6549613279
 20
15.1979697144
 30
0.0
 10
10.6667729441
 20
15.1874693469
 30
0.0
 10
10.6751709083
 20
15.1801391147
 30
0.0
 10
10.680624426
 20
15.1754490971
 30
0.0
 10
10.6855083694
 20
15.1713273122
 30
0.0
 10
10.689227589
 20
15.1682645707
 30
0.0
 10
10.6919136526
 20
15.16611033
 30
0.0
 10
10.6936994233
 20
15.164707298
 30
0.0
 10
10.6953359944
 20
15.1634530784
 30
0.0
 10
10.69682253
 20
15.1623484406
 30
0.0
 10
10.6981582643
 20
15.1613939927
 30
0.0
 10
10.6993425276
 20
15.1605900481
 30
0.0
 10
10.7003747582
 20
15.1599369971
 30
0.0
 10
10.701145315
 20
15.1594964199
 30
0.0
 10
10.7016870238
 20
15.1592245036
 30
0.0
 10
10.7020321518
 20
15.159070123
 30
0.0
 10
10.7023392096
 20
15.1589535306
 30
0.0
 10
10.7026084224
 20
15.1588746149
 30
0.0
 10
10.7028403166
 20
15.1588331985
 30
0.0
 10
10.7030360346
 20
15.1588295625
 30
0.0
 10
10.7031973061
 20
15.1588652384
 30
0.0
 10
10.7032829292
 20
15.158920487
 30
0.0
 10
10.7033155833
 20
15.1589531469
 30
0.0
  0
LINE
  5
558
100
AcDbEntity
  8
0
100
AcDbLine
 62
7
  6
CONTINUOUS
 10
10.1916052049
 20
15.7219979362
 11
10.1933604659
 21
15.721188371
  0
SPLINE
  5
559
100
AcDbEntity
  8
0
100
AcDbSpline
 62
7
  6
CONTINUOUS
 70
0
 71
3
 72
61
 73
57
 74
0
 42
0.0000001
 43
0.0000001
 44
0.0000000001
 40
0.0
 40
0.0
 40
0.0
 40
0.0
 40
0.001489462
 40
0.0032506683
 40
0.0052844322
 40
0.007590905
 40
0.0130195353
 40
0.019528481
 40
0.0271055722
 40
0.0357351845
 40
0.0453988749
 40
0.0560756937
 40
0.0677419908
 40
0.0803721258
 40
0.10840896
 40
0.1399361242
 40
0.1746717007
 40
0.2123046543
 40
0.2524978066
 40
0.294890985
 40
0.3391041512
 40
0.3847410964
 40
0.4313927359
 40
0.4786410737
 40
0.5260627397
 40
0.5732329601
 40
0.6197292697
 40
0.665135348
 40
0.7090447918
 40
0.7510646465
 40
0.7908191693
 40
0.8279529493
 40
0.8621344014
 40
0.8930585845
 40
0.920450195
 40
0.9440662298
 40
0.9543920443
 40
0.9636988007
 40
0.9719666061
 40
0.9791780557
 40
0.9823830872
 40
0.9853188186
 40
0.9879841266
 40
0.990378067
 40
0.9924999126
 40
0.9943495402
 40
0.9959276145
 40
0.9972357954
 40
0.9977898066
 40
0.9982780836
 40
0.9987019214
 40
0.9990633314
 40
0.9993656019
 40
0.999614411
 40
0.999819958
 40
1.0
 40
1.0
 40
1.0
 40
1.0
 10
10.1933604659
 20
15.721188371
 30
0.0
 10
10.1936883398
 20
15.7210002223
 30
0.0
 10
10.1943921961
 20
15.7205691955
 30
0.0
 10
10.1955101698
 20
15.7198280253
 30
0.0
 10
10.1967777455
 20
15.7189382591
 30
0.0
 10
10.1987775605
 20
15.7174725205
 30
0.0
 10
10.2016397699
 20
15.7152633715
 30
0.0
 10
10.2054976936
 20
15.7121571844
 30
0.0
 10
10.2099339506
 20
15.7084749217
 30
0.0
 10
10.2149393178
 20
15.7042254425
 30
0.0
 10
10.2205031521
 20
15.6994186723
 30
0.0
 10
10.2266136525
 20
15.6940660916
 30
0.0
 10
10.2332578975
 20
15.6881804568
 30
0.0
 10
10.2431596012
 20
15.6793277081
 30
0.0
 10
10.2567472086
 20
15.6670352185
 30
0.0
 10
10.2744080949
 20
15.6508831847
 30
0.0
 10
10.2937937716
 20
15.6330086611
 30
0.0
 10
10.3147366928
 20
15.6135786851
 30
0.0
 10
10.3370553325
 20
15.5927741749
 30
0.0
 10
10.360555966
 20
15.5707885173
 30
0.0
 10
10.3850343502
 20
15.5478256848
 30
0.0
 10
10.4102775251
 20
15.524098437
 30
0.0
 10
10.4360657564
 20
15.499826346
 30
0.0
 10
10.4621744584
 20
15.4752338589
 30
0.0
 10
10.4883762429
 20
15.450548239
 30
0.0
 10
10.5144429233
 20
15.4259975511
 30
0.0
 10
10.540147573
 20
15.4018085952
 30
0.0
 10
10.5652665481
 20
15.3782048742
 30
0.0
 10
10.589581475
 20
15.3554045943
 30
0.0
 10
10.6128812213
 20
15.3336186768
 30
0.0
 10
10.6349637463
 20
15.3130488902
 30
0.0
 10
10.6556379187
 20
15.293885965
 30
0.0
 10
10.6747251975
 20
15.2763079457
 30
0.0
 10
10.6920610733
 20
15.2604782992
 30
0.0
 10
10.7074968674
 20
15.2465449533
 30
0.0
 10
10.7191337629
 20
15.2362056015
 30
0.0
 10
10.727405595
 20
15.2289903247
 30
0.0
 10
10.7327762028
 20
15.2243752111
 30
0.0
 10
10.7375854858
 20
15.2203200549
 30
0.0
 10
10.7412477971
 20
15.2173073785
 30
0.0
 10
10.7438926773
 20
15.2151887313
 30
0.0
 10
10.7456510504
 20
15.2138090949
 30
0.0
 10
10.7472625462
 20
15.2125759625
 30
0.0
 10
10.748726363
 20
15.2114900354
 30
0.0
 10
10.7500417573
 20
15.2105519325
 30
0.0
 10
10.75120808
 20
15.2097619759
 30
0.0
 10
10.752224807
 20
15.2091204972
 30
0.0
 10
10.7529838961
 20
15.2086879168
 30
0.0
 10
10.7535176374
 20
15.2084211465
 30
0.0
 10
10.7538577439
 20
15.2082698084
 30
0.0
 10
10.7541603877
 20
15.20815566
 30
0.0
 10
10.7544258057
 20
15.2080785806
 30
0.0
 10
10.7546545266
 20
15.2080383918
 30
0.0
 10
10.7548476707
 20
15.2080353623
 30
0.0
 10
10.7550069056
 20
15.2080710219
 30
0.0
 10
10.7550914797
 20
15.2081257361
 30
0.0
 10
10.7551237873
 20
15.2081580501
 30
0.0
  0
SPLINE
  5
55A
100
AcDbEntity
  8
0
100
AcDbSpline
 62
7
  6
CONTINUOUS
 70
0
 71
3
 72
11
 73
7
 74
0
 42
0.0000001
 43
0.0000001
 44
0.0000000001
 40
0.0
 40
0.0
 40
0.0
 40
0.0
 40
0.1748274076
 40
0.39894134
 40
0.6737628478
 40
1.0
 40
1.0
 40
1.0
 40
1.0
 10
10.2408446405
 20
15.773773402
 30
0.0
 10
10.2410223446
 20
15.7737258969
 30
0.0
 10
10.2414172917
 20
15.7735793067
 30
0.0
 10
10.2420561238
 20
15.7732712308
 30
0.0
 10
10.2428137148
 20
15.7728461948
 30
0.0
 10
10.2433515537
 20
15.7725132896
 30
0.0
 10
10.2436407564
 20
15.7723284055
 30
0.0
  0
SPLINE
  5
55B
100
AcDbEntity
  8
0
100
AcDbSpline
 62
7
  6
CONTINUOUS
 70
0
 71
3
 72
57
 73
53
 74
0
 42
0.0000001
 43
0.0000001
 44
0.0000000001
 40
0.0
 40
0.0
 40
0.0
 40
0.0
 40
0.0017625531
 40
0.0037937605
 40
0.0086614693
 40
0.0145983897
 40
0.0215941295
 40
0.0296351306
 40
0.0387046621
 40
0.0487834744
 40
0.0598499125
 40
0.0848470191
 40
0.1134774783
 40
0.145489857
 40
0.1806023594
 40
0.2185056702
 40
0.2588656591
 40
0.3013264787
 40
0.3455137781
 40
0.437497549
 40
0.5315806722
 40
0.5783750771
 40
0.6244541776
 40
0.6694121772
 40
0.7128532682
 40
0.7543951929
 40
0.7936724883
 40
0.8303399503
 40
0.8640754591
 40
0.8945831347
 40
0.9215958776
 40
0.9448780559
 40
0.9550559085
 40
0.964228232
 40
0.9723758984
 40
0.9794818731
 40
0.9826399189
 40
0.9855325833
 40
0.9881586353
 40
0.990517274
 40
0.9926079196
 40
0.9944303404
 40
0.9959851599
 40
0.9972741703
 40
0.9978201572
 40
0.9983014154
 40
0.9987191917
 40
0.9990754858
 40
0.9993735689
 40
0.9996190683
 40
0.9998220557
 40
1.0
 40
1.0
 40
1.0
 40
1.0
 10
10.2436407564
 20
15.7723284055
 30
0.0
 10
10.2440188736
 20
15.7720866792
 30
0.0
 10
10.244822853
 20
15.7715508901
 30
0.0
 10
10.2466257122
 20
15.7702804201
 30
0.0
 10
10.2492384553
 20
15.7683158678
 30
0.0
 10
10.2527938201
 20
15.765504584
 30
0.0
 10
10.2569250413
 20
15.7621201706
 30
0.0
 10
10.2616236354
 20
15.7581706383
 30
0.0
 10
10.2668797616
 20
15.7536649197
 30
0.0
 10
10.2726825191
 20
15.7486136359
 30
0.0
 10
10.2814966338
 20
15.7408453656
 30
0.0
 10
10.29377041
 20
15.7298589721
 30
0.0
 10
10.3099183465
 20
15.7152051744
 30
0.0
 10
10.3278908212
 20
15.698729823
 30
0.0
 10
10.3475353457
 20
15.6805847614
 30
0.0
 10
10.3686846129
 20
15.6609364641
 30
0.0
 10
10.3911582467
 20
15.6399648749
 30
0.0
 10
10.4147642839
 20
15.6178616589
 30
0.0
 10
10.4479255207
 20
15.5867319994
 30
0.0
 10
10.4906144218
 20
15.5465472173
 30
0.0
 10
10.5337601754
 20
15.5058793297
 30
0.0
 10
10.5684096175
 20
15.4732381288
 30
0.0
 10
10.5939654997
 20
15.4491854819
 30
0.0
 10
10.6189171342
 20
15.425736621
 30
0.0
 10
10.6430511764
 20
15.4031047342
 30
0.0
 10
10.6661614979
 20
15.3814957398
 30
0.0
 10
10.6880510234
 20
15.3611064458
 30
0.0
 10
10.7085334002
 20
15.3421228074
 30
0.0
 10
10.7274346898
 20
15.3247182736
 30
0.0
 10
10.7445946722
 20
15.309052031
 30
0.0
 10
10.7598686325
 20
15.2952680496
 30
0.0
 10
10.7713809542
 20
15.2850425705
 30
0.0
 10
10.7795626903
 20
15.2779086571
 30
0.0
 10
10.7848739665
 20
15.2733465898
 30
0.0
 10
10.7896297595
 20
15.2693386231
 30
0.0
 10
10.7932512298
 20
15.2663613945
 30
0.0
 10
10.7958665477
 20
15.2642679295
 30
0.0
 10
10.7976052282
 20
15.2629048126
 30
0.0
 10
10.7991986794
 20
15.2616865745
 30
0.0
 10
10.8006461266
 20
15.2606138769
 30
0.0
 10
10.8019468474
 20
15.2596872867
 30
0.0
 10
10.803100208
 20
15.2589071424
 30
0.0
 10
10.8041056959
 20
15.2582737871
 30
0.0
 10
10.804856452
 20
15.2578468279
 30
0.0
 10
10.8053843894
 20
15.2575836147
 30
0.0
 10
10.8057208498
 20
15.2574343407
 30
0.0
 10
10.8060202795
 20
15.2573218387
 30
0.0
 10
10.8062829085
 20
15.2572459888
 30
0.0
 10
10.8065092667
 20
15.2572066103
 30
0.0
 10
10.8067004681
 20
15.2572039655
 30
0.0
 10
10.8068581418
 20
15.2572395677
 30
0.0
 10
10.8069419127
 20
15.2572938381
 30
0.0
 10
10.8069739559
 20
15.2573258702
 30
0.0
  0
SPLINE
  5
55C
100
AcDbEntity
  8
0
100
AcDbSpline
 62
7
  6
CONTINUOUS
 70
0
 71
3
 72
60
 73
56
 74
0
 42
0.0000001
 43
0.0000001
 44
0.0000000001
 40
0.0
 40
0.0
 40
0.0
 40
0.0
 40
0.0001814088
 40
0.0003882484
 40
0.0006382784
 40
0.000941747
 40
0.0013043816
 40
0.00172951
 40
0.0022191738
 40
0.0027746722
 40
0.0040860639
 40
0.0056677443
 40
0.007521467
 40
0.0096479117
 40
0.0120468395
 40
0.0147175743
 40
0.0176592347
 40
0.0208706195
 40
0.0280959033
 40
0.0363791609
 40
0.0457026749
 40
0.0560465266
 40
0.0797015691
 40
0.1071349515
 40
0.1381022052
 40
0.1723264795
 40
0.2095014043
 40
0.249293949
 40
0.2913474375
 40
0.3352849831
 40
0.3807126789
 40
0.427223419
 40
0.4744003235
 40
0.5690597654
 40
0.6156944074
 40
0.6613070957
 40
0.7054895414
 40
0.7478464984
 40
0.7879991184
 40
0.8255886325
 40
0.8602793249
 40
0.8917618294
 40
0.9197558586
 40
0.9323658264
 40
0.9440130776
 40
0.9546721485
 40
0.9643196144
 40
0.9729347093
 40
0.9804992127
 40
0.9869976508
 40
0.9924180483
 40
0.9947213082
 40
0.9967524953
 40
0.9985117811
 40
1.0
 40
1.0
 40
1.0
 40
1.0
 10
10.1544413146
 20
15.6825694741
 30
0.0
 10
10.1544737058
 20
15.6826018588
 30
0.0
 10
10.1545583333
 20
15.6826567478
 30
0.0
 10
10.1547176022
 20
15.6826928852
 30
0.0
 10
10.1549107028
 20
15.6826904267
 30
0.0
 10
10.1551392622
 20
15.6826509087
 30
0.0
 10
10.1554043986
 20
15.6825746038
 30
0.0
 10
10.1557066443
 20
15.6824613362
 30
0.0
 10
10.1560462373
 20
15.6823109832
 30
0.0
 10
10.1565790389
 20
15.6820457868
 30
0.0
 10
10.1573366532
 20
15.6816154859
 30
0.0
 10
10.1583512332
 20
15.6809770714
 30
0.0
 10
10.1595149174
 20
15.6801906502
 30
0.0
 10
10.1608271702
 20
15.679256561
 30
0.0
 10
10.1622873437
 20
15.6781751579
 30
0.0
 10
10.1638946833
 20
15.676947047
 30
0.0
 10
10.1656483911
 20
15.6755729189
 30
0.0
 10
10.168286023
 20
15.6734626682
 30
0.0
 10
10.171937963
 20
15.6704617657
 30
0.0
 10
10.1767331549
 20
15.6664222588
 30
0.0
 10
10.1820875355
 20
15.6618249037
 30
0.0
 10
10.1903333366
 20
15.6546376696
 30
0.0
 10
10.201932067
 20
15.6443388263
 30
0.0
 10
10.2173151697
 20
15.6304607011
 30
0.0
 10
10.2345891553
 20
15.6146952633
 30
0.0
 10
10.2536053066
 20
15.5971904707
 30
0.0
 10
10.2741991641
 20
15.5781097348
 30
0.0
 10
10.2961923628
 20
15.5576309198
 30
0.0
 10
10.3193940646
 20
15.5359444591
 30
0.0
 10
10.3436026672
 20
15.5132516788
 30
0.0
 10
10.3686076261
 20
15.4897629114
 30
0.0
 10
10.3941912931
 20
15.4656956274
 30
0.0
 10
10.4288147969
 20
15.433096254
 30
0.0
 10
10.4634533571
 20
15.4004672366
 30
0.0
 10
10.4978230041
 20
15.3681287473
 30
0.0
 10
10.5229264947
 20
15.3445406472
 30
0.0
 10
10.5472655814
 20
15.3217163196
 30
0.0
 10
10.5706289323
 20
15.2998669036
 30
0.0
 10
10.5928139912
 20
15.2791946829
 30
0.0
 10
10.613628756
 20
15.2598913229
 30
0.0
 10
10.6328934457
 20
15.2421359992
 30
0.0
 10
10.6504422264
 20
15.2260940386
 30
0.0
 10
10.6639426853
 20
15.2138867683
 30
0.0
 10
10.6737803417
 20
15.2050963642
 30
0.0
 10
10.6803813091
 20
15.1992526929
 30
0.0
 10
10.686451954
 20
15.1939385953
 30
0.0
 10
10.6919795221
 20
15.1891666557
 30
0.0
 10
10.6969523875
 20
15.1849481889
 30
0.0
 10
10.7013600552
 20
15.1812929679
 30
0.0
 10
10.7051934502
 20
15.1782097135
 30
0.0
 10
10.7080377654
 20
15.1760170081
 30
0.0
 10
10.7100253619
 20
15.1745622477
 30
0.0
 10
10.7112854387
 20
15.173679107
 30
0.0
 10
10.7123970177
 20
15.1729434497
 30
0.0
 10
10.7130969351
 20
15.1725156807
 30
0.0
 10
10.7134230158
 20
15.1723289603
 30
0.0
  0
LINE
  5
55D
100
AcDbEntity
  8
0
100
AcDbLine
 62
7
  6
CONTINUOUS
 10
10.7134230158
 20
15.1723289603
 11
10.7151678226
 21
15.1715258982
  0
SPLINE
  5
55E
100
AcDbEntity
  8
0
100
AcDbSpline
 62
7
  6
CONTINUOUS
 70
0
 71
3
 72
63
 73
59
 74
0
 42
0.0000001
 43
0.0000001
 44
0.0000000001
 40
0.0
 40
0.0
 40
0.0
 40
0.0
 40
0.0001828847
 40
0.0003923599
 40
0.0006468125
 40
0.0009567235
 40
0.0013278783
 40
0.0017635761
 40
0.0022658117
 40
0.0028358528
 40
0.0041823023
 40
0.0058071263
 40
0.0077119365
 40
0.009897104
 40
0.0123624503
 40
0.0151073855
 40
0.0181307304
 40
0.0214310703
 40
0.028856349
 40
0.037367635
 40
0.046946535
 40
0.0575713736
 40
0.0692183431
 40
0.0818606832
 40
0.1100137098
 40
0.1417717666
 40
0.1768422708
 40
0.2149016197
 40
0.2555985122
 40
0.2985570909
 40
0.343380672
 40
0.3896552641
 40
0.4369535356
 40
0.4848387851
 40
0.5328688925
 40
0.5806005972
 40
0.6275933768
 40
0.6734137568
 40
0.7176390908
 40
0.759861721
 40
0.7996925126
 40
0.8367647015
 40
0.8707371813
 40
0.9012977936
 40
0.9281663905
 40
0.940138168
 40
0.9510977207
 40
0.9610205555
 40
0.969884309
 40
0.9776697131
 40
0.9843602499
 40
0.9899428572
 40
0.9923158487
 40
0.9944091115
 40
0.9962224997
 40
0.9977568321
 40
0.9990143826
 40
1.0
 40
1.0
 40
1.0
 40
1.0
 10
10.2034595373
 20
15.7345707898
 30
0.0
 10
10.2034924279
 20
15.7346036803
 30
0.0
 10
10.2035789259
 20
15.7346592153
 30
0.0
 10
10.2037419069
 20
15.7346944811
 30
0.0
 10
10.2039398279
 20
15.7346898688
 30
0.0
 10
10.2041745117
 20
15.7346468982
 30
0.0
 10
10.2044471226
 20
15.7345658233
 30
0.0
 10
10.2047581976
 20
15.7344464642
 30
0.0
 10
10.2051079576
 20
15.7342887075
 30
0.0
 10
10.205657118
 20
15.7340111378
 30
0.0
 10
10.2064384532
 20
15.7335619528
 30
0.0
 10
10.2074853583
 20
15.7328967096
 30
0.0
 10
10.2086866838
 20
15.7320781635
 30
0.0
 10
10.2100418487
 20
15.7311067445
 30
0.0
 10
10.2115501527
 20
15.7299827977
 30
0.0
 10
10.2132108007
 20
15.7287069416
 30
0.0
 10
10.2150229339
 20
15.7272799702
 30
0.0
 10
10.2177486855
 20
15.7250893829
 30
0.0
 10
10.2215229258
 20
15.7219757004
 30
0.0
 10
10.2264791604
 20
15.7177863186
 30
0.0
 10
10.2320131599
 20
15.7130203912
 30
0.0
 10
10.2381129667
 20
15.7076896992
 30
0.0
 10
10.2447651758
 20
15.7018073211
 30
0.0
 10
10.2547144239
 20
15.6929238474
 30
0.0
 10
10.2684037228
 20
15.6805495876
 30
0.0
 10
10.2862339213
 20
15.6642504084
 30
0.0
 10
10.3058485007
 20
15.6461693205
 30
0.0
 10
10.3270728043
 20
15.6264804387
 30
0.0
 10
10.3497172598
 20
15.6053726687
 30
0.0
 10
10.3735793569
 20
15.5830481598
 30
0.0
 10
10.398445389
 20
15.5597203252
 30
0.0
 10
10.4240924595
 20
15.5356118482
 30
0.0
 10
10.4502905137
 20
15.5109526093
 30
0.0
 10
10.4768044632
 20
15.4859775493
 30
0.0
 10
10.5033963681
 20
15.4609244738
 30
0.0
 10
10.5298276041
 20
15.4360318756
 30
0.0
 10
10.5558610962
 20
15.4115366928
 30
0.0
 10
10.5812634594
 20
15.3876721554
 30
0.0
 10
10.60580719
 20
15.3646655814
 30
0.0
 10
10.6292727137
 20
15.3427363133
 30
0.0
 10
10.6514504291
 20
15.3220936286
 30
0.0
 10
10.6721426139
 20
15.3029348469
 30
0.0
 10
10.6911651492
 20
15.2854433212
 30
0.0
 10
10.7083494242
 20
15.2697870471
 30
0.0
 10
10.7214708164
 20
15.2579802063
 30
0.0
 10
10.7309444631
 20
15.2495732104
 30
0.0
 10
10.7372247131
 20
15.2440611892
 30
0.0
 10
10.7429442411
 20
15.2391088735
 30
0.0
 10
10.7480907353
 20
15.2347283938
 30
0.0
 10
10.7526529432
 20
15.2309302264
 30
0.0
 10
10.7566211573
 20
15.2277237065
 30
0.0
 10
10.759565471
 20
15.2254410304
 30
0.0
 10
10.7616229252
 20
15.2239245866
 30
0.0
 10
10.76292742
 20
15.2230028326
 30
0.0
 10
10.7640781304
 20
15.2222338376
 30
0.0
 10
10.7650746578
 20
15.2216175127
 30
0.0
 10
10.7659164668
 20
15.2211538292
 30
0.0
 10
10.7664367623
 20
15.2209165333
 30
0.0
 10
10.7666720126
 20
15.2208299474
 30
0.0
  0
LINE
  5
55F
100
AcDbEntity
  8
0
100
AcDbLine
 62
7
  6
CONTINUOUS
 10
10.7666720126
 20
15.2208299474
 11
10.766979643
 21
15.220731074
  0
SPLINE
  5
560
100
AcDbEntity
  8
0
100
AcDbSpline
 62
7
  6
CONTINUOUS
 70
0
 71
3
 72
62
 73
58
 74
0
 42
0.0000001
 43
0.0000001
 44
0.0000000001
 40
0.0
 40
0.0
 40
0.0
 40
0.0
 40
0.0001794979
 40
0.0003845999
 40
0.0006330896
 40
0.0009351583
 40
0.0012964708
 40
0.0017203057
 40
0.0022086686
 40
0.0027628458
 40
0.0040715063
 40
0.0056502436
 40
0.0075007325
 40
0.0096236305
 40
0.0120187196
 40
0.0146852825
 40
0.0176224004
 40
0.0208289069
 40
0.0280434142
 40
0.0363144607
 40
0.0456244174
 40
0.0559533714
 40
0.079574785
 40
0.1069699156
 40
0.1378949179
 40
0.17207373
 40
0.2092009048
 40
0.2489443162
 40
0.2909484601
 40
0.3348374259
 40
0.380218552
 40
0.426685795
 40
0.4738234785
 40
0.5212100124
 40
0.5684216331
 40
0.6150363026
 40
0.6606373297
 40
0.7048173484
 40
0.7471816828
 40
0.7873521896
 40
0.8249704177
 40
0.8597010048
 40
0.8912346485
 40
0.9192911741
 40
0.931936362
 40
0.9436213671
 40
0.9543219071
 40
0.9640134216
 40
0.9726704885
 40
0.9802819778
 40
0.986847615
 40
0.9897242532
 40
0.9923157224
 40
0.9946132944
 40
0.9966350435
 40
0.9984176079
 40
1.0
 40
1.0
 40
1.0
 40
1.0
 10
10.2527025594
 20
15.7863465283
 30
0.0
 10
10.2527349239
 20
15.786378891
 30
0.0
 10
10.2528197487
 20
15.7864336414
 30
0.0
 10
10.2529794727
 20
15.7864690825
 30
0.0
 10
10.2531732627
 20
15.7864656512
 30
0.0
 10
10.2534028187
 20
15.786424873
 30
0.0
 10
10.2536692708
 20
15.7863470094
 30
0.0
 10
10.253973152
 20
15.7862318751
 30
0.0
 10
10.2543146999
 20
15.7860793459
 30
0.0
 10
10.2548507746
 20
15.7858105955
 30
0.0
 10
10.2556132521
 20
15.7853750531
 30
0.0
 10
10.2566346029
 20
15.7847294247
 30
0.0
 10
10.2578063217
 20
15.7839345329
 30
0.0
 10
10.2591278692
 20
15.7829907173
 30
0.0
 10
10.2605985892
 20
15.7818983285
 30
0.0
 10
10.2622177204
 20
15.7806579878
 30
0.0
 10
10.2639844563
 20
15.7792703975
 30
0.0
 10
10.2666419127
 20
15.7771397174
 30
0.0
 10
10.2703216602
 20
15.7741102506
 30
0.0
 10
10.275153827
 20
15.7700328933
 30
0.0
 10
10.2805499206
 20
15.7653929391
 30
0.0
 10
10.2888605745
 20
15.7581396238
 30
0.0
 10
10.3005515378
 20
15.7477470315
 30
0.0
 10
10.316058223
 20
15.7337435618
 30
0.0
 10
10.3334722907
 20
15.7178362798
 30
0.0
 10
10.352643992
 20
15.7001741793
 30
0.0
 10
10.3734077278
 20
15.6809218158
 30
0.0
 10
10.3955839213
 20
15.6602582702
 30
0.0
 10
10.4189804057
 20
15.6383753073
 30
0.0
 10
10.443394205
 20
15.6154756322
 30
0.0
 10
10.4686132893
 20
15.5917710628
 30
0.0
 10
10.4944185011
 20
15.5674805906
 30
0.0
 10
10.5205854919
 20
15.5428284231
 30
0.0
 10
10.5468867332
 20
15.5180419633
 30
0.0
 10
10.5730935545
 20
15.493349761
 30
0.0
 10
10.598978165
 20
15.4689794825
 30
0.0
 10
10.6243157184
 20
15.4451558381
 30
0.0
 10
10.6488862779
 20
15.4220986033
 30
0.0
 10
10.672476821
 20
15.400020603
 30
0.0
 10
10.6948830856
 20
15.3791258351
 30
0.0
 10
10.7159114217
 20
15.3596076022
 30
0.0
 10
10.735380439
 20
15.3416467429
 30
0.0
 10
10.7531227148
 20
15.3254100507
 30
0.0
 10
10.7667769552
 20
15.3130479767
 30
0.0
 10
10.7767309506
 20
15.3041401855
 30
0.0
 10
10.7834139165
 20
15.2982136326
 30
0.0
 10
10.7895632935
 20
15.2928206601
 30
0.0
 10
10.7951653529
 20
15.2879747965
 30
0.0
 10
10.8002067882
 20
15.2836851016
 30
0.0
 10
10.8046812591
 20
15.2799594136
 30
0.0
 10
10.8080686177
 20
15.2772322995
 30
0.0
 10
10.8104883651
 20
15.2753454307
 30
0.0
 10
10.8120626631
 20
15.274144342
 30
0.0
 10
10.8134749365
 20
15.2730904193
 30
0.0
 10
10.8147382606
 20
15.2721819724
 30
0.0
 10
10.8158782849
 20
15.2714153685
 30
0.0
 10
10.8166131674
 20
15.2709713272
 30
0.0
 10
10.8169658585
 20
15.2707753461
 30
0.0
  0
LINE
  5
561
100
AcDbEntity
  8
0
100
AcDbLine
 62
7
  6
CONTINUOUS
 10
10.8169658585
 20
15.2707753461
 11
10.8191739321
 21
15.2698081158
  0
SPLINE
  5
562
100
AcDbEntity
  8
0
100
AcDbSpline
 62
7
  6
CONTINUOUS
 70
0
 71
3
 72
41
 73
37
 74
0
 42
0.0000001
 43
0.0000001
 44
0.0000000001
 40
0.0
 40
0.0
 40
0.0
 40
0.0
 40
0.0001758125
 40
0.0003962195
 40
0.0009754171
 40
0.0017429381
 40
0.0027006148
 40
0.0038490709
 40
0.0051883803
 40
0.0084387577
 40
0.0124489242
 40
0.0172135018
 40
0.0227262372
 40
0.0289793854
 40
0.0359642335
 40
0.0436712213
 40
0.052089451
 40
0.0612075836
 40
0.0814920748
 40
0.104414233
 40
0.1298503026
 40
0.1576640986
 40
0.1877077
 40
0.2198225279
 40
0.253840216
 40
0.2895835003
 40
0.3268672596
 40
0.3654995625
 40
0.4460135166
 40
0.529491911
 40
0.6142588259
 40
0.6986298772
 40
0.7809457206
 40
0.8596036987
 40
0.9330882024
 40
1.0
 40
1.0
 40
1.0
 40
1.0
 10
10.8196467783
 20
15.2696817427
 30
0.0
 10
10.8196092791
 20
15.2696917725
 30
0.0
 10
10.8195267005
 20
15.2697214436
 30
0.0
 10
10.819331337
 20
15.2698123641
 30
0.0
 10
10.8190322825
 20
15.2699875759
 30
0.0
 10
10.8186090086
 20
15.2702699632
 30
0.0
 10
10.8180950483
 20
15.2706422367
 30
0.0
 10
10.8174905784
 20
15.2711041455
 30
0.0
 10
10.81649854
 20
15.2718922368
 30
0.0
 10
10.8150378092
 20
15.2731055731
 30
0.0
 10
10.8130240849
 20
15.2748359716
 30
0.0
 10
10.810655874
 20
15.2769199228
 30
0.0
 10
10.8079365531
 20
15.279354267
 30
0.0
 10
10.8048699869
 20
15.2821355351
 30
0.0
 10
10.8014604092
 20
15.2852596388
 30
0.0
 10
10.7977125134
 20
15.2887220306
 30
0.0
 10
10.793631331
 20
15.2925177095
 30
0.0
 10
10.7875326497
 20
15.2982216825
 30
0.0
 10
10.7791237597
 20
15.3061435519
 30
0.0
 10
10.7681279372
 20
15.316573388
 30
0.0
 10
10.7559563369
 20
15.3281791449
 30
0.0
 10
10.7426727994
 20
15.340897149
 30
0.0
 10
10.7283465958
 20
15.3546583357
 30
0.0
 10
10.7130519611
 20
15.3693885792
 30
0.0
 10
10.6968676893
 20
15.3850091705
 30
0.0
 10
10.6798766996
 20
15.4014372516
 30
0.0
 10
10.6621655708
 20
15.4185862757
 30
0.0
 10
10.6373671461
 20
15.4426259019
 30
0.0
 10
10.6052678157
 20
15.4737874535
 30
0.0
 10
10.5658814688
 20
15.512066176
 30
0.0
 10
10.5258945393
 20
15.5509488281
 30
0.0
 10
10.486090952
 20
15.589651842
 30
0.0
 10
10.4472432169
 20
15.6274031132
 30
0.0
 10
10.4100975393
 20
15.6634569203
 30
0.0
 10
10.3753595668
 20
15.6971081634
 30
0.0
 10
10.3530638725
 20
15.7186434557
 30
0.0
 10
10.3424261057
 20
15.7288947543
 30
0.0
  0
SPLINE
  5
563
100
AcDbEntity
  8
0
100
AcDbSpline
 62
7
  6
CONTINUOUS
 70
0
 71
3
 72
29
 73
25
 74
0
 42
0.0000001
 43
0.0000001
 44
0.0000000001
 40
0.0
 40
0.0
 40
0.0
 40
0.0
 40
0.1743495421
 40
0.3510538247
 40
0.4374201291
 40
0.5209798657
 40
0.6006658165
 40
0.6754549819
 40
0.7443781553
 40
0.806528116
 40
0.861072936
 40
0.8852579549
 40
0.9072726652
 40
0.9270411169
 40
0.9444995113
 40
0.9595930234
 40
0.972285304
 40
0.9825611777
 40
0.9868019794
 40
0.9904572282
 40
0.993547437
 40
0.9961108993
 40
0.9982187632
 40
1.0
 40
1.0
 40
1.0
 40
1.0
 10
7.075063364
 20
13.9252157754
 30
0.0
 10
7.0782694661
 20
13.9207673189
 30
0.0
 10
7.0846393743
 20
13.9117484297
 30
0.0
 10
7.0923859959
 20
13.9003788053
 30
0.0
 10
7.0984062799
 20
13.8912899369
 30
0.0
 10
7.1026813527
 20
13.8847054411
 30
0.0
 10
7.1066958196
 20
13.8783862849
 30
0.0
 10
7.1103977173
 20
13.8724144052
 30
0.0
 10
7.1137386703
 20
13.8668682169
 30
0.0
 10
7.1166740339
 20
13.8618217734
 30
0.0
 10
7.118828175
 20
13.857949399
 30
0.0
 10
7.1203118777
 20
13.8551496479
 30
0.0
 10
7.1212542794
 20
13.8533011683
 30
0.0
 10
7.1220683825
 20
13.8516250828
 30
0.0
 10
7.1227512054
 20
13.850127726
 30
0.0
 10
7.123300464
 20
13.8488146443
 30
0.0
 10
7.1237141664
 20
13.8476909553
 30
0.0
 10
7.1239600313
 20
13.8468701051
 30
0.0
 10
7.1240796134
 20
13.8463109019
 30
0.0
 10
7.1241285293
 20
13.8459684952
 30
0.0
 10
7.1241428143
 20
13.8456754964
 30
0.0
 10
7.1241220664
 20
13.8454312314
 30
0.0
 10
7.1240656154
 20
13.8452344789
 30
0.0
 10
7.1239971083
 20
13.8451296216
 30
0.0
 10
7.1239575027
 20
13.8450900013
 30
0.0
  0
LINE
  5
564
100
AcDbEntity
  8
0
100
AcDbLine
 62
9
  6
CONTINUOUS
 10
10.8201196578
 20
15.2698022861
 11
10.8199286443
 21
15.269705256
  0
SPLINE
  5
565
100
AcDbEntity
  8
0
100
AcDbSpline
 62
9
  6
CONTINUOUS
 70
0
 71
3
 72
9
 73
5
 74
0
 42
0.0000001
 43
0.0000001
 44
0.0000000001
 40
0.0
 40
0.0
 40
0.0
 40
0.0
 40
0.2389665487
 40
1.0
 40
1.0
 40
1.0
 40
1.0
 10
10.8199286443
 20
15.269705256
 30
0.0
 10
10.8199209277
 20
15.2697036453
 30
0.0
 10
10.8198884857
 20
15.2696976298
 30
0.0
 10
10.8198555548
 20
15.2696944031
 30
0.0
 10
10.8198304795
 20
15.2696931912
 30
0.0
  0
ELLIPSE
  5
566
100
AcDbEntity
  8
0
100
AcDbEllipse
 62
7
  6
CONTINUOUS
 10
6.6414175365
 20
14.5544471287
 30
0.0
 11
0.0104875583
 21
-0.0990569532
 31
0.0
 40
0.5588552877
 41
3.6488340777
 42
5.6267360152
  0
ELLIPSE
  5
567
100
AcDbEntity
  8
0
100
AcDbEllipse
 62
7
  6
CONTINUOUS
 10
9.5617685428
 20
11.6340961224
 30
0.0
 11
0.0990569532
 21
-0.0104875583
 31
0.0
 40
0.5588552877
 41
-2.4851433616
 42
-0.5072414241
  0
ELLIPSE
  5
568
100
AcDbEntity
  8
0
100
AcDbEllipse
 62
7
  6
CONTINUOUS
 10
9.9687225166
 20
14.9614011025
 30
0.0
 11
-0.0
 21
0.6181264952
 31
0.0
 40
0.2679491924
 41
-0.5408188012
 42
0.0172200256
  0
ENDSEC
  0
SECTION
  2
OBJECTS
  0
DICTIONARY
  5
C
100
AcDbDictionary
280
0
281
1
  3
ACAD_GROUP
350
D
  3
ACAD_MLINESTYLE
350
17
  3
ACAD_LAYOUT
350
1A
  3
ACAD_PLOTSETTINGS
350
19
  3
ACAD_PLOTSTYLENAME
350
E
  0
DICTIONARY
  5
D
102
{ACAD_REACTORS
330
C
102
}
100
AcDbDictionary
280
0
281
1
  0
ACDBDICTIONARYWDFLT
  5
E
102
{ACAD_REACTORS
330
C
102
}
100
AcDbDictionary
281
1
  3
Normal
350
F
100
AcDbDictionaryWithDefault
340
F
  0
DICTIONARY
  5
17
102
{ACAD_REACTORS
330
C
102
}
100
AcDbDictionary
280
0
281
1
  3
Standard
350
18
  0
DICTIONARY
  5
19
102
{ACAD_REACTORS
330
C
102
}
100
AcDbDictionary
281
1
  0
DICTIONARY
  5
1A
102
{ACAD_REACTORS
330
C
102
}
100
AcDbDictionary
281
1
  3
Model
350
569
  3
Layout1
350
56A
  0
ACDBPLACEHOLDER
  5
F
102
{ACAD_REACTORS
330
E
102
}
  0
MLINESTYLE
  5
18
102
{ACAD_REACTORS
330
17
102
}
100
AcDbMlineStyle
  2
STANDARD
 70
0
  3

 62
256
 51
90.0
 52
90.0
 71
2
 49
0.5
 62
256
  6
BYLAYER
 49
-0.5
 62
256
  6
BYLAYER
  0
LAYOUT
  5
569
102
{ACAD_REACTORS
330
1A
102
}
100
AcDbPlotSettings
  1

  2
none_device
  4
ANSI_C_(22.00_x_17.00_Inches)
  6

 40
0.0
 41
0.0
 42
0.0
 43
0.0
 44
558.8
 45
431.8
 46
0.0
 47
0.0
 48
0.0
 49
0.0
140
0.0
141
0.0
142
1.0
143
1.0
 70
1024
 72
0
 73
0
 74
0
  7

 75
0
147
1.0
148
0.0
149
0.0
100
AcDbLayout
  1
Model
 70
0
 71
0
 10
0.0
 20
0.0
 11
22.0
 21
17.0
 12
0.0
 22
0.0
 32
0.0
 14
0.0
 24
0.0
 34
0.0
 15
0.0
 25
0.0
 35
0.0
146
0.0
 13
0.0
 23
0.0
 33
0.0
 16
1.0
 26
0.0
 36
0.0
 17
0.0
 27
1.0
 37
0.0
 76
0
330
205
345
0
346
0
  0
LAYOUT
  5
56A
102
{ACAD_REACTORS
330
1A
102
}
100
AcDbPlotSettings
  1

  2
none_device
  4
ANSI_C_(22.00_x_17.00_Inches)
  6

 40
0.0
 41
0.0
 42
0.0
 43
0.0
 44
558.8
 45
431.8
 46
0.0
 47
0.0
 48
0.0
 49
0.0
140
0.0
141
0.0
142
1.0
143
1.0
 70
0
 72
0
 73
0
 74
0
  7

 75
0
147
1.0
148
0.0
149
0.0
100
AcDbLayout
  1
Layout1
 70
0
 71
1
 10
0.0
 20
0.0
 11
22.0
 21
17.0
 12
0.0
 22
0.0
 32
0.0
 14
0.0
 24
0.0
 34
0.0
 15
0.0
 25
0.0
 35
0.0
146
0.0
 13
0.0
 23
0.0
 33
0.0
 16
1.0
 26
0.0
 36
0.0
 17
0.0
 27
1.0
 37
0.0
 76
0
330
206
345
0
346
0
  0
ENDSEC
  0
EOF
