999
DXF file: E:\BT Custom\CADOUTPUT\_TOP.dxf
999
Pro/ENGINEER 2018400 by Parametric Technology Corporation
  0
SECTION
  2
HEADER
  9
$ACADVER
  1
AC1018
  9
$DWGCODEPAGE
  3
ANSI_1252
  9
$EXTMAX
 10
22.0
 20
17.0
 30
0.0
  9
$EXTMIN
 10
0.0
 20
0.0
 30
0.0
  9
$LIMMIN
 10
0.0
 20
0.0
  9
$LIMMAX
 10
22.0
 20
17.0
  9
$VIEWCTR
 10
11.0
 20
8.5
  9
$VIEWSIZE
 40
17.0
  9
$CLAYER
  8
0
  9
$LTSCALE
 40
1.21
  9
$CELTYPE
  6
BYLAYER
  9
$DIMSCALE
 40
1.0
  9
$DIMASZ
 40
0.1
  9
$DIMEXO
 40
0.0625
  9
$DIMDLI
 40
0.836
  9
$DIMEXE
 40
0.125
  9
$DIMCEN
 40
0.198
  9
$DIMLFAC
 40
1.0
  9
$DIMBLK
  1
_FILLED
  9
$DIMALT
 70
1
  9
$DIMALTD
 70
2
  9
$DIMALTTD
 70
2
  9
$DIMALTF
 40
25.4
  9
$DIMTXT
 40
0.08
  9
$DIMTOL
 70
1
  9
$DIMLIM
 70
0
  9
$DIMTFAC
 40
1.0
  9
$DIMTP
 40
0.001
  9
$DIMTM
 40
0.001
  9
$DIMGAP
 40
0.09
  9
$DIMDSEP
 70
46
  9
$AUNITS
 70
0
  9
$PDMODE
 70
3
  9
$PDSIZE
 40
0.06
  9
$HANDSEED
  5
30F
  9
$TILEMODE
 70
1
  9
$MEASUREMENT
 70
0
  9
$INSUNITS
 70
1
  0
ENDSEC
  0
SECTION
  2
CLASSES
  0
CLASS
  1
ACDBDICTIONARYWDFLT
  2
AcDbDictionaryWithDefault
  3
AutoCAD 2000
 90
0
 91
1
280
0
281
0
  0
CLASS
  1
ACDBPLACEHOLDER
  2
AcDbPlaceHolder
  3
AutoCAD 2000
 90
0
 91
1
280
0
281
0
  0
CLASS
  1
LAYOUT
  2
AcDbLayout
  3
AutoCAD 2000
 90
0
 91
0
280
0
281
0
  0
ENDSEC
  0
SECTION
  2
TABLES
  0
TABLE
  2
VPORT
  5
8
100
AcDbSymbolTable
 70
2
  0
VPORT
  5
1F4
100
AcDbSymbolTableRecord
100
AcDbViewportTableRecord
  2
*ACTIVE
 70
0
 10
0.0
 20
0.0
 11
1.0
 21
1.0
 12
11.0
 22
8.5
 13
0.0
 23
0.0
 14
1.0
 24
1.0
 15
0.0
 25
0.0
 16
0.0
 26
0.0
 36
1.0
 17
0.0
 27
0.0
 37
0.0
 40
17.0
 41
1.2941176471
 42
50.0
 43
0.0
 44
0.0
 50
0.0
 51
0.0
 71
0
 72
100
 73
1
 74
1
 75
0
 76
0
 77
0
 78
0
  0
ENDTAB
  0
TABLE
  2
LTYPE
  5
5
100
AcDbSymbolTable
 70
6
  0
LTYPE
  5
14
100
AcDbSymbolTableRecord
100
AcDbLinetypeTableRecord
  2
BYBLOCK
 70
0
  3

 72
65
 73
0
 40
0.0
  0
LTYPE
  5
15
100
AcDbSymbolTableRecord
100
AcDbLinetypeTableRecord
  2
BYLAYER
 70
0
  3

 72
65
 73
0
 40
0.0
  0
LTYPE
  5
16
100
AcDbSymbolTableRecord
100
AcDbLinetypeTableRecord
  2
CONTINUOUS
 70
64
  3
Solid line
 72
65
 73
0
 40
0.0
  0
LTYPE
  5
1F5
100
AcDbSymbolTableRecord
100
AcDbLinetypeTableRecord
  2
CENTER
 70
64
  3
____ _ ____ _ ____ _ ____ _ ____ _ ____ _ ____
 72
65
 73
4
 40
0.6
 49
0.375
 74
0
 49
-0.075
 74
0
 49
0.075
 74
0
 49
-0.075
 74
0
  0
LTYPE
  5
1F6
100
AcDbSymbolTableRecord
100
AcDbLinetypeTableRecord
  2
HIDDEN
 70
64
  3
- - - - - - - - - - - - - - - - - - - -
 72
65
 73
2
 40
0.2
 49
0.1
 74
0
 49
-0.1
 74
0
  0
LTYPE
  5
1F7
100
AcDbSymbolTableRecord
100
AcDbLinetypeTableRecord
  2
PHANTOM
 70
64
  3
_____ _ _ _____ _ _ _____ _ _ _____
 72
65
 73
6
 40
0.8
 49
0.45
 74
0
 49
-0.05
 74
0
 49
0.1
 74
0
 49
-0.05
 74
0
 49
0.1
 74
0
 49
-0.05
 74
0
  0
LTYPE
  5
1F8
100
AcDbSymbolTableRecord
100
AcDbLinetypeTableRecord
  2
DOT
 70
64
  3
. . . . . . . . . . . . . . . . . . . .
 72
65
 73
2
 40
0.2
 49
0.1
 74
0
 49
-0.1
 74
0
  0
LTYPE
  5
1F9
100
AcDbSymbolTableRecord
100
AcDbLinetypeTableRecord
  2
DASHED
 70
64
  3
- - - - - - - - - - - - - - - - - - - -
 72
65
 73
2
 40
0.2
 49
0.1
 74
0
 49
-0.1
 74
0
  0
ENDTAB
  0
TABLE
  2
LAYER
  5
2
100
AcDbSymbolTable
 70
36
  0
LAYER
  5
10
100
AcDbSymbolTableRecord
100
AcDbLayerTableRecord
  2
0
 70
0
 62
7
  6
CONTINUOUS
370
-3
390
F
  0
LAYER
  5
1FA
100
AcDbSymbolTableRecord
100
AcDbLayerTableRecord
  2
DEFAULT_1
 70
0
 62
7
  6
CENTER
370
-3
390
F
  0
LAYER
  5
1FB
100
AcDbSymbolTableRecord
100
AcDbLayerTableRecord
  2
DEFAULT_2
 70
0
 62
8
  6
HIDDEN
370
-3
390
F
  0
LAYER
  5
1FC
100
AcDbSymbolTableRecord
100
AcDbLayerTableRecord
  2
DEFAULT_3
 70
0
 62
7
  6
PHANTOM
370
-3
390
F
  0
LAYER
  5
1FD
100
AcDbSymbolTableRecord
100
AcDbLayerTableRecord
  2
ALL_FEATURES
 70
0
 62
7
  6
CONTINUOUS
370
-3
390
F
  0
LAYER
  5
1FE
100
AcDbSymbolTableRecord
100
AcDbLayerTableRecord
  2
AXES_FEATURES
 70
0
 62
7
  6
CONTINUOUS
370
-3
390
F
  0
LAYER
  5
1FF
100
AcDbSymbolTableRecord
100
AcDbLayerTableRecord
  2
DEFAULT_COORDINATE_SYSTEM
 70
0
 62
7
  6
CONTINUOUS
370
-3
390
F
  0
LAYER
  5
200
100
AcDbSymbolTableRecord
100
AcDbLayerTableRecord
  2
DEFAULT_DATUM_AXES
 70
0
 62
7
  6
CONTINUOUS
370
-3
390
F
  0
LAYER
  5
201
100
AcDbSymbolTableRecord
100
AcDbLayerTableRecord
  2
DEFAULT_DATUM_PLANES
 70
0
 62
7
  6
CONTINUOUS
370
-3
390
F
  0
LAYER
  5
202
100
AcDbSymbolTableRecord
100
AcDbLayerTableRecord
  2
DIMENSIONS
 70
0
 62
7
  6
CONTINUOUS
370
-3
390
F
  0
ENDTAB
  0
TABLE
  2
STYLE
  5
3
100
AcDbSymbolTable
 70
1
  0
STYLE
  5
11
100
AcDbSymbolTableRecord
100
AcDbTextStyleTableRecord
  2
STANDARD
 70
0
 40
0.0
 41
0.8
 50
0.0
 71
0
 42
0.2
  3
txt
  4

  0
STYLE
  5
203
100
AcDbSymbolTableRecord
100
AcDbTextStyleTableRecord
  2
TEXTSTYLE_1
 70
0
 40
0.0
 41
0.8
 50
0.0
 71
0
 42
0.2
  3
gdt
  4

  0
ENDTAB
  0
TABLE
  2
VIEW
  5
6
100
AcDbSymbolTable
 70
0
  0
ENDTAB
  0
TABLE
  2
UCS
  5
7
100
AcDbSymbolTable
 70
0
  0
ENDTAB
  0
TABLE
  2
APPID
  5
9
100
AcDbSymbolTable
 70
1
  0
APPID
  5
204
100
AcDbSymbolTableRecord
100
AcDbRegAppTableRecord
  2
ACAD
 70
0
  0
ENDTAB
  0
TABLE
  2
BLOCK_RECORD
  5
1
100
AcDbSymbolTable
 70
0
  0
BLOCK_RECORD
  5
205
100
AcDbSymbolTableRecord
100
AcDbBlockTableRecord
  2
*Model_Space
  0
BLOCK_RECORD
  5
206
100
AcDbSymbolTableRecord
100
AcDbBlockTableRecord
  2
*Paper_Space
  0
BLOCK_RECORD
  5
207
100
AcDbSymbolTableRecord
100
AcDbBlockTableRecord
  2
_FILLED
  0
ENDTAB
  0
TABLE
  2
DIMSTYLE
  5
A
100
AcDbSymbolTable
 70
1
100
AcDbDimStyleTable
 71
0
  0
DIMSTYLE
105
208
100
AcDbSymbolTableRecord
100
AcDbDimStyleTableRecord
  2
STANDARD
 70
0
  3

  4

 40
1.0
 41
0.1
 42
0.0625
 43
0.38
 44
0.125
 45
0.0
 46
0.0
 47
0.001
 48
0.001
140
0.08
141
0.09
142
0.0
143
25.4
144
1.0
145
0.0
146
1.0
147
0.09
 71
1.0
 72
0.0
 73
1
 74
1
 75
0
 76
0
 77
0
 78
4
 79
1
170
1
171
2
172
0
173
0
174
0
175
0
176
0
177
0
178
0
270
2
179
3
271
3
272
3
273
2
274
2
275
0
280
0
281
0
282
0
283
1
284
4
285
0
286
0
287
3
288
0
340
11
278
46
341
207
342
207
343
207
344
207
  0
ENDTAB
  0
ENDSEC
  0
SECTION
  2
BLOCKS
  0
BLOCK
  5
20
100
AcDbEntity
  8
0
100
AcDbBlockBegin
  2
*Model_Space
 70
0
 10
0.0
 20
0.0
 30
0.0
  3
*Model_Space
  1

  0
ENDBLK
  5
21
100
AcDbEntity
  8
0
100
AcDbBlockEnd
  0
BLOCK
  5
1C
100
AcDbEntity
  8
0
100
AcDbBlockBegin
  2
*Paper_Space
 70
0
 10
0.0
 20
0.0
 30
0.0
  3
*Paper_Space
  1

  0
ENDBLK
  5
1D
100
AcDbEntity
  8
0
100
AcDbBlockEnd
  0
BLOCK
  5
209
100
AcDbEntity
  8
0
100
AcDbBlockBegin
  2
_FILLED
 70
64
 10
0.0
 20
0.0
  3
_FILLED
  1

  0
SOLID
  5
20A
100
AcDbEntity
  8
0
  6
BYBLOCK
 62
0
100
AcDbTrace
 10
0.0
 20
0.0
 11
-1.0
 21
0.2
 12
-1.0
 22
-0.2
 13
-1.0
 23
-0.2
  0
ENDBLK
  5
20B
100
AcDbEntity
  8
0
  6
BYBLOCK
 62
0
100
AcDbBlockEnd
  0
ENDSEC
  0
SECTION
  2
ENTITIES
  0
LINE
  5
20C
100
AcDbEntity
  8
0
100
AcDbLine
 62
7
  6
CONTINUOUS
 10
9.1423183383
 20
5.3277726261
 11
9.1423183383
 21
5.1983375589
  0
LINE
  5
20D
100
AcDbEntity
  8
0
100
AcDbLine
 62
7
  6
CONTINUOUS
 10
9.4273183383
 20
5.4851550294
 11
9.4273183383
 21
5.4611215783
  0
LINE
  5
20E
100
AcDbEntity
  8
0
100
AcDbLine
 62
7
  6
CONTINUOUS
 10
9.8573183383
 20
11.6072409815
 11
9.8573183383
 21
11.3750677343
  0
LINE
  5
20F
100
AcDbEntity
  8
0
100
AcDbLine
 62
7
  6
CONTINUOUS
 10
9.8773183383
 20
10.8392409815
 11
9.8773183383
 21
10.8532409815
  0
LINE
  5
210
100
AcDbEntity
  8
0
100
AcDbLine
 62
7
  6
CONTINUOUS
 10
11.0463785112
 20
6.5342429401
 11
11.0483363447
 21
6.5342430763
  0
LINE
  5
211
100
AcDbEntity
  8
0
100
AcDbLine
 62
7
  6
CONTINUOUS
 10
10.4723183383
 20
6.6208627351
 11
10.4723183383
 21
5.9561823608
  0
LINE
  5
212
100
AcDbEntity
  8
0
100
AcDbLine
 62
7
  6
CONTINUOUS
 10
10.5948183383
 20
7.1370506854
 11
10.5948183383
 21
6.909271898
  0
LINE
  5
213
100
AcDbEntity
  8
0
100
AcDbLine
 62
7
  6
CONTINUOUS
 10
10.6410683383
 20
11.1903838792
 11
10.6410683383
 21
7.3425012461
  0
LINE
  5
214
100
AcDbEntity
  8
0
100
AcDbLine
 62
7
  6
CONTINUOUS
 10
10.6410683383
 20
7.2603898439
 11
10.6410683383
 21
7.2429926138
  0
LINE
  5
215
100
AcDbEntity
  8
0
100
AcDbLine
 62
7
  6
CONTINUOUS
 10
10.6410683383
 20
7.2091612713
 11
10.6410683383
 21
7.1932751954
  0
LINE
  5
216
100
AcDbEntity
  8
0
100
AcDbLine
 62
7
  6
CONTINUOUS
 10
10.6410683383
 20
7.1578614209
 11
10.6410683383
 21
7.1435459954
  0
LINE
  5
217
100
AcDbEntity
  8
0
100
AcDbLine
 62
7
  6
CONTINUOUS
 10
10.6410685839
 20
7.3119853632
 11
10.6410683383
 21
7.2927813287
  0
LINE
  5
218
100
AcDbEntity
  8
0
100
AcDbLine
 62
9
  6
CONTINUOUS
 10
10.6410685839
 20
7.3119853632
 11
10.6434889297
 21
7.312971584
  0
LINE
  5
219
100
AcDbEntity
  8
0
100
AcDbLine
 62
7
  6
CONTINUOUS
 10
10.6371616885
 20
8.9113491273
 11
10.6126527947
 21
9.0503459714
  0
LINE
  5
21A
100
AcDbEntity
  8
0
100
AcDbLine
 62
7
  6
CONTINUOUS
 10
11.1568904109
 20
6.7382189364
 11
11.1568904109
 21
6.5988284967
  0
LINE
  5
21B
100
AcDbEntity
  8
0
100
AcDbLine
 62
7
  6
CONTINUOUS
 10
11.1770814628
 20
6.2247651893
 11
11.1770814628
 21
5.9772778159
  0
LINE
  5
21C
100
AcDbEntity
  8
0
100
AcDbLine
 62
7
  6
CONTINUOUS
 10
11.3727462656
 20
6.82634172
 11
11.3727462656
 21
6.6869512803
  0
LINE
  5
21D
100
AcDbEntity
  8
0
100
AcDbLine
 62
7
  6
CONTINUOUS
 10
11.4535683383
 20
7.2860343074
 11
11.4535683383
 21
7.2678936138
  0
LINE
  5
21E
100
AcDbEntity
  8
0
100
AcDbLine
 62
7
  6
CONTINUOUS
 10
11.4535683383
 20
7.2347689064
 11
11.4535683383
 21
7.2182144969
  0
LINE
  5
21F
100
AcDbEntity
  8
0
100
AcDbLine
 62
7
  6
CONTINUOUS
 10
11.4535683383
 20
7.1834307389
 11
11.4535683383
 21
7.1684124525
  0
LINE
  5
220
100
AcDbEntity
  8
0
100
AcDbLine
 62
7
  6
CONTINUOUS
 10
11.4675552138
 20
6.3433506016
 11
11.4675552138
 21
6.0958632282
  0
LINE
  5
221
100
AcDbEntity
  8
0
100
AcDbLine
 62
7
  6
CONTINUOUS
 10
11.4535683383
 20
11.1903838792
 11
11.4535680927
 21
7.3421853913
  0
LINE
  5
222
100
AcDbEntity
  8
0
100
AcDbLine
 62
7
  6
CONTINUOUS
 10
11.457474988
 20
8.9113491273
 11
11.4819838819
 21
9.0503459714
  0
LINE
  5
223
100
AcDbEntity
  8
0
100
AcDbLine
 62
7
  6
CONTINUOUS
 10
11.4998183383
 20
7.1370506854
 11
11.4998183383
 21
6.909271898
  0
LINE
  5
224
100
AcDbEntity
  8
0
100
AcDbLine
 62
7
  6
CONTINUOUS
 10
11.6223183383
 20
6.6208627351
 11
11.6223183383
 21
5.9561823608
  0
LINE
  5
225
100
AcDbEntity
  8
0
100
AcDbLine
 62
7
  6
CONTINUOUS
 10
12.2173183383
 20
10.8392409815
 11
12.2173183383
 21
10.8532409815
  0
LINE
  5
226
100
AcDbEntity
  8
0
100
AcDbLine
 62
7
  6
CONTINUOUS
 10
12.2373183383
 20
11.6072409815
 11
12.2373183383
 21
11.3750677343
  0
LINE
  5
227
100
AcDbEntity
  8
0
100
AcDbLine
 62
7
  6
CONTINUOUS
 10
11.4675552138
 20
6.3433506016
 11
11.1770814628
 21
6.2247651893
  0
LINE
  5
228
100
AcDbEntity
  8
0
100
AcDbLine
 62
7
  6
CONTINUOUS
 10
11.4675552138
 20
6.0958632282
 11
11.1770814628
 21
5.9772778159
  0
LINE
  5
229
100
AcDbEntity
  8
0
100
AcDbLine
 62
9
  6
CONTINUOUS
 10
11.457474988
 20
8.9113491273
 11
11.4535683383
 21
8.9113491273
  0
LINE
  5
22A
100
AcDbEntity
  8
0
100
AcDbLine
 62
9
  6
CONTINUOUS
 10
10.6410683383
 20
8.9113491273
 11
10.6371616885
 21
8.9113491273
  0
LINE
  5
22B
100
AcDbEntity
  8
0
100
AcDbLine
 62
7
  6
CONTINUOUS
 10
12.6673183383
 20
5.4851550294
 11
12.6673183383
 21
5.4611215783
  0
LINE
  5
22C
100
AcDbEntity
  8
0
100
AcDbLine
 62
7
  6
CONTINUOUS
 10
12.9523183383
 20
5.3277726261
 11
12.9523183383
 21
5.1983375589
  0
LINE
  5
22D
100
AcDbEntity
  8
0
100
AcDbLine
 62
9
  6
CONTINUOUS
 10
10.6410683383
 20
9.0503459714
 11
10.6126527947
 21
9.0503459714
  0
LINE
  5
22E
100
AcDbEntity
  8
0
100
AcDbLine
 62
9
  6
CONTINUOUS
 10
11.4535683383
 20
9.0503459714
 11
11.4819838819
 21
9.0503459714
  0
LINE
  5
22F
100
AcDbEntity
  8
0
100
AcDbLine
 62
9
  6
CONTINUOUS
 10
10.6410683383
 20
9.2407465016
 11
10.5228232378
 21
9.2407465016
  0
LINE
  5
230
100
AcDbEntity
  8
0
100
AcDbLine
 62
9
  6
CONTINUOUS
 10
11.4535683383
 20
9.2407465016
 11
11.5718134388
 21
9.2407465016
  0
LINE
  5
231
100
AcDbEntity
  8
0
100
AcDbLine
 62
9
  6
CONTINUOUS
 10
11.4535683383
 20
9.3572409815
 11
10.6410683383
 21
9.3572409815
  0
LINE
  5
232
100
AcDbEntity
  8
0
100
AcDbLine
 62
9
  6
CONTINUOUS
 10
10.6410683383
 20
9.7792409815
 11
10.2595707748
 21
9.7792409815
  0
LINE
  5
233
100
AcDbEntity
  8
0
100
AcDbLine
 62
9
  6
CONTINUOUS
 10
11.4535683383
 20
9.7792409815
 11
11.8350659018
 21
9.7792409815
  0
LINE
  5
234
100
AcDbEntity
  8
0
100
AcDbLine
 62
9
  6
CONTINUOUS
 10
10.6410683383
 20
10.1842409815
 11
10.2318477758
 21
10.1842409815
  0
LINE
  5
235
100
AcDbEntity
  8
0
100
AcDbLine
 62
9
  6
CONTINUOUS
 10
11.4535683383
 20
10.1842409815
 11
11.8627889008
 21
10.1842409815
  0
LINE
  5
236
100
AcDbEntity
  8
0
100
AcDbLine
 62
9
  6
CONTINUOUS
 10
10.6410683383
 20
10.4732409815
 11
10.1054945681
 21
10.4732409815
  0
LINE
  5
237
100
AcDbEntity
  8
0
100
AcDbLine
 62
9
  6
CONTINUOUS
 10
11.4535683383
 20
10.4732409815
 11
11.9891421085
 21
10.4732409815
  0
LINE
  5
238
100
AcDbEntity
  8
0
100
AcDbLine
 62
9
  6
CONTINUOUS
 10
10.6410683383
 20
10.4882409815
 11
10.0953701847
 21
10.4882409815
  0
LINE
  5
239
100
AcDbEntity
  8
0
100
AcDbLine
 62
9
  6
CONTINUOUS
 10
11.4535683383
 20
10.4882409815
 11
11.9992664919
 21
10.4882409815
  0
LINE
  5
23A
100
AcDbEntity
  8
0
100
AcDbLine
 62
9
  6
CONTINUOUS
 10
10.6410683383
 20
10.5232409815
 11
10.0679747812
 21
10.5232409815
  0
LINE
  5
23B
100
AcDbEntity
  8
0
100
AcDbLine
 62
9
  6
CONTINUOUS
 10
11.4535683383
 20
10.5232409815
 11
12.0266618953
 21
10.5232409815
  0
LINE
  5
23C
100
AcDbEntity
  8
0
100
AcDbLine
 62
9
  6
CONTINUOUS
 10
10.6410683383
 20
10.5792409815
 11
10.0308478319
 21
10.5792409815
  0
LINE
  5
23D
100
AcDbEntity
  8
0
100
AcDbLine
 62
9
  6
CONTINUOUS
 10
11.4535683383
 20
10.5792409815
 11
12.0637888446
 21
10.5792409815
  0
LINE
  5
23E
100
AcDbEntity
  8
0
100
AcDbLine
 62
9
  6
CONTINUOUS
 10
10.6410683383
 20
10.6202409815
 11
10.0065724107
 21
10.6202409815
  0
LINE
  5
23F
100
AcDbEntity
  8
0
100
AcDbLine
 62
9
  6
CONTINUOUS
 10
11.4535683383
 20
10.6202409815
 11
12.0880642659
 21
10.6202409815
  0
LINE
  5
240
100
AcDbEntity
  8
0
100
AcDbLine
 62
9
  6
CONTINUOUS
 10
10.6410683383
 20
10.6782409815
 11
9.9753959686
 21
10.6782409815
  0
LINE
  5
241
100
AcDbEntity
  8
0
100
AcDbLine
 62
9
  6
CONTINUOUS
 10
11.4535683383
 20
10.6782409815
 11
12.1192407079
 21
10.6782409815
  0
LINE
  5
242
100
AcDbEntity
  8
0
100
AcDbLine
 62
9
  6
CONTINUOUS
 10
10.6410683383
 20
10.7292409815
 11
9.9429466278
 21
10.7292409815
  0
LINE
  5
243
100
AcDbEntity
  8
0
100
AcDbLine
 62
9
  6
CONTINUOUS
 10
11.4535683383
 20
10.7292409815
 11
12.1516900487
 21
10.7292409815
  0
LINE
  5
244
100
AcDbEntity
  8
0
100
AcDbLine
 62
9
  6
CONTINUOUS
 10
10.6410683383
 20
10.8392409815
 11
9.8773183383
 21
10.8392409815
  0
LINE
  5
245
100
AcDbEntity
  8
0
100
AcDbLine
 62
9
  6
CONTINUOUS
 10
11.4535683383
 20
10.8392409815
 11
12.2173183383
 21
10.8392409815
  0
LINE
  5
246
100
AcDbEntity
  8
0
100
AcDbLine
 62
7
  6
CONTINUOUS
 10
13.8041570779
 20
10.8532409815
 11
11.4535683383
 21
10.8532409815
  0
LINE
  5
247
100
AcDbEntity
  8
0
100
AcDbLine
 62
7
  6
CONTINUOUS
 10
10.6410683383
 20
10.8532409815
 11
8.2904795986
 21
10.8532409815
  0
LINE
  5
248
100
AcDbEntity
  8
0
100
AcDbLine
 62
7
  6
CONTINUOUS
 10
11.4945333056
 20
11.1903838792
 11
11.4978849088
 21
11.1905716878
  0
LINE
  5
249
100
AcDbEntity
  8
0
100
AcDbLine
 62
9
  6
CONTINUOUS
 10
14.0212377081
 20
10.9792409815
 11
11.4535683383
 21
10.9792409815
  0
LINE
  5
24A
100
AcDbEntity
  8
0
100
AcDbLine
 62
9
  6
CONTINUOUS
 10
10.6410683383
 20
10.9792409815
 11
8.0733989685
 21
10.9792409815
  0
LINE
  5
24B
100
AcDbEntity
  8
0
100
AcDbLine
 62
7
  6
CONTINUOUS
 10
14.2382345161
 20
11.1052409674
 11
11.4535683383
 21
11.1052409674
  0
LINE
  5
24C
100
AcDbEntity
  8
0
100
AcDbLine
 62
7
  6
CONTINUOUS
 10
10.6410683383
 20
11.1052409674
 11
7.8564021604
 21
11.1052409674
  0
LINE
  5
24D
100
AcDbEntity
  8
0
100
AcDbLine
 62
7
  6
CONTINUOUS
 10
10.600103371
 20
11.1903838792
 11
11.4945333056
 21
11.1903838792
  0
LINE
  5
24E
100
AcDbEntity
  8
0
100
AcDbLine
 62
9
  6
CONTINUOUS
 10
11.4978849088
 20
11.1905716878
 11
10.5967517678
 21
11.1905716878
  0
LINE
  5
24F
100
AcDbEntity
  8
0
100
AcDbLine
 62
9
  6
CONTINUOUS
 10
14.4552392802
 20
11.2312437337
 11
11.7742071354
 21
11.2312437337
  0
LINE
  5
250
100
AcDbEntity
  8
0
100
AcDbLine
 62
9
  6
CONTINUOUS
 10
10.3204295411
 20
11.2312437337
 11
7.6393973963
 21
11.2312437337
  0
LINE
  5
251
100
AcDbEntity
  8
0
100
AcDbLine
 62
7
  6
CONTINUOUS
 10
10.600103371
 20
11.1903838792
 11
10.5967517678
 21
11.1905716878
  0
LINE
  5
252
100
AcDbEntity
  8
0
100
AcDbLine
 62
9
  6
CONTINUOUS
 10
12.2007135508
 20
11.3268954572
 11
9.8939231258
 21
11.3268954572
  0
LINE
  5
253
100
AcDbEntity
  8
0
100
AcDbLine
 62
7
  6
CONTINUOUS
 10
14.6723183383
 20
11.3572409815
 11
12.2339625829
 21
11.3572409815
  0
LINE
  5
254
100
AcDbEntity
  8
0
100
AcDbLine
 62
7
  6
CONTINUOUS
 10
9.8606740936
 20
11.3572409815
 11
7.4223183383
 21
11.3572409815
  0
LINE
  5
255
100
AcDbEntity
  8
0
100
AcDbLine
 62
9
  6
CONTINUOUS
 10
12.2373183383
 20
11.3750677343
 11
9.8573183383
 21
11.3750677343
  0
LINE
  5
256
100
AcDbEntity
  8
0
100
AcDbLine
 62
7
  6
CONTINUOUS
 10
14.9223183383
 20
11.6072409815
 11
7.1723183383
 21
11.6072409815
  0
ARC
  5
257
100
AcDbEntity
  8
0
100
AcDbCircle
 62
9
  6
CONTINUOUS
 10
11.0473119721
 20
6.5970423481
 40
2.3027444852
100
AcDbArc
 50
264.6690262697
 51
275.3331943311
  0
ARC
  5
258
100
AcDbEntity
  8
0
100
AcDbCircle
 62
7
  6
CONTINUOUS
 10
10.9477088526
 20
4.7493494486
 40
1.8730610631
100
AcDbArc
 50
112.0766293391
 51
112.2076300515
  0
ARC
  5
259
100
AcDbEntity
  8
0
100
AcDbCircle
 62
7
  6
CONTINUOUS
 10
10.3460573137
 20
10.0846152184
 40
1.52
100
AcDbArc
 50
348.4101664982
 51
3.7580464625
  0
ARC
  5
25A
100
AcDbEntity
  8
0
100
AcDbCircle
 62
7
  6
CONTINUOUS
 10
10.6595328059
 20
10.0203259054
 40
1.2
100
AcDbArc
 50
319.4848188736
 51
348.4101664982
  0
ARC
  5
25B
100
AcDbEntity
  8
0
100
AcDbCircle
 62
7
  6
CONTINUOUS
 10
9.9753522872
 20
4.8977700191
 40
1.0779680394
100
AcDbArc
 50
176.7935732451
 51
188.3556541208
  0
ARC
  5
25C
100
AcDbEntity
  8
0
100
AcDbCircle
 62
9
  6
CONTINUOUS
 10
10.237426949
 20
5.4851539682
 40
0.8101085696
100
AcDbArc
 50
179.999924943
 51
181.6008109692
  0
ARC
  5
25D
100
AcDbEntity
  8
0
100
AcDbCircle
 62
7
  6
CONTINUOUS
 10
11.0472647341
 20
6.4539523684
 40
0.4890629454
100
AcDbArc
 50
28.6910649611
 51
34.9067885354
  0
ARC
  5
25E
100
AcDbEntity
  8
0
100
AcDbCircle
 62
7
  6
CONTINUOUS
 10
10.2187296935
 20
8.9808867003
 40
0.4
100
AcDbArc
 50
10.0
 51
40.5151811264
  0
ARC
  5
25F
100
AcDbEntity
  8
0
100
AcDbCircle
 62
7
  6
CONTINUOUS
 10
10.9673183383
 20
8.1310514588
 40
0.375
100
AcDbArc
 50
150.5683177746
 51
209.4303842348
  0
ARC
  5
260
100
AcDbEntity
  8
0
100
AcDbCircle
 62
7
  6
CONTINUOUS
 10
10.8180665382
 20
6.5712318541
 40
0.233253007
100
AcDbArc
 50
171.3689481225
 51
175.6175450066
  0
ARC
  5
261
100
AcDbEntity
  8
0
100
AcDbCircle
 62
7
  6
CONTINUOUS
 10
10.8452288073
 20
7.3425360769
 40
0.2041604717
100
AcDbArc
 50
180.0097749446
 51
188.5743828241
  0
ARC
  5
262
100
AcDbEntity
  8
0
100
AcDbCircle
 62
7
  6
CONTINUOUS
 10
10.8377736363
 20
7.2435413676
 40
0.1967417925
100
AcDbArc
 50
189.9555284939
 51
190.5495302863
  0
ARC
  5
263
100
AcDbEntity
  8
0
100
AcDbCircle
 62
7
  6
CONTINUOUS
 10
10.8345597764
 20
7.1933301263
 40
0.1934914178
100
AcDbArc
 50
180.016265881
 51
190.3499504072
  0
ARC
  5
264
100
AcDbEntity
  8
0
100
AcDbCircle
 62
7
  6
CONTINUOUS
 10
10.834455103
 20
7.2430408512
 40
0.1933867147
100
AcDbArc
 50
180.0142915511
 51
189.9794499793
  0
ARC
  5
265
100
AcDbEntity
  8
0
100
AcDbCircle
 62
7
  6
CONTINUOUS
 10
10.8343128158
 20
7.292822254
 40
0.1932444377
100
AcDbArc
 50
180.0121341126
 51
189.4010367302
  0
ARC
  5
266
100
AcDbEntity
  8
0
100
AcDbCircle
 62
7
  6
CONTINUOUS
 10
10.8333526984
 20
7.1578468945
 40
0.1922843253
100
AcDbArc
 50
174.3631666192
 51
179.9956715035
  0
ARC
  5
267
100
AcDbEntity
  8
0
100
AcDbCircle
 62
7
  6
CONTINUOUS
 10
10.8332328032
 20
7.2603993337
 40
0.192164409
100
AcDbArc
 50
180.0028294828
 51
185.1620473608
  0
ARC
  5
268
100
AcDbEntity
  8
0
100
AcDbCircle
 62
7
  6
CONTINUOUS
 10
10.8331546231
 20
7.2091680566
 40
0.1920862288
100
AcDbArc
 50
180.0020239469
 51
184.7167863594
  0
ARC
  5
269
100
AcDbEntity
  8
0
100
AcDbCircle
 62
7
  6
CONTINUOUS
 10
10.8330535827
 20
7.2091593379
 40
0.1919851883
100
AcDbArc
 50
174.9437829096
 51
179.9994229969
  0
ARC
  5
26A
100
AcDbEntity
  8
0
100
AcDbCircle
 62
7
  6
CONTINUOUS
 10
10.833052854
 20
7.2603879982
 40
0.1919844596
100
AcDbArc
 50
175.0191214078
 51
179.9994491723
  0
ARC
  5
26B
100
AcDbEntity
  8
0
100
AcDbCircle
 62
7
  6
CONTINUOUS
 10
10.8330283854
 20
7.3116747098
 40
0.1919600529
100
AcDbArc
 50
175.4983186473
 51
179.9072768826
  0
ARC
  5
26C
100
AcDbEntity
  8
0
100
AcDbCircle
 62
7
  6
CONTINUOUS
 10
10.8329470625
 20
7.1578613223
 40
0.1918786888
100
AcDbArc
 50
179.9999705769
 51
184.2578312281
  0
ARC
  5
26D
100
AcDbEntity
  8
0
100
AcDbCircle
 62
7
  6
CONTINUOUS
 10
10.7159463088
 20
8.9252409815
 40
0.08
100
AcDbArc
 50
190.0
 51
200.3567171577
  0
ARC
  5
26E
100
AcDbEntity
  8
0
100
AcDbCircle
 62
7
  6
CONTINUOUS
 10
10.9951444261
 20
15.6624003973
 40
4.5
100
AcDbArc
 50
276.4144817261
 51
285.5395954904
  0
ARC
  5
26F
100
AcDbEntity
  8
0
100
AcDbCircle
 62
7
  6
CONTINUOUS
 10
9.889585319
 20
10.2067223214
 40
0.343
100
AcDbArc
 50
356.2419535375
 51
50.9887457037
  0
ARC
  5
270
100
AcDbEntity
  8
0
100
AcDbCircle
 62
7
  6
CONTINUOUS
 10
7.8564859863
 20
11.3552519308
 40
0.2500109774
100
AcDbArc
 50
209.7364395186
 51
269.9807893772
  0
ARC
  5
271
100
AcDbEntity
  8
0
100
AcDbCircle
 62
7
  6
CONTINUOUS
 10
7.4223183383
 20
11.6072409815
 40
0.25
100
AcDbArc
 50
180.0
 51
270.0
  0
ARC
  5
272
100
AcDbEntity
  8
0
100
AcDbCircle
 62
7
  6
CONTINUOUS
 10
7.4223183383
 20
11.1072409815
 40
0.25
100
AcDbArc
 50
29.7364395186
 51
90.0
  0
ARC
  5
273
100
AcDbEntity
  8
0
100
AcDbCircle
 62
7
  6
CONTINUOUS
 10
7.8563183383
 20
10.8552409815
 40
0.25
100
AcDbArc
 50
29.7357131076
 51
89.9807893772
  0
ARC
  5
274
100
AcDbEntity
  8
0
100
AcDbCircle
 62
7
  6
CONTINUOUS
 10
8.2904795986
 20
11.1032409815
 40
0.25
100
AcDbArc
 50
209.7357131076
 51
270.0
  0
ARC
  5
275
100
AcDbEntity
  8
0
100
AcDbCircle
 62
7
  6
CONTINUOUS
 10
10.0023183383
 20
10.8392409815
 40
0.125
100
AcDbArc
 50
180.0
 51
241.6423634237
  0
ARC
  5
276
100
AcDbEntity
  8
0
100
AcDbCircle
 62
7
  6
CONTINUOUS
 10
10.1080827476
 20
10.590139046
 40
0.078
100
AcDbArc
 50
188.03157335
 51
239.0556893899
  0
ARC
  5
277
100
AcDbEntity
  8
0
100
AcDbCircle
 62
7
  6
CONTINUOUS
 10
10.0532672802
 20
10.6827196911
 40
0.078
100
AcDbArc
 50
183.291697165
 51
233.2265724874
  0
ARC
  5
278
100
AcDbEntity
  8
0
100
AcDbCircle
 62
7
  6
CONTINUOUS
 10
10.03609409
 20
10.4700655969
 40
0.062
100
AcDbArc
 50
17.0467181651
 51
59.0556893899
  0
ARC
  5
279
100
AcDbEntity
  8
0
100
AcDbCircle
 62
7
  6
CONTINUOUS
 10
9.9694559759
 20
10.5705784174
 40
0.062
100
AcDbArc
 50
8.03157335
 51
53.2265724874
  0
ARC
  5
27A
100
AcDbEntity
  8
0
100
AcDbCircle
 62
7
  6
CONTINUOUS
 10
9.9134982595
 20
10.6746809815
 40
0.062
100
AcDbArc
 50
3.291697165
 51
61.6423634237
  0
ARC
  5
27B
100
AcDbEntity
  8
0
100
AcDbCircle
 62
7
  6
CONTINUOUS
 10
9.9073183383
 20
11.3750677343
 40
0.05
100
AcDbArc
 50
180.0
 51
254.4604045097
  0
ARC
  5
27C
100
AcDbEntity
  8
0
100
AcDbCircle
 62
7
  6
CONTINUOUS
 10
10.125008232
 20
10.4973286738
 40
0.031
100
AcDbArc
 50
197.0467181651
 51
230.9887457037
  0
ARC
  5
27D
100
AcDbEntity
  8
0
100
AcDbCircle
 62
9
  6
CONTINUOUS
 10
11.0608423461
 20
6.575639849
 40
2.5141125937
100
AcDbArc
 50
278.9563272498
 51
280.9090653734
  0
ARC
  5
27E
100
AcDbEntity
  8
0
100
AcDbCircle
 62
9
  6
CONTINUOUS
 10
11.170923383
 20
6.1806546631
 40
1.7971522739
100
AcDbArc
 50
292.1832909522
 51
295.6402209495
  0
ARC
  5
27F
100
AcDbEntity
  8
0
100
AcDbCircle
 62
7
  6
CONTINUOUS
 10
11.7485793629
 20
10.0846152184
 40
1.52
100
AcDbArc
 50
176.2419535375
 51
191.5898335018
  0
ARC
  5
280
100
AcDbEntity
  8
0
100
AcDbCircle
 62
7
  6
CONTINUOUS
 10
11.4351038707
 20
10.0203259054
 40
1.2
100
AcDbArc
 50
191.5898335018
 51
220.5151811264
  0
ARC
  5
281
100
AcDbEntity
  8
0
100
AcDbCircle
 62
7
  6
CONTINUOUS
 10
12.1192844391
 20
4.8977700184
 40
1.0779679898
100
AcDbArc
 50
351.6444029138
 51
3.2064269397
  0
ARC
  5
282
100
AcDbEntity
  8
0
100
AcDbCircle
 62
7
  6
CONTINUOUS
 10
11.0761547832
 20
6.8457171631
 40
0.5620113138
100
AcDbArc
 50
291.1910826387
 51
292.2069104658
  0
ARC
  5
283
100
AcDbEntity
  8
0
100
AcDbCircle
 62
7
  6
CONTINUOUS
 10
11.0783346624
 20
6.8140217703
 40
0.52981766
100
AcDbArc
 50
292.2054844148
 51
293.284233737
  0
ARC
  5
284
100
AcDbEntity
  8
0
100
AcDbCircle
 62
7
  6
CONTINUOUS
 10
11.0473546817
 20
6.4539629844
 40
0.4890427073
100
AcDbArc
 50
145.1044821318
 51
151.3090552304
  0
ARC
  5
285
100
AcDbEntity
  8
0
100
AcDbCircle
 62
7
  6
CONTINUOUS
 10
11.8759069831
 20
8.9808867003
 40
0.4
100
AcDbArc
 50
139.4848188736
 51
170.0
  0
ARC
  5
286
100
AcDbEntity
  8
0
100
AcDbCircle
 62
7
  6
CONTINUOUS
 10
11.1273183383
 20
8.1310514588
 40
0.375
100
AcDbArc
 50
330.5696157652
 51
29.4316822254
  0
ARC
  5
287
100
AcDbEntity
  8
0
100
AcDbCircle
 62
7
  6
CONTINUOUS
 10
11.2760837413
 20
6.5711763781
 40
0.2337422218
100
AcDbArc
 50
4.3869031146
 51
8.6266037609
  0
ARC
  5
288
100
AcDbEntity
  8
0
100
AcDbCircle
 62
7
  6
CONTINUOUS
 10
11.2347953147
 20
7.2186967448
 40
0.2188029428
100
AcDbArc
 50
350.0120359435
 51
350.8124167263
  0
ARC
  5
289
100
AcDbEntity
  8
0
100
AcDbCircle
 62
7
  6
CONTINUOUS
 10
11.237954761
 20
7.2182551063
 40
0.2156135251
100
AcDbArc
 50
350.7942172996
 51
359.9892087155
  0
ARC
  5
28A
100
AcDbEntity
  8
0
100
AcDbCircle
 62
7
  6
CONTINUOUS
 10
11.2379631651
 20
7.2860135677
 40
0.2156051181
100
AcDbArc
 50
0.0055114505
 51
7.5082958554
  0
ARC
  5
28B
100
AcDbEntity
  8
0
100
AcDbCircle
 62
7
  6
CONTINUOUS
 10
11.2380026238
 20
7.2679283021
 40
0.2155656612
100
AcDbArc
 50
351.2329810127
 51
359.9907801036
  0
ARC
  5
28C
100
AcDbEntity
  8
0
100
AcDbCircle
 62
7
  6
CONTINUOUS
 10
11.2383315411
 20
7.1834238736
 40
0.2152367413
100
AcDbArc
 50
0.001827534
 51
4.6423993284
  0
ARC
  5
28D
100
AcDbEntity
  8
0
100
AcDbCircle
 62
7
  6
CONTINUOUS
 10
11.2384381157
 20
7.2347632549
 40
0.2151301666
100
AcDbArc
 50
0.0015051767
 51
4.4196955531
  0
ARC
  5
28E
100
AcDbEntity
  8
0
100
AcDbCircle
 62
7
  6
CONTINUOUS
 10
11.2384983432
 20
7.2860360097
 40
0.215069939
100
AcDbArc
 50
355.1896593587
 51
359.999546499
  0
ARC
  5
28F
100
AcDbEntity
  8
0
100
AcDbCircle
 62
7
  6
CONTINUOUS
 10
11.2385127322
 20
7.1834316298
 40
0.21505555
100
AcDbArc
 50
356.0142972097
 51
359.9997626557
  0
ARC
  5
290
100
AcDbEntity
  8
0
100
AcDbCircle
 62
7
  6
CONTINUOUS
 10
11.2385540499
 20
7.2347701518
 40
0.2150142323
100
AcDbArc
 50
355.6077456209
 51
359.9996681375
  0
ARC
  5
291
100
AcDbEntity
  8
0
100
AcDbCircle
 62
7
  6
CONTINUOUS
 10
11.3786903678
 20
8.9252409815
 40
0.08
100
AcDbArc
 50
339.6432828423
 51
350.0
  0
ARC
  5
292
100
AcDbEntity
  8
0
100
AcDbCircle
 62
7
  6
CONTINUOUS
 10
11.0994922504
 20
15.6624003973
 40
4.5
100
AcDbArc
 50
254.4604045096
 51
263.5855182739
  0
ARC
  5
293
100
AcDbEntity
  8
0
100
AcDbCircle
 62
7
  6
CONTINUOUS
 10
12.2050513576
 20
10.2067223214
 40
0.343
100
AcDbArc
 50
129.0112542963
 51
183.7580464625
  0
ARC
  5
294
100
AcDbEntity
  8
0
100
AcDbCircle
 62
7
  6
CONTINUOUS
 10
14.2381506903
 20
11.3552519308
 40
0.2500109774
100
AcDbArc
 50
270.0192106228
 51
330.2635604814
  0
ARC
  5
295
100
AcDbEntity
  8
0
100
AcDbCircle
 62
7
  6
CONTINUOUS
 10
14.6723183383
 20
11.6072409815
 40
0.25
100
AcDbArc
 50
270.0
 51
360.0
  0
ARC
  5
296
100
AcDbEntity
  8
0
100
AcDbCircle
 62
7
  6
CONTINUOUS
 10
14.6723183383
 20
11.1072409815
 40
0.25
100
AcDbArc
 50
90.0
 51
150.2635604814
  0
ARC
  5
297
100
AcDbEntity
  8
0
100
AcDbCircle
 62
7
  6
CONTINUOUS
 10
14.2383183383
 20
10.8552409815
 40
0.25
100
AcDbArc
 50
90.0192106228
 51
150.2642868924
  0
ARC
  5
298
100
AcDbEntity
  8
0
100
AcDbCircle
 62
7
  6
CONTINUOUS
 10
13.8041570779
 20
11.1032409815
 40
0.25
100
AcDbArc
 50
270.0
 51
330.2642868924
  0
ARC
  5
299
100
AcDbEntity
  8
0
100
AcDbCircle
 62
7
  6
CONTINUOUS
 10
12.0923183383
 20
10.8392409815
 40
0.125
100
AcDbArc
 50
298.3576365763
 51
360.0
  0
ARC
  5
29A
100
AcDbEntity
  8
0
100
AcDbCircle
 62
7
  6
CONTINUOUS
 10
11.986553929
 20
10.590139046
 40
0.078
100
AcDbArc
 50
300.9443106101
 51
351.96842665
  0
ARC
  5
29B
100
AcDbEntity
  8
0
100
AcDbCircle
 62
7
  6
CONTINUOUS
 10
12.0413693964
 20
10.6827196911
 40
0.078
100
AcDbArc
 50
306.7734275126
 51
356.708302835
  0
ARC
  5
29C
100
AcDbEntity
  8
0
100
AcDbCircle
 62
7
  6
CONTINUOUS
 10
12.0585425865
 20
10.4700655969
 40
0.062
100
AcDbArc
 50
120.9443106101
 51
162.9532818349
  0
ARC
  5
29D
100
AcDbEntity
  8
0
100
AcDbCircle
 62
7
  6
CONTINUOUS
 10
12.1251807006
 20
10.5705784174
 40
0.062
100
AcDbArc
 50
126.7734275126
 51
171.96842665
  0
ARC
  5
29E
100
AcDbEntity
  8
0
100
AcDbCircle
 62
7
  6
CONTINUOUS
 10
12.1811384171
 20
10.6746809815
 40
0.062
100
AcDbArc
 50
118.3576365763
 51
176.708302835
  0
ARC
  5
29F
100
AcDbEntity
  8
0
100
AcDbCircle
 62
7
  6
CONTINUOUS
 10
12.1873183383
 20
11.3750677343
 40
0.05
100
AcDbArc
 50
285.5395954903
 51
360.0
  0
ARC
  5
2A0
100
AcDbEntity
  8
0
100
AcDbCircle
 62
7
  6
CONTINUOUS
 10
11.9696284446
 20
10.4973286738
 40
0.031
100
AcDbArc
 50
309.0112542963
 51
342.9532818349
  0
SPLINE
  5
2A1
100
AcDbEntity
  8
0
100
AcDbSpline
 62
7
  6
CONTINUOUS
 70
0
 71
3
 72
26
 73
22
 74
0
 42
0.0000001
 43
0.0000001
 44
0.0000000001
 40
0.0
 40
0.0
 40
0.0
 40
0.0
 40
0.0253240185
 40
0.0507140859
 40
0.0762351392
 40
0.1019498682
 40
0.1279177673
 40
0.1541942786
 40
0.1808299976
 40
0.2078703098
 40
0.2632922825
 40
0.3207319391
 40
0.3803374207
 40
0.4421643616
 40
0.5061838922
 40
0.5722920447
 40
0.6403201998
 40
0.7100451217
 40
0.7811990481
 40
0.85347967
 40
1.0
 40
1.0
 40
1.0
 40
1.0
 10
10.6410683402
 20
7.1435459954
 30
0.0
 10
10.6410683263
 20
7.1389742196
 30
0.0
 10
10.6413957893
 20
7.1298153968
 30
0.0
 10
10.6428669081
 20
7.1161203509
 30
0.0
 10
10.6453148456
 20
7.1024935612
 30
0.0
 10
10.6487332102
 20
7.0889701335
 30
0.0
 10
10.6531133414
 20
7.0755835912
 30
0.0
 10
10.6584444395
 20
7.0623676327
 30
0.0
 10
10.6647132009
 20
7.0493545345
 30
0.0
 10
10.6743780101
 20
7.0321805107
 30
0.0
 10
10.688800346
 20
7.011365665
 30
0.0
 10
10.7094028092
 20
6.9879383319
 30
0.0
 10
10.733243344
 20
6.9660715455
 30
0.0
 10
10.7600880469
 20
6.9459789304
 30
0.0
 10
10.7896786422
 20
6.9278537475
 30
0.0
 10
10.8217313878
 20
6.9118727277
 30
0.0
 10
10.855940263
 20
6.8981928891
 30
0.0
 10
10.8919774817
 20
6.886950451
 30
0.0
 10
10.929503183
 20
6.8782583472
 30
0.0
 10
10.9812492962
 20
6.8701558494
 30
0.0
 10
11.0208718642
 20
6.868203791
 30
0.0
 10
11.0473183383
 20
6.8687190447
 30
0.0
  0
SPLINE
  5
2A2
100
AcDbEntity
  8
0
100
AcDbSpline
 62
7
  6
CONTINUOUS
 70
0
 71
3
 72
14
 73
10
 74
0
 42
0.0000001
 43
0.0000001
 44
0.0000000001
 40
0.0
 40
0.0
 40
0.0
 40
0.0
 40
0.119539421
 40
0.2401527607
 40
0.3621155546
 40
0.4856813197
 40
0.6110748993
 40
0.7385014341
 40
1.0
 40
1.0
 40
1.0
 40
1.0
 10
10.6442166992
 20
7.1585674781
 30
0.0
 10
10.6450573645
 20
7.1539525512
 30
0.0
 10
10.6470784806
 20
7.1447384058
 30
0.0
 10
10.6510925334
 20
7.1310959748
 30
0.0
 10
10.6560899138
 20
7.1176131837
 30
0.0
 10
10.6620578597
 20
7.104326033
 30
0.0
 10
10.6689812843
 20
7.0912671015
 30
0.0
 10
10.679550158
 20
7.0740618758
 30
0.0
 10
10.6887378652
 20
7.0618157816
 30
0.0
 10
10.6953467171
 20
7.0539658238
 30
0.0
  0
SPLINE
  5
2A3
100
AcDbEntity
  8
0
100
AcDbSpline
 62
7
  6
CONTINUOUS
 70
0
 71
3
 72
25
 73
21
 74
0
 42
0.0000001
 43
0.0000001
 44
0.0000000001
 40
0.0
 40
0.0
 40
0.0
 40
0.0
 40
0.0252027852
 40
0.0506085776
 40
0.0762653451
 40
0.1022175682
 40
0.1551450066
 40
0.2096898234
 40
0.2660541079
 40
0.3243663231
 40
0.3542812368
 40
0.384698981
 40
0.4470129683
 40
0.511255613
 40
0.5773067764
 40
0.6450013456
 40
0.7141363176
 40
0.7844777039
 40
0.8557674277
 40
1.0
 40
1.0
 40
1.0
 40
1.0
 10
10.6443573696
 20
7.2075208083
 30
0.0
 10
10.6451355644
 20
7.2033421574
 30
0.0
 10
10.6469705072
 20
7.1949993978
 30
0.0
 10
10.6505287525
 20
7.182630734
 30
0.0
 10
10.6548958481
 20
7.1703889737
 30
0.0
 10
10.6618272429
 20
7.1541684641
 30
0.0
 10
10.6725254064
 20
7.1343082346
 30
0.0
 10
10.6883232514
 20
7.1115728419
 30
0.0
 10
10.7070329968
 20
7.0899558755
 30
0.0
 10
10.7247715286
 20
7.07316413
 30
0.0
 10
10.7402224885
 20
7.0604409776
 30
0.0
 10
10.7567704749
 20
7.0480202894
 30
0.0
 10
10.7789723005
 20
7.0335363234
 30
0.0
 10
10.8075676627
 20
7.0180557305
 30
0.0
 10
10.8381014494
 20
7.0044622588
 30
0.0
 10
10.8703258264
 20
6.9928708536
 30
0.0
 10
10.9039801093
 20
6.9833796278
 30
0.0
 10
10.9387957504
 20
6.976069993
 30
0.0
 10
10.9865525269
 20
6.9692947425
 30
0.0
 10
11.0229978853
 20
6.9677005251
 30
0.0
 10
11.0473183383
 20
6.9681751956
 30
0.0
  0
SPLINE
  5
2A4
100
AcDbEntity
  8
0
100
AcDbSpline
 62
7
  6
CONTINUOUS
 70
0
 71
3
 72
22
 73
18
 74
0
 42
0.0000001
 43
0.0000001
 44
0.0000000001
 40
0.0
 40
0.0
 40
0.0
 40
0.0
 40
0.0615560036
 40
0.1231198216
 40
0.1847032936
 40
0.246319119
 40
0.3079875169
 40
0.3697332204
 40
0.4315886628
 40
0.4935920461
 40
0.5557861967
 40
0.6182178267
 40
0.6809332797
 40
0.7439765634
 40
0.8073871825
 40
0.8711928483
 40
1.0
 40
1.0
 40
1.0
 40
1.0
 10
11.4998183383
 20
6.909271898
 30
0.0
 10
11.4998183383
 20
6.9001591113
 30
0.0
 10
11.499039148
 20
6.8819228174
 30
0.0
 10
11.4955458653
 20
6.8547716884
 30
0.0
 10
11.4897668665
 20
6.8280031273
 30
0.0
 10
11.4817640835
 20
6.8017984975
 30
0.0
 10
11.471619882
 20
6.7763212476
 30
0.0
 10
11.4594326803
 20
6.7517174677
 30
0.0
 10
11.4453124666
 20
6.7281135212
 30
0.0
 10
11.4293766784
 20
6.7056156215
 30
0.0
 10
11.411745813
 20
6.6843109669
 30
0.0
 10
11.3925407562
 20
6.6642694871
 30
0.0
 10
11.3718800333
 20
6.6455464435
 30
0.0
 10
11.3498796755
 20
6.6281854232
 30
0.0
 10
11.3266496424
 20
6.6122202545
 30
0.0
 10
11.2940939777
 20
6.592777125
 30
0.0
 10
11.268279832
 20
6.5804524959
 30
0.0
 10
11.2506256592
 20
6.57324521
 30
0.0
  0
SPLINE
  5
2A5
100
AcDbEntity
  8
0
100
AcDbSpline
 62
7
  6
CONTINUOUS
 70
0
 71
3
 72
29
 73
25
 74
0
 42
0.0000001
 43
0.0000001
 44
0.0000000001
 40
0.0
 40
0.0
 40
0.0
 40
0.0
 40
0.0654533296
 40
0.1307389728
 40
0.1957058829
 40
0.2602285233
 40
0.3242158096
 40
0.3876165733
 40
0.4504243694
 40
0.5126704262
 40
0.5744201214
 40
0.6357607631
 40
0.6663177888
 40
0.6968082953
 40
0.7272434765
 40
0.7576339954
 40
0.7879889599
 40
0.818316137
 40
0.8486220827
 40
0.878912408
 40
0.9091923858
 40
0.9394657865
 40
0.9697319695
 40
1.0
 40
1.0
 40
1.0
 40
1.0
 10
11.046378511
 20
6.5342429629
 30
0.0
 10
11.032165325
 20
6.5342667213
 30
0.0
 10
11.0037652886
 20
6.5353910954
 30
0.0
 10
10.9615127672
 20
6.5403037094
 30
0.0
 10
10.9199595321
 20
6.54842214
 30
0.0
 10
10.8794459913
 20
6.5597159168
 30
0.0
 10
10.8402997595
 20
6.5741455713
 30
0.0
 10
10.8028419321
 20
6.5916642326
 30
0.0
 10
10.767390628
 20
6.6122165924
 30
0.0
 10
10.7342663438
 20
6.6357362082
 30
0.0
 10
10.7038019817
 20
6.6621328796
 30
0.0
 10
10.6808813917
 20
6.6864688346
 30
0.0
 10
10.6642507171
 20
6.707212707
 30
0.0
 10
10.6526764016
 20
6.7233707874
 30
0.0
 10
10.642032807
 20
6.7401135967
 30
0.0
 10
10.6323642452
 20
6.7574046312
 30
0.0
 10
10.623713906
 20
6.7752011527
 30
0.0
 10
10.6161225198
 20
6.7934549873
 30
0.0
 10
10.6096284883
 20
6.8121128509
 30
0.0
 10
10.6042652519
 20
6.8311162561
 30
0.0
 10
10.6000618428
 20
6.8504023333
 30
0.0
 10
10.5970424667
 20
6.8699039242
 30
0.0
 10
10.5952233138
 20
6.8895505719
 30
0.0
 10
10.5948183383
 20
6.9026991881
 30
0.0
 10
10.5948183383
 20
6.909271898
 30
0.0
  0
SPLINE
  5
2A6
100
AcDbEntity
  8
0
100
AcDbSpline
 62
7
  6
CONTINUOUS
 70
0
 71
3
 72
13
 73
9
 74
0
 42
0.0000001
 43
0.0000001
 44
0.0000000001
 40
0.0
 40
0.0
 40
0.0
 40
0.0
 40
0.1277957814
 40
0.2553104804
 40
0.4454499317
 40
0.6334816056
 40
0.8185790024
 40
1.0
 40
1.0
 40
1.0
 40
1.0
 10
11.0483363449
 20
6.5342431009
 30
0.0
 10
11.0569604365
 20
6.5342586969
 30
0.0
 10
11.0741917726
 20
6.5346864418
 30
0.0
 10
11.1041858514
 20
6.5368176702
 30
0.0
 10
11.1380578142
 20
6.5412066021
 30
0.0
 10
11.1753459615
 20
6.5487517327
 30
0.0
 10
11.2114207212
 20
6.558827075
 30
0.0
 10
11.234701632
 20
6.5672656111
 30
0.0
 10
11.2460363757
 20
6.5718930008
 30
0.0
  0
SPLINE
  5
2A7
100
AcDbEntity
  8
0
100
AcDbSpline
 62
7
  6
CONTINUOUS
 70
0
 71
3
 72
11
 73
7
 74
0
 42
0.0000001
 43
0.0000001
 44
0.0000000001
 40
0.0
 40
0.0
 40
0.0
 40
0.0
 40
0.2470634912
 40
0.4965271273
 40
0.747783925
 40
1.0
 40
1.0
 40
1.0
 40
1.0
 10
11.2506256592
 20
6.57324521
 30
0.0
 10
11.2348270767
 20
6.5667954657
 30
0.0
 10
11.2023835851
 20
6.5554700277
 30
0.0
 10
11.1521061508
 20
6.5433146555
 30
0.0
 10
11.1005496653
 20
6.535954201
 30
0.0
 10
11.0657566194
 20
6.534274652
 30
0.0
 10
11.0483363449
 20
6.5342430996
 30
0.0
  0
SPLINE
  5
2A8
100
AcDbEntity
  8
0
100
AcDbSpline
 62
7
  6
CONTINUOUS
 70
0
 71
3
 72
15
 73
11
 74
0
 42
0.0000001
 43
0.0000001
 44
0.0000000001
 40
0.0
 40
0.0
 40
0.0
 40
0.0
 40
0.1211696318
 40
0.2427284182
 40
0.3650568736
 40
0.4885186526
 40
0.6134529643
 40
0.7401686289
 40
0.8689393468
 40
1.0
 40
1.0
 40
1.0
 40
1.0
 10
11.4998183383
 20
7.1370506854
 30
0.0
 10
11.4998183383
 20
7.1431123298
 30
0.0
 10
11.4993293851
 20
7.1552607106
 30
0.0
 10
11.497132966
 20
7.1734091263
 30
0.0
 10
11.4934807498
 20
7.1914392912
 30
0.0
 10
11.488385045
 20
7.2092906193
 30
0.0
 10
11.4818632526
 20
7.2269052587
 30
0.0
 10
11.473937291
 20
7.2442262074
 30
0.0
 10
11.4646342408
 20
7.2611965733
 30
0.0
 10
11.4575984864
 20
7.2721404149
 30
0.0
 10
11.4538709245
 20
7.2775341489
 30
0.0
  0
SPLINE
  5
2A9
100
AcDbEntity
  8
0
100
AcDbSpline
 62
7
  6
CONTINUOUS
 70
0
 71
3
 72
15
 73
11
 74
0
 42
0.0000001
 43
0.0000001
 44
0.0000000001
 40
0.0
 40
0.0
 40
0.0
 40
0.0
 40
0.1211066562
 40
0.2426093135
 40
0.3648950177
 40
0.4883333505
 40
0.6132686323
 40
0.7400137535
 40
0.8688453199
 40
1.0
 40
1.0
 40
1.0
 40
1.0
 10
10.5948183383
 20
7.1370506854
 30
0.0
 10
10.5948183383
 20
7.1431673073
 30
0.0
 10
10.5953162303
 20
7.1554263297
 30
0.0
 10
10.5975527442
 20
7.1737386519
 30
0.0
 10
10.6012714688
 20
7.1919294397
 30
0.0
 10
10.6064596074
 20
7.2099364503
 30
0.0
 10
10.6130991416
 20
7.2277002553
 30
0.0
 10
10.6211673368
 20
7.2451623226
 30
0.0
 10
10.630636085
 20
7.2622642903
 30
0.0
 10
10.6377952487
 20
7.2732865167
 30
0.0
 10
10.641587811
 20
7.2787174726
 30
0.0
  0
SPLINE
  5
2AA
100
AcDbEntity
  8
0
100
AcDbSpline
 62
7
  6
CONTINUOUS
 70
0
 71
3
 72
21
 73
17
 74
0
 42
0.0000001
 43
0.0000001
 44
0.0000000001
 40
0.0
 40
0.0
 40
0.0
 40
0.0
 40
0.0554312148
 40
0.1110880321
 40
0.1671896965
 40
0.2239431172
 40
0.2815377411
 40
0.3401414715
 40
0.3998975498
 40
0.4609228936
 40
0.5233071806
 40
0.58711286
 40
0.7190393707
 40
0.7872246345
 40
0.8568278075
 40
1.0
 40
1.0
 40
1.0
 40
1.0
 10
11.5098183383
 20
6.6067205995
 30
0.0
 10
11.5098183383
 20
6.5997409571
 30
0.0
 10
11.5091835268
 20
6.5857450569
 30
0.0
 10
11.5063331066
 20
6.5648599839
 30
0.0
 10
11.5015964784
 20
6.5441484522
 30
0.0
 10
11.4949944427
 20
6.5236989385
 30
0.0
 10
11.4865556534
 20
6.5035954514
 30
0.0
 10
11.4763163747
 20
6.4839208654
 30
0.0
 10
11.4643201635
 20
6.4647554699
 30
0.0
 10
11.450617808
 20
6.4461774624
 30
0.0
 10
11.4352655362
 20
6.428261255
 30
0.0
 10
11.412434139
 20
6.4051011874
 30
0.0
 10
11.3867534541
 20
6.3838408055
 30
0.0
 10
11.3587329084
 20
6.3646266091
 30
0.0
 10
11.3284237605
 20
6.3463496338
 30
0.0
 10
11.3043269808
 20
6.3344813957
 30
0.0
 10
11.2877677453
 20
6.3273550089
 30
0.0
  0
SPLINE
  5
2AB
100
AcDbEntity
  8
0
100
AcDbSpline
 62
7
  6
CONTINUOUS
 70
0
 71
3
 72
21
 73
17
 74
0
 42
0.0000001
 43
0.0000001
 44
0.0000000001
 40
0.0
 40
0.0
 40
0.0
 40
0.0
 40
0.0552266317
 40
0.1106882439
 40
0.16661287
 40
0.2232151743
 40
0.2806908359
 40
0.3392122553
 40
0.3989253796
 40
0.4599478627
 40
0.5223683293
 40
0.5862464221
 40
0.7184063054
 40
0.7867418665
 40
0.8565069269
 40
1.0
 40
1.0
 40
1.0
 40
1.0
 10
11.6223182974
 20
5.9561823608
 30
0.0
 10
11.6223182626
 20
5.9473088594
 30
0.0
 10
11.6214928994
 20
5.9295131907
 30
0.0
 10
11.6177868192
 20
5.9029644101
 30
0.0
 10
11.6116291413
 20
5.8766465514
 30
0.0
 10
11.6030481872
 20
5.8506772393
 30
0.0
 10
11.5920830682
 20
5.8251680058
 30
0.0
 10
11.5787831623
 20
5.8002287207
 30
0.0
 10
11.5632075648
 20
5.7759657556
 30
0.0
 10
11.5454251734
 20
5.7524825329
 30
0.0
 10
11.5255122952
 20
5.7298773594
 30
0.0
 10
11.4959102578
 20
5.7007133602
 30
0.0
 10
11.4626550744
 20
5.6740584286
 30
0.0
 10
11.4264195943
 20
5.6500950958
 30
0.0
 10
11.3872555258
 20
5.6273975256
 30
0.0
 10
11.3561637241
 20
5.6127824275
 30
0.0
 10
11.3348183383
 20
5.6040682103
 30
0.0
  0
SPLINE
  5
2AC
100
AcDbEntity
  8
0
100
AcDbSpline
 62
7
  6
CONTINUOUS
 70
0
 71
3
 72
21
 73
17
 74
0
 42
0.0000001
 43
0.0000001
 44
0.0000000001
 40
0.0
 40
0.0
 40
0.0
 40
0.0
 40
0.0587077257
 40
0.1175183854
 40
0.1765337085
 40
0.2358528293
 40
0.2955713567
 40
0.3557801929
 40
0.4165646131
 40
0.4780035619
 40
0.5401688719
 40
0.603125097
 40
0.6669285418
 40
0.7316278793
 40
0.8638317457
 40
1.0
 40
1.0
 40
1.0
 40
1.0
 10
10.4723183385
 20
6.6208627351
 30
0.0
 10
10.4723183335
 20
6.6265466769
 30
0.0
 10
10.4726561884
 20
6.637927401
 30
0.0
 10
10.4741746282
 20
6.6549608927
 30
0.0
 10
10.4767025721
 20
6.671934425
 30
0.0
 10
10.4802350817
 20
6.6888171406
 30
0.0
 10
10.4847659332
 20
6.7055793175
 30
0.0
 10
10.490286917
 20
6.7221912413
 30
0.0
 10
10.4967879197
 20
6.7386236669
 30
0.0
 10
10.5042575344
 20
6.7548474955
 30
0.0
 10
10.5126820186
 20
6.7708343942
 30
0.0
 10
10.5220466638
 20
6.7865559753
 30
0.0
 10
10.5323346306
 20
6.8019851839
 30
0.0
 10
10.547364786
 20
6.8222743053
 30
0.0
 10
10.568423164
 20
6.8467620016
 30
0.0
 10
10.5871075353
 20
6.8648727477
 30
0.0
 10
10.5969515197
 20
6.8736420267
 30
0.0
  0
SPLINE
  5
2AD
100
AcDbEntity
  8
0
100
AcDbSpline
 62
7
  6
CONTINUOUS
 70
0
 71
3
 72
35
 73
31
 74
0
 42
0.0000001
 43
0.0000001
 44
0.0000000001
 40
0.0
 40
0.0
 40
0.0
 40
0.0
 40
0.062003079
 40
0.0939898873
 40
0.1265722859
 40
0.1932826024
 40
0.2273092918
 40
0.2616789817
 40
0.3311056623
 40
0.4009147015
 40
0.4704065227
 40
0.538889273
 40
0.5725590733
 40
0.6057394984
 40
0.6383626117
 40
0.6703678989
 40
0.7017036004
 40
0.732328105
 40
0.7622111385
 40
0.7913351771
 40
0.8196968031
 40
0.8473078255
 40
0.8741964087
 40
0.8873863118
 40
0.9004140709
 40
0.9260111423
 40
0.9510736451
 40
0.9634375003
 40
0.9757049144
 40
1.0
 40
1.0
 40
1.0
 40
1.0
 10
11.3431286757
 20
7.1147744769
 30
0.0
 10
11.3296635056
 20
7.1042769287
 30
0.0
 10
11.3081234942
 20
7.0897575015
 30
0.0
 10
11.2775442738
 20
7.0730058027
 30
0.0
 10
11.2448455766
 20
7.0575462266
 30
0.0
 10
11.2103384349
 20
7.0447550419
 30
0.0
 10
11.1745166032
 20
7.0346607857
 30
0.0
 10
11.1374802715
 20
7.026302257
 30
0.0
 10
11.0900830656
 20
7.0194142562
 30
0.0
 10
11.0325671236
 20
7.0168944371
 30
0.0
 10
10.975346488
 20
7.0201154896
 30
0.0
 10
10.9285770737
 20
7.0275578798
 30
0.0
 10
10.8923402998
 20
7.0363210423
 30
0.0
 10
10.8660896006
 20
7.0441945262
 30
0.0
 10
10.8407494551
 20
7.0533626408
 30
0.0
 10
10.8164462257
 20
7.0637771661
 30
0.0
 10
10.7933020856
 20
7.0753833802
 30
0.0
 10
10.7714331745
 20
7.0881208088
 30
0.0
 10
10.7509493655
 20
7.1019234569
 30
0.0
 10
10.7319538053
 20
7.1167200845
 30
0.0
 10
10.7145421842
 20
7.1324349327
 30
0.0
 10
10.6988034126
 20
7.1489865445
 30
0.0
 10
10.6870722482
 20
7.1635013433
 30
0.0
 10
10.6786233054
 20
7.1754423588
 30
0.0
 10
10.6708934112
 20
7.1874397493
 30
0.0
 10
10.6623806049
 20
7.2028015928
 30
0.0
 10
10.6554053016
 20
7.2187232135
 30
0.0
 10
10.6508394208
 20
7.2316285015
 30
0.0
 10
10.6469732784
 20
7.2445385102
 30
0.0
 10
10.644807132
 20
7.2543938436
 30
0.0
 10
10.643707609
 20
7.2609929525
 30
0.0
  0
LINE
  5
2AE
100
AcDbEntity
  8
0
100
AcDbLine
 62
7
  6
CONTINUOUS
 10
10.643707609
 20
7.2609929525
 11
10.6436638044
 21
7.2612569706
  0
SPLINE
  5
2AF
100
AcDbEntity
  8
0
100
AcDbSpline
 62
7
  6
CONTINUOUS
 70
0
 71
3
 72
17
 73
13
 74
0
 42
0.0000001
 43
0.0000001
 44
0.0000000001
 40
0.0
 40
0.0
 40
0.0
 40
0.0
 40
0.0580936815
 40
0.116462871
 40
0.1751926514
 40
0.2343638586
 40
0.3542873542
 40
0.4768149738
 40
0.6023817507
 40
0.731310671
 40
0.8638164893
 40
1.0
 40
1.0
 40
1.0
 40
1.0
 10
11.4449642643
 20
7.2837335345
 30
0.0
 10
11.4445083576
 20
7.2798424024
 30
0.0
 10
11.4433733155
 20
7.2720657943
 30
0.0
 10
11.4410135403
 20
7.2604832655
 30
0.0
 10
11.4379980208
 20
7.2489781949
 30
0.0
 10
11.4330899991
 20
7.233702175
 30
0.0
 10
11.4253092472
 20
7.2148635243
 30
0.0
 10
11.4135079198
 20
7.1929841566
 30
0.0
 10
11.3992847921
 20
7.1718618163
 30
0.0
 10
11.3827408833
 20
7.1516304339
 30
0.0
 10
11.3639920339
 20
7.1324163165
 30
0.0
 10
11.3502910563
 20
7.1205230689
 30
0.0
 10
11.3431286757
 20
7.1147744769
 30
0.0
  0
SPLINE
  5
2B0
100
AcDbEntity
  8
0
100
AcDbSpline
 62
7
  6
CONTINUOUS
 70
0
 71
3
 72
11
 73
7
 74
0
 42
0.0000001
 43
0.0000001
 44
0.0000000001
 40
0.0
 40
0.0
 40
0.0
 40
0.0
 40
0.2455659975
 40
0.4929683975
 40
0.7439316989
 40
1.0
 40
1.0
 40
1.0
 40
1.0
 10
11.4535680927
 20
7.3421853913
 30
0.0
 10
11.4535552053
 20
7.3338975289
 30
0.0
 10
11.4525066439
 20
7.3172438382
 30
0.0
 10
11.4478848665
 20
7.2925055632
 30
0.0
 10
11.4402533738
 20
7.2681545819
 30
0.0
 10
11.4332793717
 20
7.252481642
 30
0.0
 10
11.4293433939
 20
7.2447876262
 30
0.0
  0
SPLINE
  5
2B1
100
AcDbEntity
  8
0
100
AcDbSpline
 62
7
  6
CONTINUOUS
 70
0
 71
3
 72
21
 73
17
 74
0
 42
0.0000001
 43
0.0000001
 44
0.0000000001
 40
0.0
 40
0.0
 40
0.0
 40
0.0
 40
0.0525037492
 40
0.1063084814
 40
0.1615376145
 40
0.2182733314
 40
0.3363119275
 40
0.3976704923
 40
0.4604873847
 40
0.5246708058
 40
0.590103775
 40
0.6566474349
 40
0.72414438
 40
0.7924223157
 40
0.861295734
 40
1.0
 40
1.0
 40
1.0
 40
1.0
 10
11.4293433939
 20
7.2447876262
 30
0.0
 10
11.4257811191
 20
7.2378241219
 30
0.0
 10
11.4178719965
 20
7.2240703907
 30
0.0
 10
11.4039802087
 20
7.2043822948
 30
0.0
 10
11.3880050063
 20
7.1855079917
 30
0.0
 10
11.363745798
 20
7.1612650576
 30
0.0
 10
11.3359450925
 20
7.1394525846
 30
0.0
 10
11.3053615427
 20
7.120269124
 30
0.0
 10
11.2806166716
 20
7.106988345
 30
0.0
 10
11.2545164316
 20
7.0950850676
 30
0.0
 10
11.2272097772
 20
7.0846256235
 30
0.0
 10
11.1988562731
 20
7.0756709713
 30
0.0
 10
11.1696211846
 20
7.0682726783
 30
0.0
 10
11.1396726672
 20
7.0624734606
 30
0.0
 10
11.0989415011
 20
7.0569063686
 30
0.0
 10
11.0679818878
 20
7.0552391163
 30
0.0
 10
11.0473183383
 20
7.0552391163
 30
0.0
  0
SPLINE
  5
2B2
100
AcDbEntity
  8
0
100
AcDbSpline
 62
7
  6
CONTINUOUS
 70
0
 71
3
 72
25
 73
21
 74
0
 42
0.0000001
 43
0.0000001
 44
0.0000000001
 40
0.0
 40
0.0
 40
0.0
 40
0.0
 40
0.1430919014
 40
0.2139337163
 40
0.2839022518
 40
0.3527366217
 40
0.4202013556
 40
0.4860936983
 40
0.5502507192
 40
0.6125562958
 40
0.6729486144
 40
0.7314267689
 40
0.788057102
 40
0.8429773495
 40
0.8698704163
 40
0.8964209875
 40
0.9226665055
 40
0.9486480706
 40
0.9744098792
 40
1.0
 40
1.0
 40
1.0
 40
1.0
 10
11.0473183383
 20
7.0552391163
 30
0.0
 10
11.0226106991
 20
7.0552391163
 30
0.0
 10
10.9856091188
 20
7.057619942
 30
0.0
 10
10.9372125744
 20
7.0655751943
 30
0.0
 10
10.9019371226
 20
7.0738342629
 30
0.0
 10
10.8678741211
 20
7.084335276
 30
0.0
 10
10.8353033262
 20
7.0969922553
 30
0.0
 10
10.8044965474
 20
7.1117011158
 30
0.0
 10
10.7757099359
 20
7.128341381
 30
0.0
 10
10.7491834447
 20
7.1467771649
 30
0.0
 10
10.7251389823
 20
7.1668580466
 30
0.0
 10
10.70377851
 20
7.1884213784
 30
0.0
 10
10.685284743
 20
7.2112890207
 30
0.0
 10
10.6723011483
 20
7.2314248924
 30
0.0
 10
10.663544492
 20
7.2479706312
 30
0.0
 10
10.6578258631
 20
7.2604950655
 30
0.0
 10
10.652923762
 20
7.2731923633
 30
0.0
 10
10.6488489439
 20
7.2860365236
 30
0.0
 10
10.645609798
 20
7.2989994576
 30
0.0
 10
10.6440079349
 20
7.3077277156
 30
0.0
 10
10.6433502086
 20
7.3120971284
 30
0.0
  0
SPLINE
  5
2B3
100
AcDbEntity
  8
0
100
AcDbSpline
 62
7
  6
CONTINUOUS
 70
0
 71
3
 72
42
 73
38
 74
0
 42
0.0000001
 43
0.0000001
 44
0.0000000001
 40
0.0
 40
0.0
 40
0.0
 40
0.0
 40
0.0125789369
 40
0.0252170768
 40
0.0379247291
 40
0.0507114005
 40
0.0635858998
 40
0.0765564596
 40
0.0896306968
 40
0.1028154903
 40
0.129535901
 40
0.1567639506
 40
0.1845297642
 40
0.2128532223
 40
0.2417449049
 40
0.2712070726
 40
0.3012345525
 40
0.3318154574
 40
0.362931728
 40
0.3945595412
 40
0.4266696407
 40
0.459227636
 40
0.4921943222
 40
0.5255260448
 40
0.5591751263
 40
0.5930903557
 40
0.6272175353
 40
0.6615000744
 40
0.6958796211
 40
0.7302967215
 40
0.7646914939
 40
0.7990043112
 40
0.8331764761
 40
0.8671508931
 40
0.9008726753
 40
0.9342898831
 40
1.0
 40
1.0
 40
1.0
 40
1.0
 10
8.9090519573
 20
4.7411557295
 30
0.0
 10
8.9113890791
 20
4.7252021765
 30
0.0
 10
8.9167654431
 20
4.6933169583
 30
0.0
 10
8.9268938732
 20
4.6457571384
 30
0.0
 10
8.9390961118
 20
4.5984109094
 30
0.0
 10
8.9533613598
 20
4.5513287243
 30
0.0
 10
8.9696774402
 20
4.5045604456
 30
0.0
 10
8.9880280506
 20
4.4581563007
 30
0.0
 10
9.008395713
 20
4.4121656512
 30
0.0
 10
9.0383423953
 20
4.3511990407
 30
0.0
 10
9.0807996765
 20
4.2762435358
 30
0.0
 10
9.1391793489
 20
4.189168218
 30
0.0
 10
9.2049595563
 20
4.1049195657
 30
0.0
 10
9.2778419711
 20
4.0238516021
 30
0.0
 10
9.3575024905
 20
3.9462903885
 30
0.0
 10
9.443593187
 20
3.8725390783
 30
0.0
 10
9.5357475628
 20
3.8028757138
 30
0.0
 10
9.633583775
 20
3.7375543877
 30
0.0
 10
9.7367070742
 20
3.6768063173
 30
0.0
 10
9.8447112354
 20
3.6208413211
 30
0.0
 10
9.9571793144
 20
3.5698491469
 30
0.0
 10
10.0736839946
 20
3.5240005287
 30
0.0
 10
10.1937877905
 20
3.4834478685
 30
0.0
 10
10.3170433188
 20
3.4483255356
 30
0.0
 10
10.4429937927
 20
3.4187499072
 30
0.0
 10
10.5711737828
 20
3.3948191667
 30
0.0
 10
10.7011102694
 20
3.3766129833
 30
0.0
 10
10.8323239635
 20
3.3641921503
 30
0.0
 10
10.9643308597
 20
3.3575982535
 30
0.0
 10
11.0966439377
 20
3.3568534089
 30
0.0
 10
11.2287750569
 20
3.3619601394
 30
0.0
 10
11.3602365762
 20
3.3729012589
 30
0.0
 10
11.4905441321
 20
3.389640288
 30
0.0
 10
11.6192149335
 20
3.4121206335
 30
0.0
 10
11.7457821519
 20
3.4402698449
 30
0.0
 10
11.9101380752
 20
3.4849698884
 30
0.0
 10
12.0303198061
 20
3.5270346078
 30
0.0
 10
12.1082998159
 20
3.5588697686
 30
0.0
  0
SPLINE
  5
2B4
100
AcDbEntity
  8
0
100
AcDbSpline
 62
7
  6
CONTINUOUS
 70
0
 71
3
 72
26
 73
22
 74
0
 42
0.0000001
 43
0.0000001
 44
0.0000000001
 40
0.0
 40
0.0
 40
0.0
 40
0.0
 40
0.1403197119
 40
0.2089581164
 40
0.2764956256
 40
0.3428915222
 40
0.4081162388
 40
0.4721524774
 40
0.5037269678
 40
0.535004096
 40
0.5966662715
 40
0.6571741453
 40
0.6870133207
 40
0.7165826835
 40
0.774938653
 40
0.8323379802
 40
0.8888886234
 40
0.9168906885
 40
0.9447302364
 40
0.9724264736
 40
1.0
 40
1.0
 40
1.0
 40
1.0
 10
12.1082998179
 20
3.5588697693
 30
0.0
 10
12.1807196672
 20
3.5884350881
 30
0.0
 10
12.2865924134
 20
3.6376182279
 30
0.0
 10
12.4210030378
 20
3.7131620758
 30
0.0
 10
12.5164309363
 20
3.7736500909
 30
0.0
 10
12.6068459704
 20
3.8381779482
 30
0.0
 10
12.6919151232
 20
3.9065353163
 30
0.0
 10
12.7583947014
 20
3.9667847
 30
0.0
 10
12.8085456224
 20
4.0166819792
 30
0.0
 10
12.8561886914
 20
4.0671739586
 30
0.0
 10
12.9118792689
 20
4.1321876035
 30
0.0
 10
12.9626127866
 20
4.20014945
 30
0.0
 10
12.9997408962
 20
4.2557542486
 30
0.0
 10
13.0342405619
 20
4.3116206387
 30
0.0
 10
13.0730599644
 20
4.382817489
 30
0.0
 10
13.1126380862
 20
4.4704348551
 30
0.0
 10
13.1395812176
 20
4.5449339799
 30
0.0
 10
13.1573429002
 20
4.6050319774
 30
0.0
 10
13.1687458995
 20
4.6501969086
 30
0.0
 10
13.1782630056
 20
4.695551081
 30
0.0
 10
13.1833568727
 20
4.7259480394
 30
0.0
 10
13.1855848715
 20
4.741156803
 30
0.0
  0
SPLINE
  5
2B5
100
AcDbEntity
  8
0
100
AcDbSpline
 62
7
  6
CONTINUOUS
 70
0
 71
3
 72
30
 73
26
 74
0
 42
0.0000001
 43
0.0000001
 44
0.0000000001
 40
0.0
 40
0.0
 40
0.0
 40
0.0
 40
0.0277600834
 40
0.0555495644
 40
0.0833936234
 40
0.1113201641
 40
0.1393562907
 40
0.1675277004
 40
0.1958593791
 40
0.2243753581
 40
0.2530984149
 40
0.2820500043
 40
0.3407050148
 40
0.4004953508
 40
0.4308590474
 40
0.4615476591
 40
0.5239285653
 40
0.5877100764
 40
0.6201422695
 40
0.6529352005
 40
0.7195943215
 40
0.7876798982
 40
0.8571528885
 40
0.9279523671
 40
1.0
 40
1.0
 40
1.0
 40
1.0
 10
9.4273183383
 20
5.4851550294
 30
0.0
 10
9.4273183383
 20
5.4977879704
 30
0.0
 10
9.4279030656
 20
5.5230711133
 30
0.0
 10
9.430531744
 20
5.5609432083
 30
0.0
 10
9.434909735
 20
5.598730157
 30
0.0
 10
9.4410310438
 20
5.6363874843
 30
0.0
 10
9.4488879735
 20
5.6738734122
 30
0.0
 10
9.4584709938
 20
5.7111458001
 30
0.0
 10
9.46976798
 20
5.7481631485
 30
0.0
 10
9.4827654276
 20
5.7848841944
 30
0.0
 10
9.4974475398
 20
5.8212694125
 30
0.0
 10
9.5193385484
 20
5.8694848784
 30
0.0
 10
9.5509077644
 20
5.9287610693
 30
0.0
 10
9.587499506
 20
5.9858310492
 30
0.0
 10
9.6198116752
 20
6.0303433871
 30
0.0
 10
9.6545140662
 20
6.0745284508
 30
0.0
 10
9.701711273
 20
6.1281660897
 30
0.0
 10
9.7531423327
 20
6.1788850548
 30
0.0
 10
9.7969731623
 20
6.2179560381
 30
0.0
 10
9.8430761693
 20
6.25639744
 30
0.0
 10
9.9039837703
 20
6.3023499428
 30
0.0
 10
9.9815297639
 20
6.3536687949
 30
0.0
 10
10.0636039056
 20
6.4012575184
 30
0.0
 10
10.1498517826
 20
6.4449186379
 30
0.0
 10
10.2094040638
 20
6.4710749578
 30
0.0
 10
10.2397590488
 20
6.4834673285
 30
0.0
  0
SPLINE
  5
2B6
100
AcDbEntity
  8
0
100
AcDbSpline
 62
7
  6
CONTINUOUS
 70
0
 71
3
 72
9
 73
5
 74
0
 42
0.0000001
 43
0.0000001
 44
0.0000000001
 40
0.0
 40
0.0
 40
0.0
 40
0.0
 40
0.2469242364
 40
1.0
 40
1.0
 40
1.0
 40
1.0
 10
10.2437257721
 20
6.4850814465
 30
0.0
 10
10.2621051489
 20
6.4925358151
 30
0.0
 10
10.3370136198
 20
6.52154322
 30
0.0
 10
10.4137239343
 20
6.5458671072
 30
0.0
 10
10.4721276446
 20
6.5616120534
 30
0.0
  0
SPLINE
  5
2B7
100
AcDbEntity
  8
0
100
AcDbSpline
 62
7
  6
CONTINUOUS
 70
0
 71
3
 72
29
 73
25
 74
0
 42
0.0000001
 43
0.0000001
 44
0.0000000001
 40
0.0
 40
0.0
 40
0.0
 40
0.0
 40
0.0728196355
 40
0.1445080861
 40
0.2149171076
 40
0.2839206733
 40
0.3514183931
 40
0.4173388814
 40
0.4816430481
 40
0.5443271943
 40
0.6054256059
 40
0.6650124854
 40
0.6942809898
 40
0.7232182415
 40
0.75184495
 40
0.7801842235
 40
0.808261471
 40
0.8361042398
 40
0.8637420635
 40
0.8912063014
 40
0.9185296117
 40
0.945746049
 40
0.9728916261
 40
1.0
 40
1.0
 40
1.0
 40
1.0
 10
11.6224830291
 20
6.5616190795
 30
0.0
 10
11.6602271066
 20
6.5514442652
 30
0.0
 10
11.7345765686
 20
6.5291273696
 30
0.0
 10
11.8430055046
 20
6.4895143669
 30
0.0
 10
11.9469606628
 20
6.4442116641
 30
0.0
 10
12.0458527947
 20
6.3934671179
 30
0.0
 10
12.1391264223
 20
6.3375557694
 30
0.0
 10
12.2262547019
 20
6.2767797195
 30
0.0
 10
12.3067429779
 20
6.2114667435
 30
0.0
 10
12.3801315215
 20
6.1419671792
 30
0.0
 10
12.445991971
 20
6.0686608016
 30
0.0
 10
12.4945756824
 20
6.0043342891
 30
0.0
 10
12.5292038892
 20
5.9514025093
 30
0.0
 10
12.5529169852
 20
5.9112507495
 30
0.0
 10
12.5744866048
 20
5.8704716656
 30
0.0
 10
12.5938797816
 20
5.8291222375
 30
0.0
 10
12.6110659677
 20
5.7872619247
 30
0.0
 10
12.6260180543
 20
5.7449512235
 30
0.0
 10
12.6387116822
 20
5.7022517423
 30
0.0
 10
12.6491262161
 20
5.6592263771
 30
0.0
 10
12.6572446777
 20
5.6159391987
 30
0.0
 10
12.6630533307
 20
5.5724539932
 30
0.0
 10
12.6665422294
 20
5.5288383618
 30
0.0
 10
12.6673183383
 20
5.4997075042
 30
0.0
 10
12.6673183383
 20
5.4851550294
 30
0.0
  0
SPLINE
  5
2B8
100
AcDbEntity
  8
0
100
AcDbSpline
 62
7
  6
CONTINUOUS
 70
0
 71
3
 72
30
 73
26
 74
0
 42
0.0000001
 43
0.0000001
 44
0.0000000001
 40
0.0
 40
0.0
 40
0.0
 40
0.0
 40
0.0280965484
 40
0.0562177728
 40
0.08438727
 40
0.1126291538
 40
0.1409670044
 40
0.1694237033
 40
0.1980215761
 40
0.2267821481
 40
0.2557260241
 40
0.2848728248
 40
0.3438354351
 40
0.4038161918
 40
0.4342296537
 40
0.4649374374
 40
0.5272653125
 40
0.5908745351
 40
0.6231773946
 40
0.6558132208
 40
0.7220785154
 40
0.7896707864
 40
0.8585594563
 40
0.9286923537
 40
1.0
 40
1.0
 40
1.0
 40
1.0
 10
9.1423183383
 20
5.3277726261
 30
0.0
 10
9.1423183383
 20
5.3429742098
 30
0.0
 10
9.1430194555
 20
5.3733953738
 30
0.0
 10
9.14617167
 20
5.4189593303
 30
0.0
 10
9.1514199548
 20
5.4644097163
 30
0.0
 10
9.1587558907
 20
5.509688467
 30
0.0
 10
9.1681675989
 20
5.5547403148
 30
0.0
 10
9.1796410104
 20
5.5995102939
 30
0.0
 10
9.1931582257
 20
5.6439450363
 30
0.0
 10
9.2086992337
 20
5.687992133
 30
0.0
 10
9.2262419156
 20
5.7316016277
 30
0.0
 10
9.2523636995
 20
5.7893126631
 30
0.0
 10
9.289983655
 20
5.8601661954
 30
0.0
 10
9.3335585134
 20
5.928325052
 30
0.0
 10
9.3719889841
 20
5.9814098965
 30
0.0
 10
9.4131857396
 20
6.034001571
 30
0.0
 10
9.4691450901
 20
6.097759496
 30
0.0
 10
9.5300855049
 20
6.1579968511
 30
0.0
 10
9.5819629108
 20
6.2043384312
 30
0.0
 10
9.6364481286
 20
6.249860104
 30
0.0
 10
9.708363167
 20
6.30421722
 30
0.0
 10
9.7998519837
 20
6.3648568243
 30
0.0
 10
9.8965856805
 20
6.4210130245
 30
0.0
 10
9.9981496508
 20
6.4724687504
 30
0.0
 10
10.0682520622
 20
6.5032684945
 30
0.0
 10
10.1039710028
 20
6.5178506909
 30
0.0
  0
SPLINE
  5
2B9
100
AcDbEntity
  8
0
100
AcDbSpline
 62
7
  6
CONTINUOUS
 70
0
 71
3
 72
10
 73
6
 74
0
 42
0.0000001
 43
0.0000001
 44
0.0000000001
 40
0.0
 40
0.0
 40
0.0
 40
0.0
 40
0.4949198153
 40
0.7463383582
 40
1.0
 40
1.0
 40
1.0
 40
1.0
 10
10.1039710028
 20
6.5178506909
 30
0.0
 10
10.1630554521
 20
6.5419718163
 30
0.0
 10
10.2537964954
 20
6.5744811909
 30
0.0
 10
10.3776450405
 20
6.6104546625
 30
0.0
 10
10.4408923453
 20
6.6260909063
 30
0.0
 10
10.472794084
 20
6.6333126919
 30
0.0
  0
SPLINE
  5
2BA
100
AcDbEntity
  8
0
100
AcDbSpline
 62
7
  6
CONTINUOUS
 70
0
 71
3
 72
30
 73
26
 74
0
 42
0.0000001
 43
0.0000001
 44
0.0000000001
 40
0.0
 40
0.0
 40
0.0
 40
0.0
 40
0.0722213458
 40
0.1434372359
 40
0.2134847004
 40
0.282224042
 40
0.3495427753
 40
0.4153594133
 40
0.4796268826
 40
0.5423356765
 40
0.6035161283
 40
0.633561356
 40
0.6632549012
 40
0.6926121756
 40
0.7216510949
 40
0.7503919763
 40
0.7788574312
 40
0.8070722322
 40
0.8350631288
 40
0.8628586332
 40
0.8904888551
 40
0.9179852211
 40
0.9453801702
 40
0.9727072818
 40
1.0
 40
1.0
 40
1.0
 40
1.0
 10
11.6219175168
 20
6.6332957132
 30
0.0
 10
11.669108176
 20
6.6226114134
 30
0.0
 10
11.7622380868
 20
6.5986488598
 30
0.0
 10
11.8984330695
 20
6.5546995273
 30
0.0
 10
12.0294671006
 20
6.503209141
 30
0.0
 10
12.1545410162
 20
6.4444671887
 30
0.0
 10
12.2728984192
 20
6.3787985827
 30
0.0
 10
12.3838178022
 20
6.3065645516
 30
0.0
 10
12.4866181797
 20
6.2281569266
 30
0.0
 10
12.5806521827
 20
6.1440073405
 30
0.0
 10
12.651644668
 20
6.0690134696
 30
0.0
 10
12.7033500279
 20
6.0066202357
 30
0.0
 10
12.7393472822
 20
5.9589790046
 30
0.0
 10
12.7727279973
 20
5.9102845914
 30
0.0
 10
12.803433002
 20
5.8606076627
 30
0.0
 10
12.8314052089
 20
5.8100229646
 30
0.0
 10
12.8565914533
 20
5.7586081692
 30
0.0
 10
12.8789421199
 20
5.7064441536
 30
0.0
 10
12.8984115773
 20
5.6536150038
 30
0.0
 10
12.9149591626
 20
5.6002082349
 30
0.0
 10
12.9285492469
 20
5.5463143919
 30
0.0
 10
12.9391515575
 20
5.4920270968
 30
0.0
 10
12.9467421515
 20
5.4374416394
 30
0.0
 10
12.9513035948
 20
5.3826584233
 30
0.0
 10
12.9523183383
 20
5.3460575166
 30
0.0
 10
12.9523183383
 20
5.3277726261
 30
0.0
  0
SPLINE
  5
2BB
100
AcDbEntity
  8
0
100
AcDbSpline
 62
7
  6
CONTINUOUS
 70
0
 71
3
 72
20
 73
16
 74
0
 42
0.0000001
 43
0.0000001
 44
0.0000000001
 40
0.0
 40
0.0
 40
0.0
 40
0.0
 40
0.060152151
 40
0.1204156659
 40
0.1808370881
 40
0.2414641658
 40
0.3023431929
 40
0.3635187518
 40
0.4250341136
 40
0.486930742
 40
0.5492480758
 40
0.6120234269
 40
0.7390611241
 40
0.8683182946
 40
1.0
 40
1.0
 40
1.0
 40
1.0
 10
8.8990731305
 20
4.9580644672
 30
0.0
 10
8.9000004851
 20
4.9745833484
 30
0.0
 10
8.902592118
 20
5.0076150909
 30
0.0
 10
8.9086744636
 20
5.056996647
 30
0.0
 10
8.916946095
 20
5.1061923264
 30
0.0
 10
8.9273949391
 20
5.1551446315
 30
0.0
 10
8.9400058935
 20
5.2037991532
 30
0.0
 10
8.9547618534
 20
5.2521018363
 30
0.0
 10
8.9716422643
 20
5.3000003161
 30
0.0
 10
8.9906246135
 20
5.3474431818
 30
0.0
 10
9.0116846968
 20
5.3943815197
 30
0.0
 10
9.042616746
 20
5.456466937
 30
0.0
 10
9.0864355602
 20
5.5326196657
 30
0.0
 10
9.1466347467
 20
5.6208445637
 30
0.0
 10
9.1913804435
 20
5.6770542551
 30
0.0
 10
9.2149126955
 20
5.7045871369
 30
0.0
  0
SPLINE
  5
2BC
100
AcDbEntity
  8
0
100
AcDbSpline
 62
7
  6
CONTINUOUS
 70
0
 71
3
 72
20
 73
16
 74
0
 42
0.0000001
 43
0.0000001
 44
0.0000000001
 40
0.0
 40
0.0
 40
0.0
 40
0.0
 40
0.1316831501
 40
0.2609412773
 40
0.3879794508
 40
0.4507548652
 40
0.5130721761
 40
0.5749686563
 40
0.6364838095
 40
0.6976590762
 40
0.758537737
 40
0.8191643608
 40
0.8795853468
 40
0.9398484422
 40
1.0
 40
1.0
 40
1.0
 40
1.0
 10
12.8796435966
 20
5.7046811936
 30
0.0
 10
12.9031818761
 20
5.677145799
 30
0.0
 10
12.9479389324
 20
5.62093052
 30
0.0
 10
13.0081537321
 20
5.5326959106
 30
0.0
 10
13.0519838512
 20
5.456533996
 30
0.0
 10
13.0829240612
 20
5.3944408638
 30
0.0
 10
13.1039894668
 20
5.347496491
 30
0.0
 10
13.1229768355
 20
5.3000474933
 30
0.0
 10
13.1398614805
 20
5.2521426177
 30
0.0
 10
13.1546212093
 20
5.2038334174
 30
0.0
 10
13.1672353308
 20
5.155172244
 30
0.0
 10
13.1776866817
 20
5.1062131521
 30
0.0
 10
13.1859603119
 20
5.0570105867
 30
0.0
 10
13.192043927
 20
5.0076220699
 30
0.0
 10
13.1946360616
 20
4.9745856615
 30
0.0
 10
13.1955635461
 20
4.9580644672
 30
0.0
  0
SPLINE
  5
2BD
100
AcDbEntity
  8
0
100
AcDbSpline
 62
7
  6
CONTINUOUS
 70
0
 71
3
 72
18
 73
14
 74
0
 42
0.0000001
 43
0.0000001
 44
0.0000000001
 40
0.0
 40
0.0
 40
0.0
 40
0.0
 40
0.053664652
 40
0.108677107
 40
0.1650612995
 40
0.2228258017
 40
0.3423483967
 40
0.4040643586
 40
0.4669726871
 40
0.5959546618
 40
0.728480153
 40
0.8635331387
 40
1.0
 40
1.0
 40
1.0
 40
1.0
 10
10.6953467171
 20
7.0539658238
 30
0.0
 10
10.6998293669
 20
7.0486440426
 30
0.0
 10
10.7093207906
 20
7.0382087558
 30
0.0
 10
10.7248290258
 20
7.0234363021
 30
0.0
 10
10.7417180907
 20
7.0094154658
 30
0.0
 10
10.7662513855
 20
6.9916087602
 30
0.0
 10
10.7930047156
 20
6.9757967479
 30
0.0
 10
10.8215282262
 20
6.9620410402
 30
0.0
 10
10.8518987001
 20
6.9493964146
 30
0.0
 10
10.8919750727
 20
6.936357246
 30
0.0
 10
10.9422872957
 20
6.925372333
 30
0.0
 10
10.9943754288
 20
6.919115612
 30
0.0
 10
11.0296275188
 20
6.918181456
 30
0.0
 10
11.0473183383
 20
6.9185277047
 30
0.0
  0
SPLINE
  5
2BE
100
AcDbEntity
  8
0
100
AcDbSpline
 62
7
  6
CONTINUOUS
 70
0
 71
3
 72
13
 73
9
 74
0
 42
0.0000001
 43
0.0000001
 44
0.0000000001
 40
0.0
 40
0.0
 40
0.0
 40
0.0
 40
0.2570925344
 40
0.3848573526
 40
0.5115270221
 40
0.6367211296
 40
0.7600894268
 40
1.0
 40
1.0
 40
1.0
 40
1.0
 10
11.0473183383
 20
6.8687190447
 30
0.0
 10
11.0692862467
 20
6.8691470431
 30
0.0
 10
11.1021772497
 20
6.8716726202
 30
0.0
 10
11.1453259289
 20
6.878805183
 30
0.0
 10
11.1769877178
 20
6.8859804012
 30
0.0
 10
11.2077995517
 20
6.8949498243
 30
0.0
 10
11.247095921
 20
6.9090890837
 30
0.0
 10
11.2752858958
 20
6.9223877407
 30
0.0
 10
11.293160489
 20
6.9324325559
 30
0.0
  0
SPLINE
  5
2BF
100
AcDbEntity
  8
0
100
AcDbSpline
 62
7
  6
CONTINUOUS
 70
0
 71
3
 72
19
 73
15
 74
0
 42
0.0000001
 43
0.0000001
 44
0.0000000001
 40
0.0
 40
0.0
 40
0.0
 40
0.0
 40
0.1403584632
 40
0.2758417264
 40
0.4063347441
 40
0.531994931
 40
0.5931779317
 40
0.6533480568
 40
0.7126087483
 40
0.7710807558
 40
0.8289006136
 40
0.886218517
 40
0.9431954512
 40
1.0
 40
1.0
 40
1.0
 40
1.0
 10
11.293160489
 20
6.9324325559
 30
0.0
 10
11.3053613963
 20
6.9392889838
 30
0.0
 10
11.3287030351
 20
6.9539443779
 30
0.0
 10
11.3606027468
 20
6.979053258
 30
0.0
 10
11.3883925038
 20
7.006616602
 30
0.0
 10
11.4079906638
 20
7.0315823359
 30
0.0
 10
11.4211735738
 20
7.0524071907
 30
0.0
 10
11.4297376978
 20
7.0682674638
 30
0.0
 10
11.4370345635
 20
7.0844532791
 30
0.0
 10
11.4430395153
 20
7.1009131773
 30
0.0
 10
11.4477317854
 20
7.1175935616
 30
0.0
 10
11.4510952908
 20
7.1344405689
 30
0.0
 10
11.4531180681
 20
7.1513978307
 30
0.0
 10
11.4535682822
 20
7.1627483447
 30
0.0
 10
11.4535682822
 20
7.1684124525
 30
0.0
  0
SPLINE
  5
2C0
100
AcDbEntity
  8
0
100
AcDbSpline
 62
7
  6
CONTINUOUS
 70
0
 71
3
 72
23
 73
19
 74
0
 42
0.0000001
 43
0.0000001
 44
0.0000000001
 40
0.0
 40
0.0
 40
0.0
 40
0.0
 40
0.1412659396
 40
0.2113573701
 40
0.2807014238
 40
0.3490480542
 40
0.416171142
 40
0.4818750086
 40
0.5460007413
 40
0.6084326871
 40
0.669104669
 40
0.7280062115
 40
0.7851875006
 40
0.8407634032
 40
0.8949144835
 40
0.9478850219
 40
0.9740315357
 40
1.0
 40
1.0
 40
1.0
 40
1.0
 10
11.0473183383
 20
6.9185277047
 30
0.0
 10
11.0717005598
 20
6.919004919
 30
0.0
 10
11.1081938437
 20
6.9220389468
 30
0.0
 10
11.1558918051
 20
6.9307192408
 30
0.0
 10
11.1907096598
 20
6.9394610741
 30
0.0
 10
11.2243660877
 20
6.9503845556
 30
0.0
 10
11.2565924828
 20
6.9634086066
 30
0.0
 10
11.287127473
 20
6.9784348689
 30
0.0
 10
11.3157243084
 20
6.9953494489
 30
0.0
 10
11.3421512838
 20
7.0140236337
 30
0.0
 10
11.3661936912
 20
7.0343150269
 30
0.0
 10
11.3876551268
 20
7.0560686233
 30
0.0
 10
11.4063586822
 20
7.0791174204
 30
0.0
 10
11.4221482756
 20
7.1032845017
 30
0.0
 10
11.434888983
 20
7.128378877
 30
0.0
 10
11.4429103106
 20
7.1500032711
 30
0.0
 10
11.447671603
 20
7.167517307
 30
0.0
 10
11.44950461
 20
7.1763322545
 30
0.0
 10
11.4502821258
 20
7.1807472783
 30
0.0
  0
SPLINE
  5
2C1
100
AcDbEntity
  8
0
100
AcDbSpline
 62
7
  6
CONTINUOUS
 70
0
 71
3
 72
24
 73
20
 74
0
 42
0.0000001
 43
0.0000001
 44
0.0000000001
 40
0.0
 40
0.0
 40
0.0
 40
0.0
 40
0.1415144563
 40
0.2117158953
 40
0.2811517943
 40
0.349567125
 40
0.4167318641
 40
0.4824478188
 40
0.5465553684
 40
0.608940065
 40
0.669539355
 40
0.7283488041
 40
0.7854273268
 40
0.8409010679
 40
0.8949640332
 40
0.9215566414
 40
0.9478988898
 40
0.9740319868
 40
1.0
 40
1.0
 40
1.0
 40
1.0
 10
11.0473183383
 20
6.9681751956
 30
0.0
 10
11.0719671211
 20
6.9686562742
 30
0.0
 10
11.1088580653
 20
6.9717474825
 30
0.0
 10
11.1570549373
 20
6.9806068133
 30
0.0
 10
11.1922152964
 20
6.989530424
 30
0.0
 10
11.2261762525
 20
7.0006809918
 30
0.0
 10
11.2586608303
 20
7.0139738787
 30
0.0
 10
11.2893997775
 20
7.0293064593
 30
0.0
 10
11.3181392198
 20
7.046559954
 30
0.0
 10
11.3446411329
 20
7.0656001809
 30
0.0
 10
11.3686853763
 20
7.0862788663
 30
0.0
 10
11.3900709501
 20
7.1084343196
 30
0.0
 10
11.4086176652
 20
7.1318936972
 30
0.0
 10
11.4241658915
 20
7.1564692835
 30
0.0
 10
11.4345712112
 20
7.1778428026
 30
0.0
 10
11.4412313457
 20
7.1952623938
 30
0.0
 10
11.4453806852
 20
7.2084062576
 30
0.0
 10
11.448700672
 20
7.2216708008
 30
0.0
 10
11.4503614081
 20
7.23060117
 30
0.0
 10
11.4510496763
 20
7.2350724394
 30
0.0
  0
SPLINE
  5
2C2
100
AcDbEntity
  8
0
100
AcDbSpline
 62
7
  6
CONTINUOUS
 70
0
 71
3
 72
31
 73
27
 74
0
 42
0.0000001
 43
0.0000001
 44
0.0000000001
 40
0.0
 40
0.0
 40
0.0
 40
0.0
 40
0.0667240216
 40
0.1007584923
 40
0.1351529054
 40
0.2047287181
 40
0.2749010157
 40
0.3450733123
 40
0.4146491584
 40
0.4830580044
 40
0.5166708272
 40
0.5498036148
 40
0.6144034231
 40
0.6458117474
 40
0.6765760532
 40
0.7360739828
 40
0.7648316575
 40
0.7929331198
 40
0.8204052338
 40
0.8472878744
 40
0.8736340153
 40
0.8995093432
 40
0.9249914854
 40
0.9501685501
 40
0.9751371661
 40
1.0
 40
1.0
 40
1.0
 40
1.0
 10
11.2785683383
 20
6.323498348
 30
0.0
 10
11.2608347278
 20
6.3162586318
 30
0.0
 10
11.2334460559
 20
6.3067527122
 30
0.0
 10
11.195940051
 20
6.2967827836
 30
0.0
 10
11.1571880826
 20
6.288479688
 30
0.0
 10
11.1076002868
 20
6.2815354834
 30
0.0
 10
11.0473189371
 20
6.2787538479
 30
0.0
 10
10.9870339996
 20
6.2815358145
 30
0.0
 10
10.9277710299
 20
6.2898347652
 30
0.0
 10
10.8797763358
 20
6.3013030796
 30
0.0
 10
10.8428088095
 20
6.3131330258
 30
0.0
 10
10.807521882
 20
6.3264537968
 30
0.0
 10
10.7738919098
 20
6.3422627959
 30
0.0
 10
10.7423888808
 20
6.3605200091
 30
0.0
 10
10.7132432508
 20
6.3797948017
 30
0.0
 10
10.6864943771
 20
6.4012346491
 30
0.0
 10
10.6626841052
 20
6.4246926849
 30
0.0
 10
10.6466672223
 20
6.4428751056
 30
0.0
 10
10.632363969
 20
6.4617637679
 30
0.0
 10
10.6198357293
 20
6.4812796145
 30
0.0
 10
10.6091379716
 20
6.5013394746
 30
0.0
 10
10.6003182456
 20
6.5218577879
 30
0.0
 10
10.5934162208
 20
6.5427461559
 30
0.0
 10
10.5884633026
 20
6.5639148631
 30
0.0
 10
10.585482297
 20
6.5852693097
 30
0.0
 10
10.5848183383
 20
6.5995832169
 30
0.0
 10
10.5848183383
 20
6.6067205995
 30
0.0
  0
SPLINE
  5
2C3
100
AcDbEntity
  8
0
100
AcDbSpline
 62
7
  6
CONTINUOUS
 70
0
 71
3
 72
35
 73
31
 74
0
 42
0.0000001
 43
0.0000001
 44
0.0000000001
 40
0.0
 40
0.0
 40
0.0
 40
0.0
 40
0.0667176644
 40
0.1007491132
 40
0.1351402801
 40
0.2047095938
 40
0.2397643529
 40
0.2748942188
 40
0.3450599589
 40
0.3799653394
 40
0.4146486663
 40
0.483051134
 40
0.5166608146
 40
0.5497904947
 40
0.58238814
 40
0.6144084728
 40
0.6458138709
 40
0.676575301
 40
0.7066732559
 40
0.7360986296
 40
0.7648536282
 40
0.7929524659
 40
0.8204220089
 40
0.8473021419
 40
0.8736458143
 40
0.8995187378
 40
0.9249985
 40
0.9501732109
 40
0.9751394943
 40
1.0
 40
1.0
 40
1.0
 40
1.0
 10
11.3348183383
 20
5.6040682103
 30
0.0
 10
11.3127711879
 20
5.5950674988
 30
0.0
 10
11.2787204984
 20
5.5832493467
 30
0.0
 10
11.2320911376
 20
5.5708542242
 30
0.0
 10
11.1839141199
 20
5.5605316537
 30
0.0
 10
11.1346883295
 20
5.5536381951
 30
0.0
 10
11.0849118214
 20
5.5501753117
 30
0.0
 10
11.0348152097
 20
5.5490168746
 30
0.0
 10
10.984741193
 20
5.5513276833
 30
0.0
 10
10.935179024
 20
5.5571075381
 30
0.0
 10
10.8865663834
 20
5.5651136123
 30
0.0
 10
10.8390212566
 20
5.5764744969
 30
0.0
 10
10.7930644508
 20
5.5911811518
 30
0.0
 10
10.7598770783
 20
5.6037094088
 30
0.0
 10
10.727917404
 20
5.6177448573
 30
0.0
 10
10.6973205333
 20
5.6332284543
 30
0.0
 10
10.6682174134
 20
5.650094554
 30
0.0
 10
10.6407322792
 20
5.6682718798
 30
0.0
 10
10.6149827027
 20
5.6876836515
 30
0.0
 10
10.591078982
 20
5.7082479372
 30
0.0
 10
10.5691237699
 20
5.7298779509
 30
0.0
 10
10.5492117013
 20
5.7524824033
 30
0.0
 10
10.5314290746
 20
5.7759657976
 30
0.0
 10
10.5158534962
 20
5.8002287004
 30
0.0
 10
10.5025535582
 20
5.8251679963
 30
0.0
 10
10.4915884601
 20
5.850677234
 30
0.0
 10
10.4830075576
 20
5.8766465604
 30
0.0
 10
10.4768498981
 20
5.9029644193
 30
0.0
 10
10.4731438502
 20
5.9295131942
 30
0.0
 10
10.4723183442
 20
5.9473088602
 30
0.0
 10
10.4723183791
 20
5.9561823608
 30
0.0
  0
SPLINE
  5
2C4
100
AcDbEntity
  8
0
100
AcDbSpline
 62
7
  6
CONTINUOUS
 70
0
 71
3
 72
21
 73
17
 74
0
 42
0.0000001
 43
0.0000001
 44
0.0000000001
 40
0.0
 40
0.0
 40
0.0
 40
0.0
 40
0.1361723208
 40
0.2683781213
 40
0.3330782825
 40
0.3968822551
 40
0.4598386569
 40
0.5220039193
 40
0.5834425795
 40
0.6442264351
 40
0.7044345162
 40
0.7641521159
 40
0.8234701389
 40
0.8824842244
 40
0.9412935962
 40
1.0
 40
1.0
 40
1.0
 40
1.0
 10
11.4976341428
 20
6.8736874524
 30
0.0
 10
11.5074819829
 20
6.8649172506
 30
0.0
 10
11.5261737957
 20
6.8468045469
 30
0.0
 10
11.5472406886
 20
6.8223132631
 30
0.0
 10
11.5622769822
 20
6.8020209048
 30
0.0
 10
11.5725691989
 20
6.7865891093
 30
0.0
 10
11.5819377026
 20
6.770864742
 30
0.0
 10
11.5903656882
 20
6.7548749017
 30
0.0
 10
11.5978384366
 20
6.7386479859
 30
0.0
 10
11.6043421501
 20
6.7222123297
 30
0.0
 10
11.6098654815
 20
6.7055970751
 30
0.0
 10
11.6143982207
 20
6.6888314556
 30
0.0
 10
11.6179322556
 20
6.6719452356
 30
0.0
 10
11.6204612471
 20
6.6549681315
 30
0.0
 10
11.6219803533
 20
6.6379310333
 30
0.0
 10
11.622318333
 20
6.6265478851
 30
0.0
 10
11.622318338
 20
6.6208627351
 30
0.0
  0
SPLINE
  5
2C5
100
AcDbEntity
  8
0
100
AcDbSpline
 62
7
  6
CONTINUOUS
 70
0
 71
3
 72
21
 73
17
 74
0
 42
0.0000001
 43
0.0000001
 44
0.0000000001
 40
0.0
 40
0.0
 40
0.0
 40
0.0
 40
0.1178599764
 40
0.1787471407
 40
0.2407218616
 40
0.3036144802
 40
0.3672408782
 40
0.4314064062
 40
0.4959090135
 40
0.560542671
 40
0.6251009423
 40
0.6893799132
 40
0.7531818385
 40
0.816318372
 40
0.8786138462
 40
1.0
 40
1.0
 40
1.0
 40
1.0
 10
10.8150020715
 20
6.9652574041
 30
0.0
 10
10.8313333858
 20
6.9567151447
 30
0.0
 10
10.8570624242
 20
6.9455150172
 30
0.0
 10
10.8928568438
 20
6.9338183839
 30
0.0
 10
10.9209907349
 20
6.9265100284
 30
0.0
 10
10.9499283857
 20
6.9208164582
 30
0.0
 10
10.9794888999
 20
6.9167765056
 30
0.0
 10
11.0094830069
 20
6.914420204
 30
0.0
 10
11.0397198453
 20
6.9137664698
 30
0.0
 10
11.0700067017
 20
6.9148235455
 30
0.0
 10
11.1001505467
 20
6.9175887686
 30
0.0
 10
11.1299595763
 20
6.9220487565
 30
0.0
 10
11.1592430385
 20
6.9281789677
 30
0.0
 10
11.187817642
 20
6.9359459116
 30
0.0
 10
11.2243949309
 20
6.948310029
 30
0.0
 10
11.2507330482
 20
6.9600346062
 30
0.0
 10
11.2675023767
 20
6.968928489
 30
0.0
  0
SPLINE
  5
2C6
100
AcDbEntity
  8
0
100
AcDbSpline
 62
9
  6
CONTINUOUS
 70
0
 71
3
 72
9
 73
5
 74
0
 42
0.0000001
 43
0.0000001
 44
0.0000000001
 40
0.0
 40
0.0
 40
0.0
 40
0.0
 40
0.2468293795
 40
1.0
 40
1.0
 40
1.0
 40
1.0
 10
10.2451611418
 20
6.4814021058
 30
0.0
 10
10.263410446
 20
6.488852353
 30
0.0
 10
10.3378224467
 20
6.5178577375
 30
0.0
 10
10.4140428596
 20
6.5421929649
 30
0.0
 10
10.472087468
 20
6.5579575641
 30
0.0
  0
SPLINE
  5
2C7
100
AcDbEntity
  8
0
100
AcDbSpline
 62
9
  6
CONTINUOUS
 70
0
 71
3
 72
36
 73
32
 74
0
 42
0.0000001
 43
0.0000001
 44
0.0000000001
 40
0.0
 40
0.0
 40
0.0
 40
0.0
 40
0.0751532236
 40
0.1121292368
 40
0.1486536671
 40
0.2202121357
 40
0.2552123913
 40
0.2896616637
 40
0.3235461673
 40
0.3568572506
 40
0.4217303896
 40
0.4533255958
 40
0.484370523
 40
0.5148866921
 40
0.5449022254
 40
0.5744518392
 40
0.6035767147
 40
0.6323242243
 40
0.6607474965
 40
0.6889048129
 40
0.7168588324
 40
0.7446756525
 40
0.7724237396
 40
0.8001727618
 40
0.8279923712
 40
0.8559509862
 40
0.8841146245
 40
0.9125458367
 40
0.9413027759
 40
0.9704384257
 40
1.0
 40
1.0
 40
1.0
 40
1.0
 10
11.6223358064
 20
6.5580155571
 30
0.0
 10
11.6719662017
 20
6.5445420042
 30
0.0
 10
11.7453055829
 20
6.5216469087
 30
0.0
 10
11.8404522564
 20
6.4856060817
 30
0.0
 10
11.9318013383
 20
6.4467141741
 30
0.0
 10
12.019476594
 20
6.4028126001
 30
0.0
 10
12.1027272376
 20
6.3539784477
 30
0.0
 10
12.1620584722
 20
6.3154633613
 30
0.0
 10
12.2185870051
 20
6.2748881634
 30
0.0
 10
12.2893912001
 20
6.2186869146
 30
0.0
 10
12.354791961
 20
6.1583254975
 30
0.0
 10
12.4139183878
 20
6.0941079327
 30
0.0
 10
12.4544421591
 20
6.0448540014
 30
0.0
 10
12.4914215794
 20
5.9942190104
 30
0.0
 10
12.5247641962
 20
5.9423280364
 30
0.0
 10
12.5543841197
 20
5.8893117062
 30
0.0
 10
12.5802052435
 20
5.8353031841
 30
0.0
 10
12.6021607221
 20
5.7804386344
 30
0.0
 10
12.6201934257
 20
5.7248567471
 30
0.0
 10
12.6342561712
 20
5.6686984785
 30
0.0
 10
12.6443120254
 20
5.6121066789
 30
0.0
 10
12.6503344578
 20
5.5552256633
 30
0.0
 10
12.652307528
 20
5.498200758
 30
0.0
 10
12.6502259974
 20
5.4411778042
 30
0.0
 10
12.6440953693
 20
5.3843026334
 30
0.0
 10
12.6339318492
 20
5.3277205725
 30
0.0
 10
12.6197622554
 20
5.2715758586
 30
0.0
 10
12.6016239576
 20
5.2160114593
 30
0.0
 10
12.5795640116
 20
5.1611675993
 30
0.0
 10
12.5536412648
 20
5.1071854625
 30
0.0
 10
12.5339770398
 20
5.0721268209
 30
0.0
 10
12.5235469406
 20
5.0547943183
 30
0.0
  0
SPLINE
  5
2C8
100
AcDbEntity
  8
0
100
AcDbSpline
 62
9
  6
CONTINUOUS
 70
0
 71
3
 72
15
 73
11
 74
0
 42
0.0000001
 43
0.0000001
 44
0.0000000001
 40
0.0
 40
0.0
 40
0.0
 40
0.0
 40
0.1145842433
 40
0.2319500648
 40
0.3522804762
 40
0.4756871036
 40
0.6022130283
 40
0.7318368274
 40
0.8644779485
 40
1.0
 40
1.0
 40
1.0
 40
1.0
 10
12.5235469406
 20
5.0547943183
 30
0.0
 10
12.5084142797
 20
5.0296472051
 30
0.0
 10
12.475508931
 20
4.9800773334
 30
0.0
 10
12.4194379304
 20
4.9092613755
 30
0.0
 10
12.3563734816
 20
4.8414746336
 30
0.0
 10
12.2866459521
 20
4.7770654627
 30
0.0
 10
12.2106123186
 20
4.7163549244
 30
0.0
 10
12.1286606515
 20
4.6596475982
 30
0.0
 10
12.0412132805
 20
4.607230362
 30
0.0
 10
11.9801653756
 20
4.5756408662
 30
0.0
 10
11.948876406
 20
4.5606098447
 30
0.0
  0
LINE
  5
2C9
100
AcDbEntity
  8
0
100
AcDbLine
 62
9
  6
CONTINUOUS
 10
11.948876406
 20
4.5606098447
 11
11.9485848108
 21
4.5604697974
  0
SPLINE
  5
2CA
100
AcDbEntity
  8
0
100
AcDbSpline
 62
9
  6
CONTINUOUS
 70
0
 71
3
 72
28
 73
24
 74
0
 42
0.0000001
 43
0.0000001
 44
0.0000000001
 40
0.0
 40
0.0
 40
0.0
 40
0.0
 40
0.0724006469
 40
0.1435185051
 40
0.2132710093
 40
0.281593077
 40
0.3484415896
 40
0.4137963001
 40
0.4776620799
 40
0.5400705089
 40
0.6010812455
 40
0.6607828632
 40
0.7192929956
 40
0.7481522552
 40
0.7767706587
 40
0.8051705508
 40
0.8333757345
 40
0.8614113707
 40
0.8893037829
 40
0.9170803495
 40
0.9447692645
 40
0.9723993863
 40
1.0
 40
1.0
 40
1.0
 40
1.0
 10
11.8573183383
 20
4.4690782324
 30
0.0
 10
11.8876674832
 20
4.481468219
 30
0.0
 10
11.9471976361
 20
4.5076113008
 30
0.0
 10
12.0333987633
 20
4.551233868
 30
0.0
 10
12.1153941118
 20
4.5987524442
 30
0.0
 10
12.1928303101
 20
4.6499651216
 30
0.0
 10
12.2653769716
 20
4.7046556836
 30
0.0
 10
12.3327231353
 20
4.7625932711
 30
0.0
 10
12.3945796484
 20
4.8235334956
 30
0.0
 10
12.4506797008
 20
4.8872188953
 30
0.0
 10
12.5007805783
 20
4.9533814542
 30
0.0
 10
12.5446620893
 20
5.0217372543
 30
0.0
 10
12.5760345815
 20
5.0805670458
 30
0.0
 10
12.5977737138
 20
5.1283865555
 30
0.0
 10
12.6123450141
 20
5.1644492441
 30
0.0
 10
12.6252393363
 20
5.2008305867
 30
0.0
 10
12.6364429887
 20
5.237492228
 30
0.0
 10
12.6459439122
 20
5.2743945388
 30
0.0
 10
12.6537313856
 20
5.3114980154
 30
0.0
 10
12.6597973978
 20
5.3487625488
 30
0.0
 10
12.6641347628
 20
5.386148404
 30
0.0
 10
12.6667393073
 20
5.4236141875
 30
0.0
 10
12.6673182744
 20
5.4486248552
 30
0.0
 10
12.6673182971
 20
5.4611215783
 30
0.0
  0
SPLINE
  5
2CB
100
AcDbEntity
  8
0
100
AcDbSpline
 62
9
  6
CONTINUOUS
 70
0
 71
3
 72
34
 73
30
 74
0
 42
0.0000001
 43
0.0000001
 44
0.0000000001
 40
0.0
 40
0.0
 40
0.0
 40
0.0
 40
0.0739890284
 40
0.1103388003
 40
0.1462309355
 40
0.2165697947
 40
0.2849331945
 40
0.3512895057
 40
0.4156659139
 40
0.4471468261
 40
0.4781723085
 40
0.5087641051
 40
0.5389481491
 40
0.5687544897
 40
0.5982171584
 40
0.6273739709
 40
0.6562662253
 40
0.6849383285
 40
0.7134373501
 40
0.7418125083
 40
0.7701145838
 40
0.7983952883
 40
0.8267066078
 40
0.855100135
 40
0.8836264142
 40
0.9123343222
 40
0.9412704969
 40
0.9704788248
 40
1.0
 40
1.0
 40
1.0
 40
1.0
 10
12.0484360611
 20
3.774667227
 30
0.0
 10
12.097469832
 20
3.7946851802
 30
0.0
 10
12.1696082199
 20
3.8270590872
 30
0.0
 10
12.2626377075
 20
3.8750803918
 30
0.0
 10
12.3515450238
 20
3.9252423325
 30
0.0
 10
12.4568461951
 20
3.9928088231
 30
0.0
 10
12.5737399004
 20
4.0818620336
 30
0.0
 10
12.6794585148
 20
4.1777026666
 30
0.0
 10
12.7581876804
 20
4.2633062357
 30
0.0
 10
12.814659243
 20
4.3344803582
 30
0.0
 10
12.8534536911
 20
4.3887014898
 30
0.0
 10
12.8889251153
 20
4.4440530343
 30
0.0
 10
12.9210085713
 20
4.5004346387
 30
0.0
 10
12.9496438148
 20
4.5577424717
 30
0.0
 10
12.9747771719
 20
4.6158712367
 30
0.0
 10
12.9963614502
 20
4.674713758
 30
0.0
 10
13.0143559677
 20
4.7341614017
 30
0.0
 10
13.0287266443
 20
4.7941042109
 30
0.0
 10
13.0394460836
 20
4.8544311212
 30
0.0
 10
13.0464939311
 20
4.9150301393
 30
0.0
 10
13.0498568067
 20
4.9757886448
 30
0.0
 10
13.0495282832
 20
5.0365936455
 30
0.0
 10
13.0455088927
 20
5.0973320306
 30
0.0
 10
13.0378063184
 20
5.1578908268
 30
0.0
 10
13.0264353246
 20
5.2181575639
 30
0.0
 10
13.0114176277
 20
5.2780202606
 30
0.0
 10
12.9927813886
 20
5.3373685973
 30
0.0
 10
12.9705628673
 20
5.3960905687
 30
0.0
 10
12.9534858478
 20
5.4345333974
 30
0.0
 10
12.9443819135
 20
5.4536034866
 30
0.0
  0
SPLINE
  5
2CC
100
AcDbEntity
  8
0
100
AcDbSpline
 62
9
  6
CONTINUOUS
 70
0
 71
3
 72
26
 73
22
 74
0
 42
0.0000001
 43
0.0000001
 44
0.0000000001
 40
0.0
 40
0.0
 40
0.0
 40
0.0
 40
0.0623887436
 40
0.0940595631
 40
0.1260078509
 40
0.1906043051
 40
0.2559312583
 40
0.3217154502
 40
0.3876735053
 40
0.4535182431
 40
0.5189649558
 40
0.583737733
 40
0.6475758389
 40
0.7102402517
 40
0.7715203885
 40
0.8015909437
 40
0.8312531117
 40
0.8892814328
 40
0.9176399503
 40
0.9455488469
 40
1.0
 40
1.0
 40
1.0
 40
1.0
 10
11.8494755348
 20
4.5165262808
 30
0.0
 10
11.8057493541
 20
4.4986751423
 30
0.0
 10
11.7387690429
 20
4.4742635239
 30
0.0
 10
11.6475020407
 20
4.4464732478
 30
0.0
 10
11.5536863381
 20
4.4215074962
 30
0.0
 10
11.4336729908
 20
4.3962335005
 30
0.0
 10
11.2868528374
 20
4.3755937908
 30
0.0
 10
11.1379545369
 20
4.3647057547
 30
0.0
 10
10.9882721502
 20
4.3636641626
 30
0.0
 10
10.8391009482
 20
4.3724774058
 30
0.0
 10
10.6917331378
 20
4.3910701446
 30
0.0
 10
10.5474451683
 20
4.4192820207
 30
0.0
 10
10.4074848272
 20
4.4568716689
 30
0.0
 10
10.2730689807
 20
4.5035143581
 30
0.0
 10
10.165961196
 20
4.5498914987
 30
0.0
 10
10.0841723731
 20
4.5912072714
 30
0.0
 10
10.0062676209
 20
4.6345821029
 30
0.0
 10
9.932181764
 20
4.6820314125
 30
0.0
 10
9.8625572888
 20
4.7334458897
 30
0.0
 10
9.7974452339
 20
4.7862549241
 30
0.0
 10
9.7517817511
 20
4.8288944991
 30
0.0
 10
9.7231229067
 20
4.8585225268
 30
0.0
  0
SPLINE
  5
2CD
100
AcDbEntity
  8
0
100
AcDbSpline
 62
9
  6
CONTINUOUS
 70
0
 71
3
 72
38
 73
34
 74
0
 42
0.0000001
 43
0.0000001
 44
0.0000000001
 40
0.0
 40
0.0
 40
0.0
 40
0.0
 40
0.0322238204
 40
0.0481205685
 40
0.0638763182
 40
0.0949743993
 40
0.1255523102
 40
0.1556481847
 40
0.1853072366
 40
0.214581424
 40
0.2435289256
 40
0.2722134185
 40
0.3007031602
 40
0.3290698937
 40
0.3573876043
 40
0.38573118
 40
0.4141750316
 40
0.4427917342
 40
0.4716507506
 40
0.5008172848
 40
0.5303513059
 40
0.5603067624
 40
0.5907309987
 40
0.6216643646
 40
0.6531399989
 40
0.6851837685
 40
0.7178143364
 40
0.7848530008
 40
0.8192869081
 40
0.8543146665
 40
0.8899229133
 40
0.926092408
 40
1.0
 40
1.0
 40
1.0
 40
1.0
 10
9.7231229067
 20
4.8585225268
 30
0.0
 10
9.7077254805
 20
4.8744406624
 30
0.0
 10
9.6853749482
 20
4.8988481497
 30
0.0
 10
9.6571473309
 20
4.9324762494
 30
0.0
 10
9.6303904067
 20
4.9663058018
 30
0.0
 10
9.5992376461
 20
5.0094939653
 30
0.0
 10
9.5655265901
 20
5.0628487744
 30
0.0
 10
9.5357395872
 20
5.117368675
 30
0.0
 10
9.5099581125
 20
5.1729085607
 30
0.0
 10
9.4882522439
 20
5.2293214583
 30
0.0
 10
9.4706815532
 20
5.2864572689
 30
0.0
 10
9.4572944935
 20
5.3441635496
 30
0.0
 10
9.448128203
 20
5.4022858285
 30
0.0
 10
9.4432081881
 20
5.4606681122
 30
0.0
 10
9.4425481685
 20
5.5191534312
 30
0.0
 10
9.4461499803
 20
5.5775844252
 30
0.0
 10
9.4540035585
 20
5.6358039431
 30
0.0
 10
9.4660870191
 20
5.6936556343
 30
0.0
 10
9.4823668244
 20
5.7509845047
 30
0.0
 10
9.5027980193
 20
5.8076374184
 30
0.0
 10
9.5273244909
 20
5.8634635383
 30
0.0
 10
9.5558792522
 20
5.9183147394
 30
0.0
 10
9.5883847307
 20
5.9720458822
 30
0.0
 10
9.6247532709
 20
6.0245153076
 30
0.0
 10
9.664886605
 20
6.0755843927
 30
0.0
 10
9.7086792681
 20
6.1251206103
 30
0.0
 10
9.7723508434
 20
6.1895172201
 30
0.0
 10
9.8424165955
 20
6.24969981
 30
0.0
 10
9.9179484284
 20
6.3053822973
 30
0.0
 10
9.978099975
 20
6.3453890127
 30
0.0
 10
10.0410772351
 20
6.3831517875
 30
0.0
 10
10.1292118713
 20
6.430714434
 30
0.0
 10
10.1981345106
 20
6.462203564
 30
0.0
 10
10.2451611418
 20
6.4814021058
 30
0.0
  0
SPLINE
  5
2CE
100
AcDbEntity
  8
0
100
AcDbSpline
 62
9
  6
CONTINUOUS
 70
0
 71
3
 72
45
 73
41
 74
0
 42
0.0000001
 43
0.0000001
 44
0.0000000001
 40
0.0
 40
0.0
 40
0.0
 40
0.0
 40
0.0665639064
 40
0.1005122133
 40
0.134817266
 40
0.1694137916
 40
0.2042332019
 40
0.2392045452
 40
0.2742552468
 40
0.3093118978
 40
0.3443010264
 40
0.3791498711
 40
0.4137871584
 40
0.448143886
 40
0.4821541168
 40
0.5157557855
 40
0.5488915217
 40
0.5815094903
 40
0.6135642506
 40
0.6450176317
 40
0.6758396195
 40
0.7060092446
 40
0.7355154557
 40
0.7643579507
 40
0.778535511
 40
0.7925523549
 40
0.8201131344
 40
0.8470805766
 40
0.8603591272
 40
0.8735086042
 40
0.8865370346
 40
0.8994531582
 40
0.9122664448
 40
0.9249870136
 40
0.9376256094
 40
0.9501935314
 40
0.9627025664
 40
0.9751649235
 40
0.9875931379
 40
1.0
 40
1.0
 40
1.0
 40
1.0
 10
11.8573183383
 20
4.4931116836
 30
0.0
 10
11.7958327049
 20
4.4680102789
 30
0.0
 10
11.7008966698
 20
4.4350031841
 30
0.0
 10
11.5709132831
 20
4.4002776563
 30
0.0
 10
11.4705694258
 20
4.3785997609
 30
0.0
 10
11.3684603028
 20
4.361558622
 30
0.0
 10
11.2650062119
 20
4.349223233
 30
0.0
 10
11.1606417918
 20
4.341645559
 30
0.0
 10
11.0558031552
 20
4.338857056
 30
0.0
 10
10.9509290478
 20
4.3408693931
 30
0.0
 10
10.8464581945
 20
4.3476741713
 30
0.0
 10
10.7428276697
 20
4.3592430224
 30
0.0
 10
10.6404709997
 20
4.3755277165
 30
0.0
 10
10.5398163546
 20
4.3964603764
 30
0.0
 10
10.4412847497
 20
4.4219537929
 30
0.0
 10
10.3452882887
 20
4.4519018162
 30
0.0
 10
10.252228452
 20
4.4861798316
 30
0.0
 10
10.162494436
 20
4.5246453241
 30
0.0
 10
10.0764615832
 20
4.567138495
 30
0.0
 10
9.994489802
 20
4.6134830416
 30
0.0
 10
9.9169223961
 20
4.6634866631
 30
0.0
 10
9.8440838289
 20
4.7169428324
 30
0.0
 10
9.7762817951
 20
4.7736282015
 30
0.0
 10
9.7239122612
 20
4.8236512195
 30
0.0
 10
9.6848631718
 20
4.8650606849
 30
0.0
 10
9.6481496303
 20
4.9068662709
 30
0.0
 10
9.6058244913
 20
4.9606674596
 30
0.0
 10
9.5681029808
 20
5.016915151
 30
0.0
 10
9.5411135546
 20
5.0628602408
 30
0.0
 10
9.5225543446
 20
5.0975900852
 30
0.0
 10
9.505595689
 20
5.1327276488
 30
0.0
 10
9.4902556639
 20
5.1682367999
 30
0.0
 10
9.4765502453
 20
5.2040799069
 30
0.0
 10
9.4644943333
 20
5.2402194717
 30
0.0
 10
9.4541005611
 20
5.276617369
 30
0.0
 10
9.4453801014
 20
5.3132353287
 30
0.0
 10
9.4383423491
 20
5.3500346957
 30
0.0
 10
9.4329946024
 20
5.3869769027
 30
0.0
 10
9.429342979
 20
5.4240219922
 30
0.0
 10
9.4280408764
 20
5.4487764314
 30
0.0
 10
9.4276740954
 20
5.4611495584
 30
0.0
  0
LINE
  5
2CF
100
AcDbEntity
  8
0
100
AcDbLine
 62
9
  6
CONTINUOUS
 10
9.4276740954
 20
5.4611495584
 11
9.4276345489
 21
5.4625229475
  0
SPLINE
  5
2D0
100
AcDbEntity
  8
0
100
AcDbSpline
 62
9
  6
CONTINUOUS
 70
0
 71
3
 72
13
 73
9
 74
0
 42
0.0000001
 43
0.0000001
 44
0.0000000001
 40
0.0
 40
0.0
 40
0.0
 40
0.0
 40
0.2434769294
 40
0.367204394
 40
0.492070986
 40
0.6179365318
 40
0.7446554535
 40
1.0
 40
1.0
 40
1.0
 40
1.0
 10
11.9998183383
 20
4.1612031361
 30
0.0
 10
11.9436026917
 20
4.1382531945
 30
0.0
 10
11.8573447618
 20
4.1071223601
 30
0.0
 10
11.7396732038
 20
4.0722337424
 30
0.0
 10
11.6491678639
 20
4.0491230831
 30
0.0
 10
11.5571299886
 20
4.0292728644
 30
0.0
 10
11.4323832637
 20
4.0071662361
 30
0.0
 10
11.3376820267
 20
3.9957069026
 30
0.0
 10
11.2742304575
 20
3.9903243329
 30
0.0
  0
SPLINE
  5
2D1
100
AcDbEntity
  8
0
100
AcDbSpline
 62
9
  6
CONTINUOUS
 70
0
 71
3
 72
37
 73
33
 74
0
 42
0.0000001
 43
0.0000001
 44
0.0000000001
 40
0.0
 40
0.0
 40
0.0
 40
0.0
 40
0.0717637607
 40
0.1076965053
 40
0.1435922177
 40
0.215061119
 40
0.2505495646
 40
0.2858067399
 40
0.3207873831
 40
0.3554482723
 40
0.3897485962
 40
0.4236503296
 40
0.4571186167
 40
0.4901221605
 40
0.522633619
 40
0.5546300057
 40
0.5860930931
 40
0.6170098125
 40
0.6473726478
 40
0.677180012
 40
0.7064365964
 40
0.7351536779
 40
0.7633493648
 40
0.7910487608
 40
0.8182840204
 40
0.8450942705
 40
0.8715253706
 40
0.8976294898
 40
0.9234644859
 40
0.9490930798
 40
0.9745818397
 40
1.0
 40
1.0
 40
1.0
 40
1.0
 10
11.2742304575
 20
3.9903243329
 30
0.0
 10
11.2074959927
 20
3.9846632765
 30
0.0
 10
11.1069749625
 20
3.979936458
 30
0.0
 10
10.9729489719
 20
3.9811348185
 30
0.0
 10
10.8393333468
 20
3.9873245655
 30
0.0
 10
10.7065624594
 20
4.0009662626
 30
0.0
 10
10.5755008477
 20
4.0220570676
 30
0.0
 10
10.4787342128
 20
4.0414775005
 30
0.0
 10
10.3835519104
 20
4.0644808374
 30
0.0
 10
10.2902164437
 20
4.091003641
 30
0.0
 10
10.1989881663
 20
4.1209722357
 30
0.0
 10
10.1101207702
 20
4.1543035512
 30
0.0
 10
10.0238615909
 20
4.1909051985
 30
0.0
 10
9.9404506655
 20
4.2306757818
 30
0.0
 10
9.8601201504
 20
4.273505182
 30
0.0
 10
9.7830936755
 20
4.3192748696
 30
0.0
 10
9.7095857541
 20
4.3678582445
 30
0.0
 10
9.6398012215
 20
4.4191209924
 30
0.0
 10
9.5739347051
 20
4.4729214514
 30
0.0
 10
9.51217013
 20
4.5291109892
 30
0.0
 10
9.4546802562
 20
4.5875343839
 30
0.0
 10
9.4016262464
 20
4.6480302055
 30
0.0
 10
9.3531572591
 20
4.7104311911
 30
0.0
 10
9.3094100587
 20
4.7745646168
 30
0.0
 10
9.2705086337
 20
4.8402526592
 30
0.0
 10
9.2365638134
 20
4.9073127742
 30
0.0
 10
9.2076728729
 20
4.9755580306
 30
0.0
 10
9.1839191279
 20
5.0447976917
 30
0.0
 10
9.165371509
 20
5.1148370548
 30
0.0
 10
9.1520841692
 20
5.1854802769
 30
0.0
 10
9.1440960537
 20
5.2565225543
 30
0.0
 10
9.1423184187
 20
5.3040509094
 30
0.0
 10
9.14231838
 20
5.3277726261
 30
0.0
  0
SPLINE
  5
2D2
100
AcDbEntity
  8
0
100
AcDbSpline
 62
9
  6
CONTINUOUS
 70
0
 71
3
 72
37
 73
33
 74
0
 42
0.0000001
 43
0.0000001
 44
0.0000000001
 40
0.0
 40
0.0
 40
0.0
 40
0.0
 40
0.0740855259
 40
0.1103976808
 40
0.1461883684
 40
0.216121198
 40
0.2502590595
 40
0.2838320984
 40
0.3168417401
 40
0.3492948368
 40
0.3812038826
 40
0.4125871831
 40
0.4434689642
 40
0.4738794012
 40
0.5038545519
 40
0.533436177
 40
0.5626714338
 40
0.5916124312
 40
0.6203156403
 40
0.6488411672
 40
0.6772519016
 40
0.7056125631
 40
0.7339886774
 40
0.7624455211
 40
0.791047076
 40
0.819855033
 40
0.8489278837
 40
0.878320125
 40
0.9080815975
 40
0.9382569639
 40
0.9688853303
 40
1.0
 40
1.0
 40
1.0
 40
1.0
 10
12.0978596418
 20
3.6610013494
 30
0.0
 10
12.1554865106
 20
3.6845274201
 30
0.0
 10
12.2400699438
 20
3.7229032418
 30
0.0
 10
12.3486001419
 20
3.7804663525
 30
0.0
 10
12.451601649
 20
3.8407790142
 30
0.0
 10
12.5491225772
 20
3.906669724
 30
0.0
 10
12.6402254623
 20
3.9779552695
 30
0.0
 10
12.7043329384
 20
4.0332454127
 30
0.0
 10
12.7646090282
 20
4.0906550018
 30
0.0
 10
12.8209158228
 20
4.1500537056
 30
0.0
 10
12.873121829
 20
4.2113046862
 30
0.0
 10
12.9211054724
 20
4.2742672718
 30
0.0
 10
12.9647545235
 20
4.3387965939
 30
0.0
 10
13.0039665799
 20
4.4047440185
 30
0.0
 10
13.0386492687
 20
4.4719573707
 30
0.0
 10
13.0687205206
 20
4.5402812251
 30
0.0
 10
13.0941088424
 20
4.6095571918
 30
0.0
 10
13.1147536079
 20
4.6796242332
 30
0.0
 10
13.1306052827
 20
4.7503190369
 30
0.0
 10
13.1416256708
 20
4.8214764124
 30
0.0
 10
13.147788123
 20
4.8929297403
 30
0.0
 10
13.1490776975
 20
4.9645114637
 30
0.0
 10
13.1454912565
 20
5.0360536119
 30
0.0
 10
13.137037482
 20
5.1073883396
 30
0.0
 10
13.1237368424
 20
5.1783484611
 30
0.0
 10
13.1056214717
 20
5.2487679746
 30
0.0
 10
13.0827349632
 20
5.3184825118
 30
0.0
 10
13.0551320934
 20
5.3873298359
 30
0.0
 10
13.0228787746
 20
5.4551499507
 30
0.0
 10
12.986051005
 20
5.5217864669
 30
0.0
 10
12.9447376008
 20
5.587082991
 30
0.0
 10
12.9145118622
 20
5.6292817306
 30
0.0
 10
12.8987093503
 20
5.6501061832
 30
0.0
  0
SPLINE
  5
2D3
100
AcDbEntity
  8
0
100
AcDbSpline
 62
9
  6
CONTINUOUS
 70
0
 71
3
 72
52
 73
48
 74
0
 42
0.0000001
 43
0.0000001
 44
0.0000000001
 40
0.0
 40
0.0
 40
0.0
 40
0.0
 40
0.0141212142
 40
0.0280553699
 40
0.0418126652
 40
0.055404868
 40
0.0688452754
 40
0.0821486538
 40
0.0953311366
 40
0.1084101009
 40
0.1214040231
 40
0.1343323075
 40
0.147215085
 40
0.1600729976
 40
0.17292697
 40
0.1857979722
 40
0.1987067806
 40
0.2116737453
 40
0.2247185652
 40
0.2378600856
 40
0.2511161181
 40
0.2645032808
 40
0.2780368601
 40
0.2917307138
 40
0.305597196
 40
0.3196470978
 40
0.333889613
 40
0.3483323396
 40
0.3778339543
 40
0.4081888935
 40
0.4394028253
 40
0.4714594282
 40
0.5043225036
 40
0.537938126
 40
0.5722369168
 40
0.6071362177
 40
0.6425422813
 40
0.6783523565
 40
0.7144567511
 40
0.7507408337
 40
0.7870870034
 40
0.8233766442
 40
0.859492065
 40
0.8953184522
 40
0.9307458357
 40
0.965670958
 40
1.0
 40
1.0
 40
1.0
 40
1.0
 10
9.1961011378
 20
5.6503351829
 30
0.0
 10
9.1828032121
 20
5.6328186152
 30
0.0
 10
9.1571864629
 20
5.59739854
 30
0.0
 10
9.1215877426
 20
5.5428419826
 30
0.0
 10
9.0891338827
 20
5.4873074154
 30
0.0
 10
9.0598797466
 20
5.4308868256
 30
0.0
 10
9.0338736912
 20
5.3736718935
 30
0.0
 10
9.0111589498
 20
5.3157563235
 30
0.0
 10
8.9917733624
 20
5.2572349336
 30
0.0
 10
8.9757494523
 20
5.1982036916
 30
0.0
 10
8.9631141819
 20
5.1387595653
 30
0.0
 10
8.9538886681
 20
5.0790003856
 30
0.0
 10
8.9480884464
 20
5.0190245793
 30
0.0
 10
8.94572343
 20
4.9589310191
 30
0.0
 10
8.9467976095
 20
4.8988188458
 30
0.0
 10
8.9513090512
 20
4.8387872244
 30
0.0
 10
8.9592501529
 20
4.778935143
 30
0.0
 10
8.9706076632
 20
4.7193612525
 30
0.0
 10
8.9853623771
 20
4.6601636085
 30
0.0
 10
9.0034894377
 20
4.601439496
 30
0.0
 10
9.0249585256
 20
4.5432852962
 30
0.0
 10
9.0497338918
 20
4.485796349
 30
0.0
 10
9.0777741496
 20
4.4290666548
 30
0.0
 10
9.1090326802
 20
4.3731888778
 30
0.0
 10
9.1434578491
 20
4.3182541326
 30
0.0
 10
9.1809925754
 20
4.2643522315
 30
0.0
 10
9.221575843
 20
4.211569855
 30
0.0
 10
9.2800676922
 20
4.142320065
 30
0.0
 10
9.360630664
 20
4.0590349081
 30
0.0
 10
9.4675885806
 20
3.9656529268
 30
0.0
 10
9.5848236242
 20
3.878704174
 30
0.0
 10
9.7115642375
 20
3.798750444
 30
0.0
 10
9.8469865386
 20
3.7263021009
 30
0.0
 10
9.9902091527
 20
3.6618238559
 30
0.0
 10
10.1403015869
 20
3.6057302463
 30
0.0
 10
10.2962885289
 20
3.5583820112
 30
0.0
 10
10.4571566335
 20
3.5200846609
 30
0.0
 10
10.6218605616
 20
3.4910851466
 30
0.0
 10
10.7893299831
 20
3.4715709763
 30
0.0
 10
10.9584763927
 20
3.4616682222
 30
0.0
 10
11.1282003246
 20
3.4614409309
 30
0.0
 10
11.297398448
 20
3.4708906382
 30
0.0
 10
11.4649711304
 20
3.4899561373
 30
0.0
 10
11.6298285365
 20
3.5185141444
 30
0.0
 10
11.7909014961
 20
3.5563808015
 30
0.0
 10
11.9471351169
 20
3.6033084511
 30
0.0
 10
12.0483615375
 20
3.640793833
 30
0.0
 10
12.0978596418
 20
3.6610013494
 30
0.0
  0
SPLINE
  5
2D4
100
AcDbEntity
  8
0
100
AcDbSpline
 62
7
  6
CONTINUOUS
 70
0
 71
3
 72
43
 73
39
 74
0
 42
0.0000001
 43
0.0000001
 44
0.0000000001
 40
0.0
 40
0.0
 40
0.0
 40
0.0
 40
0.0327679774
 40
0.0659898139
 40
0.0996145233
 40
0.1335861312
 40
0.1678454056
 40
0.2023300908
 40
0.2369757135
 40
0.2717162142
 40
0.3064846101
 40
0.3412136481
 40
0.3758364571
 40
0.4102872017
 40
0.4445017394
 40
0.4784182858
 40
0.5119780893
 40
0.5451261168
 40
0.5778117558
 40
0.6099895294
 40
0.6416198252
 40
0.6726696369
 40
0.7031133135
 40
0.7329333072
 40
0.762120905
 40
0.7906769227
 40
0.818612331
 40
0.8459487694
 40
0.8727188954
 40
0.8989665108
 40
0.9119136263
 40
0.9247515536
 40
0.9374887665
 40
0.9501343364
 40
0.9626978843
 40
0.9751895524
 40
0.9876199266
 40
1.0
 40
1.0
 40
1.0
 40
1.0
 10
12.122286909
 20
3.5812019778
 30
0.0
 10
12.0833839904
 20
3.5653199278
 30
0.0
 10
12.0042164975
 20
3.5353143985
 30
0.0
 10
11.8826569604
 20
3.4959081803
 30
0.0
 10
11.7578709983
 20
3.4619183372
 30
0.0
 10
11.630343671
 20
3.4334772301
 30
0.0
 10
11.500566234
 20
3.4106936558
 30
0.0
 10
11.3690396618
 20
3.3936553939
 30
0.0
 10
11.236271463
 20
3.3824279363
 30
0.0
 10
11.1027740317
 20
3.3770545078
 30
0.0
 10
10.9690625756
 20
3.3775557879
 30
0.0
 10
10.8356531386
 20
3.383929834
 30
0.0
 10
10.7030605881
 20
3.3961521118
 30
0.0
 10
10.5717966206
 20
3.4141755941
 30
0.0
 10
10.4423677786
 20
3.4379309549
 30
0.0
 10
10.3152734918
 20
3.4673268557
 30
0.0
 10
10.19100415
 20
3.5022503204
 30
0.0
 10
10.0700392182
 20
3.5425672065
 30
0.0
 10
9.9528453939
 20
3.588122737
 30
0.0
 10
9.839874831
 20
3.6387421375
 30
0.0
 10
9.7315634482
 20
3.6942313718
 30
0.0
 10
9.6283293139
 20
3.7543779247
 30
0.0
 10
9.5305711255
 20
3.8189516476
 30
0.0
 10
9.438666785
 20
3.8877056662
 30
0.0
 10
9.3529721023
 20
3.9603772695
 30
0.0
 10
9.2738195285
 20
4.0366890013
 30
0.0
 10
9.2015172527
 20
4.1163490502
 30
0.0
 10
9.1363473541
 20
4.1990540402
 30
0.0
 10
9.0785678318
 20
4.2844831397
 30
0.0
 10
9.0365708398
 20
4.3580179252
 30
0.0
 10
9.0069635612
 20
4.4178298745
 30
0.0
 10
8.9868317281
 20
4.4629557357
 30
0.0
 10
8.9686952434
 20
4.5085035239
 30
0.0
 10
8.952571304
 20
4.5544298225
 30
0.0
 10
8.9384761354
 20
4.6006898973
 30
0.0
 10
8.9264230915
 20
4.6472390962
 30
0.0
 10
8.916424738
 20
4.6940311499
 30
0.0
 10
8.9111255569
 20
4.7254143567
 30
0.0
 10
8.9088244147
 20
4.7411222617
 30
0.0
  0
SPLINE
  5
2D5
100
AcDbEntity
  8
0
100
AcDbSpline
 62
9
  6
CONTINUOUS
 70
0
 71
3
 72
15
 73
11
 74
0
 42
0.0000001
 43
0.0000001
 44
0.0000000001
 40
0.0
 40
0.0
 40
0.0
 40
0.0
 40
0.1338111475
 40
0.2653122834
 40
0.3943566184
 40
0.5208275417
 40
0.6446458511
 40
0.7657713532
 40
0.8842066806
 40
1.0
 40
1.0
 40
1.0
 40
1.0
 10
11.8632509719
 20
4.4488927861
 30
0.0
 10
11.8931026403
 20
4.4610796787
 30
0.0
 10
11.951684672
 20
4.4867633504
 30
0.0
 10
12.0365951389
 20
4.5295241549
 30
0.0
 10
12.1174834682
 20
4.5760339839
 30
0.0
 10
12.1940174609
 20
4.6261044184
 30
0.0
 10
12.2658856335
 20
4.6795335055
 30
0.0
 10
12.3327954996
 20
4.7361074136
 30
0.0
 10
12.3944696186
 20
4.7955938937
 30
0.0
 10
12.4323523787
 20
4.8375059353
 30
0.0
 10
12.4503000973
 20
4.858869301
 30
0.0
  0
SPLINE
  5
2D6
100
AcDbEntity
  8
0
100
AcDbSpline
 62
9
  6
CONTINUOUS
 70
0
 71
3
 72
23
 73
19
 74
0
 42
0.0000001
 43
0.0000001
 44
0.0000000001
 40
0.0
 40
0.0
 40
0.0
 40
0.0
 40
0.0673749993
 40
0.1336538998
 40
0.1988969922
 40
0.263177379
 40
0.3265806947
 40
0.3892045341
 40
0.4511575807
 40
0.5125584345
 40
0.5735341352
 40
0.6342184004
 40
0.6947496202
 40
0.7552686655
 40
0.8159166049
 40
0.876832415
 40
0.938150772
 40
1.0
 40
1.0
 40
1.0
 40
1.0
 10
12.4503000973
 20
4.858869301
 30
0.0
 10
12.4636195926
 20
4.8747236419
 30
0.0
 10
12.489202132
 20
4.9068925152
 30
0.0
 10
12.524527307
 20
4.9568189521
 30
0.0
 10
12.5564020858
 20
5.0079022151
 30
0.0
 10
12.5847492294
 20
5.0600215688
 30
0.0
 10
12.6095015002
 20
5.1130558618
 30
0.0
 10
12.6305995076
 20
5.1668809073
 30
0.0
 10
12.6479924697
 20
5.2213705074
 30
0.0
 10
12.6616382738
 20
5.2763965139
 30
0.0
 10
12.6715037071
 20
5.3318291857
 30
0.0
 10
12.6775646527
 20
5.3875375149
 30
0.0
 10
12.6798063394
 20
5.4433895886
 30
0.0
 10
12.6782232752
 20
5.4992531105
 30
0.0
 10
12.6728194138
 20
5.554995487
 30
0.0
 10
12.6636076915
 20
5.6104854967
 30
0.0
 10
12.6506115734
 20
5.6655890217
 30
0.0
 10
12.6394982105
 20
5.7018080606
 30
0.0
 10
12.6333394258
 20
5.719791148
 30
0.0
  0
SPLINE
  5
2D7
100
AcDbEntity
  8
0
100
AcDbSpline
 62
9
  6
CONTINUOUS
 70
0
 71
3
 72
10
 73
6
 74
0
 42
0.0000001
 43
0.0000001
 44
0.0000000001
 40
0.0
 40
0.0
 40
0.0
 40
0.0
 40
0.2459069765
 40
0.6201300583
 40
1.0
 40
1.0
 40
1.0
 40
1.0
 10
10.1170657142
 20
6.5155428207
 30
0.0
 10
10.1453664277
 20
6.5270965386
 30
0.0
 10
10.2173623485
 20
6.554716087
 30
0.0
 10
10.3356416455
 20
6.5932067128
 30
0.0
 10
10.4264174666
 20
6.6168461744
 30
0.0
 10
10.4724395955
 20
6.6274189324
 30
0.0
  0
SPLINE
  5
2D8
100
AcDbEntity
  8
0
100
AcDbSpline
 62
9
  6
CONTINUOUS
 70
0
 71
3
 72
52
 73
48
 74
0
 42
0.0000001
 43
0.0000001
 44
0.0000000001
 40
0.0
 40
0.0
 40
0.0
 40
0.0
 40
0.0371961141
 40
0.0738929591
 40
0.1100137726
 40
0.1454902925
 40
0.1802641861
 40
0.2142885176
 40
0.2475292443
 40
0.2799666753
 40
0.3115968768
 40
0.3424329663
 40
0.3725061875
 40
0.3872750213
 40
0.401873516
 40
0.4163108988
 40
0.430597564
 40
0.4447450139
 40
0.4587658408
 40
0.4726736402
 40
0.4864829267
 40
0.5002090548
 40
0.5138680854
 40
0.5274766675
 40
0.5410519025
 40
0.5546111872
 40
0.5681720631
 40
0.5817520588
 40
0.5953685304
 40
0.6090385033
 40
0.6227785339
 40
0.6366045659
 40
0.6505318007
 40
0.6645746044
 40
0.6787463906
 40
0.6930595523
 40
0.7075254102
 40
0.7221541337
 40
0.7369547395
 40
0.7670953348
 40
0.798002401
 40
0.8297054931
 40
0.8622161411
 40
0.895528933
 40
0.9296228663
 40
0.9644623568
 40
1.0
 40
1.0
 40
1.0
 40
1.0
 10
11.6222089416
 20
6.6274162027
 30
0.0
 10
11.6644160814
 20
6.6177197193
 30
0.0
 10
11.7477707587
 20
6.5962254321
 30
0.0
 10
11.8699245111
 20
6.5574859507
 30
0.0
 10
11.9878373158
 20
6.5126363353
 30
0.0
 10
12.1008962705
 20
6.4619073747
 30
0.0
 10
12.2085192151
 20
6.4055581812
 30
0.0
 10
12.3101501549
 20
6.3438765391
 30
0.0
 10
12.4052640841
 20
6.2771769818
 30
0.0
 10
12.4933684101
 20
6.2057996858
 30
0.0
 10
12.5740065753
 20
6.1301065962
 30
0.0
 10
12.6467549885
 20
6.0504876531
 30
0.0
 10
12.7008188041
 20
5.9807731592
 30
0.0
 10
12.7396566538
 20
5.9234713049
 30
0.0
 10
12.7664208122
 20
5.8800373896
 30
0.0
 10
12.7909570262
 20
5.835948717
 30
0.0
 10
12.8132339879
 20
5.7912616816
 30
0.0
 10
12.8332219819
 20
5.746034217
 30
0.0
 10
12.8508949955
 20
5.7003250375
 30
0.0
 10
12.8662297313
 20
5.6541934815
 30
0.0
 10
12.8792056896
 20
5.607699431
 30
0.0
 10
12.8898060381
 20
5.560903483
 30
0.0
 10
12.8980165153
 20
5.5138665279
 30
0.0
 10
12.9038261747
 20
5.4666499012
 30
0.0
 10
12.9072275727
 20
5.4193152313
 30
0.0
 10
12.9082158377
 20
5.3719242801
 30
0.0
 10
12.9067898536
 20
5.3245389472
 30
0.0
 10
12.9029516017
 20
5.277221081
 30
0.0
 10
12.8967058687
 20
5.2300324816
 30
0.0
 10
12.8880612997
 20
5.1830346694
 30
0.0
 10
12.8770292164
 20
5.1362889199
 30
0.0
 10
12.8636241159
 20
5.0898561578
 30
0.0
 10
12.8478640334
 20
5.0437966929
 30
0.0
 10
12.8297694766
 20
4.9981704701
 30
0.0
 10
12.8093644068
 20
4.9530366966
 30
0.0
 10
12.7866757423
 20
4.9084537565
 30
0.0
 10
12.7617331265
 20
4.8644797518
 30
0.0
 10
12.7345688512
 20
4.8211706819
 30
0.0
 10
12.6952021071
 20
4.764047992
 30
0.0
 10
12.6404959578
 20
4.6945850424
 30
0.0
 10
12.5670162356
 20
4.6153058794
 30
0.0
 10
12.4856834031
 20
4.5399883159
 30
0.0
 10
12.3969243183
 20
4.4690203557
 30
0.0
 10
12.3011989958
 20
4.402762086
 30
0.0
 10
12.1990020783
 20
4.3415510992
 30
0.0
 10
12.0908662885
 20
4.2857010005
 30
0.0
 10
12.0158774271
 20
4.2525371084
 30
0.0
 10
11.9775709624
 20
4.2368985597
 30
0.0
  0
SPLINE
  5
2D9
100
AcDbEntity
  8
0
100
AcDbSpline
 62
9
  6
CONTINUOUS
 70
0
 71
3
 72
24
 73
20
 74
0
 42
0.0000001
 43
0.0000001
 44
0.0000000001
 40
0.0
 40
0.0
 40
0.0
 40
0.0
 40
0.0618476819
 40
0.1231649867
 40
0.1840801816
 40
0.2447278683
 40
0.3052469454
 40
0.3657784
 40
0.4264630165
 40
0.4874390976
 40
0.5488402824
 40
0.6107935395
 40
0.6734173937
 40
0.736820457
 40
0.8011002637
 40
0.8663424107
 40
0.8993511181
 40
0.932626713
 40
1.0
 40
1.0
 40
1.0
 40
1.0
 10
9.461242266
 20
5.7196305429
 30
0.0
 10
9.4550888716
 20
5.7016521436
 30
0.0
 10
9.443985902
 20
5.6654426611
 30
0.0
 10
9.4310031107
 20
5.6103544987
 30
0.0
 10
9.4218025063
 20
5.5548803818
 30
0.0
 10
9.4164075458
 20
5.4991543159
 30
0.0
 10
9.414831187
 20
5.443307408
 30
0.0
 10
9.4170773035
 20
5.3874721423
 30
0.0
 10
9.42314036
 20
5.3317806933
 30
0.0
 10
9.4330055376
 20
5.2763648392
 30
0.0
 10
9.4466487996
 20
5.2213554726
 30
0.0
 10
9.464037054
 20
5.1668822274
 30
0.0
 10
9.4851281443
 20
5.1130731887
 30
0.0
 10
9.5098714323
 20
5.0600542205
 30
0.0
 10
9.5382070277
 20
5.0079501928
 30
0.0
 10
9.5646558419
 20
4.9655566845
 30
0.0
 10
9.5875112851
 20
4.9322244678
 30
0.0
 10
9.611691585
 20
4.8990277879
 30
0.0
 10
9.6309501003
 20
4.8748066161
 30
0.0
 10
9.6442636589
 20
4.8589560934
 30
0.0
  0
SPLINE
  5
2DA
100
AcDbEntity
  8
0
100
AcDbSpline
 62
9
  6
CONTINUOUS
 70
0
 71
3
 72
15
 73
11
 74
0
 42
0.0000001
 43
0.0000001
 44
0.0000000001
 40
0.0
 40
0.0
 40
0.0
 40
0.0
 40
0.1160103708
 40
0.2345941242
 40
0.3557988107
 40
0.4796298189
 40
0.6060529399
 40
0.7349972261
 40
0.8663580109
 40
1.0
 40
1.0
 40
1.0
 40
1.0
 10
9.6442636589
 20
4.8589560934
 30
0.0
 10
9.6617117883
 20
4.8381831369
 30
0.0
 10
9.6984863496
 20
4.7974073806
 30
0.0
 10
9.7582443275
 20
4.739434994
 30
0.0
 10
9.8229697688
 20
4.6842047728
 30
0.0
 10
9.8924087109
 20
4.6319312572
 30
0.0
 10
9.9662937734
 20
4.5828125973
 30
0.0
 10
10.0443405121
 20
4.5370361115
 30
0.0
 10
10.1262455306
 20
4.4947776372
 30
0.0
 10
10.1827546789
 20
4.4692643736
 30
0.0
 10
10.2115510937
 20
4.4571225461
 30
0.0
  0
SPLINE
  5
2DB
100
AcDbEntity
  8
0
100
AcDbSpline
 62
9
  6
CONTINUOUS
 70
0
 71
3
 72
13
 73
9
 74
0
 42
0.0000001
 43
0.0000001
 44
0.0000000001
 40
0.0
 40
0.0
 40
0.0
 40
0.0
 40
0.2432158378
 40
0.3668779491
 40
0.4917222083
 40
0.6176097718
 40
0.7443945968
 40
1.0
 40
1.0
 40
1.0
 40
1.0
 10
10.2115510937
 20
4.4571225461
 30
0.0
 10
10.2595634909
 20
4.4368784203
 30
0.0
 10
10.3333042155
 20
4.409351509
 30
0.0
 10
10.4340051058
 20
4.3783613886
 30
0.0
 10
10.5115400498
 20
4.3577403462
 30
0.0
 10
10.5904526582
 20
4.3399275009
 30
0.0
 10
10.6975101458
 20
4.3199299942
 30
0.0
 10
10.7788445291
 20
4.3093582539
 30
0.0
 10
10.8333667523
 20
4.3042595779
 30
0.0
  0
SPLINE
  5
2DC
100
AcDbEntity
  8
0
100
AcDbSpline
 62
9
  6
CONTINUOUS
 70
0
 71
3
 72
13
 73
9
 74
0
 42
0.0000001
 43
0.0000001
 44
0.0000000001
 40
0.0
 40
0.0
 40
0.0
 40
0.0
 40
0.2553101934
 40
0.3819962847
 40
0.5078323122
 40
0.6326821416
 40
0.7564138655
 40
1.0
 40
1.0
 40
1.0
 40
1.0
 10
11.2613461582
 20
4.3042667406
 30
0.0
 10
11.3139800336
 20
4.3091906184
 30
0.0
 10
11.3925134168
 20
4.3193015948
 30
0.0
 10
11.4959519425
 20
4.3382825053
 30
0.0
 10
11.5722664553
 20
4.355145562
 30
0.0
 10
11.6473230436
 20
4.3746311573
 30
0.0
 10
11.7449552277
 20
4.4038876309
 30
0.0
 10
11.8165561777
 20
4.4298297163
 30
0.0
 10
11.8632509719
 20
4.4488927861
 30
0.0
  0
SPLINE
  5
2DD
100
AcDbEntity
  8
0
100
AcDbSpline
 62
9
  6
CONTINUOUS
 70
0
 71
3
 72
11
 73
7
 74
0
 42
0.0000001
 43
0.0000001
 44
0.0000000001
 40
0.0
 40
0.0
 40
0.0
 40
0.0
 40
0.2451723264
 40
0.493843211
 40
0.7456026613
 40
1.0
 40
1.0
 40
1.0
 40
1.0
 10
11.9775709624
 20
4.2368985597
 30
0.0
 10
11.9427382101
 20
4.2226781481
 30
0.0
 10
11.8718129804
 20
4.1958675867
 30
0.0
 10
11.7628392815
 20
4.1608429215
 30
0.0
 10
11.6509115987
 20
4.1308426834
 30
0.0
 10
11.5749738417
 20
4.1143494803
 30
0.0
 10
11.5366401827
 20
4.1069603331
 30
0.0
  0
SPLINE
  5
2DE
100
AcDbEntity
  8
0
100
AcDbSpline
 62
9
  6
CONTINUOUS
 70
0
 71
3
 72
10
 73
6
 74
0
 42
0.0000001
 43
0.0000001
 44
0.0000000001
 40
0.0
 40
0.0
 40
0.0
 40
0.0
 40
0.2486994578
 40
0.6237228523
 40
1.0
 40
1.0
 40
1.0
 40
1.0
 10
11.4522433437
 20
4.092181093
 30
0.0
 10
11.4183537282
 20
4.0868375365
 30
0.0
 10
11.3330814809
 20
4.0751579891
 30
0.0
 10
11.1955612197
 20
4.0632871306
 30
0.0
 10
11.0918849559
 20
4.0605101944
 30
0.0
 10
11.039977404
 20
4.0606550724
 30
0.0
  0
SPLINE
  5
2DF
100
AcDbEntity
  8
0
100
AcDbSpline
 62
9
  6
CONTINUOUS
 70
0
 71
3
 72
56
 73
52
 74
0
 42
0.0000001
 43
0.0000001
 44
0.0000000001
 40
0.0
 40
0.0
 40
0.0
 40
0.0
 40
0.037357861
 40
0.0745854802
 40
0.1115608201
 40
0.148166135
 40
0.184290088
 40
0.2198299512
 40
0.2546938089
 40
0.2888028737
 40
0.3220938257
 40
0.3384204603
 40
0.3545271615
 40
0.3704114412
 40
0.3860722113
 40
0.4015098563
 40
0.4167263111
 40
0.4317250991
 40
0.4465113741
 40
0.4610919702
 40
0.4754754203
 40
0.4896719457
 40
0.503693445
 40
0.5175534657
 40
0.5312671254
 40
0.5448510152
 40
0.5583230873
 40
0.5717025005
 40
0.5850094339
 40
0.5982648828
 40
0.6114904359
 40
0.6247080271
 40
0.637939683
 40
0.6512072658
 40
0.664532222
 40
0.6779353455
 40
0.6914365539
 40
0.7050546827
 40
0.7188073211
 40
0.7327106697
 40
0.7467794152
 40
0.7610266468
 40
0.7754638079
 40
0.7901006574
 40
0.8049452455
 40
0.8352741468
 40
0.8664896124
 40
0.898597585
 40
0.9315807155
 40
0.9654004138
 40
1.0
 40
1.0
 40
1.0
 40
1.0
 10
11.039977404
 20
4.0606550724
 30
0.0
 10
10.9893561357
 20
4.0607963602
 30
0.0
 10
10.8882737369
 20
4.0639942354
 30
0.0
 10
10.7376287687
 20
4.0775169234
 30
0.0
 10
10.5890335993
 20
4.0996733445
 30
0.0
 10
10.443480706
 20
4.1303170101
 30
0.0
 10
10.301933855
 20
4.1692463741
 30
0.0
 10
10.165332638
 20
4.2162045936
 30
0.0
 10
10.0345816403
 20
4.270884031
 30
0.0
 10
9.9105529975
 20
4.3329227054
 30
0.0
 10
9.8128423553
 20
4.3907961172
 30
0.0
 10
9.7388780687
 20
4.4404352707
 30
0.0
 10
9.6859391728
 20
4.4789884636
 30
0.0
 10
9.6352689913
 20
4.5190388548
 30
0.0
 10
9.5869513073
 20
4.5605206171
 30
0.0
 10
9.5410671019
 20
4.6033648907
 30
0.0
 10
9.4976929103
 20
4.6475005498
 30
0.0
 10
9.4569012912
 20
4.6928543653
 30
0.0
 10
9.4187606887
 20
4.7393511804
 30
0.0
 10
9.3833350813
 20
4.7869137867
 30
0.0
 10
9.3506839237
 20
4.8354631226
 30
0.0
 10
9.320862265
 20
4.8849185187
 30
0.0
 10
9.2939205866
 20
4.935197736
 30
0.0
 10
9.2699043693
 20
4.9862169192
 30
0.0
 10
9.248854361
 20
5.0378909348
 30
0.0
 10
9.2308065557
 20
5.090133473
 30
0.0
 10
9.2157917582
 20
5.1428570526
 30
0.0
 10
9.2038355655
 20
5.1959732328
 30
0.0
 10
9.1949585682
 20
5.2493928304
 30
0.0
 10
9.1891761921
 20
5.3030260232
 30
0.0
 10
9.1864982399
 20
5.3567825004
 30
0.0
 10
9.1869293004
 20
5.4105717282
 30
0.0
 10
9.190468785
 20
5.4643030875
 30
0.0
 10
9.1971105582
 20
5.517886073
 30
0.0
 10
9.2068430414
 20
5.5712305252
 30
0.0
 10
9.2196495517
 20
5.6242467687
 30
0.0
 10
9.2355082475
 20
5.6768457576
 30
0.0
 10
9.2543918204
 20
5.7289393683
 30
0.0
 10
9.2762680132
 20
5.7804404512
 30
0.0
 10
9.3010997389
 20
5.8312629209
 30
0.0
 10
9.3288448241
 20
5.8813219903
 30
0.0
 10
9.3594562741
 20
5.9305344041
 30
0.0
 10
9.3928822499
 20
5.9788180385
 30
0.0
 10
9.4290674728
 20
6.0260934723
 30
0.0
 10
9.4812773718
 20
6.0881130975
 30
0.0
 10
9.5532803395
 20
6.1626806684
 30
0.0
 10
9.6489833125
 20
6.2462322587
 30
0.0
 10
9.7539726525
 20
6.3239644939
 30
0.0
 10
9.8675448616
 20
6.3953650609
 30
0.0
 10
9.9889392186
 20
6.4599665104
 30
0.0
 10
10.0736596686
 20
6.4978223768
 30
0.0
 10
10.1170657142
 20
6.5155428207
 30
0.0
  0
SPLINE
  5
2E0
100
AcDbEntity
  8
0
100
AcDbSpline
 62
7
  6
CONTINUOUS
 70
0
 71
3
 72
28
 73
24
 74
0
 42
0.0000001
 43
0.0000001
 44
0.0000000001
 40
0.0
 40
0.0
 40
0.0
 40
0.0
 40
0.0260054058
 40
0.0521256149
 40
0.0784111205
 40
0.1049099465
 40
0.1316670103
 40
0.1587236833
 40
0.1861172036
 40
0.213880569
 40
0.2420419468
 40
0.270624919
 40
0.2996481866
 40
0.3291256947
 40
0.3894584388
 40
0.4516615567
 40
0.5156870467
 40
0.5814261774
 40
0.6487174898
 40
0.7173543243
 40
0.78709278
 40
0.8576597564
 40
1.0
 40
1.0
 40
1.0
 40
1.0
 10
11.4529368101
 20
7.2183034504
 30
0.0
 10
11.4525789495
 20
7.2136420793
 30
0.0
 10
11.4515574404
 20
7.2043193091
 30
0.0
 10
11.4491200423
 20
7.1904260352
 30
0.0
 10
11.4457807068
 20
7.1766298328
 30
0.0
 10
11.441547033
 20
7.1629618322
 30
0.0
 10
11.4364291254
 20
7.1494516398
 30
0.0
 10
11.4304383191
 20
7.1361290082
 30
0.0
 10
11.4235888302
 20
7.1230227049
 30
0.0
 10
11.4158958276
 20
7.110161472
 30
0.0
 10
11.4073771939
 20
7.0975729305
 30
0.0
 10
11.3980520408
 20
7.0852845687
 30
0.0
 10
11.3879413065
 20
7.0733225477
 30
0.0
 10
11.3733326978
 20
7.0577244329
 30
0.0
 10
11.3531845301
 20
7.0391936957
 30
0.0
 10
11.3264726
 20
7.0188408204
 30
0.0
 10
11.2972747449
 20
7.0003655118
 30
0.0
 10
11.2658533795
 20
6.9839239947
 30
0.0
 10
11.2324876776
 20
6.9696527419
 30
0.0
 10
11.1974756918
 20
6.9576704098
 30
0.0
 10
11.1611249391
 20
6.9480748423
 30
0.0
 10
11.1111866719
 20
6.9385435675
 30
0.0
 10
11.0729022226
 20
6.9352219027
 30
0.0
 10
11.0473183383
 20
6.9347087464
 30
0.0
  0
SPLINE
  5
2E1
100
AcDbEntity
  8
0
100
AcDbSpline
 62
7
  6
CONTINUOUS
 70
0
 71
3
 72
19
 73
15
 74
0
 42
0.0000001
 43
0.0000001
 44
0.0000000001
 40
0.0
 40
0.0
 40
0.0
 40
0.0
 40
0.0579658353
 40
0.1160590071
 40
0.1744049335
 40
0.2331251494
 40
0.2923356334
 40
0.3521453525
 40
0.4126546858
 40
0.4739546111
 40
0.5991876295
 40
0.728413325
 40
0.861963477
 40
1.0
 40
1.0
 40
1.0
 40
1.0
 10
11.622318338
 20
6.6208627351
 30
0.0
 10
11.6223183437
 20
6.6144981971
 30
0.0
 10
11.621894574
 20
6.6017511033
 30
0.0
 10
11.6199901567
 20
6.5826833694
 30
0.0
 10
11.6168209465
 20
6.5636999715
 30
0.0
 10
11.6123941444
 20
6.5448443579
 30
0.0
 10
11.6067201274
 20
6.5261580358
 30
0.0
 10
11.5998116497
 20
6.5076827695
 30
0.0
 10
11.5916841209
 20
6.4894588063
 30
0.0
 10
11.5791608303
 20
6.465382611
 30
0.0
 10
11.5604632069
 20
6.4360891043
 30
0.0
 10
11.5336783983
 20
6.402858118
 30
0.0
 10
11.5026274367
 20
6.3715719043
 30
0.0
 10
11.4796385324
 20
6.3524994918
 30
0.0
 10
11.4675552138
 20
6.3433506016
 30
0.0
  0
SPLINE
  5
2E2
100
AcDbEntity
  8
0
100
AcDbSpline
 62
7
  6
CONTINUOUS
 70
0
 71
3
 72
27
 73
23
 74
0
 42
0.0000001
 43
0.0000001
 44
0.0000000001
 40
0.0
 40
0.0
 40
0.0
 40
0.0
 40
0.0274406537
 40
0.0549858154
 40
0.08265745
 40
0.1104767629
 40
0.1666281663
 40
0.2236024831
 40
0.2815333167
 40
0.310898635
 40
0.3405441675
 40
0.4007099409
 40
0.462112545
 40
0.4932985375
 40
0.5248113645
 40
0.5888219317
 40
0.6541634732
 40
0.7208288025
 40
0.7887932136
 40
0.8580160278
 40
0.9284411411
 40
1.0
 40
1.0
 40
1.0
 40
1.0
 10
13.1858124183
 20
4.7411233299
 30
0.0
 10
13.1836307737
 20
4.726231029
 30
0.0
 10
13.1786412909
 20
4.6964765278
 30
0.0
 10
13.1693141677
 20
4.6520964458
 30
0.0
 10
13.1581386884
 20
4.607929759
 30
0.0
 10
13.1407368851
 20
4.549204189
 30
0.0
 10
13.1143425648
 20
4.4764473086
 30
0.0
 10
13.0755703009
 20
4.3909128774
 30
0.0
 10
13.0375422988
 20
4.3214273017
 30
0.0
 10
13.0037413159
 20
4.2668999122
 30
0.0
 10
12.9673385794
 20
4.212590506
 30
0.0
 10
12.917556692
 20
4.1461634434
 30
0.0
 10
12.8628863445
 20
4.0825878215
 30
0.0
 10
12.8160713214
 20
4.033159241
 30
0.0
 10
12.7667053631
 20
3.9842235223
 30
0.0
 10
12.7011757248
 20
3.9250488567
 30
0.0
 10
12.6172092199
 20
3.8578037474
 30
0.0
 10
12.5277918494
 20
3.7941812638
 30
0.0
 10
12.433236804
 20
3.7344022702
 30
0.0
 10
12.3338713444
 20
3.6786718537
 30
0.0
 10
12.2300437095
 20
3.6271831853
 30
0.0
 10
12.1586255095
 20
3.5960371493
 30
0.0
 10
12.122286909
 20
3.5812019778
 30
0.0
  0
SPLINE
  5
2E3
100
AcDbEntity
  8
0
100
AcDbSpline
 62
9
  6
CONTINUOUS
 70
0
 71
3
 72
28
 73
24
 74
0
 42
0.0000001
 43
0.0000001
 44
0.0000000001
 40
0.0
 40
0.0
 40
0.0
 40
0.0
 40
0.0251805018
 40
0.0504416358
 40
0.0758622355
 40
0.1015176242
 40
0.1274781311
 40
0.1538078116
 40
0.1805633849
 40
0.2077935874
 40
0.2355387597
 40
0.2638305645
 40
0.3221116912
 40
0.3827509861
 40
0.4457093991
 40
0.510839378
 40
0.5779014414
 40
0.6465809625
 40
0.7165047541
 40
0.7872567936
 40
0.8583936443
 40
0.9294585962
 40
1.0
 40
1.0
 40
1.0
 40
1.0
 10
10.5948183883
 20
6.909271898
 30
0.0
 10
10.5948183856
 20
6.9032196718
 30
0.0
 10
10.5953057497
 20
6.8910902403
 30
0.0
 10
10.5974952838
 20
6.8729698873
 30
0.0
 10
10.6011363055
 20
6.8549672649
 30
0.0
 10
10.6062162218
 20
6.8371426303
 30
0.0
 10
10.6127178712
 20
6.8195534855
 30
0.0
 10
10.6206195654
 20
6.8022569412
 30
0.0
 10
10.6298948592
 20
6.7853086105
 30
0.0
 10
10.6405128893
 20
6.7687629898
 30
0.0
 10
10.652439424
 20
6.7526725726
 30
0.0
 10
10.670205563
 20
6.7316911233
 30
0.0
 10
10.6955762783
 20
6.706893637
 30
0.0
 10
10.7301997898
 20
6.6800662633
 30
0.0
 10
10.7688647128
 20
6.6561930193
 30
0.0
 10
10.8110735295
 20
6.6355730923
 30
0.0
 10
10.8562895914
 20
6.6184615268
 30
0.0
 10
10.9039372691
 20
6.6050720477
 30
0.0
 10
10.9534105777
 20
6.5955727408
 30
0.0
 10
11.0040794291
 20
6.5900827283
 30
0.0
 10
11.0552997531
 20
6.5886715872
 30
0.0
 10
11.1064149661
 20
6.5913561332
 30
0.0
 10
11.1401935356
 20
6.5958818867
 30
0.0
 10
11.1568904109
 20
6.5988284967
 30
0.0
  0
SPLINE
  5
2E4
100
AcDbEntity
  8
0
100
AcDbSpline
 62
7
  6
CONTINUOUS
 70
0
 71
3
 72
28
 73
24
 74
0
 42
0.0000001
 43
0.0000001
 44
0.0000000001
 40
0.0
 40
0.0
 40
0.0
 40
0.0
 40
0.0260006886
 40
0.0521212923
 40
0.0784116658
 40
0.1049191717
 40
0.1316880326
 40
0.1587589594
 40
0.1861684958
 40
0.2139489649
 40
0.2421279256
 40
0.2707283728
 40
0.2997685185
 40
0.3292618067
 40
0.3896214726
 40
0.4518431197
 40
0.5158771501
 40
0.5816142059
 40
0.6488929371
 40
0.71750747
 40
0.7872152548
 40
0.8577449371
 40
1.0
 40
1.0
 40
1.0
 40
1.0
 10
11.4528107502
 20
7.268000742
 30
0.0
 10
11.4524201635
 20
7.2633563877
 30
0.0
 10
11.451335312
 20
7.2540688739
 30
0.0
 10
11.4488099923
 20
7.2402326814
 30
0.0
 10
11.4453898747
 20
7.2264960207
 30
0.0
 10
11.4410825067
 20
7.2128897105
 30
0.0
 10
11.4358982175
 20
7.1994429639
 30
0.0
 10
11.4298483332
 20
7.1861852025
 30
0.0
 10
11.4229471105
 20
7.1731448406
 30
0.0
 10
11.4152097681
 20
7.1603502468
 30
0.0
 10
11.4066540717
 20
7.1478287549
 30
0.0
 10
11.3972991808
 20
7.135607433
 30
0.0
 10
11.387165838
 20
7.1237122001
 30
0.0
 10
11.3725368246
 20
7.1082033725
 30
0.0
 10
11.3523813155
 20
7.0897820443
 30
0.0
 10
11.3256860253
 20
7.0695522111
 30
0.0
 10
11.2965290746
 20
7.0511912885
 30
0.0
 10
11.2651706675
 20
7.0348534518
 30
0.0
 10
11.2318874672
 20
7.0206733695
 30
0.0
 10
11.1969747174
 20
7.0087681153
 30
0.0
 10
11.1607369363
 20
6.9992342095
 30
0.0
 10
11.1109646607
 20
6.9897635329
 30
0.0
 10
11.0728131009
 20
6.9864607862
 30
0.0
 10
11.0473183383
 20
6.9859484935
 30
0.0
  0
SPLINE
  5
2E5
100
AcDbEntity
  8
0
100
AcDbSpline
 62
9
  6
CONTINUOUS
 70
0
 71
3
 72
53
 73
49
 74
0
 42
0.0000001
 43
0.0000001
 44
0.0000000001
 40
0.0
 40
0.0
 40
0.0
 40
0.0
 40
0.0133232384
 40
0.0265200256
 40
0.039604396
 40
0.0525914004
 40
0.0654969987
 40
0.0783379182
 40
0.0911315122
 40
0.103895602
 40
0.1166483
 40
0.1294078318
 40
0.1421923544
 40
0.1550197784
 40
0.1679075916
 40
0.1808726908
 40
0.1939312396
 40
0.2070985313
 40
0.2203888617
 40
0.233815447
 40
0.2473903421
 40
0.2611243662
 40
0.2750270802
 40
0.289106761
 40
0.3178171884
 40
0.3324643945
 40
0.3473087189
 40
0.3623520615
 40
0.3775951417
 40
0.3930375154
 40
0.4086776421
 40
0.4405351316
 40
0.4731401636
 40
0.5064459301
 40
0.5403929823
 40
0.5749109048
 40
0.6099199879
 40
0.6453328203
 40
0.68105586
 40
0.7169909798
 40
0.7530369658
 40
0.7890910094
 40
0.8250501868
 40
0.8608129373
 40
0.8962805547
 40
0.9313586978
 40
0.9659586813
 40
1.0
 40
1.0
 40
1.0
 40
1.0
 10
9.1506808899
 20
5.4544952049
 30
0.0
 10
9.142633001
 20
5.4376741947
 30
0.0
 10
9.1274191539
 20
5.4037989706
 30
0.0
 10
9.1072315726
 20
5.352152177
 30
0.0
 10
9.0898203522
 20
5.2999983248
 30
0.0
 10
9.0752116855
 20
5.247413808
 30
0.0
 10
9.0634265549
 20
5.1944738419
 30
0.0
 10
9.0544824315
 20
5.1412546637
 30
0.0
 10
9.0483925501
 20
5.0878328957
 30
0.0
 10
9.0451656353
 20
5.0342855805
 30
0.0
 10
9.0448065548
 20
4.980689924
 30
0.0
 10
9.0473159757
 20
4.9271232571
 30
0.0
 10
9.0526899535
 20
4.8736628348
 30
0.0
 10
9.0609206715
 20
4.8203857261
 30
0.0
 10
9.0719961934
 20
4.767368724
 30
0.0
 10
9.0859000206
 20
4.7146880857
 30
0.0
 10
9.102611855
 20
4.6624195405
 30
0.0
 10
9.1221074484
 20
4.6106381994
 30
0.0
 10
9.1443581535
 20
4.5594182201
 30
0.0
 10
9.1693316246
 20
4.5088329657
 30
0.0
 10
9.1969918772
 20
4.4589547943
 30
0.0
 10
9.2272983718
 20
4.409855176
 30
0.0
 10
9.26020843
 20
4.3616029603
 30
0.0
 10
9.3077975457
 20
4.2980858835
 30
0.0
 10
9.3601747014
 20
4.2369512034
 30
0.0
 10
9.4168696798
 20
4.1784382514
 30
0.0
 10
9.4620109937
 20
4.1354315885
 30
0.0
 10
9.5094166434
 20
4.0936655417
 30
0.0
 10
9.5590201715
 20
4.0531980479
 30
0.0
 10
9.610750789
 20
4.0140865849
 30
0.0
 10
9.682897856
 20
3.9635148637
 30
0.0
 10
9.7780615971
 20
3.9040634509
 30
0.0
 10
9.8987804176
 20
3.839434869
 30
0.0
 10
10.0260415789
 20
3.7814405167
 30
0.0
 10
10.1591163923
 20
3.7304100876
 30
0.0
 10
10.2972484297
 20
3.6866306864
 30
0.0
 10
10.4396511753
 20
3.6503501228
 30
0.0
 10
10.5855140713
 20
3.6217736215
 30
0.0
 10
10.7340066354
 20
3.6010628519
 30
0.0
 10
10.8842833988
 20
3.5883353554
 30
0.0
 10
11.0354886002
 20
3.5836632248
 30
0.0
 10
11.1867611785
 20
3.5870728248
 30
0.0
 10
11.3372396304
 20
3.598545017
 30
0.0
 10
11.4860671921
 20
3.6180147111
 30
0.0
 10
11.6323959924
 20
3.6453712814
 30
0.0
 10
11.7753944379
 20
3.6804607709
 30
0.0
 10
11.9142422988
 20
3.7230815769
 30
0.0
 10
12.0043262872
 20
3.7566594873
 30
0.0
 10
12.0484360611
 20
3.774667227
 30
0.0
  0
SPLINE
  5
2E6
100
AcDbEntity
  8
0
100
AcDbSpline
 62
9
  6
CONTINUOUS
 70
0
 71
3
 72
25
 73
21
 74
0
 42
0.0000001
 43
0.0000001
 44
0.0000000001
 40
0.0
 40
0.0
 40
0.0
 40
0.0
 40
0.0282675409
 40
0.0565574792
 40
0.084892091
 40
0.1132934036
 40
0.1417830797
 40
0.1703823026
 40
0.2279804847
 40
0.28625487
 40
0.3453477287
 40
0.4053853696
 40
0.466476563
 40
0.528711557
 40
0.5921616264
 40
0.6568790728
 40
0.7228975883
 40
0.7902328982
 40
0.8588836075
 40
1.0
 40
1.0
 40
1.0
 40
1.0
 10
9.14231838
 20
5.1983375589
 30
0.0
 10
9.1423184006
 20
5.1856894575
 30
0.0
 10
9.1428226136
 20
5.1603803361
 30
0.0
 10
9.1450910831
 20
5.1224542632
 30
0.0
 10
9.1488696553
 20
5.0845880014
 30
0.0
 10
9.1541554741
 20
5.0468127132
 30
0.0
 10
9.1609443279
 20
5.0091575938
 30
0.0
 10
9.1720171654
 20
4.9590395564
 30
0.0
 10
9.1896346525
 20
4.8967714092
 30
0.0
 10
9.2166277757
 20
4.8232090539
 30
0.0
 10
9.2494361807
 20
4.7508501139
 30
0.0
 10
9.2879515493
 20
4.6799276837
 30
0.0
 10
9.3320483812
 20
4.6106653851
 30
0.0
 10
9.38158378
 20
4.5432819826
 30
0.0
 10
9.4363981126
 20
4.4779895581
 30
0.0
 10
9.4963159161
 20
4.4149931266
 30
0.0
 10
9.5611447612
 20
4.3544911686
 30
0.0
 10
9.6306822662
 20
4.2966708264
 30
0.0
 10
9.7302683576
 20
4.2227352726
 30
0.0
 10
9.8100485347
 20
4.1728800305
 30
0.0
 10
9.8651496442
 20
4.1420463712
 30
0.0
  0
SPLINE
  5
2E7
100
AcDbEntity
  8
0
100
AcDbSpline
 62
9
  6
CONTINUOUS
 70
0
 71
3
 72
23
 73
19
 74
0
 42
0.0000001
 43
0.0000001
 44
0.0000000001
 40
0.0
 40
0.0
 40
0.0
 40
0.0
 40
0.0584999507
 40
0.1182126263
 40
0.1790307128
 40
0.240828731
 40
0.3034657828
 40
0.3667882808
 40
0.4306325811
 40
0.4948275477
 40
0.5591971024
 40
0.6235627306
 40
0.6877459718
 40
0.7515709128
 40
0.8148666956
 40
0.8774701169
 40
0.9392276395
 40
1.0
 40
1.0
 40
1.0
 40
1.0
 10
9.8651496442
 20
4.1420463712
 30
0.0
 10
9.9026812213
 20
4.1210443284
 30
0.0
 10
9.9799427126
 20
4.0810958881
 30
0.0
 10
10.1004767416
 20
4.0280305693
 30
0.0
 10
10.2262548207
 20
3.9814560709
 30
0.0
 10
10.356574638
 20
3.9416318654
 30
0.0
 10
10.4907170391
 20
3.9087756157
 30
0.0
 10
10.6279394167
 20
3.8830683204
 30
0.0
 10
10.7674826823
 20
3.8646515622
 30
0.0
 10
10.908574602
 20
3.8536266963
 30
0.0
 10
11.050434371
 20
3.8500543974
 30
0.0
 10
11.1922769031
 20
3.8539544884
 30
0.0
 10
11.3333171575
 20
3.8653054457
 30
0.0
 10
11.4727747433
 20
3.8840446639
 30
0.0
 10
11.609877551
 20
3.9100688168
 30
0.0
 10
11.743868338
 20
3.9432354431
 30
0.0
 10
11.874000252
 20
3.9833593137
 30
0.0
 10
11.9584537739
 20
4.0148810562
 30
0.0
 10
11.9998183383
 20
4.0317680689
 30
0.0
  0
SPLINE
  5
2E8
100
AcDbEntity
  8
0
100
AcDbSpline
 62
9
  6
CONTINUOUS
 70
0
 71
3
 72
44
 73
40
 74
0
 42
0.0000001
 43
0.0000001
 44
0.0000000001
 40
0.0
 40
0.0
 40
0.0
 40
0.0
 40
0.0124257407
 40
0.0248647668
 40
0.0373302619
 40
0.0498352151
 40
0.0623923264
 40
0.0750139104
 40
0.0877118319
 40
0.1004974033
 40
0.1133813543
 40
0.1263737347
 40
0.1394839044
 40
0.1527204636
 40
0.1795980136
 40
0.2070649247
 40
0.2351610732
 40
0.2639133175
 40
0.2933358774
 40
0.3234309395
 40
0.354189417
 40
0.3855918012
 40
0.417609066
 40
0.4502035941
 40
0.4833301034
 40
0.5169365629
 40
0.5509650916
 40
0.5853528384
 40
0.6200328427
 40
0.6549348783
 40
0.6899862823
 40
0.7251127737
 40
0.7602392648
 40
0.7952906683
 40
0.8301927024
 40
0.8648727116
 40
0.8992604421
 40
0.9332890295
 40
1.0
 40
1.0
 40
1.0
 40
1.0
 10
9.4273183795
 20
5.4611215783
 30
0.0
 10
9.4273183567
 20
5.4486248559
 30
0.0
 10
9.4278974388
 20
5.4236141917
 30
0.0
 10
9.4305018327
 20
5.3861483969
 30
0.0
 10
9.434839387
 20
5.348762566
 30
0.0
 10
9.4409051734
 20
5.3114979927
 30
0.0
 10
9.448692884
 20
5.2743945709
 30
0.0
 10
9.4581935784
 20
5.2374921905
 30
0.0
 10
9.4693974121
 20
5.2008306387
 30
0.0
 10
9.4822916524
 20
5.1644491408
 30
0.0
 10
9.4968627942
 20
5.1283868733
 30
0.0
 10
9.5130945182
 20
5.0926824995
 30
0.0
 10
9.5309699262
 20
5.0573738046
 30
0.0
 10
9.5570986259
 20
5.0106414176
 30
0.0
 10
9.5938571971
 20
4.9533793136
 30
0.0
 10
9.6439567141
 20
4.8872195081
 30
0.0
 10
9.7000571229
 20
4.8235333363
 30
0.0
 10
9.7619135085
 20
4.7625933107
 30
0.0
 10
9.8292596941
 20
4.7046556558
 30
0.0
 10
9.9018063074
 20
4.6499650966
 30
0.0
 10
9.9792426318
 20
4.5987524132
 30
0.0
 10
10.0612375256
 20
4.5512339655
 30
0.0
 10
10.1474407367
 20
4.5076106624
 30
0.0
 10
10.2374842671
 20
4.4680671424
 30
0.0
 10
10.3309838532
 20
4.4327709416
 30
0.0
 10
10.4275405375
 20
4.4018717415
 30
0.0
 10
10.526742326
 20
4.3755006854
 30
0.0
 10
10.6281659189
 20
4.3537697785
 30
0.0
 10
10.7313785033
 20
4.336771374
 30
0.0
 10
10.8359395945
 20
4.3245777471
 30
0.0
 10
10.9414029234
 20
4.3172407674
 30
0.0
 10
11.0473183321
 20
4.3147916424
 30
0.0
 10
11.1532337688
 20
4.3172407949
 30
0.0
 10
11.258697007
 20
4.3245777617
 30
0.0
 10
11.3632584193
 20
4.3367714756
 30
0.0
 10
11.4664698209
 20
4.3537695192
 30
0.0
 10
11.5678977792
 20
4.3755017061
 30
0.0
 10
11.6992678056
 20
4.4104233334
 30
0.0
 10
11.7952031652
 20
4.4437198192
 30
0.0
 10
11.8573183383
 20
4.4690782324
 30
0.0
  0
SPLINE
  5
2E9
100
AcDbEntity
  8
0
100
AcDbSpline
 62
9
  6
CONTINUOUS
 70
0
 71
3
 72
22
 73
18
 74
0
 42
0.0000001
 43
0.0000001
 44
0.0000000001
 40
0.0
 40
0.0
 40
0.0
 40
0.0
 40
0.056548967
 40
0.1132764586
 40
0.1703570786
 40
0.2279577973
 40
0.2862346276
 40
0.3453298252
 40
0.4053696895
 40
0.4664629862
 40
0.5286999639
 40
0.5921519026
 40
0.6568711134
 40
0.7228913034
 40
0.7902282107
 40
0.8588804769
 40
1.0
 40
1.0
 40
1.0
 40
1.0
 10
12.9523182965
 20
5.1983375589
 30
0.0
 10
12.9523183377
 20
5.1730388072
 30
0.0
 10
12.9502955121
 20
5.1223383616
 30
0.0
 10
12.9412081356
 20
5.0465917701
 30
0.0
 10
12.9260965265
 20
4.9713301508
 30
0.0
 10
12.9050114487
 20
4.8968019481
 30
0.0
 10
12.8780232158
 20
4.823244254
 30
0.0
 10
12.845221184
 20
4.75089222
 30
0.0
 10
12.8067131225
 20
4.6799755702
 30
0.0
 10
12.762624622
 20
4.6107187699
 30
0.0
 10
12.7130984861
 20
4.543340276
 30
0.0
 10
12.6582942977
 20
4.4780521828
 30
0.0
 10
12.598387451
 20
4.4150594327
 30
0.0
 10
12.5335703034
 20
4.3545604646
 30
0.0
 10
12.4640451591
 20
4.2967423672
 30
0.0
 10
12.3644764792
 20
4.2228087779
 30
0.0
 10
12.284709782
 20
4.1729537454
 30
0.0
 10
12.2296178077
 20
4.1421196169
 30
0.0
  0
SPLINE
  5
2EA
100
AcDbEntity
  8
0
100
AcDbSpline
 62
9
  6
CONTINUOUS
 70
0
 71
3
 72
9
 73
5
 74
0
 42
0.0000001
 43
0.0000001
 44
0.0000000001
 40
0.0
 40
0.0
 40
0.0
 40
0.0
 40
0.2462366076
 40
1.0
 40
1.0
 40
1.0
 40
1.0
 10
12.2296178077
 20
4.1421196169
 30
0.0
 10
12.2113527896
 20
4.1318969679
 30
0.0
 10
12.1365127653
 20
4.0915741796
 30
0.0
 10
12.0591384986
 20
4.0559854229
 30
0.0
 10
11.9998183383
 20
4.0317680689
 30
0.0
  0
SPLINE
  5
2EB
100
AcDbEntity
  8
0
100
AcDbSpline
 62
9
  6
CONTINUOUS
 70
0
 71
3
 72
29
 73
25
 74
0
 42
0.0000001
 43
0.0000001
 44
0.0000000001
 40
0.0
 40
0.0
 40
0.0
 40
0.0
 40
0.0276002701
 40
0.0552300495
 40
0.0829186234
 40
0.1106948407
 40
0.1385869141
 40
0.1666221949
 40
0.1948270359
 40
0.2232265719
 40
0.2518446202
 40
0.2807035276
 40
0.3098240543
 40
0.3392253361
 40
0.3989262105
 40
0.459936184
 40
0.5223438336
 40
0.5862088208
 40
0.6515627258
 40
0.7184104107
 40
0.7867316391
 40
0.8564832799
 40
0.927600217
 40
1.0
 40
1.0
 40
1.0
 40
1.0
 10
12.9523182965
 20
5.3277726261
 30
0.0
 10
12.9523183205
 20
5.3130774062
 30
0.0
 10
12.9516373525
 20
5.2836667184
 30
0.0
 10
12.9485748051
 20
5.2396097164
 30
0.0
 10
12.9434741325
 20
5.1956467522
 30
0.0
 10
12.9363412414
 20
5.1518263706
 30
0.0
 10
12.9271834676
 20
5.1081954941
 30
0.0
 10
12.9160113177
 20
5.0648010397
 30
0.0
 10
12.9028365152
 20
5.021689744
 30
0.0
 10
12.8876737283
 20
4.978907842
 30
0.0
 10
12.8705392888
 20
4.9365012247
 30
0.0
 10
12.8514518357
 20
4.8945155971
 30
0.0
 10
12.8304318167
 20
4.8529951156
 30
0.0
 10
12.7997062792
 20
4.7980413588
 30
0.0
 10
12.7564810088
 20
4.7307053179
 30
0.0
 10
12.6975676902
 20
4.6529062861
 30
0.0
 10
12.6315977812
 20
4.578016053
 30
0.0
 10
12.5588592261
 20
4.506355111
 30
0.0
 10
12.4796650788
 20
4.4382247421
 30
0.0
 10
12.3943555732
 20
4.3739127189
 30
0.0
 10
12.3032963249
 20
4.3136904076
 30
0.0
 10
12.2068758818
 20
4.2578120946
 30
0.0
 10
12.1055097496
 20
4.2065151748
 30
0.0
 10
12.0355067014
 20
4.1757728493
 30
0.0
 10
11.9998183383
 20
4.1612031361
 30
0.0
  0
SPLINE
  5
2EC
100
AcDbEntity
  8
0
100
AcDbSpline
 62
7
  6
CONTINUOUS
 70
0
 71
3
 72
11
 73
7
 74
0
 42
0.0000001
 43
0.0000001
 44
0.0000000001
 40
0.0
 40
0.0
 40
0.0
 40
0.0
 40
0.2451154195
 40
0.4928994654
 40
0.7442583843
 40
1.0
 40
1.0
 40
1.0
 40
1.0
 10
10.5874550763
 20
6.6062364094
 30
0.0
 10
10.5885431437
 20
6.6134106292
 30
0.0
 10
10.5914013904
 20
6.6277440396
 30
0.0
 10
10.59765838
 20
6.6488990612
 30
0.0
 10
10.6058736725
 20
6.669710896
 30
0.0
 10
10.6125691336
 20
6.683170132
 30
0.0
 10
10.6162149623
 20
6.6898052991
 30
0.0
  0
SPLINE
  5
2ED
100
AcDbEntity
  8
0
100
AcDbSpline
 62
7
  6
CONTINUOUS
 70
0
 71
3
 72
9
 73
5
 74
0
 42
0.0000001
 43
0.0000001
 44
0.0000000001
 40
0.0
 40
0.0
 40
0.0
 40
0.0
 40
0.4938724707
 40
1.0
 40
1.0
 40
1.0
 40
1.0
 10
10.6162149623
 20
6.6898052991
 30
0.0
 10
10.6204415888
 20
6.6974974798
 30
0.0
 10
10.6297417873
 20
6.7126745427
 30
0.0
 10
10.6403570652
 20
6.7269584452
 30
0.0
 10
10.6460197007
 20
6.733946942
 30
0.0
  0
SPLINE
  5
2EE
100
AcDbEntity
  8
0
100
AcDbSpline
 62
7
  6
CONTINUOUS
 70
0
 71
3
 72
15
 73
11
 74
0
 42
0.0000001
 43
0.0000001
 44
0.0000000001
 40
0.0
 40
0.0
 40
0.0
 40
0.0
 40
0.1209667383
 40
0.2423447451
 40
0.3645356129
 40
0.4879220844
 40
0.6128597683
 40
0.7396704825
 40
0.8686371093
 40
1.0
 40
1.0
 40
1.0
 40
1.0
 10
10.5848183383
 20
6.6067205995
 30
0.0
 10
10.5848183383
 20
6.6130961603
 30
0.0
 10
10.5853476517
 20
6.6258752203
 30
0.0
 10
10.5877251654
 20
6.6449611485
 30
0.0
 10
10.5916779525
 20
6.6639152433
 30
0.0
 10
10.597191784
 20
6.6826700481
 30
0.0
 10
10.6042467813
 20
6.7011611754
 30
0.0
 10
10.6128177961
 20
6.7193252631
 30
0.0
 10
10.6228737185
 20
6.7370992445
 30
0.0
 10
10.6304722992
 20
6.7485395874
 30
0.0
 10
10.6344967654
 20
6.7541732716
 30
0.0
  0
SPLINE
  5
2EF
100
AcDbEntity
  8
0
100
AcDbSpline
 62
9
  6
CONTINUOUS
 70
0
 71
3
 72
28
 73
24
 74
0
 42
0.0000001
 43
0.0000001
 44
0.0000000001
 40
0.0
 40
0.0
 40
0.0
 40
0.0
 40
0.0276006137
 40
0.0552307355
 40
0.0829196505
 40
0.1106962171
 40
0.1385886293
 40
0.1666242655
 40
0.1948294492
 40
0.2232293413
 40
0.2518477448
 40
0.2807070044
 40
0.3392171368
 40
0.3989187545
 40
0.4599294911
 40
0.5223379201
 40
0.5862036999
 40
0.6515584104
 40
0.718406923
 40
0.7867289907
 40
0.8564814949
 40
0.9275993531
 40
1.0
 40
1.0
 40
1.0
 40
1.0
 10
12.6673182971
 20
5.4851550294
 30
0.0
 10
12.6673182744
 20
5.4726583063
 30
0.0
 10
12.6667393073
 20
5.4476476386
 30
0.0
 10
12.6641347628
 20
5.4101818551
 30
0.0
 10
12.6597973978
 20
5.372796
 30
0.0
 10
12.6537313856
 20
5.3355314665
 30
0.0
 10
12.6459439122
 20
5.29842799
 30
0.0
 10
12.6364429887
 20
5.2615256791
 30
0.0
 10
12.6252393363
 20
5.2248640379
 30
0.0
 10
12.6123450141
 20
5.1884826952
 30
0.0
 10
12.5977737138
 20
5.1524200067
 30
0.0
 10
12.5760345815
 20
5.104600497
 30
0.0
 10
12.5446620893
 20
5.0457707055
 30
0.0
 10
12.5007805783
 20
4.9774149054
 30
0.0
 10
12.4506797008
 20
4.9112523464
 30
0.0
 10
12.3945796484
 20
4.8475669468
 30
0.0
 10
12.3327231353
 20
4.7866267222
 30
0.0
 10
12.2653769716
 20
4.7286891347
 30
0.0
 10
12.1928303101
 20
4.6739985727
 30
0.0
 10
12.1153941118
 20
4.6227858954
 30
0.0
 10
12.0333987633
 20
4.5752673192
 30
0.0
 10
11.9471976361
 20
4.531644752
 30
0.0
 10
11.8876674832
 20
4.5055016701
 30
0.0
 10
11.8573183383
 20
4.4931116836
 30
0.0
  0
SPLINE
  5
2F0
100
AcDbEntity
  8
0
100
AcDbSpline
 62
7
  6
CONTINUOUS
 70
0
 71
3
 72
21
 73
17
 74
0
 42
0.0000001
 43
0.0000001
 44
0.0000000001
 40
0.0
 40
0.0
 40
0.0
 40
0.0
 40
0.117194419
 40
0.1783296062
 40
0.2408737112
 40
0.3045910046
 40
0.3692146395
 40
0.4344550882
 40
0.5000075207
 40
0.5655596864
 40
0.6307993324
 40
0.6954216527
 40
0.7591371493
 40
0.8216790248
 40
0.8828116106
 40
1.0
 40
1.0
 40
1.0
 40
1.0
 10
10.7766045434
 20
7.1282399068
 30
0.0
 10
10.7948974488
 20
7.115379385
 30
0.0
 10
10.8246446666
 20
7.0984064008
 30
0.0
 10
10.8670317372
 20
7.0805748262
 30
0.0
 10
10.9010021182
 20
7.0692915138
 30
0.0
 10
10.9363556378
 20
7.0604066153
 30
0.0
 10
10.9727639136
 20
7.0539998981
 30
0.0
 10
11.0098794887
 20
7.0501326253
 30
0.0
 10
11.0473505871
 20
7.0488409241
 30
0.0
 10
11.0848213794
 20
7.0501370666
 30
0.0
 10
11.1219360394
 20
7.0540087402
 30
0.0
 10
11.1583427985
 20
7.060419778
 30
0.0
 10
11.1936942143
 20
7.0693088756
 30
0.0
 10
11.2276619273
 20
7.0805962216
 30
0.0
 10
11.2700446574
 20
7.0984327739
 30
0.0
 10
11.2997879739
 20
7.1154093405
 30
0.0
 10
11.3180779072
 20
7.128272089
 30
0.0
  0
SPLINE
  5
2F1
100
AcDbEntity
  8
0
100
AcDbSpline
 62
7
  6
CONTINUOUS
 70
0
 71
3
 72
21
 73
17
 74
0
 42
0.0000001
 43
0.0000001
 44
0.0000000001
 40
0.0
 40
0.0
 40
0.0
 40
0.0
 40
0.1163570214
 40
0.1770427239
 40
0.2391288948
 40
0.3023940867
 40
0.3665910121
 40
0.4314534891
 40
0.4967029393
 40
0.5620546164
 40
0.6272241173
 40
0.6919333335
 40
0.7559170705
 40
0.8189290696
 40
0.8807488189
 40
1.0
 40
1.0
 40
1.0
 40
1.0
 10
10.7863163362
 20
7.0793413757
 30
0.0
 10
10.8042603262
 20
7.0679834436
 30
0.0
 10
10.8331579305
 20
7.0531083046
 30
0.0
 10
10.8740028707
 20
7.03766872
 30
0.0
 10
10.9065930789
 20
7.0280235021
 30
0.0
 10
10.9404040092
 20
7.0205748153
 30
0.0
 10
10.9751480931
 20
7.0153903909
 30
0.0
 10
11.0105218454
 20
7.0125220794
 30
0.0
 10
11.0462184181
 20
7.0120008023
 30
0.0
 10
11.0819276439
 20
7.0138375441
 30
0.0
 10
11.1173392837
 20
7.018022776
 30
0.0
 10
11.1521462908
 20
7.0245270405
 30
0.0
 10
11.1860449546
 20
7.0332998995
 30
0.0
 10
11.2187469
 20
7.0442752625
 30
0.0
 10
11.259851856
 20
7.0615063748
 30
0.0
 10
11.2888568257
 20
7.0777336217
 30
0.0
 10
11.30685563
 20
7.0899707156
 30
0.0
  0
SPLINE
  5
2F2
100
AcDbEntity
  8
0
100
AcDbSpline
 62
7
  6
CONTINUOUS
 70
0
 71
3
 72
21
 73
17
 74
0
 42
0.0000001
 43
0.0000001
 44
0.0000000001
 40
0.0
 40
0.0
 40
0.0
 40
0.0
 40
0.1169384951
 40
0.17765556
 40
0.239627464
 40
0.3026591099
 40
0.3665357775
 40
0.4310278737
 40
0.4958958891
 40
0.5608951801
 40
0.6257804457
 40
0.6903106732
 40
0.7542535205
 40
0.8173902119
 40
0.8795202919
 40
1.0
 40
1.0
 40
1.0
 40
1.0
 10
10.7986925329
 20
7.022961151
 30
0.0
 10
10.8158524811
 20
7.0129526201
 30
0.0
 10
10.8431913662
 20
6.9998262569
 30
0.0
 10
10.8815461452
 20
6.986134079
 30
0.0
 10
10.9119365451
 20
6.9775606797
 30
0.0
 10
10.9433439456
 20
6.9708883717
 30
0.0
 10
10.9755367828
 20
6.966170146
 30
0.0
 10
11.0082716306
 20
6.9634469395
 30
0.0
 10
11.0413026029
 20
6.9627441336
 30
0.0
 10
11.0743811717
 20
6.9640721863
 30
0.0
 10
11.10725851
 20
6.9674262783
 30
0.0
 10
11.1396877133
 20
6.9727866526
 30
0.0
 10
11.1714238361
 20
6.9801178796
 30
0.0
 10
11.2022327343
 20
6.9893724063
 30
0.0
 10
11.2413414033
 20
7.0040301459
 30
0.0
 10
11.2692474173
 20
7.0179047877
 30
0.0
 10
11.2868128608
 20
7.0284096818
 30
0.0
  0
SPLINE
  5
2F3
100
AcDbEntity
  8
0
100
AcDbSpline
 62
7
  6
CONTINUOUS
 70
0
 71
3
 72
28
 73
24
 74
0
 42
0.0000001
 43
0.0000001
 44
0.0000000001
 40
0.0
 40
0.0
 40
0.0
 40
0.0
 40
0.0260139144
 40
0.0521375123
 40
0.0784218621
 40
0.1049155659
 40
0.131664203
 40
0.1587097941
 40
0.1860902292
 40
0.2138391227
 40
0.2419852359
 40
0.2705527218
 40
0.2995607764
 40
0.3290238238
 40
0.3893311714
 40
0.4515159252
 40
0.5155316437
 40
0.5812703721
 40
0.6485706602
 40
0.717225213
 40
0.7869889933
 40
0.8575873155
 40
1.0
 40
1.0
 40
1.0
 40
1.0
 10
11.4530481544
 20
7.1684836462
 30
0.0
 10
11.4527222802
 20
7.1638049356
 30
0.0
 10
11.4517626937
 20
7.154446298
 30
0.0
 10
11.449411314
 20
7.1404950843
 30
0.0
 10
11.446151064
 20
7.1266385459
 30
0.0
 10
11.4419896056
 20
7.1129081238
 30
0.0
 10
11.4369367836
 20
7.0993338221
 30
0.0
 10
11.431003984
 20
7.0859456983
 30
0.0
 10
11.4242053327
 20
7.072772891
 30
0.0
 10
11.4165559906
 20
7.0598444949
 30
0.0
 10
11.4080739183
 20
7.0471884394
 30
0.0
 10
11.3987782001
 20
7.0348326063
 30
0.0
 10
11.3886899448
 20
7.0228034092
 30
0.0
 10
11.374101905
 20
7.0071156281
 30
0.0
 10
11.3539617351
 20
6.988475061
 30
0.0
 10
11.3272344281
 20
6.9679986425
 30
0.0
 10
11.2979974947
 20
6.9494085621
 30
0.0
 10
11.2665155053
 20
6.9328630975
 30
0.0
 10
11.2330700737
 20
6.9185005219
 30
0.0
 10
11.197961986
 20
6.9064410885
 30
0.0
 10
11.161501687
 20
6.8967839725
 30
0.0
 10
11.1114023776
 20
6.8871924798
 30
0.0
 10
11.0729887693
 20
6.8838524337
 30
0.0
 10
11.0473183383
 20
6.8833389507
 30
0.0
  0
SPLINE
  5
2F4
100
AcDbEntity
  8
0
100
AcDbSpline
 62
7
  6
CONTINUOUS
 70
0
 71
3
 72
36
 73
32
 74
0
 42
0.0000001
 43
0.0000001
 44
0.0000000001
 40
0.0
 40
0.0
 40
0.0
 40
0.0
 40
0.0248353436
 40
0.0498082844
 40
0.0750490809
 40
0.1006805462
 40
0.1268100144
 40
0.1535287225
 40
0.1809092339
 40
0.2090048461
 40
0.2378496549
 40
0.2674591757
 40
0.2978313684
 40
0.3289480957
 40
0.3607764801
 40
0.3932705083
 40
0.4263726289
 40
0.4600151813
 40
0.4941220264
 40
0.5286099716
 40
0.5983447876
 40
0.6334276849
 40
0.6685167332
 40
0.738300421
 40
0.77283029
 40
0.8069900272
 40
0.8406956207
 40
0.8738699219
 40
0.9064443456
 40
0.9383593218
 40
1.0
 40
1.0
 40
1.0
 40
1.0
 10
10.6410683386
 20
7.3116695084
 30
0.0
 10
10.6410683515
 20
7.3045253632
 30
0.0
 10
10.641826766
 20
7.2901861159
 30
0.0
 10
10.6452291045
 20
7.2688294746
 30
0.0
 10
10.6508767649
 20
7.2477156373
 30
0.0
 10
10.6587348858
 20
7.2269674629
 30
0.0
 10
10.6687569369
 20
7.2067003784
 30
0.0
 10
10.6808838604
 20
7.1870272488
 30
0.0
 10
10.6950456674
 20
7.168056446
 30
0.0
 10
10.7111615779
 20
7.1498919572
 30
0.0
 10
10.7291406499
 20
7.1326330042
 30
0.0
 10
10.7488821492
 20
7.1163737143
 30
0.0
 10
10.7702760395
 20
7.1012027431
 30
0.0
 10
10.7932034774
 20
7.0872029048
 30
0.0
 10
10.8175373598
 20
7.0744506943
 30
0.0
 10
10.8431429258
 20
7.0630159294
 30
0.0
 10
10.8698785544
 20
7.0529612683
 30
0.0
 10
10.8975959598
 20
7.0443419903
 30
0.0
 10
10.926143153
 20
7.0372052025
 30
0.0
 10
10.965235095
 20
7.0296929133
 30
0.0
 10
11.0051620375
 20
7.0253388586
 30
0.0
 10
11.0454047423
 20
7.0241447496
 30
0.0
 10
11.0856685942
 20
7.0250711183
 30
0.0
 10
11.1256513619
 20
7.0291603201
 30
0.0
 10
11.164834663
 20
7.0364108646
 30
0.0
 10
11.193475385
 20
7.0433572876
 30
0.0
 10
11.2213062235
 20
7.0517917304
 30
0.0
 10
11.248173756
 20
7.0616675144
 30
0.0
 10
11.2739319799
 20
7.0729323756
 30
0.0
 10
11.3062164643
 20
7.0895193313
 30
0.0
 10
11.3289514974
 20
7.1041247519
 30
0.0
 10
11.3431286757
 20
7.1147744769
 30
0.0
  0
SPLINE
  5
2F5
100
AcDbEntity
  8
0
100
AcDbSpline
 62
9
  6
CONTINUOUS
 70
0
 71
3
 72
26
 73
22
 74
0
 42
0.0000001
 43
0.0000001
 44
0.0000000001
 40
0.0
 40
0.0
 40
0.0
 40
0.0
 40
0.0257136465
 40
0.0514890254
 40
0.0773868056
 40
0.1034656774
 40
0.1297813695
 40
0.1563858627
 40
0.1833268066
 40
0.2106467923
 40
0.2665437939
 40
0.3243344405
 40
0.3841589246
 40
0.4460694498
 40
0.5100368905
 40
0.5759594233
 40
0.6436719984
 40
0.7129560445
 40
0.783548896
 40
0.8551537028
 40
1.0
 40
1.0
 40
1.0
 40
1.0
 10
11.4535682832
 20
8.1198041144
 30
0.0
 10
11.4535682832
 20
8.1151028564
 30
0.0
 10
11.4532410945
 20
8.1056857897
 30
0.0
 10
11.4517700623
 20
8.0916029687
 30
0.0
 10
11.4493226923
 20
8.0775883042
 30
0.0
 10
11.4459049759
 20
8.0636768624
 30
0.0
 10
11.4415254017
 20
8.0499022313
 30
0.0
 10
11.4361952789
 20
8.036297874
 30
0.0
 10
11.4299270804
 20
8.0228964068
 30
0.0
 10
11.42026915
 20
8.0052103557
 30
0.0
 10
11.4058594593
 20
7.983753804
 30
0.0
 10
11.3852608467
 20
7.9595466406
 30
0.0
 10
11.3614227621
 20
7.9368995726
 30
0.0
 10
11.3345792528
 20
7.9160267136
 30
0.0
 10
11.3049889004
 20
7.8971216908
 30
0.0
 10
11.2729357669
 20
7.8803614101
 30
0.0
 10
11.2387261659
 20
7.8659028835
 30
0.0
 10
11.2026881376
 20
7.8538822734
 30
0.0
 10
11.1651616386
 20
7.8444123554
 30
0.0
 10
11.1134512875
 20
7.8352754635
 30
0.0
 10
11.073800767
 20
7.8325419845
 30
0.0
 10
11.0473183383
 20
7.8325419845
 30
0.0
  0
SPLINE
  5
2F6
100
AcDbEntity
  8
0
100
AcDbSpline
 62
7
  6
CONTINUOUS
 70
0
 71
3
 72
18
 73
14
 74
0
 42
0.0000001
 43
0.0000001
 44
0.0000000001
 40
0.0
 40
0.0
 40
0.0
 40
0.0
 40
0.1364726914
 40
0.2715272505
 40
0.4040512076
 40
0.5330297792
 40
0.5959361481
 40
0.6576502066
 40
0.7771699011
 40
0.8349338829
 40
0.8913184584
 40
0.9463324377
 40
1.0
 40
1.0
 40
1.0
 40
1.0
 10
11.0473183383
 20
6.8833389507
 30
0.0
 10
11.0296279868
 20
6.8829850924
 30
0.0
 10
10.9943766383
 20
6.8839047442
 30
0.0
 10
10.942288549
 20
6.890142124
 30
0.0
 10
10.8919762331
 20
6.9011102882
 30
0.0
 10
10.8518995887
 20
6.9141377313
 30
0.0
 10
10.8215289749
 20
6.9267744165
 30
0.0
 10
10.79300528
 20
6.9405233278
 30
0.0
 10
10.7662516979
 20
6.9563300235
 30
0.0
 10
10.7417183334
 20
6.974132859
 30
0.0
 10
10.7248291101
 20
6.9881517269
 30
0.0
 10
10.7093207196
 20
7.0029230609
 30
0.0
 10
10.6998293381
 20
7.0133580233
 30
0.0
 10
10.6953467171
 20
7.0186797703
 30
0.0
  0
SPLINE
  5
2F7
100
AcDbEntity
  8
0
100
AcDbSpline
 62
7
  6
CONTINUOUS
 70
0
 71
3
 72
26
 73
22
 74
0
 42
0.0000001
 43
0.0000001
 44
0.0000000001
 40
0.0
 40
0.0
 40
0.0
 40
0.0
 40
0.1455818156
 40
0.2174583223
 40
0.2882859375
 40
0.3577821115
 40
0.425693757
 40
0.491805813
 40
0.5559498994
 40
0.6180127828
 40
0.6779455749
 40
0.7357719745
 40
0.7915958073
 40
0.8188242199
 40
0.845630076
 40
0.8720505132
 40
0.8981275888
 40
0.9239082144
 40
0.9494434772
 40
0.9747881598
 40
1.0
 40
1.0
 40
1.0
 40
1.0
 10
11.0473183383
 20
6.9347087464
 30
0.0
 10
11.0218172881
 20
6.9341972517
 30
0.0
 10
10.9836066639
 20
6.9359644038
 30
0.0
 10
10.9336261838
 20
6.9434338777
 30
0.0
 10
10.8972945156
 20
6.9514759272
 30
0.0
 10
10.8622994852
 20
6.961901677
 30
0.0
 10
10.8289479724
 20
6.9746131542
 30
0.0
 10
10.7975370993
 20
6.9894920246
 30
0.0
 10
10.7683456438
 20
7.0064016674
 30
0.0
 10
10.7416335929
 20
7.0251879685
 30
0.0
 10
10.7176392478
 20
7.0456820285
 30
0.0
 10
10.6965802953
 20
7.0676970284
 30
0.0
 10
10.6815089073
 20
7.0873154481
 30
0.0
 10
10.6711565335
 20
7.1035529496
 30
0.0
 10
10.6642973242
 20
7.115877504
 30
0.0
 10
10.6582958611
 20
7.1284184958
 30
0.0
 10
10.6531661041
 20
7.1411475991
 30
0.0
 10
10.6489195419
 20
7.154035009
 30
0.0
 10
10.6455663615
 20
7.1670512086
 30
0.0
 10
10.6431142336
 20
7.1801650204
 30
0.0
 10
10.6420820446
 20
7.1889705043
 30
0.0
 10
10.6417189254
 20
7.1933727105
 30
0.0
  0
SPLINE
  5
2F8
100
AcDbEntity
  8
0
100
AcDbSpline
 62
7
  6
CONTINUOUS
 70
0
 71
3
 72
26
 73
22
 74
0
 42
0.0000001
 43
0.0000001
 44
0.0000000001
 40
0.0
 40
0.0
 40
0.0
 40
0.0
 40
0.1454860723
 40
0.2173209635
 40
0.2881143793
 40
0.3575856462
 40
0.425483126
 40
0.4915926225
 40
0.555745921
 40
0.6178291399
 40
0.6777917244
 40
0.7356547097
 40
0.7915180691
 40
0.8187657209
 40
0.8455896459
 40
0.8720262209
 40
0.8981167164
 40
0.9239072658
 40
0.9494481466
 40
0.9747933912
 40
1.0
 40
1.0
 40
1.0
 40
1.0
 10
11.0473183383
 20
6.9859484935
 30
0.0
 10
11.0219067268
 20
6.9854378717
 30
0.0
 10
10.983829711
 20
6.987188717
 30
0.0
 10
10.9340168484
 20
6.9946007319
 30
0.0
 10
10.8977990064
 20
7.0025834423
 30
0.0
 10
10.8629039755
 20
7.0129343893
 30
0.0
 10
10.8296356205
 20
7.0255569466
 30
0.0
 10
10.7982882465
 20
7.0403343844
 30
0.0
 10
10.7691381123
 20
7.0571319147
 30
0.0
 10
10.7424429986
 20
7.0757974555
 30
0.0
 10
10.7184393353
 20
7.096164309
 30
0.0
 10
10.6973432892
 20
7.1180480761
 30
0.0
 10
10.6822164293
 20
7.1375547868
 30
0.0
 10
10.6718041249
 20
7.1537044644
 30
0.0
 10
10.6648929213
 20
7.1659643905
 30
0.0
 10
10.6588320643
 20
7.1784418701
 30
0.0
 10
10.6536355497
 20
7.1911089263
 30
0.0
 10
10.6493148635
 20
7.2039360917
 30
0.0
 10
10.645880409
 20
7.2168942475
 30
0.0
 10
10.6433398141
 20
7.2299525361
 30
0.0
 10
10.6422438349
 20
7.2387239432
 30
0.0
 10
10.6418477717
 20
7.2431097468
 30
0.0
  0
SPLINE
  5
2F9
100
AcDbEntity
  8
0
100
AcDbSpline
 62
9
  6
CONTINUOUS
 70
0
 71
3
 72
26
 73
22
 74
0
 42
0.0000001
 43
0.0000001
 44
0.0000000001
 40
0.0
 40
0.0
 40
0.0
 40
0.0
 40
0.1448462972
 40
0.216451104
 40
0.2870439555
 40
0.3563280016
 40
0.4240405767
 40
0.4899631095
 40
0.5539305502
 40
0.6158410754
 40
0.6756655595
 40
0.7334562061
 40
0.7893532077
 40
0.8166731934
 40
0.8436141373
 40
0.8702186305
 40
0.8965343226
 40
0.9226131944
 40
0.9485109746
 40
0.9742863535
 40
1.0
 40
1.0
 40
1.0
 40
1.0
 10
11.0473183383
 20
7.8325419845
 30
0.0
 10
11.0208359096
 20
7.8325419845
 30
0.0
 10
10.9811853891
 20
7.8352754635
 30
0.0
 10
10.9294750379
 20
7.8444123554
 30
0.0
 10
10.891948539
 20
7.8538822734
 30
0.0
 10
10.8559105107
 20
7.8659028835
 30
0.0
 10
10.8217009097
 20
7.8803614101
 30
0.0
 10
10.7896477762
 20
7.8971216908
 30
0.0
 10
10.7600574238
 20
7.9160267136
 30
0.0
 10
10.7332139145
 20
7.9368995726
 30
0.0
 10
10.7093758298
 20
7.9595466406
 30
0.0
 10
10.6887772173
 20
7.983753804
 30
0.0
 10
10.6743675266
 20
8.0052103557
 30
0.0
 10
10.6647095961
 20
8.0228964068
 30
0.0
 10
10.6584413977
 20
8.036297874
 30
0.0
 10
10.6531112749
 20
8.0499022313
 30
0.0
 10
10.6487317007
 20
8.0636768624
 30
0.0
 10
10.6453139842
 20
8.0775883042
 30
0.0
 10
10.6428666142
 20
8.0916029687
 30
0.0
 10
10.6413955821
 20
8.1056857897
 30
0.0
 10
10.6410683934
 20
8.1151028564
 30
0.0
 10
10.6410683934
 20
8.1198041144
 30
0.0
  0
SPLINE
  5
2FA
100
AcDbEntity
  8
0
100
AcDbSpline
 62
7
  6
CONTINUOUS
 70
0
 71
3
 72
15
 73
11
 74
0
 42
0.0000001
 43
0.0000001
 44
0.0000000001
 40
0.0
 40
0.0
 40
0.0
 40
0.0
 40
0.1291688634
 40
0.2567456478
 40
0.3829109186
 40
0.5078625967
 40
0.631814817
 40
0.7549950926
 40
0.8776415574
 40
1.0
 40
1.0
 40
1.0
 40
1.0
 10
11.4762809961
 20
6.6887449739
 30
0.0
 10
11.4787703046
 20
6.6841963769
 30
0.0
 10
11.483464976
 20
6.6750136817
 30
0.0
 10
11.4896575257
 20
6.6609358509
 30
0.0
 10
11.4949426812
 20
6.6466724004
 30
0.0
 10
11.4993085594
 20
6.6322530588
 30
0.0
 10
11.5027463195
 20
6.6177075975
 30
0.0
 10
11.505248476
 20
6.603065857
 30
0.0
 10
11.506809685
 20
6.5883589602
 30
0.0
 10
11.5072212844
 20
6.5785244204
 30
0.0
 10
11.5072693055
 20
6.573612836
 30
0.0
  0
SPLINE
  5
2FB
100
AcDbEntity
  8
0
100
AcDbSpline
 62
7
  6
CONTINUOUS
 70
0
 71
3
 72
15
 73
11
 74
0
 42
0.0000001
 43
0.0000001
 44
0.0000000001
 40
0.0
 40
0.0
 40
0.0
 40
0.0
 40
0.1194661634
 40
0.2397612141
 40
0.3613045139
 40
0.484487009
 40
0.6096612987
 40
0.7371347255
 40
0.8671840536
 40
1.0
 40
1.0
 40
1.0
 40
1.0
 10
10.64159795
 20
7.1436153285
 30
0.0
 10
10.642006418
 20
7.1381253473
 30
0.0
 10
10.6432999517
 20
7.1271368405
 30
0.0
 10
10.6466452939
 20
7.1108079187
 30
0.0
 10
10.6513876344
 20
7.0946494889
 30
0.0
 10
10.6575094068
 20
7.0787216676
 30
0.0
 10
10.6649882348
 20
7.0630816344
 30
0.0
 10
10.67379723
 20
7.0477848651
 30
0.0
 10
10.6839042206
 20
7.0328875586
 30
0.0
 10
10.6914026373
 20
7.0233598009
 30
0.0
 10
10.6953467171
 20
7.0186797703
 30
0.0
  0
SPLINE
  5
2FC
100
AcDbEntity
  8
0
100
AcDbSpline
 62
7
  6
CONTINUOUS
 70
0
 71
3
 72
24
 73
20
 74
0
 42
0.0000001
 43
0.0000001
 44
0.0000000001
 40
0.0
 40
0.0
 40
0.0
 40
0.0
 40
0.0491206211
 40
0.0755393887
 40
0.1031169436
 40
0.131750395
 40
0.1613165448
 40
0.1916821062
 40
0.2227177512
 40
0.2863141939
 40
0.3513096321
 40
0.4170923311
 40
0.4832211905
 40
0.5493817345
 40
0.6153509612
 40
0.6809648272
 40
0.7460974195
 40
0.8745221176
 40
1.0
 40
1.0
 40
1.0
 40
1.0
 10
11.3727462656
 20
6.6869512803
 30
0.0
 10
11.3727462656
 20
6.6844415926
 30
0.0
 10
11.372259303
 20
6.6805736075
 30
0.0
 10
11.3708806125
 20
6.6754862419
 30
0.0
 10
11.3694373478
 20
6.6715131612
 30
0.0
 10
11.3676397325
 20
6.6675127154
 30
0.0
 10
11.3655196266
 20
6.6635118621
 30
0.0
 10
11.3631095361
 20
6.6595351462
 30
0.0
 10
11.3595229627
 20
6.6542481891
 30
0.0
 10
11.3544831058
 20
6.6478226299
 30
0.0
 10
11.3477839783
 20
6.6404816239
 30
0.0
 10
11.3405441034
 20
6.6334877887
 30
0.0
 10
11.3328905164
 20
6.6268602539
 30
0.0
 10
11.3249200083
 20
6.6206033325
 30
0.0
 10
11.3167068749
 20
6.6147145957
 30
0.0
 10
11.3083086079
 20
6.609188576
 30
0.0
 10
11.2969792715
 20
6.6023288591
 30
0.0
 10
11.2825936637
 20
6.5946348548
 30
0.0
 10
11.2707537332
 20
6.5893051914
 30
0.0
 10
11.2648183383
 20
6.5868820766
 30
0.0
  0
SPLINE
  5
2FD
100
AcDbEntity
  8
0
100
AcDbSpline
 62
7
  6
CONTINUOUS
 70
0
 71
3
 72
27
 73
23
 74
0
 42
0.0000001
 43
0.0000001
 44
0.0000000001
 40
0.0
 40
0.0
 40
0.0
 40
0.0
 40
0.150041355
 40
0.2231609427
 40
0.2948306809
 40
0.3648951089
 40
0.4331728859
 40
0.4994495168
 40
0.5634880304
 40
0.6250361381
 40
0.6838510502
 40
0.7397723637
 40
0.7666767765
 40
0.7929186656
 40
0.8185820906
 40
0.8438037457
 40
0.8687788572
 40
0.8937615096
 40
0.9190569298
 40
0.9449915793
 40
0.9718880065
 40
1.0
 40
1.0
 40
1.0
 40
1.0
 10
11.2648183383
 20
6.5868820766
 30
0.0
 10
11.2590515228
 20
6.584527784
 30
0.0
 10
11.25034905
 20
6.5813183981
 30
0.0
 10
11.2386371624
 20
6.5777545293
 30
0.0
 10
11.230001049
 20
6.5755123144
 30
0.0
 10
11.2214685441
 20
6.5737051888
 30
0.0
 10
11.2130758398
 20
6.5723669686
 30
0.0
 10
11.2048675278
 20
6.571540894
 30
0.0
 10
11.1968997423
 20
6.5712787701
 30
0.0
 10
11.189242853
 20
6.5716437605
 30
0.0
 10
11.1819892314
 20
6.5727117188
 30
0.0
 10
11.1763005547
 20
6.5742848063
 30
0.0
 10
11.1721081625
 20
6.5760084367
 30
0.0
 10
11.1692017749
 20
6.5775217971
 30
0.0
 10
11.1665214071
 20
6.5792844823
 30
0.0
 10
11.1640976399
 20
6.5813070608
 30
0.0
 10
11.1619646589
 20
6.5835976554
 30
0.0
 10
11.1601578994
 20
6.5861586514
 30
0.0
 10
11.1587127941
 20
6.5889854135
 30
0.0
 10
11.157660408
 20
6.5920649502
 30
0.0
 10
11.1570246479
 20
6.5953746949
 30
0.0
 10
11.1568904109
 20
6.5976614449
 30
0.0
 10
11.1568904109
 20
6.5988284967
 30
0.0
  0
SPLINE
  5
2FE
100
AcDbEntity
  8
0
100
AcDbSpline
 62
9
  6
CONTINUOUS
 70
0
 71
3
 72
19
 73
15
 74
0
 42
0.0000001
 43
0.0000001
 44
0.0000000001
 40
0.0
 40
0.0
 40
0.0
 40
0.0
 40
0.1384143884
 40
0.2722444132
 40
0.4016331869
 40
0.526903131
 40
0.5881757565
 40
0.6486285068
 40
0.7083546206
 40
0.767457788
 40
0.8260506391
 40
0.8842536068
 40
0.9421931935
 40
1.0
 40
1.0
 40
1.0
 40
1.0
 10
11.3727462656
 20
6.6869512803
 30
0.0
 10
11.3826423218
 20
6.6941940927
 30
0.0
 10
11.4014795054
 20
6.7093265474
 30
0.0
 10
11.4269553678
 20
6.7342546448
 30
0.0
 10
11.4489508736
 20
6.7608147143
 30
0.0
 10
11.4643209684
 20
6.7842906908
 30
0.0
 10
11.4746190647
 20
6.8036126866
 30
0.0
 10
11.481302567
 20
6.8182457156
 30
0.0
 10
11.486984617
 20
6.8330902259
 30
0.0
 10
11.4916524827
 20
6.8481122041
 30
0.0
 10
11.4952945864
 20
6.8632767433
 30
0.0
 10
11.4979023856
 20
6.8785488039
 30
0.0
 10
11.4994696859
 20
6.893891864
 30
0.0
 10
11.4998182859
 20
6.9041502752
 30
0.0
 10
11.4998182882
 20
6.909271898
 30
0.0
  0
SPLINE
  5
2FF
100
AcDbEntity
  8
0
100
AcDbSpline
 62
7
  6
CONTINUOUS
 70
0
 71
3
 72
21
 73
17
 74
0
 42
0.0000001
 43
0.0000001
 44
0.0000000001
 40
0.0
 40
0.0
 40
0.0
 40
0.0
 40
0.1434933322
 40
0.2132580535
 40
0.2815937114
 40
0.4137535827
 40
0.4776316569
 40
0.540052105
 40
0.6010746176
 40
0.6607877586
 40
0.7193091989
 40
0.7767848442
 40
0.8333871246
 40
0.8893117508
 40
0.94477336
 40
1.0
 40
1.0
 40
1.0
 40
1.0
 10
11.2735683383
 20
6.8599521582
 30
0.0
 10
11.2903662589
 20
6.8668098806
 30
0.0
 10
11.3148341506
 20
6.8783113154
 30
0.0
 10
11.3456545522
 20
6.8961733478
 30
0.0
 10
11.3741702981
 20
6.9150313903
 30
0.0
 10
11.4003406836
 20
6.9360076791
 30
0.0
 10
11.42363616
 20
6.9589585087
 30
0.0
 10
11.4393067259
 20
6.9767477973
 30
0.0
 10
11.4533007216
 20
6.9952280552
 30
0.0
 10
11.4655580799
 20
7.0143219379
 30
0.0
 10
11.4760245349
 20
7.0339480713
 30
0.0
 10
11.4846535641
 20
7.0540227454
 30
0.0
 10
11.4914063559
 20
7.074459473
 30
0.0
 10
11.496252184
 20
7.0951704784
 30
0.0
 10
11.4991687354
 20
7.1160632072
 30
0.0
 10
11.4998183383
 20
7.1300676246
 30
0.0
 10
11.4998183383
 20
7.1370506854
 30
0.0
  0
SPLINE
  5
300
100
AcDbEntity
  8
0
100
AcDbSpline
 62
9
  6
CONTINUOUS
 70
0
 71
3
 72
18
 73
14
 74
0
 42
0.0000001
 43
0.0000001
 44
0.0000000001
 40
0.0
 40
0.0
 40
0.0
 40
0.0
 40
0.1411547043
 40
0.2778118237
 40
0.4096172783
 40
0.5364229905
 40
0.6583302794
 40
0.717584576
 40
0.7757775514
 40
0.8329999832
 40
0.8893596634
 40
0.944980257
 40
1.0
 40
1.0
 40
1.0
 40
1.0
 10
11.2201279562
 20
6.4869480864
 30
0.0
 10
11.2311124456
 20
6.4914324854
 30
0.0
 10
11.252354226
 20
6.5012256356
 30
0.0
 10
11.2821474902
 20
6.5185888318
 30
0.0
 10
11.309041963
 20
6.5382041088
 30
0.0
 10
11.3326966405
 20
6.5598324067
 30
0.0
 10
11.3496257808
 20
6.5795132754
 30
0.0
 10
11.3611971296
 20
6.5959867785
 30
0.0
 10
11.3688161841
 20
6.6085505887
 30
0.0
 10
11.3754312791
 20
6.6213978109
 30
0.0
 10
11.3810216614
 20
6.6344891271
 30
0.0
 10
11.3855685866
 20
6.6477824682
 30
0.0
 10
11.3879058152
 20
6.6567948712
 30
0.0
 10
11.3888921074
 20
6.6613130986
 30
0.0
  0
SPLINE
  5
301
100
AcDbEntity
  8
0
100
AcDbSpline
 62
7
  6
CONTINUOUS
 70
0
 71
3
 72
31
 73
27
 74
0
 42
0.0000001
 43
0.0000001
 44
0.0000000001
 40
0.0
 40
0.0
 40
0.0
 40
0.0
 40
0.0667240212
 40
0.1007584919
 40
0.1351529053
 40
0.2047287179
 40
0.2749010155
 40
0.3450733121
 40
0.4146491583
 40
0.4830580042
 40
0.5166708271
 40
0.5498036146
 40
0.6144034229
 40
0.6458117473
 40
0.6765760531
 40
0.7360739827
 40
0.7648316574
 40
0.7929331197
 40
0.8204052337
 40
0.8472878743
 40
0.8736340153
 40
0.8995093431
 40
0.9249914854
 40
0.95016855
 40
0.9751371661
 40
1.0
 40
1.0
 40
1.0
 40
1.0
 10
11.2735683383
 20
6.8599521582
 30
0.0
 10
11.2562181573
 20
6.8528689765
 30
0.0
 10
11.229421673
 20
6.8435685903
 30
0.0
 10
11.1927266088
 20
6.8338142277
 30
0.0
 10
11.1548125208
 20
6.8256906585
 30
0.0
 10
11.1062968935
 20
6.8188965989
 30
0.0
 10
11.0473189243
 20
6.8161751068
 30
0.0
 10
10.9883374449
 20
6.8188969228
 30
0.0
 10
10.9303558367
 20
6.8270164367
 30
0.0
 10
10.8833988657
 20
6.8382367875
 30
0.0
 10
10.8472306373
 20
6.849810951
 30
0.0
 10
10.8127066703
 20
6.8628437054
 30
0.0
 10
10.7798038327
 20
6.8783108883
 30
0.0
 10
10.7489819503
 20
6.8961733509
 30
0.0
 10
10.720466496
 20
6.9150313913
 30
0.0
 10
10.6942959763
 20
6.9360076744
 30
0.0
 10
10.6710005211
 20
6.9589585094
 30
0.0
 10
10.6553299492
 20
6.9767477967
 30
0.0
 10
10.6413359554
 20
6.9952280555
 30
0.0
 10
10.6290785965
 20
7.0143219378
 30
0.0
 10
10.6186121417
 20
7.0339480713
 30
0.0
 10
10.6099831125
 20
7.0540227454
 30
0.0
 10
10.6032303207
 20
7.074459473
 30
0.0
 10
10.5983844925
 20
7.0951704784
 30
0.0
 10
10.5954679412
 20
7.1160632072
 30
0.0
 10
10.5948183383
 20
7.1300676246
 30
0.0
 10
10.5948183383
 20
7.1370506854
 30
0.0
  0
SPLINE
  5
302
100
AcDbEntity
  8
0
100
AcDbSpline
 62
9
  6
CONTINUOUS
 70
0
 71
3
 72
26
 73
22
 74
0
 42
0.0000001
 43
0.0000001
 44
0.0000000001
 40
0.0
 40
0.0
 40
0.0
 40
0.0
 40
0.0656145452
 40
0.1327974107
 40
0.2011188314
 40
0.2701018963
 40
0.3392457782
 40
0.4080436932
 40
0.4760016813
 40
0.5426575466
 40
0.6076003299
 40
0.6704905598
 40
0.7310809986
 40
0.7892382869
 40
0.844963513
 40
0.871972362
 40
0.8984442553
 40
0.9244237896
 40
0.9499655043
 40
0.9751333996
 40
1.0
 40
1.0
 40
1.0
 40
1.0
 10
11.2201279562
 20
6.4869480864
 30
0.0
 10
11.2078603536
 20
6.4819398586
 30
0.0
 10
11.1825146461
 20
6.4730304327
 30
0.0
 10
11.1430658648
 20
6.4631500961
 30
0.0
 10
11.102222392
 20
6.4567046553
 30
0.0
 10
11.0605820342
 20
6.4537887174
 30
0.0
 10
11.0187486635
 20
6.4544433602
 30
0.0
 10
10.9773305349
 20
6.4586596267
 30
0.0
 10
10.9369292723
 20
6.4663767322
 30
0.0
 10
10.8981316095
 20
6.4774842047
 30
0.0
 10
10.8615006834
 20
6.4918238042
 30
0.0
 10
10.8275683665
 20
6.5091913798
 30
0.0
 10
10.7968273346
 20
6.5293434736
 30
0.0
 10
10.7697300382
 20
6.5519931609
 30
0.0
 10
10.7503110892
 20
6.5729138095
 30
0.0
 10
10.737063651
 20
6.5905650906
 30
0.0
 10
10.72836875
 20
6.6040694302
 30
0.0
 10
10.7208467474
 20
6.6179245794
 30
0.0
 10
10.7145257578
 20
6.6320806985
 30
0.0
 10
10.7094304907
 20
6.6464841028
 30
0.0
 10
10.7068501581
 20
6.6562675377
 30
0.0
 10
10.7057752479
 20
6.6611728286
 30
0.0
  0
SPLINE
  5
303
100
AcDbEntity
  8
0
100
AcDbSpline
 62
7
  6
CONTINUOUS
 70
0
 71
3
 72
15
 73
11
 74
0
 42
0.0000001
 43
0.0000001
 44
0.0000000001
 40
0.0
 40
0.0
 40
0.0
 40
0.0
 40
0.1223584425
 40
0.2450049073
 40
0.3681851829
 40
0.4921374031
 40
0.6170890812
 40
0.743254352
 40
0.8708311363
 40
1.0
 40
1.0
 40
1.0
 40
1.0
 10
10.5873673711
 20
6.573612836
 30
0.0
 10
10.5874153922
 20
6.5785244204
 30
0.0
 10
10.5878269916
 20
6.5883589602
 30
0.0
 10
10.5893882005
 20
6.603065857
 30
0.0
 10
10.5918903571
 20
6.6177075975
 30
0.0
 10
10.5953281172
 20
6.6322530588
 30
0.0
 10
10.5996939954
 20
6.6466724004
 30
0.0
 10
10.6049791509
 20
6.6609358509
 30
0.0
 10
10.6111717006
 20
6.6750136817
 30
0.0
 10
10.615866372
 20
6.6841963769
 30
0.0
 10
10.6183556805
 20
6.6887449739
 30
0.0
  0
SPLINE
  5
304
100
AcDbEntity
  8
0
100
AcDbSpline
 62
7
  6
CONTINUOUS
 70
0
 71
3
 72
15
 73
11
 74
0
 42
0.0000001
 43
0.0000001
 44
0.0000000001
 40
0.0
 40
0.0
 40
0.0
 40
0.0
 40
0.1313626038
 40
0.260329044
 40
0.3871396671
 40
0.5120773473
 40
0.6354638903
 40
0.7576548891
 40
0.8790330682
 40
1.0
 40
1.0
 40
1.0
 40
1.0
 10
11.4601425139
 20
6.754169628
 30
0.0
 10
11.4641667747
 20
6.7485360565
 30
0.0
 10
11.4717649656
 20
6.7370959519
 30
0.0
 10
11.4818203636
 20
6.7193223729
 30
0.0
 10
11.4903909279
 20
6.7011587184
 30
0.0
 10
11.4974455521
 20
6.6826680506
 30
0.0
 10
11.5029590905
 20
6.6639137263
 30
0.0
 10
11.5069116668
 20
6.6449601282
 30
0.0
 10
11.5092890532
 20
6.6258747073
 30
0.0
 10
11.5098183383
 20
6.6130959901
 30
0.0
 10
11.5098183383
 20
6.6067205995
 30
0.0
  0
SPLINE
  5
305
100
AcDbEntity
  8
0
100
AcDbSpline
 62
7
  6
CONTINUOUS
 70
0
 71
3
 72
9
 73
5
 74
0
 42
0.0000001
 43
0.0000001
 44
0.0000000001
 40
0.0
 40
0.0
 40
0.0
 40
0.0
 40
0.5061383631
 40
1.0
 40
1.0
 40
1.0
 40
1.0
 10
11.4485600098
 20
6.7340172265
 30
0.0
 10
11.454234332
 20
6.7270183251
 30
0.0
 10
11.464870798
 20
6.7127124855
 30
0.0
 10
11.4741880152
 20
6.6975103515
 30
0.0
 10
11.4784217143
 20
6.6898052991
 30
0.0
  0
SPLINE
  5
306
100
AcDbEntity
  8
0
100
AcDbSpline
 62
7
  6
CONTINUOUS
 70
0
 71
3
 72
11
 73
7
 74
0
 42
0.0000001
 43
0.0000001
 44
0.0000000001
 40
0.0
 40
0.0
 40
0.0
 40
0.0
 40
0.2557416153
 40
0.5071005344
 40
0.7548845804
 40
1.0
 40
1.0
 40
1.0
 40
1.0
 10
11.4784217143
 20
6.6898052991
 30
0.0
 10
11.482067543
 20
6.683170132
 30
0.0
 10
11.4887630041
 20
6.669710896
 30
0.0
 10
11.4969782966
 20
6.6488990613
 30
0.0
 10
11.5032352862
 20
6.6277440396
 30
0.0
 10
11.5060935328
 20
6.6134106292
 30
0.0
 10
11.5071816003
 20
6.6062364094
 30
0.0
  0
SPLINE
  5
307
100
AcDbEntity
  8
0
100
AcDbSpline
 62
7
  6
CONTINUOUS
 70
0
 71
3
 72
10
 73
6
 74
0
 42
0.0000001
 43
0.0000001
 44
0.0000000001
 40
0.0
 40
0.0
 40
0.0
 40
0.0
 40
0.4887327762
 40
0.7417546144
 40
1.0
 40
1.0
 40
1.0
 40
1.0
 10
11.4675552138
 20
6.0958632282
 30
0.0
 10
11.4477321833
 20
6.0808542117
 30
0.0
 10
11.4159396623
 20
6.0602418959
 30
0.0
 10
11.3707811858
 20
6.0367750715
 30
0.0
 10
11.3469818878
 20
6.0262269595
 30
0.0
 10
11.3348183383
 20
6.0212612112
 30
0.0
  0
SPLINE
  5
308
100
AcDbEntity
  8
0
100
AcDbSpline
 62
7
  6
CONTINUOUS
 70
0
 71
3
 72
10
 73
6
 74
0
 42
0.0000001
 43
0.0000001
 44
0.0000000001
 40
0.0
 40
0.0
 40
0.0
 40
0.0
 40
0.2446842429
 40
0.6188665633
 40
1.0
 40
1.0
 40
1.0
 40
1.0
 10
11.3348183383
 20
6.0212612112
 30
0.0
 10
11.322430141
 20
6.0162037508
 30
0.0
 10
11.290706017
 20
6.0043545766
 30
0.0
 10
11.2381652936
 20
5.988955144
 30
0.0
 10
11.1976499832
 20
5.9806469803
 30
0.0
 10
11.1770814628
 20
5.9772778159
 30
0.0
  0
SPLINE
  5
309
100
AcDbEntity
  8
0
100
AcDbSpline
 62
7
  6
CONTINUOUS
 70
0
 71
3
 72
39
 73
35
 74
0
 42
0.0000001
 43
0.0000001
 44
0.0000000001
 40
0.0
 40
0.0
 40
0.0
 40
0.0
 40
0.0695868116
 40
0.1051526214
 40
0.1410877617
 40
0.1772831935
 40
0.2136253276
 40
0.2499983053
 40
0.2862857262
 40
0.3223725913
 40
0.3581471496
 40
0.3935028022
 40
0.4283400688
 40
0.4625685202
 40
0.4961088776
 40
0.5288950353
 40
0.5608762527
 40
0.5920192596
 40
0.6072744212
 40
0.622316689
 40
0.6517638124
 40
0.6803980429
 40
0.7082749116
 40
0.735474699
 40
0.7621017656
 40
0.7882823735
 40
0.8141609912
 40
0.8398949944
 40
0.8656481046
 40
0.8915832185
 40
0.9178552408
 40
0.9446048421
 40
0.9719534613
 40
1.0
 40
1.0
 40
1.0
 40
1.0
 10
11.2793103302
 20
6.3217090138
 30
0.0
 10
11.2563490886
 20
6.3128060417
 30
0.0
 10
11.2207346042
 20
6.301591513
 30
0.0
 10
11.1719471647
 20
6.2908849652
 30
0.0
 10
11.1342819351
 20
6.284901001
 30
0.0
 10
11.0960652803
 20
6.2810636385
 30
0.0
 10
11.0575369916
 20
6.2793962406
 30
0.0
 10
11.0189437712
 20
6.2799096394
 30
0.0
 10
10.980531408
 20
6.2826005128
 30
0.0
 10
10.942544888
 20
6.2874518072
 30
0.0
 10
10.9052263612
 20
6.294432754
 30
0.0
 10
10.8688137084
 20
6.303499123
 30
0.0
 10
10.8335390083
 20
6.3145935092
 30
0.0
 10
10.7996270286
 20
6.3276457916
 30
0.0
 10
10.767293981
 20
6.3425734923
 30
0.0
 10
10.7367456618
 20
6.3592827992
 30
0.0
 10
10.708178142
 20
6.3776676639
 30
0.0
 10
10.6860204556
 20
6.3944051655
 30
0.0
 10
10.6694821379
 20
6.4085300246
 30
0.0
 10
10.6539742026
 20
6.4229093437
 30
0.0
 10
10.6361102079
 20
6.4416807879
 30
0.0
 10
10.6171506176
 20
6.465523668
 30
0.0
 10
10.6009419062
 20
6.4903767139
 30
0.0
 10
10.5875930169
 20
6.5160817478
 30
0.0
 10
10.5771944385
 20
6.5424747342
 30
0.0
 10
10.569818379
 20
6.5693850019
 30
0.0
 10
10.5655170444
 20
6.5966364608
 30
0.0
 10
10.5643213804
 20
6.6240489486
 30
0.0
 10
10.5662400523
 20
6.6514402327
 30
0.0
 10
10.5712591894
 20
6.6786284095
 30
0.0
 10
10.5793426759
 20
6.7054339286
 30
0.0
 10
10.5904340219
 20
6.7316825296
 30
0.0
 10
10.6044547635
 20
6.7572024066
 30
0.0
 10
10.6155467938
 20
6.7734093785
 30
0.0
 10
10.6215212587
 20
6.7813356185
 30
0.0
  0
SPLINE
  5
30A
100
AcDbEntity
  8
0
100
AcDbSpline
 62
7
  6
CONTINUOUS
 70
0
 71
3
 72
32
 73
28
 74
0
 42
0.0000001
 43
0.0000001
 44
0.0000000001
 40
0.0
 40
0.0
 40
0.0
 40
0.0
 40
0.0616691029
 40
0.0918242823
 40
0.1215685289
 40
0.1509466445
 40
0.1800084916
 40
0.2088086299
 40
0.2374054801
 40
0.265860653
 40
0.2942379852
 40
0.32260253
 40
0.3510195768
 40
0.3795535874
 40
0.4082671071
 40
0.4372199318
 40
0.4664682214
 40
0.4960637149
 40
0.5260533081
 40
0.5564784068
 40
0.5873748347
 40
0.6506719502
 40
0.7161391348
 40
0.7838528493
 40
0.8538039454
 40
0.9259039434
 40
1.0
 40
1.0
 40
1.0
 40
1.0
 10
11.4731229977
 20
6.7813255623
 30
0.0
 10
11.4802705009
 20
6.771842304
 30
0.0
 10
11.4901533505
 20
6.7571177588
 30
0.0
 10
11.5014141384
 20
6.7365829094
 30
0.0
 10
11.5087521831
 20
6.7210232887
 30
0.0
 10
11.5150248685
 20
6.7052313491
 30
0.0
 10
11.5202177447
 20
6.6892425579
 30
0.0
 10
11.5243186414
 20
6.6730943899
 30
0.0
 10
11.5273173652
 20
6.656824214
 30
0.0
 10
11.5292069621
 20
6.6404700442
 30
0.0
 10
11.5299828532
 20
6.6240700361
 30
0.0
 10
11.5296429245
 20
6.607662535
 30
0.0
 10
11.5281884112
 20
6.5912858776
 30
0.0
 10
11.5256223754
 20
6.5749783598
 30
0.0
 10
11.52195133
 20
6.5587779878
 30
0.0
 10
11.5171839905
 20
6.5427224691
 30
0.0
 10
11.5113315966
 20
6.5268491633
 30
0.0
 10
11.5044083936
 20
6.511194652
 30
0.0
 10
11.4964304674
 20
6.4957953889
 30
0.0
 10
11.4874165701
 20
6.4806862667
 30
0.0
 10
11.4739392588
 20
6.4608178722
 30
0.0
 10
11.4545362638
 20
6.4368824252
 30
0.0
 10
11.4277065882
 20
6.4101170266
 30
0.0
 10
11.39738913
 20
6.3853071103
 30
0.0
 10
11.3638657738
 20
6.3626772459
 30
0.0
 10
11.327447196
 20
6.3424298469
 30
0.0
 10
11.3017780357
 20
6.3307858712
 30
0.0
 10
11.2885683383
 20
6.3253930349
 30
0.0
  0
SPLINE
  5
30B
100
AcDbEntity
  8
0
100
AcDbSpline
 62
7
  6
CONTINUOUS
 70
0
 71
3
 72
29
 73
25
 74
0
 42
0.0000001
 43
0.0000001
 44
0.0000000001
 40
0.0
 40
0.0
 40
0.0
 40
0.0
 40
0.0707256167
 40
0.1419085397
 40
0.2131032388
 40
0.2838620077
 40
0.3537514487
 40
0.4223666005
 40
0.4893456306
 40
0.5543853557
 40
0.6172569372
 40
0.6478436763
 40
0.6778452555
 40
0.7360730754
 40
0.7643474651
 40
0.7920820204
 40
0.8193085165
 40
0.8460671654
 40
0.872406359
 40
0.8983822302
 40
0.9240579742
 40
0.9495028685
 40
0.9747910445
 40
1.0
 40
1.0
 40
1.0
 40
1.0
 10
11.1770814628
 20
6.2247651893
 30
0.0
 10
11.1559872976
 20
6.2213099233
 30
0.0
 10
11.113359731
 20
6.2161076353
 30
0.0
 10
11.0489455188
 20
6.2134246194
 30
0.0
 10
10.9845066749
 20
6.2158509147
 30
0.0
 10
10.9208540878
 20
6.2233571241
 30
0.0
 10
10.8587819091
 20
6.235850609
 30
0.0
 10
10.7990662671
 20
6.2531766301
 30
0.0
 10
10.7424518851
 20
6.275123104
 30
0.0
 10
10.6896495866
 20
6.3014180718
 30
0.0
 10
10.6489955296
 20
6.3269259707
 30
0.0
 10
10.6190609294
 20
6.3492301421
 30
0.0
 10
10.5914772341
 20
6.3722425553
 30
0.0
 10
10.5663784287
 20
6.3970794681
 30
0.0
 10
10.5442050216
 20
6.4235682043
 30
0.0
 10
10.529320442
 20
6.4438715855
 30
0.0
 10
10.5160713563
 20
6.4647374986
 30
0.0
 10
10.5044994943
 20
6.4861012491
 30
0.0
 10
10.4946426267
 20
6.5078952799
 30
0.0
 10
10.4865329643
 20
6.5300507849
 30
0.0
 10
10.4801973452
 20
6.5524972607
 30
0.0
 10
10.475656693
 20
6.5751635905
 30
0.0
 10
10.4729261423
 20
6.5979752969
 30
0.0
 10
10.4723183453
 20
6.6132438757
 30
0.0
 10
10.4723183385
 20
6.6208627351
 30
0.0
  0
ELLIPSE
  5
30C
100
AcDbEntity
  8
0
100
AcDbEllipse
 62
7
  6
CONTINUOUS
 10
11.0473183383
 20
6.7410708879
 30
0.0
 11
0.4522967215
 21
0.1611958191
 31
0.0
 40
0.084133201
 41
-1.3561925479
 42
-0.7981537211
  0
ENDSEC
  0
SECTION
  2
OBJECTS
  0
DICTIONARY
  5
C
100
AcDbDictionary
280
0
281
1
  3
ACAD_GROUP
350
D
  3
ACAD_MLINESTYLE
350
17
  3
ACAD_LAYOUT
350
1A
  3
ACAD_PLOTSETTINGS
350
19
  3
ACAD_PLOTSTYLENAME
350
E
  0
DICTIONARY
  5
D
102
{ACAD_REACTORS
330
C
102
}
100
AcDbDictionary
280
0
281
1
  0
ACDBDICTIONARYWDFLT
  5
E
102
{ACAD_REACTORS
330
C
102
}
100
AcDbDictionary
281
1
  3
Normal
350
F
100
AcDbDictionaryWithDefault
340
F
  0
DICTIONARY
  5
17
102
{ACAD_REACTORS
330
C
102
}
100
AcDbDictionary
280
0
281
1
  3
Standard
350
18
  0
DICTIONARY
  5
19
102
{ACAD_REACTORS
330
C
102
}
100
AcDbDictionary
281
1
  0
DICTIONARY
  5
1A
102
{ACAD_REACTORS
330
C
102
}
100
AcDbDictionary
281
1
  3
Model
350
30D
  3
Layout1
350
30E
  0
ACDBPLACEHOLDER
  5
F
102
{ACAD_REACTORS
330
E
102
}
  0
MLINESTYLE
  5
18
102
{ACAD_REACTORS
330
17
102
}
100
AcDbMlineStyle
  2
STANDARD
 70
0
  3

 62
256
 51
90.0
 52
90.0
 71
2
 49
0.5
 62
256
  6
BYLAYER
 49
-0.5
 62
256
  6
BYLAYER
  0
LAYOUT
  5
30D
102
{ACAD_REACTORS
330
1A
102
}
100
AcDbPlotSettings
  1

  2
none_device
  4
ANSI_C_(22.00_x_17.00_Inches)
  6

 40
0.0
 41
0.0
 42
0.0
 43
0.0
 44
558.8
 45
431.8
 46
0.0
 47
0.0
 48
0.0
 49
0.0
140
0.0
141
0.0
142
1.0
143
1.0
 70
1024
 72
0
 73
0
 74
0
  7

 75
0
147
1.0
148
0.0
149
0.0
100
AcDbLayout
  1
Model
 70
0
 71
0
 10
0.0
 20
0.0
 11
22.0
 21
17.0
 12
0.0
 22
0.0
 32
0.0
 14
0.0
 24
0.0
 34
0.0
 15
0.0
 25
0.0
 35
0.0
146
0.0
 13
0.0
 23
0.0
 33
0.0
 16
1.0
 26
0.0
 36
0.0
 17
0.0
 27
1.0
 37
0.0
 76
0
330
205
345
0
346
0
  0
LAYOUT
  5
30E
102
{ACAD_REACTORS
330
1A
102
}
100
AcDbPlotSettings
  1

  2
none_device
  4
ANSI_C_(22.00_x_17.00_Inches)
  6

 40
0.0
 41
0.0
 42
0.0
 43
0.0
 44
558.8
 45
431.8
 46
0.0
 47
0.0
 48
0.0
 49
0.0
140
0.0
141
0.0
142
1.0
143
1.0
 70
0
 72
0
 73
0
 74
0
  7

 75
0
147
1.0
148
0.0
149
0.0
100
AcDbLayout
  1
Layout1
 70
0
 71
1
 10
0.0
 20
0.0
 11
22.0
 21
17.0
 12
0.0
 22
0.0
 32
0.0
 14
0.0
 24
0.0
 34
0.0
 15
0.0
 25
0.0
 35
0.0
146
0.0
 13
0.0
 23
0.0
 33
0.0
 16
1.0
 26
0.0
 36
0.0
 17
0.0
 27
1.0
 37
0.0
 76
0
330
206
345
0
346
0
  0
ENDSEC
  0
EOF
