999
DXF file: 3-855_FRONT.dxf
999
Pro/ENGINEER 2018400 by Parametric Technology Corporation
  0
SECTION
  2
HEADER
  9
$ACADVER
  1
AC1027
  9
$DWGCODEPAGE
  3
ANSI_1252
  9
$EXTMAX
 10
11.0
 20
8.5
 30
0.0
  9
$EXTMIN
 10
0.0
 20
0.0
 30
0.0
  9
$LIMMIN
 10
0.0
 20
0.0
  9
$LIMMAX
 10
11.0
 20
8.5
  9
$VIEWCTR
 10
5.5
 20
4.25
  9
$VIEWSIZE
 40
8.5
  9
$CLAYER
  8
0
  9
$LTSCALE
 40
0.605
  9
$CELTYPE
  6
BYLAYER
  9
$DIMSCALE
 40
1.0
  9
$DIMASZ
 40
0.1
  9
$DIMEXO
 40
0.0625
  9
$DIMDLI
 40
0.418
  9
$DIMEXE
 40
0.125
  9
$DIMCEN
 40
0.099
  9
$DIMLFAC
 40
1.0
  9
$DIMBLK
  1
_FILLED
  9
$DIMALT
 70
1
  9
$DIMALTD
 70
2
  9
$DIMALTTD
 70
2
  9
$DIMALTF
 40
25.4
  9
$DIMTXT
 40
0.08
  9
$DIMTOL
 70
1
  9
$DIMLIM
 70
0
  9
$DIMTFAC
 40
1.0
  9
$DIMTP
 40
0.001
  9
$DIMTM
 40
0.001
  9
$DIMGAP
 40
0.09
  9
$DIMDSEP
 70
46
  9
$AUNITS
 70
0
  9
$PDMODE
 70
3
  9
$PDSIZE
 40
0.3125
  9
$HANDSEED
  5
2F7
  9
$TILEMODE
 70
1
  9
$MEASUREMENT
 70
0
  9
$INSUNITS
 70
1
  0
ENDSEC
  0
SECTION
  2
CLASSES
  0
CLASS
  1
ACDBDICTIONARYWDFLT
  2
AcDbDictionaryWithDefault
  3
AutoCAD 2000
 90
0
 91
1
280
0
281
0
  0
CLASS
  1
ACDBPLACEHOLDER
  2
AcDbPlaceHolder
  3
AutoCAD 2000
 90
0
 91
1
280
0
281
0
  0
CLASS
  1
LAYOUT
  2
AcDbLayout
  3
AutoCAD 2000
 90
0
 91
0
280
0
281
0
  0
ENDSEC
  0
SECTION
  2
TABLES
  0
TABLE
  2
VPORT
  5
8
100
AcDbSymbolTable
 70
2
  0
VPORT
  5
1F4
100
AcDbSymbolTableRecord
100
AcDbViewportTableRecord
  2
*ACTIVE
 70
0
 10
0.0
 20
0.0
 11
1.0
 21
1.0
 12
5.5
 22
4.25
 13
0.0
 23
0.0
 14
1.0
 24
1.0
 15
0.0
 25
0.0
 16
0.0
 26
0.0
 36
1.0
 17
0.0
 27
0.0
 37
0.0
 40
8.5
 41
1.2941176471
 42
50.0
 43
0.0
 44
0.0
 50
0.0
 51
0.0
 71
0
 72
100
 73
1
 74
1
 75
0
 76
0
 77
0
 78
0
  0
ENDTAB
  0
TABLE
  2
LTYPE
  5
5
100
AcDbSymbolTable
 70
6
  0
LTYPE
  5
14
100
AcDbSymbolTableRecord
100
AcDbLinetypeTableRecord
  2
BYBLOCK
 70
0
  3

 72
65
 73
0
 40
0.0
  0
LTYPE
  5
15
100
AcDbSymbolTableRecord
100
AcDbLinetypeTableRecord
  2
BYLAYER
 70
0
  3

 72
65
 73
0
 40
0.0
  0
LTYPE
  5
16
100
AcDbSymbolTableRecord
100
AcDbLinetypeTableRecord
  2
CONTINUOUS
 70
64
  3
Solid line
 72
65
 73
0
 40
0.0
  0
LTYPE
  5
1F5
100
AcDbSymbolTableRecord
100
AcDbLinetypeTableRecord
  2
CENTER
 70
64
  3
____ _ ____ _ ____ _ ____ _ ____ _ ____ _ ____
 72
65
 73
4
 40
0.6
 49
0.375
 74
0
 49
-0.075
 74
0
 49
0.075
 74
0
 49
-0.075
 74
0
  0
LTYPE
  5
1F6
100
AcDbSymbolTableRecord
100
AcDbLinetypeTableRecord
  2
HIDDEN
 70
64
  3
- - - - - - - - - - - - - - - - - - - -
 72
65
 73
2
 40
0.2
 49
0.1
 74
0
 49
-0.1
 74
0
  0
LTYPE
  5
1F7
100
AcDbSymbolTableRecord
100
AcDbLinetypeTableRecord
  2
PHANTOM
 70
64
  3
_____ _ _ _____ _ _ _____ _ _ _____
 72
65
 73
6
 40
0.8
 49
0.45
 74
0
 49
-0.05
 74
0
 49
0.1
 74
0
 49
-0.05
 74
0
 49
0.1
 74
0
 49
-0.05
 74
0
  0
LTYPE
  5
1F8
100
AcDbSymbolTableRecord
100
AcDbLinetypeTableRecord
  2
DOT
 70
64
  3
. . . . . . . . . . . . . . . . . . . .
 72
65
 73
2
 40
0.2
 49
0.1
 74
0
 49
-0.1
 74
0
  0
LTYPE
  5
1F9
100
AcDbSymbolTableRecord
100
AcDbLinetypeTableRecord
  2
DASHED
 70
64
  3
- - - - - - - - - - - - - - - - - - - -
 72
65
 73
2
 40
0.2
 49
0.1
 74
0
 49
-0.1
 74
0
  0
ENDTAB
  0
TABLE
  2
LAYER
  5
2
100
AcDbSymbolTable
 70
36
  0
LAYER
  5
10
100
AcDbSymbolTableRecord
100
AcDbLayerTableRecord
  2
0
 70
0
 62
7
  6
CONTINUOUS
370
-3
390
F
  0
LAYER
  5
1FA
100
AcDbSymbolTableRecord
100
AcDbLayerTableRecord
  2
DEFAULT_1
 70
0
 62
7
  6
CENTER
370
-3
390
F
  0
LAYER
  5
1FB
100
AcDbSymbolTableRecord
100
AcDbLayerTableRecord
  2
DEFAULT_2
 70
0
 62
8
  6
HIDDEN
370
-3
390
F
  0
LAYER
  5
1FC
100
AcDbSymbolTableRecord
100
AcDbLayerTableRecord
  2
DEFAULT_3
 70
0
 62
7
  6
PHANTOM
370
-3
390
F
  0
LAYER
  5
1FD
100
AcDbSymbolTableRecord
100
AcDbLayerTableRecord
  2
2-116_ASSY_DATUMS
 70
0
 62
7
  6
CONTINUOUS
370
-3
390
F
  0
LAYER
  5
1FE
100
AcDbSymbolTableRecord
100
AcDbLayerTableRecord
  2
2201_ASSY_PLANES
 70
0
 62
7
  6
CONTINUOUS
370
-3
390
F
  0
LAYER
  5
1FF
100
AcDbSymbolTableRecord
100
AcDbLayerTableRecord
  2
3-202_ASSY_PLANES
 70
0
 62
7
  6
CONTINUOUS
370
-3
390
F
  0
LAYER
  5
200
100
AcDbSymbolTableRecord
100
AcDbLayerTableRecord
  2
3-985_ASSY_PLANES
 70
0
 62
7
  6
CONTINUOUS
370
-3
390
F
  0
LAYER
  5
201
100
AcDbSymbolTableRecord
100
AcDbLayerTableRecord
  2
ALL_ASSEMBLY_MEMBERS
 70
0
 62
7
  6
CONTINUOUS
370
-3
390
F
  0
LAYER
  5
202
100
AcDbSymbolTableRecord
100
AcDbLayerTableRecord
  2
ALL_FEATURES
 70
0
 62
7
  6
CONTINUOUS
370
-3
390
F
  0
LAYER
  5
203
100
AcDbSymbolTableRecord
100
AcDbLayerTableRecord
  2
AXES_FEATURES
 70
0
 62
7
  6
CONTINUOUS
370
-3
390
F
  0
LAYER
  5
204
100
AcDbSymbolTableRecord
100
AcDbLayerTableRecord
  2
CHAMFER_FEATURES
 70
0
 62
7
  6
CONTINUOUS
370
-3
390
F
  0
LAYER
  5
205
100
AcDbSymbolTableRecord
100
AcDbLayerTableRecord
  2
CURVES
 70
0
 62
7
  6
CONTINUOUS
370
-3
390
F
  0
LAYER
  5
206
100
AcDbSymbolTableRecord
100
AcDbLayerTableRecord
  2
CUT_FEATURES
 70
0
 62
7
  6
CONTINUOUS
370
-3
390
F
  0
LAYER
  5
207
100
AcDbSymbolTableRecord
100
AcDbLayerTableRecord
  2
DATUM_CURVES
 70
0
 62
7
  6
CONTINUOUS
370
-3
390
F
  0
LAYER
  5
208
100
AcDbSymbolTableRecord
100
AcDbLayerTableRecord
  2
DATUM_PLANES
 70
0
 62
7
  6
CONTINUOUS
370
-3
390
F
  0
LAYER
  5
209
100
AcDbSymbolTableRecord
100
AcDbLayerTableRecord
  2
DATUM_POINTS
 70
0
 62
7
  6
CONTINUOUS
370
-3
390
F
  0
LAYER
  5
20A
100
AcDbSymbolTableRecord
100
AcDbLayerTableRecord
  2
DATUM_SHAPER
 70
0
 62
7
  6
CONTINUOUS
370
-3
390
F
  0
LAYER
  5
20B
100
AcDbSymbolTableRecord
100
AcDbLayerTableRecord
  2
DEFAULT_COORDINATE_SYSTEM
 70
0
 62
7
  6
CONTINUOUS
370
-3
390
F
  0
LAYER
  5
20C
100
AcDbSymbolTableRecord
100
AcDbLayerTableRecord
  2
DEFAULT_DATUM_AXES
 70
0
 62
7
  6
CONTINUOUS
370
-3
390
F
  0
LAYER
  5
20D
100
AcDbSymbolTableRecord
100
AcDbLayerTableRecord
  2
DEFAULT_DATUM_PLANES
 70
0
 62
7
  6
CONTINUOUS
370
-3
390
F
  0
LAYER
  5
20E
100
AcDbSymbolTableRecord
100
AcDbLayerTableRecord
  2
DEFAULT_SURFACES
 70
0
 62
7
  6
CONTINUOUS
370
-3
390
F
  0
LAYER
  5
20F
100
AcDbSymbolTableRecord
100
AcDbLayerTableRecord
  2
DIMENSIONS
 70
0
 62
7
  6
CONTINUOUS
370
-3
390
F
  0
LAYER
  5
210
100
AcDbSymbolTableRecord
100
AcDbLayerTableRecord
  2
INTF_1
 70
0
 62
7
  6
CONTINUOUS
370
-3
390
F
  0
LAYER
  5
211
100
AcDbSymbolTableRecord
100
AcDbLayerTableRecord
  2
PART_REFERENCE_DIMENSIONS
 70
0
 62
7
  6
CONTINUOUS
370
-3
390
F
  0
LAYER
  5
212
100
AcDbSymbolTableRecord
100
AcDbLayerTableRecord
  2
PLATED_AREA
 70
0
 62
7
  6
CONTINUOUS
370
-3
390
F
  0
LAYER
  5
213
100
AcDbSymbolTableRecord
100
AcDbLayerTableRecord
  2
POINTS
 70
0
 62
7
  6
CONTINUOUS
370
-3
390
F
  0
LAYER
  5
214
100
AcDbSymbolTableRecord
100
AcDbLayerTableRecord
  2
PROTRUSION_FEATURES
 70
0
 62
7
  6
CONTINUOUS
370
-3
390
F
  0
LAYER
  5
215
100
AcDbSymbolTableRecord
100
AcDbLayerTableRecord
  2
QUILT
 70
0
 62
7
  6
CONTINUOUS
370
-3
390
F
  0
LAYER
  5
216
100
AcDbSymbolTableRecord
100
AcDbLayerTableRecord
  2
QUILTS
 70
0
 62
7
  6
CONTINUOUS
370
-3
390
F
  0
LAYER
  5
217
100
AcDbSymbolTableRecord
100
AcDbLayerTableRecord
  2
REFERENCE_DIMENSIONS
 70
0
 62
7
  6
CONTINUOUS
370
-3
390
F
  0
LAYER
  5
218
100
AcDbSymbolTableRecord
100
AcDbLayerTableRecord
  2
REF_CURVES
 70
0
 62
7
  6
CONTINUOUS
370
-3
390
F
  0
LAYER
  5
219
100
AcDbSymbolTableRecord
100
AcDbLayerTableRecord
  2
RGB(   0_   0_   0 )
 70
0
 62
7
  6
CONTINUOUS
370
-3
390
F
  0
LAYER
  5
21A
100
AcDbSymbolTableRecord
100
AcDbLayerTableRecord
  2
ROUND_FEATURES
 70
0
 62
7
  6
CONTINUOUS
370
-3
390
F
  0
LAYER
  5
21B
100
AcDbSymbolTableRecord
100
AcDbLayerTableRecord
  2
SET_SCRW_MATE
 70
0
 62
7
  6
CONTINUOUS
370
-3
390
F
  0
LAYER
  5
21C
100
AcDbSymbolTableRecord
100
AcDbLayerTableRecord
  2
SHELL_FEATURES
 70
0
 62
7
  6
CONTINUOUS
370
-3
390
F
  0
LAYER
  5
21D
100
AcDbSymbolTableRecord
100
AcDbLayerTableRecord
  2
SIZE_REF
 70
0
 62
7
  6
CONTINUOUS
370
-3
390
F
  0
LAYER
  5
21E
100
AcDbSymbolTableRecord
100
AcDbLayerTableRecord
  2
SURFACE_FEATURES
 70
0
 62
7
  6
CONTINUOUS
370
-3
390
F
  0
LAYER
  5
21F
100
AcDbSymbolTableRecord
100
AcDbLayerTableRecord
  2
XSEC_DATUMS
 70
0
 62
7
  6
CONTINUOUS
370
-3
390
F
  0
ENDTAB
  0
TABLE
  2
STYLE
  5
3
100
AcDbSymbolTable
 70
1
  0
STYLE
  5
11
100
AcDbSymbolTableRecord
100
AcDbTextStyleTableRecord
  2
STANDARD
 70
0
 40
0.0
 41
0.8
 50
0.0
 71
0
 42
0.2
  3
txt
  4

  0
STYLE
  5
220
100
AcDbSymbolTableRecord
100
AcDbTextStyleTableRecord
  2
TEXTSTYLE_1
 70
0
 40
0.0
 41
0.8
 50
0.0
 71
0
 42
0.2
  3
gdt
  4

  0
ENDTAB
  0
TABLE
  2
VIEW
  5
6
100
AcDbSymbolTable
 70
0
  0
ENDTAB
  0
TABLE
  2
UCS
  5
7
100
AcDbSymbolTable
 70
0
  0
ENDTAB
  0
TABLE
  2
APPID
  5
9
100
AcDbSymbolTable
 70
1
  0
APPID
  5
221
100
AcDbSymbolTableRecord
100
AcDbRegAppTableRecord
  2
ACAD
 70
0
  0
ENDTAB
  0
TABLE
  2
BLOCK_RECORD
  5
1
100
AcDbSymbolTable
 70
0
  0
BLOCK_RECORD
  5
222
100
AcDbSymbolTableRecord
100
AcDbBlockTableRecord
  2
*Model_Space
  0
BLOCK_RECORD
  5
223
100
AcDbSymbolTableRecord
100
AcDbBlockTableRecord
  2
*Paper_Space
  0
BLOCK_RECORD
  5
224
100
AcDbSymbolTableRecord
100
AcDbBlockTableRecord
  2
_FILLED
  0
ENDTAB
  0
TABLE
  2
DIMSTYLE
  5
A
100
AcDbSymbolTable
 70
1
100
AcDbDimStyleTable
 71
0
  0
DIMSTYLE
105
225
100
AcDbSymbolTableRecord
100
AcDbDimStyleTableRecord
  2
STANDARD
 70
0
  3

  4

 40
1.0
 41
0.1
 42
0.0625
 43
0.38
 44
0.125
 45
0.0
 46
0.0
 47
0.001
 48
0.001
140
0.08
141
0.09
142
0.0
143
25.4
144
1.0
145
0.0
146
1.0
147
0.09
 71
1.0
 72
0.0
 73
1
 74
1
 75
0
 76
0
 77
0
 78
4
 79
1
170
1
171
2
172
0
173
0
174
0
175
0
176
0
177
0
178
0
270
2
179
3
271
3
272
3
273
2
274
2
275
0
280
0
281
0
282
0
283
1
284
4
285
0
286
0
287
3
288
0
340
11
278
46
341
224
342
224
343
224
344
224
  0
ENDTAB
  0
ENDSEC
  0
SECTION
  2
BLOCKS
  0
BLOCK
  5
20
100
AcDbEntity
  8
0
100
AcDbBlockBegin
  2
*Model_Space
 70
0
 10
0.0
 20
0.0
 30
0.0
  3
*Model_Space
  1

  0
ENDBLK
  5
21
100
AcDbEntity
  8
0
100
AcDbBlockEnd
  0
BLOCK
  5
1C
100
AcDbEntity
  8
0
100
AcDbBlockBegin
  2
*Paper_Space
 70
0
 10
0.0
 20
0.0
 30
0.0
  3
*Paper_Space
  1

  0
ENDBLK
  5
1D
100
AcDbEntity
  8
0
100
AcDbBlockEnd
  0
BLOCK
  5
226
100
AcDbEntity
  8
0
100
AcDbBlockBegin
  2
_FILLED
 70
64
 10
0.0
 20
0.0
  3
_FILLED
  1

  0
SOLID
  5
227
100
AcDbEntity
  8
0
  6
BYBLOCK
 62
0
100
AcDbTrace
 10
0.0
 20
0.0
 11
-1.0
 21
0.2
 12
-1.0
 22
-0.2
 13
-1.0
 23
-0.2
  0
ENDBLK
  5
228
100
AcDbEntity
  8
0
  6
BYBLOCK
 62
0
100
AcDbBlockEnd
  0
ENDSEC
  0
SECTION
  2
ENTITIES
  0
MTEXT
  5
229
100
AcDbEntity
  8
0
100
AcDbMText
 62
2
  6
CONTINUOUS
  7
STANDARD
 71
3
 72
1
 10
2.6003299689
 20
1.4470653078
 30
0.0
 11
1.0
 21
0.0
 31
0.0
 73
2
 44
0.9
  1
SCALE  .500
 40
0.08
 41
0.704
  0
LINE
  5
22A
100
AcDbEntity
  8
0
100
AcDbLine
 62
7
  6
CONTINUOUS
 10
0.0
 20
0.0
 11
0.0
 21
8.5
  0
LINE
  5
22B
100
AcDbEntity
  8
0
100
AcDbLine
 62
7
  6
CONTINUOUS
 10
0.0
 20
0.0
 11
11.0
 21
0.0
  0
LINE
  5
22C
100
AcDbEntity
  8
0
100
AcDbLine
 62
7
  6
CONTINUOUS
 10
0.0
 20
8.5
 11
11.0
 21
8.5
  0
LINE
  5
22D
100
AcDbEntity
  8
0
100
AcDbLine
 62
7
  6
CONTINUOUS
 10
11.0
 20
0.0
 11
11.0
 21
8.5
  0
LINE
  5
22E
100
AcDbEntity
  8
ALL_ASSEMBLY_MEMBERS
100
AcDbLine
 62
7
  6
CONTINUOUS
 10
2.215927795
 20
5.9325129691
 11
2.215927795
 21
6.1700129691
  0
LINE
  5
22F
100
AcDbEntity
  8
ALL_ASSEMBLY_MEMBERS
100
AcDbLine
 62
7
  6
CONTINUOUS
 10
2.2809567128
 20
5.943164705
 11
2.2809567128
 21
6.1593612333
  0
LINE
  5
230
100
AcDbEntity
  8
ALL_ASSEMBLY_MEMBERS
100
AcDbLine
 62
7
  6
CONTINUOUS
 10
2.377427795
 20
5.9420129691
 11
2.377427795
 21
6.1605129691
  0
LINE
  5
231
100
AcDbEntity
  8
ALL_ASSEMBLY_MEMBERS
100
AcDbLine
 62
7
  6
CONTINUOUS
 10
2.5493076675
 20
5.8541383149
 11
2.5493076675
 21
6.2483876234
  0
LINE
  5
232
100
AcDbEntity
  8
ALL_ASSEMBLY_MEMBERS
100
AcDbLine
 62
7
  6
CONTINUOUS
 10
3.0767257535
 20
5.9566580056
 11
3.0767257535
 21
6.1458679327
  0
LINE
  5
233
100
AcDbEntity
  8
ALL_ASSEMBLY_MEMBERS
100
AcDbLine
 62
7
  6
CONTINUOUS
 10
3.495927795
 20
5.9262629691
 11
3.508427795
 21
5.9387629691
  0
LINE
  5
234
100
AcDbEntity
  8
ALL_ASSEMBLY_MEMBERS
100
AcDbLine
 62
7
  6
CONTINUOUS
 10
3.473427795
 20
5.9262629691
 11
3.473427795
 21
6.1762629691
  0
LINE
  5
235
100
AcDbEntity
  8
ALL_ASSEMBLY_MEMBERS
100
AcDbLine
 62
7
  6
CONTINUOUS
 10
3.495927795
 20
5.9262629691
 11
3.495927795
 21
6.1762629691
  0
LINE
  5
236
100
AcDbEntity
  8
ALL_ASSEMBLY_MEMBERS
100
AcDbLine
 62
7
  6
CONTINUOUS
 10
3.508427795
 20
6.1763879073
 11
3.508427795
 21
5.9261380326
  0
LINE
  5
237
100
AcDbEntity
  8
ALL_ASSEMBLY_MEMBERS
100
AcDbLine
 62
7
  6
CONTINUOUS
 10
5.8866053282
 20
3.0512628256
 11
6.2342887713
 21
3.0512629691
  0
LINE
  5
238
100
AcDbEntity
  8
ALL_ASSEMBLY_MEMBERS
100
AcDbLine
 62
7
  6
CONTINUOUS
 10
5.4512109584
 20
3.0512628999
 11
5.0975668564
 21
3.0512629692
  0
LINE
  5
239
100
AcDbEntity
  8
ALL_ASSEMBLY_MEMBERS
100
AcDbLine
 62
7
  6
CONTINUOUS
 10
5.9332802189
 20
2.4395384126
 11
5.933484642
 21
2.4393471396
  0
LINE
  5
23A
100
AcDbEntity
  8
ALL_ASSEMBLY_MEMBERS
100
AcDbLine
 62
7
  6
CONTINUOUS
 10
5.9332783552
 20
2.4395382785
 11
5.9334665488
 21
2.4393458513
  0
LWPOLYLINE
  5
23B
100
AcDbEntity
  8
ALL_ASSEMBLY_MEMBERS
100
AcDbPolyline
 62
7
  6
CONTINUOUS
 90
21
 70
0
 10
5.8449667743
 20
3.1299599676
 10
5.844253711
 20
3.1311064883
 10
5.8435396746
 20
3.1322449328
 10
5.8428220043
 20
3.1333790172
 10
5.8420864354
 20
3.1345303559
 10
5.8413385349
 20
3.1356890507
 10
5.840571847
 20
3.1368638197
 10
5.8397537083
 20
3.1381022788
 10
5.8388823617
 20
3.1394034122
 10
5.8379578224
 20
3.1407630915
 10
5.8369477731
 20
3.1422231669
 10
5.8358196883
 20
3.1438217363
 10
5.8345978072
 20
3.1455142854
 10
5.8333338195
 20
3.1472222185
 10
5.8320008262
 20
3.1489763204
 10
5.8306179742
 20
3.1507464753
 10
5.8293142474
 20
3.152370787
 10
5.8280947341
 20
3.1538524952
 10
5.8269610713
 20
3.1551984648
 10
5.8260474389
 20
3.1562620197
 10
5.8254631495
 20
3.1569326897
  0
LINE
  5
23C
100
AcDbEntity
  8
ALL_ASSEMBLY_MEMBERS
100
AcDbLine
 62
7
  6
CONTINUOUS
 10
5.8463913178
 20
3.1276422821
 11
5.8449667743
 21
3.1299599676
  0
LINE
  5
23D
100
AcDbEntity
  8
ALL_ASSEMBLY_MEMBERS
100
AcDbLine
 62
7
  6
CONTINUOUS
 10
5.8478335291
 20
3.1252614914
 11
5.8463913178
 21
3.1276422821
  0
LINE
  5
23E
100
AcDbEntity
  8
ALL_ASSEMBLY_MEMBERS
100
AcDbLine
 62
7
  6
CONTINUOUS
 10
5.8493216652
 20
3.1227714699
 11
5.8478335291
 21
3.1252614914
  0
LINE
  5
23F
100
AcDbEntity
  8
ALL_ASSEMBLY_MEMBERS
100
AcDbLine
 62
7
  6
CONTINUOUS
 10
5.8508700771
 20
3.1201465275
 11
5.8493216652
 21
3.1227714699
  0
LINE
  5
240
100
AcDbEntity
  8
ALL_ASSEMBLY_MEMBERS
100
AcDbLine
 62
7
  6
CONTINUOUS
 10
3.495927795
 20
6.1762629691
 11
3.508427795
 21
6.1637629691
  0
LINE
  5
241
100
AcDbEntity
  8
ALL_ASSEMBLY_MEMBERS
100
AcDbLine
 62
7
  6
CONTINUOUS
 10
5.665927795
 20
2.6435701848
 11
5.665927795
 21
3.6375128677
  0
LWPOLYLINE
  5
242
100
AcDbEntity
  8
ALL_ASSEMBLY_MEMBERS
100
AcDbPolyline
 62
7
  6
CONTINUOUS
 90
98
 70
0
 10
5.9839934549
 20
2.5743216116
 10
5.9839560241
 20
2.5796118654
 10
5.9837988569
 20
2.5911154637
 10
5.9835686667
 20
2.6024792869
 10
5.9832671601
 20
2.6137011507
 10
5.9828957495
 20
2.6247846658
 10
5.9824559692
 20
2.635725441
 10
5.9819493452
 20
2.646519138
 10
5.9813769348
 20
2.6571696706
 10
5.9807400702
 20
2.6676732752
 10
5.9800400767
 20
2.678026296
 10
5.9792776679
 20
2.6882329727
 10
5.9784539523
 20
2.698290417
 10
5.9775700805
 20
2.7081952383
 10
5.9766265204
 20
2.7179510171
 10
5.975624004
 20
2.7275571548
 10
5.9745637907
 20
2.7370090482
 10
5.9734480651
 20
2.7463054812
 10
5.9722797611
 20
2.755445085
 10
5.9710614767
 20
2.7644287898
 10
5.9697954263
 20
2.7732595026
 10
5.9684842788
 20
2.7819362339
 10
5.9671303583
 20
2.790459961
 10
5.9657350877
 20
2.7988364748
 10
5.9643006799
 20
2.8070658605
 10
5.9628292987
 20
2.8151482214
 10
5.9613219811
 20
2.8230892544
 10
5.9597806629
 20
2.8308891369
 10
5.9582072313
 20
2.8385480904
 10
5.9566023533
 20
2.8460717843
 10
5.9549675956
 20
2.8534609767
 10
5.9533046821
 20
2.8607155408
 10
5.9516142694
 20
2.8678397033
 10
5.9498974752
 20
2.8748352185
 10
5.9481560742
 20
2.8817018299
 10
5.9463917258
 20
2.8884420874
 10
5.9446057254
 20
2.8950601675
 10
5.9427998497
 20
2.901558275
 10
5.9409765777
 20
2.9079361454
 10
5.9391373082
 20
2.9141973521
 10
5.9372835941
 20
2.9203447615
 10
5.9354182245
 20
2.926377157
 10
5.9335427423
 20
2.9322974547
 10
5.9316584583
 20
2.938109121
 10
5.9297679139
 20
2.9438117407
 10
5.9278724543
 20
2.9494085049
 10
5.9259734887
 20
2.9549022203
 10
5.9240737818
 20
2.9602917113
 10
5.922174706
 20
2.9655797543
 10
5.9202775758
 20
2.9707690918
 10
5.9183852117
 20
2.9758582585
 10
5.9164997037
 20
2.9808477772
 10
5.914621601
 20
2.9857420801
 10
5.9127513001
 20
2.9905454257
 10
5.9108891177
 20
2.9952608692
 10
5.9090360539
 20
2.9998892066
 10
5.9071931499
 20
3.0044309802
 10
5.9053607239
 20
3.0088883401
 10
5.9035395467
 20
3.0132621352
 10
5.9017313572
 20
3.0175507792
 10
5.8999360578
 20
3.0217569296
 10
5.8981547385
 20
3.0258802765
 10
5.8963909941
 20
3.0299147243
 10
5.8946450404
 20
3.0338619834
 10
5.892917559
 20
3.0377229448
 10
5.8912129683
 20
3.0414904673
 10
5.889532289
 20
3.0451650787
 10
5.887875356
 20
3.048749796
 10
5.8862448798
 20
3.0522413478
 10
5.8846412924
 20
3.0556413581
 10
5.8830648071
 20
3.0589518021
 10
5.88151777
 20
3.0621701225
 10
5.8800008899
 20
3.0652971705
 10
5.878513897
 20
3.0683357137
 10
5.8770575644
 20
3.0712862734
 10
5.8756319888
 20
3.0741505536
 10
5.8742370673
 20
3.0769304492
 10
5.8728731211
 20
3.07962693
 10
5.8715401849
 20
3.0822414727
 10
5.8702379608
 20
3.0847761339
 10
5.8689661777
 20
3.0872328377
 10
5.8677244992
 20
3.0896135778
 10
5.8665128661
 20
3.0919197689
 10
5.8653313503
 20
3.0941525226
 10
5.8641797782
 20
3.0963133619
 10
5.8630577897
 20
3.0984040997
 10
5.8619651075
 20
3.1004263339
 10
5.8609019264
 20
3.10238074
 10
5.8598673786
 20
3.1042698715
 10
5.8588595696
 20
3.1060980553
 10
5.8578782105
 20
3.1078666226
 10
5.85692288
 20
3.1095771087
 10
5.8559915295
 20
3.111233898
 10
5.8550838591
 20
3.1128381854
 10
5.8541995143
 20
3.1143912356
 10
5.8533364344
 20
3.1158972536
 10
5.852494278
 20
3.1173573715
 10
5.8508700771
 20
3.1201465275
  0
LINE
  5
243
100
AcDbEntity
  8
ALL_ASSEMBLY_MEMBERS
100
AcDbLine
 62
7
  6
CONTINUOUS
 10
5.3963844124
 20
2.4347494864
 11
5.3963320023
 21
2.4346285468
  0
LWPOLYLINE
  5
244
100
AcDbEntity
  8
ALL_ASSEMBLY_MEMBERS
100
AcDbPolyline
 62
7
  6
CONTINUOUS
 90
86
 70
0
 10
5.4892148295
 20
3.1318237556
 10
5.4884437607
 20
3.1304517489
 10
5.487652088
 20
3.1290210303
 10
5.4868745327
 20
3.1275944511
 10
5.4860735437
 20
3.1261044805
 10
5.4852810589
 20
3.1246116528
 10
5.4845144989
 20
3.123151496
 10
5.4837557357
 20
3.1216918481
 10
5.4829838288
 20
3.1201934392
 10
5.4821954172
 20
3.1186500319
 10
5.4813932728
 20
3.1170672778
 10
5.4805653357
 20
3.115421356
 10
5.4797084676
 20
3.1137056432
 10
5.4788246617
 20
3.1119237093
 10
5.4779094549
 20
3.1100660686
 10
5.4769621217
 20
3.1081306128
 10
5.475982757
 20
3.1061166915
 10
5.4749684015
 20
3.1040172134
 10
5.4739179791
 20
3.1018288325
 10
5.4728322472
 20
3.0995519648
 10
5.4717111599
 20
3.0971853274
 10
5.4705554909
 20
3.0947293396
 10
5.4693643817
 20
3.0921809145
 10
5.4681353374
 20
3.0895333331
 10
5.4668685575
 20
3.0867855592
 10
5.4655637847
 20
3.0839355128
 10
5.4642176441
 20
3.0809741524
 10
5.4628301047
 20
3.0778996422
 10
5.4614010391
 20
3.0747099038
 10
5.459926674
 20
3.0713945302
 10
5.4584068716
 20
3.0679510169
 10
5.4568416388
 20
3.0643770552
 10
5.4552272321
 20
3.0606615304
 10
5.4535632936
 20
3.0568007738
 10
5.4518502544
 20
3.0527927558
 10
5.4500854736
 20
3.0486279903
 10
5.4482689925
 20
3.0443029474
 10
5.4464012904
 20
3.0398148493
 10
5.4444803954
 20
3.0351546481
 10
5.4425055854
 20
3.0303158406
 10
5.4404787365
 20
3.0252979254
 10
5.4384018989
 20
3.020100603
 10
5.4362743495
 20
3.0147162755
 10
5.4340989303
 20
3.0091459221
 10
5.4318830946
 20
3.0034023321
 10
5.4296280989
 20
2.997482664
 10
5.4273354663
 20
2.9913858741
 10
5.4250129047
 20
2.9851276479
 10
5.4226636247
 20
2.9787117035
 10
5.4202877393
 20
2.9721328313
 10
5.4178882454
 20
2.9653931358
 10
5.4154682513
 20
2.9584945735
 10
5.4130288345
 20
2.9514326323
 10
5.4105701802
 20
2.9441980333
 10
5.4080940842
 20
2.9367836299
 10
5.4056043065
 20
2.9291872313
 10
5.4031041781
 20
2.9214046794
 10
5.4005967674
 20
2.913430191
 10
5.3980854807
 20
2.9052581571
 10
5.3955741413
 20
2.896883438
 10
5.3930665459
 20
2.8882998977
 10
5.3905664255
 20
2.879500145
 10
5.3880775792
 20
2.8704758445
 10
5.3856047288
 20
2.8612208201
 10
5.3831520525
 20
2.851725662
 10
5.3807228547
 20
2.8419757883
 10
5.3783226021
 20
2.8319633191
 10
5.3759566341
 20
2.8216783148
 10
5.3736287197
 20
2.8111015689
 10
5.3713453793
 20
2.8002233653
 10
5.3691134289
 20
2.789033281
 10
5.3669380603
 20
2.7775095017
 10
5.3648273003
 20
2.7656410276
 10
5.3627896198
 20
2.7534164306
 10
5.3608321553
 20
2.7408117626
 10
5.3589641748
 20
2.7278103394
 10
5.3571968346
 20
2.7144039876
 10
5.3555412852
 20
2.7005807815
 10
5.3540083523
 20
2.6863195997
 10
5.3526113878
 20
2.6716157051
 10
5.351365436
 20
2.6564832062
 10
5.3502829385
 20
2.6409063292
 10
5.3493775688
 20
2.6248776793
 10
5.348664781
 20
2.6084277994
 10
5.3481577995
 20
2.5915617957
 10
5.3478707049
 20
2.5743430509
  0
LWPOLYLINE
  5
245
100
AcDbEntity
  8
ALL_ASSEMBLY_MEMBERS
100
AcDbPolyline
 62
7
  6
CONTINUOUS
 90
5
 70
0
 10
5.4903692049
 20
3.1338388625
 10
5.490508881
 20
3.1340834989
 10
5.4905004773
 20
3.1340691491
 10
5.490243933
 20
3.1336244294
 10
5.4892148295
 20
3.1318237556
  0
LINE
  5
246
100
AcDbEntity
  8
ALL_ASSEMBLY_MEMBERS
100
AcDbLine
 62
7
  6
CONTINUOUS
 10
7.838427795
 20
6.1762629691
 11
7.825927795
 21
6.1637629691
  0
LINE
  5
247
100
AcDbEntity
  8
ALL_ASSEMBLY_MEMBERS
100
AcDbLine
 62
7
  6
CONTINUOUS
 10
5.3963999038
 20
2.4347473424
 11
5.3963328916
 21
2.4346267914
  0
LINE
  5
248
100
AcDbEntity
  8
ALL_ASSEMBLY_MEMBERS
100
AcDbLine
 62
7
  6
CONTINUOUS
 10
8.7850479226
 20
6.2483876234
 11
8.2576298365
 21
6.1458679327
  0
LINE
  5
249
100
AcDbEntity
  8
ALL_ASSEMBLY_MEMBERS
100
AcDbLine
 62
7
  6
CONTINUOUS
 10
2.5493076675
 20
6.2483876234
 11
3.0767257535
 21
6.1458679327
  0
LINE
  5
24A
100
AcDbEntity
  8
ALL_ASSEMBLY_MEMBERS
100
AcDbLine
 62
7
  6
CONTINUOUS
 10
7.860927795
 20
5.9262629691
 11
7.838427795
 21
5.9262629691
  0
LINE
  5
24B
100
AcDbEntity
  8
ALL_ASSEMBLY_MEMBERS
100
AcDbLine
 62
7
  6
CONTINUOUS
 10
3.473427795
 20
5.9262629691
 11
3.495927795
 21
5.9262629691
  0
LINE
  5
24C
100
AcDbEntity
  8
ALL_ASSEMBLY_MEMBERS
100
AcDbLine
 62
7
  6
CONTINUOUS
 10
7.860927795
 20
6.1762629691
 11
7.838427795
 21
6.1762629691
  0
LINE
  5
24D
100
AcDbEntity
  8
ALL_ASSEMBLY_MEMBERS
100
AcDbLine
 62
7
  6
CONTINUOUS
 10
3.473427795
 20
6.1762629691
 11
3.495927795
 21
6.1762629691
  0
LINE
  5
24E
100
AcDbEntity
  8
ALL_ASSEMBLY_MEMBERS
100
AcDbLine
 62
7
  6
CONTINUOUS
 10
5.9220478808
 20
2.4021869964
 11
5.9217192682
 21
2.4018811879
  0
LINE
  5
24F
100
AcDbEntity
  8
ALL_ASSEMBLY_MEMBERS
100
AcDbLine
 62
7
  6
CONTINUOUS
 10
5.4257129265
 20
2.4748159621
 11
5.4255315615
 21
2.4747606412
  0
LINE
  5
250
100
AcDbEntity
  8
ALL_ASSEMBLY_MEMBERS
100
AcDbLine
 62
7
  6
CONTINUOUS
 10
5.4257125596
 20
2.4748160454
 11
5.4255278468
 21
2.4747614829
  0
LINE
  5
251
100
AcDbEntity
  8
ALL_ASSEMBLY_MEMBERS
100
AcDbLine
 62
7
  6
CONTINUOUS
 10
2.5493076675
 20
5.8541383149
 11
3.0767257535
 21
5.9566580056
  0
LINE
  5
252
100
AcDbEntity
  8
ALL_ASSEMBLY_MEMBERS
100
AcDbLine
 62
7
  6
CONTINUOUS
 10
8.7850479226
 20
5.8541383149
 11
8.2576298365
 21
5.9566580056
  0
LINE
  5
253
100
AcDbEntity
  8
ALL_ASSEMBLY_MEMBERS
100
AcDbLine
 62
7
  6
CONTINUOUS
 10
7.825927795
 20
5.926138031
 11
7.825927795
 21
6.1763879057
  0
LINE
  5
254
100
AcDbEntity
  8
ALL_ASSEMBLY_MEMBERS
100
AcDbLine
 62
7
  6
CONTINUOUS
 10
7.838427795
 20
5.9262629691
 11
7.838427795
 21
6.1762629691
  0
LINE
  5
255
100
AcDbEntity
  8
ALL_ASSEMBLY_MEMBERS
100
AcDbLine
 62
7
  6
CONTINUOUS
 10
7.860927795
 20
5.9262629691
 11
7.860927795
 21
6.1762629691
  0
LINE
  5
256
100
AcDbEntity
  8
ALL_ASSEMBLY_MEMBERS
100
AcDbLine
 62
7
  6
CONTINUOUS
 10
8.2576298365
 20
5.9566580056
 11
8.2576298365
 21
6.1458679327
  0
LINE
  5
257
100
AcDbEntity
  8
ALL_ASSEMBLY_MEMBERS
100
AcDbLine
 62
7
  6
CONTINUOUS
 10
7.838427795
 20
5.9262629691
 11
7.825927795
 21
5.9387629691
  0
LINE
  5
258
100
AcDbEntity
  8
ALL_ASSEMBLY_MEMBERS
100
AcDbLine
 62
7
  6
CONTINUOUS
 10
8.7850479226
 20
5.8541383149
 11
8.7850479226
 21
6.2483876234
  0
LINE
  5
259
100
AcDbEntity
  8
ALL_ASSEMBLY_MEMBERS
100
AcDbLine
 62
7
  6
CONTINUOUS
 10
8.956927795
 20
5.9420129691
 11
8.956927795
 21
6.1605129691
  0
LINE
  5
25A
100
AcDbEntity
  8
ALL_ASSEMBLY_MEMBERS
100
AcDbLine
 62
7
  6
CONTINUOUS
 10
9.0533988773
 20
5.943164705
 11
9.0533988773
 21
6.1593612333
  0
LINE
  5
25B
100
AcDbEntity
  8
ALL_ASSEMBLY_MEMBERS
100
AcDbLine
 62
7
  6
CONTINUOUS
 10
9.118427795
 20
5.9325129691
 11
9.118427795
 21
6.1700129691
  0
ARC
  5
25C
100
AcDbEntity
  8
ALL_ASSEMBLY_MEMBERS
100
AcDbCircle
 62
7
  6
CONTINUOUS
 10
5.6659280315
 20
3.4194149996
 40
1.0709435873
100
AcDbArc
 50
269.9996563496
 51
270.2442394089
  0
ARC
  5
25D
100
AcDbEntity
  8
ALL_ASSEMBLY_MEMBERS
100
AcDbCircle
 62
7
  6
CONTINUOUS
 10
5.665927795
 20
3.0512629691
 40
0.7125
100
AcDbArc
 50
297.698928796
 51
242.3038011389
  0
ARC
  5
25E
100
AcDbEntity
  8
ALL_ASSEMBLY_MEMBERS
100
AcDbCircle
 62
7
  6
CONTINUOUS
 10
5.665927795
 20
3.0512629691
 40
0.6465838329
100
AcDbArc
 50
303.2279127793
 51
236.7734779516
  0
ARC
  5
25F
100
AcDbEntity
  8
ALL_ASSEMBLY_MEMBERS
100
AcDbCircle
 62
7
  6
CONTINUOUS
 10
5.665927795
 20
3.0512629691
 40
0.6265
100
AcDbArc
 50
303.7875805686
 51
236.2164441795
  0
ARC
  5
260
100
AcDbEntity
  8
ALL_ASSEMBLY_MEMBERS
100
AcDbCircle
 62
7
  6
CONTINUOUS
 10
5.665927795
 20
3.0512629691
 40
0.58625
100
AcDbArc
 50
303.9275101286
 51
236.073749642
  0
ARC
  5
261
100
AcDbEntity
  8
ALL_ASSEMBLY_MEMBERS
100
AcDbCircle
 62
7
  6
CONTINUOUS
 10
5.5470726406
 20
2.0631435166
 40
0.429188234
100
AcDbArc
 50
105.2210086288
 51
106.425391352
  0
ARC
  5
262
100
AcDbEntity
  8
ALL_ASSEMBLY_MEMBERS
100
AcDbCircle
 62
7
  6
CONTINUOUS
 10
5.4898907708
 20
2.2347907287
 40
0.2481892211
100
AcDbArc
 50
111.1668722772
 51
112.5757696947
  0
ARC
  5
263
100
AcDbEntity
  8
ALL_ASSEMBLY_MEMBERS
100
AcDbCircle
 62
7
  6
CONTINUOUS
 10
5.4787936056
 20
2.261618027
 40
0.219157378
100
AcDbArc
 50
112.5894458147
 51
114.121226925
  0
ARC
  5
264
100
AcDbEntity
  8
ALL_ASSEMBLY_MEMBERS
100
AcDbCircle
 62
7
  6
CONTINUOUS
 10
5.5005013228
 20
2.2892157837
 40
0.1830154863
100
AcDbArc
 50
112.3161456781
 51
114.6555270983
  0
ARC
  5
265
100
AcDbEntity
  8
ALL_ASSEMBLY_MEMBERS
100
AcDbCircle
 62
7
  6
CONTINUOUS
 10
5.4431997952
 20
2.4778439144
 40
0.1351650713
100
AcDbArc
 50
118.1741062976
 51
120.9088452904
  0
ARC
  5
266
100
AcDbEntity
  8
ALL_ASSEMBLY_MEMBERS
100
AcDbCircle
 62
7
  6
CONTINUOUS
 10
5.4888492228
 20
2.3344277018
 40
0.1313090049
100
AcDbArc
 50
115.9876054954
 51
118.238869095
  0
ARC
  5
267
100
AcDbEntity
  8
ALL_ASSEMBLY_MEMBERS
100
AcDbCircle
 62
7
  6
CONTINUOUS
 10
5.4683954897
 20
2.3701575696
 40
0.0901259649
100
AcDbArc
 50
121.7130699607
 51
123.3902523191
  0
ARC
  5
268
100
AcDbEntity
  8
ALL_ASSEMBLY_MEMBERS
100
AcDbCircle
 62
7
  6
CONTINUOUS
 10
5.4554721519
 20
2.4668073028
 40
0.0854578741
100
AcDbArc
 50
233.6801672323
 51
235.0824763012
  0
ARC
  5
269
100
AcDbEntity
  8
ALL_ASSEMBLY_MEMBERS
100
AcDbCircle
 62
7
  6
CONTINUOUS
 10
5.4421112422
 20
2.4496666032
 40
0.0637180018
100
AcDbArc
 50
228.9893540347
 51
229.5121244644
  0
ARC
  5
26A
100
AcDbEntity
  8
ALL_ASSEMBLY_MEMBERS
100
AcDbCircle
 62
7
  6
CONTINUOUS
 10
5.4261160436
 20
2.4173082989
 40
0.0262910189
100
AcDbArc
 50
149.7706906969
 51
150.8935958688
  0
ARC
  5
26B
100
AcDbEntity
  8
ALL_ASSEMBLY_MEMBERS
100
AcDbCircle
 62
7
  6
CONTINUOUS
 10
5.4193691237
 20
2.424708799
 40
0.0250821123
100
AcDbArc
 50
154.2697465811
 51
156.402273385
  0
ARC
  5
26C
100
AcDbEntity
  8
ALL_ASSEMBLY_MEMBERS
100
AcDbCircle
 62
7
  6
CONTINUOUS
 10
5.4091924434
 20
2.4240214858
 40
0.0214318885
100
AcDbArc
 50
189.8801080513
 51
192.7347750673
  0
ARC
  5
26D
100
AcDbEntity
  8
ALL_ASSEMBLY_MEMBERS
100
AcDbCircle
 62
7
  6
CONTINUOUS
 10
5.4085508012
 20
2.4239086249
 40
0.0207803972
100
AcDbArc
 50
185.1143915831
 51
189.8771039809
  0
ARC
  5
26E
100
AcDbEntity
  8
ALL_ASSEMBLY_MEMBERS
100
AcDbCircle
 62
7
  6
CONTINUOUS
 10
2.5194460597
 20
6.0077629691
 40
0.1565
100
AcDbArc
 50
204.842656017
 51
281.0
  0
ARC
  5
26F
100
AcDbEntity
  8
ALL_ASSEMBLY_MEMBERS
100
AcDbCircle
 62
7
  6
CONTINUOUS
 10
2.3298778213
 20
6.0000129691
 40
0.075
100
AcDbArc
 50
229.2861651139
 51
309.3458297662
  0
ARC
  5
270
100
AcDbEntity
  8
ALL_ASSEMBLY_MEMBERS
100
AcDbCircle
 62
7
  6
CONTINUOUS
 10
2.2529086105
 20
5.9105717002
 40
0.043
100
AcDbArc
 50
49.2861651139
 51
149.3187124064
  0
ARC
  5
271
100
AcDbEntity
  8
ALL_ASSEMBLY_MEMBERS
100
AcDbCircle
 62
7
  6
CONTINUOUS
 10
2.5194460597
 20
6.0947629691
 40
0.1565
100
AcDbArc
 50
79.0
 51
155.157343983
  0
ARC
  5
272
100
AcDbEntity
  8
ALL_ASSEMBLY_MEMBERS
100
AcDbCircle
 62
7
  6
CONTINUOUS
 10
2.2549136235
 20
6.0512629691
 40
0.1249858285
100
AcDbArc
 50
108.1750968409
 51
251.8249031591
  0
ARC
  5
273
100
AcDbEntity
  8
ALL_ASSEMBLY_MEMBERS
100
AcDbCircle
 62
7
  6
CONTINUOUS
 10
2.3298778213
 20
6.1025129691
 40
0.075
100
AcDbArc
 50
50.6541702338
 51
130.7138348861
  0
ARC
  5
274
100
AcDbEntity
  8
ALL_ASSEMBLY_MEMBERS
100
AcDbCircle
 62
7
  6
CONTINUOUS
 10
2.2529086105
 20
6.1919542381
 40
0.043
100
AcDbArc
 50
210.6812875936
 51
310.7138348861
  0
ARC
  5
275
100
AcDbEntity
  8
ALL_ASSEMBLY_MEMBERS
100
AcDbCircle
 62
7
  6
CONTINUOUS
 10
3.2198325001
 20
5.220437618
 40
0.75
100
AcDbArc
 50
70.2371945424
 51
101.0
  0
ARC
  5
276
100
AcDbEntity
  8
ALL_ASSEMBLY_MEMBERS
100
AcDbCircle
 62
7
  6
CONTINUOUS
 10
3.2198325001
 20
6.8820883203
 40
0.75
100
AcDbArc
 50
259.0
 51
289.7628054576
  0
ARC
  5
277
100
AcDbEntity
  8
ALL_ASSEMBLY_MEMBERS
100
AcDbCircle
 62
7
  6
CONTINUOUS
 10
3.698427795
 20
6.0512629691
 40
0.585
100
AcDbArc
 50
188.6130258039
 51
171.3869741961
  0
ARC
  5
278
100
AcDbEntity
  8
ALL_ASSEMBLY_MEMBERS
100
AcDbCircle
 62
7
  6
CONTINUOUS
 10
3.698427795
 20
6.0512629691
 40
0.5521858552
100
AcDbArc
 50
188.7400455962
 51
171.2599544038
  0
ARC
  5
279
100
AcDbEntity
  8
ALL_ASSEMBLY_MEMBERS
100
AcDbCircle
 62
7
  6
CONTINUOUS
 10
3.698427795
 20
6.0512629691
 40
0.5359611848
100
AcDbArc
 50
188.8750963742
 51
171.1249036258
  0
ARC
  5
27A
100
AcDbEntity
  8
ALL_ASSEMBLY_MEMBERS
100
AcDbCircle
 62
7
  6
CONTINUOUS
 10
3.698427795
 20
6.0512629691
 40
0.5203729638
100
AcDbArc
 50
189.0325747734
 51
170.9674252266
  0
ARC
  5
27B
100
AcDbEntity
  8
ALL_ASSEMBLY_MEMBERS
100
AcDbCircle
 62
7
  6
CONTINUOUS
 10
3.698427795
 20
6.0512629691
 40
0.5082352532
100
AcDbArc
 50
189.2069348491
 51
170.7930651509
  0
ARC
  5
27C
100
AcDbEntity
  8
ALL_ASSEMBLY_MEMBERS
100
AcDbCircle
 62
7
  6
CONTINUOUS
 10
3.698427795
 20
6.0512629691
 40
0.4896717785
100
AcDbArc
 50
189.5136893852
 51
170.4863106148
  0
ARC
  5
27D
100
AcDbEntity
  8
ALL_ASSEMBLY_MEMBERS
100
AcDbCircle
 62
7
  6
CONTINUOUS
 10
3.698427795
 20
6.0512629691
 40
0.4759740768
100
AcDbArc
 50
189.7979401475
 51
170.2020598525
  0
ARC
  5
27E
100
AcDbEntity
  8
ALL_ASSEMBLY_MEMBERS
100
AcDbCircle
 62
7
  6
CONTINUOUS
 10
3.698427795
 20
6.0512629691
 40
0.4709118851
100
AcDbArc
 50
189.9071741744
 51
170.0928258256
  0
ARC
  5
27F
100
AcDbEntity
  8
ALL_ASSEMBLY_MEMBERS
100
AcDbCircle
 62
7
  6
CONTINUOUS
 10
3.698427795
 20
6.0512629691
 40
0.4093694877
100
AcDbArc
 50
191.9884991754
 51
168.0115008246
  0
ARC
  5
280
100
AcDbEntity
  8
ALL_ASSEMBLY_MEMBERS
100
AcDbCircle
 62
7
  6
CONTINUOUS
 10
3.698427795
 20
6.0512629691
 40
0.3938737817
100
AcDbArc
 50
192.741794579
 51
167.258205421
  0
ARC
  5
281
100
AcDbEntity
  8
ALL_ASSEMBLY_MEMBERS
100
AcDbCircle
 62
7
  6
CONTINUOUS
 10
3.698427795
 20
6.0512629691
 40
0.2622475503
100
AcDbArc
 50
207.9098493937
 51
152.0901506063
  0
ARC
  5
282
100
AcDbEntity
  8
ALL_ASSEMBLY_MEMBERS
100
AcDbCircle
 62
7
  6
CONTINUOUS
 10
3.698427795
 20
6.0512629691
 40
0.2275
100
AcDbArc
 50
213.3669941408
 51
146.6330058592
  0
CIRCLE
  5
283
100
AcDbEntity
  8
ALL_ASSEMBLY_MEMBERS
100
AcDbCircle
 62
7
  6
CONTINUOUS
 10
3.698427795
 20
6.0512629691
 40
0.16525
  0
CIRCLE
  5
284
100
AcDbEntity
  8
ALL_ASSEMBLY_MEMBERS
100
AcDbCircle
 62
7
  6
CONTINUOUS
 10
3.698427795
 20
6.0512629691
 40
0.14175
  0
CIRCLE
  5
285
100
AcDbEntity
  8
ALL_ASSEMBLY_MEMBERS
100
AcDbCircle
 62
7
  6
CONTINUOUS
 10
3.698427795
 20
6.0512629691
 40
0.136
  0
CIRCLE
  5
286
100
AcDbEntity
  8
ALL_ASSEMBLY_MEMBERS
100
AcDbCircle
 62
7
  6
CONTINUOUS
 10
3.698427795
 20
6.0512629691
 40
0.118
  0
CIRCLE
  5
287
100
AcDbEntity
  8
ALL_ASSEMBLY_MEMBERS
100
AcDbCircle
 62
7
  6
CONTINUOUS
 10
3.698427795
 20
6.0512629691
 40
0.09
  0
CIRCLE
  5
288
100
AcDbEntity
  8
ALL_ASSEMBLY_MEMBERS
100
AcDbCircle
 62
7
  6
CONTINUOUS
 10
3.698427795
 20
6.0512629691
 40
0.085
  0
ARC
  5
289
100
AcDbEntity
  8
ALL_ASSEMBLY_MEMBERS
100
AcDbCircle
 62
7
  6
CONTINUOUS
 10
5.8908979192
 20
2.4818001708
 40
0.1306189849
100
AcDbArc
 50
59.0435550244
 51
61.8734933875
  0
ARC
  5
28A
100
AcDbEntity
  8
ALL_ASSEMBLY_MEMBERS
100
AcDbCircle
 62
7
  6
CONTINUOUS
 10
5.8548998084
 20
2.4853820391
 40
0.1074443644
100
AcDbArc
 50
298.5976138167
 51
300.8362248904
  0
ARC
  5
28B
100
AcDbEntity
  8
ALL_ASSEMBLY_MEMBERS
100
AcDbCircle
 62
7
  6
CONTINUOUS
 10
5.8642142499
 20
2.4696780949
 40
0.0891859571
100
AcDbArc
 50
300.8695700591
 51
303.3588634766
  0
ARC
  5
28C
100
AcDbEntity
  8
ALL_ASSEMBLY_MEMBERS
100
AcDbCircle
 62
7
  6
CONTINUOUS
 10
5.8736981198
 20
2.3850747533
 40
0.0720303631
100
AcDbArc
 50
53.2175034427
 51
54.3496410462
  0
ARC
  5
28D
100
AcDbEntity
  8
ALL_ASSEMBLY_MEMBERS
100
AcDbCircle
 62
7
  6
CONTINUOUS
 10
5.8854188992
 20
2.4556917665
 40
0.0645044862
100
AcDbArc
 50
306.5594215256
 51
309.2481483417
  0
ARC
  5
28E
100
AcDbEntity
  8
ALL_ASSEMBLY_MEMBERS
100
AcDbCircle
 62
7
  6
CONTINUOUS
 10
5.890299884
 20
2.4580181215
 40
0.0621617757
100
AcDbArc
 50
306.7888494748
 51
309.5928633201
  0
ARC
  5
28F
100
AcDbEntity
  8
ALL_ASSEMBLY_MEMBERS
100
AcDbCircle
 62
7
  6
CONTINUOUS
 10
5.8853102109
 20
2.4405981221
 40
0.0532222299
100
AcDbArc
 50
310.1124518019
 51
313.3149345977
  0
ARC
  5
290
100
AcDbEntity
  8
ALL_ASSEMBLY_MEMBERS
100
AcDbCircle
 62
7
  6
CONTINUOUS
 10
5.8894915236
 20
2.4360992484
 40
0.047080483
100
AcDbArc
 50
313.3684396626
 51
315.3687507629
  0
ARC
  5
291
100
AcDbEntity
  8
ALL_ASSEMBLY_MEMBERS
100
AcDbCircle
 62
7
  6
CONTINUOUS
 10
5.892381367
 20
2.4332336322
 40
0.0430107335
100
AcDbArc
 50
315.3808215718
 51
317.7762836518
  0
ARC
  5
292
100
AcDbEntity
  8
ALL_ASSEMBLY_MEMBERS
100
AcDbCircle
 62
7
  6
CONTINUOUS
 10
5.8950529747
 20
2.4307878601
 40
0.0393887151
100
AcDbArc
 50
317.7992173213
 51
319.8078581099
  0
ARC
  5
293
100
AcDbEntity
  8
ALL_ASSEMBLY_MEMBERS
100
AcDbCircle
 62
7
  6
CONTINUOUS
 10
5.9029209244
 20
2.4152815113
 40
0.038425751
100
AcDbArc
 50
40.8791657957
 51
42.7350313939
  0
ARC
  5
294
100
AcDbEntity
  8
ALL_ASSEMBLY_MEMBERS
100
AcDbCircle
 62
7
  6
CONTINUOUS
 10
5.8971088908
 20
2.413072459
 40
0.0380745706
100
AcDbArc
 50
41.6407188339
 51
43.7083475367
  0
ARC
  5
295
100
AcDbEntity
  8
ALL_ASSEMBLY_MEMBERS
100
AcDbCircle
 62
7
  6
CONTINUOUS
 10
5.9048753642
 20
2.4193867128
 40
0.0280571992
100
AcDbArc
 50
34.3025780215
 51
35.0275302204
  0
ARC
  5
296
100
AcDbEntity
  8
ALL_ASSEMBLY_MEMBERS
100
AcDbCircle
 62
7
  6
CONTINUOUS
 10
8.11452309
 20
5.220437618
 40
0.75
100
AcDbArc
 50
79.0
 51
109.7628054576
  0
ARC
  5
297
100
AcDbEntity
  8
ALL_ASSEMBLY_MEMBERS
100
AcDbCircle
 62
7
  6
CONTINUOUS
 10
7.635927795
 20
6.0512629691
 40
0.585
100
AcDbArc
 50
8.6130258039
 51
351.3869741961
  0
ARC
  5
298
100
AcDbEntity
  8
ALL_ASSEMBLY_MEMBERS
100
AcDbCircle
 62
7
  6
CONTINUOUS
 10
7.635927795
 20
6.0512629691
 40
0.5521858552
100
AcDbArc
 50
8.7400455962
 51
351.2599544038
  0
ARC
  5
299
100
AcDbEntity
  8
ALL_ASSEMBLY_MEMBERS
100
AcDbCircle
 62
7
  6
CONTINUOUS
 10
7.635927795
 20
6.0512629691
 40
0.5359611848
100
AcDbArc
 50
8.8750963742
 51
351.1249036258
  0
ARC
  5
29A
100
AcDbEntity
  8
ALL_ASSEMBLY_MEMBERS
100
AcDbCircle
 62
7
  6
CONTINUOUS
 10
7.635927795
 20
6.0512629691
 40
0.5203729638
100
AcDbArc
 50
9.0325747734
 51
350.9674252266
  0
ARC
  5
29B
100
AcDbEntity
  8
ALL_ASSEMBLY_MEMBERS
100
AcDbCircle
 62
7
  6
CONTINUOUS
 10
7.635927795
 20
6.0512629691
 40
0.5082352532
100
AcDbArc
 50
9.2069348491
 51
350.7930651509
  0
ARC
  5
29C
100
AcDbEntity
  8
ALL_ASSEMBLY_MEMBERS
100
AcDbCircle
 62
7
  6
CONTINUOUS
 10
7.635927795
 20
6.0512629691
 40
0.4896717785
100
AcDbArc
 50
9.5136893852
 51
350.4863106148
  0
ARC
  5
29D
100
AcDbEntity
  8
ALL_ASSEMBLY_MEMBERS
100
AcDbCircle
 62
7
  6
CONTINUOUS
 10
7.635927795
 20
6.0512629691
 40
0.4759740768
100
AcDbArc
 50
9.7979401475
 51
350.2020598525
  0
ARC
  5
29E
100
AcDbEntity
  8
ALL_ASSEMBLY_MEMBERS
100
AcDbCircle
 62
7
  6
CONTINUOUS
 10
7.635927795
 20
6.0512629691
 40
0.4709118851
100
AcDbArc
 50
9.9071741744
 51
350.0928258256
  0
ARC
  5
29F
100
AcDbEntity
  8
ALL_ASSEMBLY_MEMBERS
100
AcDbCircle
 62
7
  6
CONTINUOUS
 10
7.635927795
 20
6.0512629691
 40
0.4093694877
100
AcDbArc
 50
11.9884991754
 51
348.0115008246
  0
ARC
  5
2A0
100
AcDbEntity
  8
ALL_ASSEMBLY_MEMBERS
100
AcDbCircle
 62
7
  6
CONTINUOUS
 10
7.635927795
 20
6.0512629691
 40
0.3938737817
100
AcDbArc
 50
12.741794579
 51
347.258205421
  0
ARC
  5
2A1
100
AcDbEntity
  8
ALL_ASSEMBLY_MEMBERS
100
AcDbCircle
 62
7
  6
CONTINUOUS
 10
7.635927795
 20
6.0512629691
 40
0.2622475503
100
AcDbArc
 50
27.9098493937
 51
332.0901506063
  0
ARC
  5
2A2
100
AcDbEntity
  8
ALL_ASSEMBLY_MEMBERS
100
AcDbCircle
 62
7
  6
CONTINUOUS
 10
7.635927795
 20
6.0512629691
 40
0.2275
100
AcDbArc
 50
33.3669941408
 51
326.6330058592
  0
CIRCLE
  5
2A3
100
AcDbEntity
  8
ALL_ASSEMBLY_MEMBERS
100
AcDbCircle
 62
7
  6
CONTINUOUS
 10
7.635927795
 20
6.0512629691
 40
0.16525
  0
CIRCLE
  5
2A4
100
AcDbEntity
  8
ALL_ASSEMBLY_MEMBERS
100
AcDbCircle
 62
7
  6
CONTINUOUS
 10
7.635927795
 20
6.0512629691
 40
0.14175
  0
CIRCLE
  5
2A5
100
AcDbEntity
  8
ALL_ASSEMBLY_MEMBERS
100
AcDbCircle
 62
7
  6
CONTINUOUS
 10
7.635927795
 20
6.0512629691
 40
0.136
  0
CIRCLE
  5
2A6
100
AcDbEntity
  8
ALL_ASSEMBLY_MEMBERS
100
AcDbCircle
 62
7
  6
CONTINUOUS
 10
7.635927795
 20
6.0512629691
 40
0.118
  0
CIRCLE
  5
2A7
100
AcDbEntity
  8
ALL_ASSEMBLY_MEMBERS
100
AcDbCircle
 62
7
  6
CONTINUOUS
 10
7.635927795
 20
6.0512629691
 40
0.09
  0
CIRCLE
  5
2A8
100
AcDbEntity
  8
ALL_ASSEMBLY_MEMBERS
100
AcDbCircle
 62
7
  6
CONTINUOUS
 10
7.635927795
 20
6.0512629691
 40
0.085
  0
ARC
  5
2A9
100
AcDbEntity
  8
ALL_ASSEMBLY_MEMBERS
100
AcDbCircle
 62
7
  6
CONTINUOUS
 10
8.11452309
 20
6.8820883203
 40
0.75
100
AcDbArc
 50
250.2371945424
 51
281.0
  0
ARC
  5
2AA
100
AcDbEntity
  8
ALL_ASSEMBLY_MEMBERS
100
AcDbCircle
 62
7
  6
CONTINUOUS
 10
8.8149095304
 20
6.0077629691
 40
0.1565
100
AcDbArc
 50
259.0
 51
335.157343983
  0
ARC
  5
2AB
100
AcDbEntity
  8
ALL_ASSEMBLY_MEMBERS
100
AcDbCircle
 62
7
  6
CONTINUOUS
 10
9.0044777687
 20
6.0000129691
 40
0.075
100
AcDbArc
 50
230.6541702338
 51
310.7138348861
  0
ARC
  5
2AC
100
AcDbEntity
  8
ALL_ASSEMBLY_MEMBERS
100
AcDbCircle
 62
7
  6
CONTINUOUS
 10
9.0814469795
 20
5.9105717002
 40
0.043
100
AcDbArc
 50
30.6812875936
 51
130.7138348861
  0
ARC
  5
2AD
100
AcDbEntity
  8
ALL_ASSEMBLY_MEMBERS
100
AcDbCircle
 62
7
  6
CONTINUOUS
 10
8.8149095304
 20
6.0947629691
 40
0.1565
100
AcDbArc
 50
24.842656017
 51
101.0
  0
ARC
  5
2AE
100
AcDbEntity
  8
ALL_ASSEMBLY_MEMBERS
100
AcDbCircle
 62
7
  6
CONTINUOUS
 10
9.0794419665
 20
6.0512629691
 40
0.1249858285
100
AcDbArc
 50
288.1750968409
 51
71.8249031591
  0
ARC
  5
2AF
100
AcDbEntity
  8
ALL_ASSEMBLY_MEMBERS
100
AcDbCircle
 62
7
  6
CONTINUOUS
 10
9.0044777687
 20
6.1025129691
 40
0.075
100
AcDbArc
 50
49.2861651139
 51
129.3458297662
  0
ARC
  5
2B0
100
AcDbEntity
  8
ALL_ASSEMBLY_MEMBERS
100
AcDbCircle
 62
7
  6
CONTINUOUS
 10
9.0814469795
 20
6.1919542381
 40
0.043
100
AcDbArc
 50
229.2861651139
 51
329.3187124064
  0
SPLINE
  5
2B1
100
AcDbEntity
  8
ALL_ASSEMBLY_MEMBERS
100
AcDbSpline
 62
7
  6
CONTINUOUS
 70
0
 71
3
 72
46
 73
42
 74
0
 42
0.0000001
 43
0.0000001
 44
0.0000000001
 40
0.0
 40
0.0
 40
0.0
 40
0.0
 40
0.0114499477
 40
0.0234073103
 40
0.0488013788
 40
0.0760962518
 40
0.105194756
 40
0.1359784096
 40
0.1683137091
 40
0.2020552578
 40
0.237048999
 40
0.2731311933
 40
0.3101312367
 40
0.3478721277
 40
0.3861724207
 40
0.4248469782
 40
0.4637082535
 40
0.5025677446
 40
0.5412365886
 40
0.5795276514
 40
0.6172554713
 40
0.6542390395
 40
0.6903011232
 40
0.7252716934
 40
0.7589867293
 40
0.7912923819
 40
0.8220434209
 40
0.8511082023
 40
0.8783671408
 40
0.8912877197
 40
0.9037204417
 40
0.9156550792
 40
0.9270833074
 40
0.9379992616
 40
0.9483984025
 40
0.9582777356
 40
0.9676372266
 40
0.976480594
 40
0.9848144617
 40
0.9926490314
 40
1.0
 40
1.0
 40
1.0
 40
1.0
 10
5.4310072563
 20
2.4585239139
 30
0.0
 10
5.4328243275
 20
2.4592718031
 30
0.0
 10
5.4365611031
 20
2.4607474751
 30
0.0
 10
5.444427801
 20
2.4636227538
 30
0.0
 10
5.4549822036
 20
2.4670541249
 30
0.0
 10
5.4684972945
 20
2.4708533088
 30
0.0
 10
5.4830363205
 20
2.4743922501
 30
0.0
 10
5.4985247858
 20
2.4776533067
 30
0.0
 10
5.5148828053
 20
2.480618345
 30
0.0
 10
5.5320254237
 20
2.4832722381
 30
0.0
 10
5.5498637958
 20
2.4856004777
 30
0.0
 10
5.5683053771
 20
2.4875913488
 30
0.0
 10
5.5872544062
 20
2.489233802
 30
0.0
 10
5.6066123996
 20
2.4905197047
 30
0.0
 10
5.6262787666
 20
2.4914417844
 30
0.0
 10
5.6461512583
 20
2.4919956934
 30
0.0
 10
5.6661265854
 20
2.4921780167
 30
0.0
 10
5.6861008632
 20
2.4919882937
 30
0.0
 10
5.7059702769
 20
2.491427022
 30
0.0
 10
5.7256314889
 20
2.4904976601
 30
0.0
 10
5.7449823364
 20
2.4892045843
 30
0.0
 10
5.7639222046
 20
2.4875551255
 30
0.0
 10
5.7823527358
 20
2.4855574319
 30
0.0
 10
5.8001781669
 20
2.4832225889
 30
0.0
 10
5.817306031
 20
2.4805623351
 30
0.0
 10
5.8336474673
 20
2.4775913117
 30
0.0
 10
5.8491179761
 20
2.4743246087
 30
0.0
 10
5.8636373811
 20
2.4707800753
 30
0.0
 10
5.8750779619
 20
2.4675550395
 30
0.0
 10
5.8836888369
 20
2.464837333
 30
0.0
 10
5.8897481007
 20
2.4627779217
 30
0.0
 10
5.895516383
 20
2.4606634322
 30
0.0
 10
5.9009862002
 20
2.458496474
 30
0.0
 10
5.9061507193
 20
2.4562801209
 30
0.0
 10
5.9110033764
 20
2.4540172657
 30
0.0
 10
5.9155377773
 20
2.4517106291
 30
0.0
 10
5.9197480816
 20
2.4493630126
 30
0.0
 10
5.9236292286
 20
2.4469776577
 30
0.0
 10
5.9271764999
 20
2.4445574663
 30
0.0
 10
5.9303850233
 20
2.4421053016
 30
0.0
 10
5.9323567481
 20
2.4403978582
 30
0.0
 10
5.9332802189
 20
2.4395384126
 30
0.0
  0
SPLINE
  5
2B2
100
AcDbEntity
  8
ALL_ASSEMBLY_MEMBERS
100
AcDbSpline
 62
7
  6
CONTINUOUS
 70
0
 71
3
 72
9
 73
5
 74
0
 42
0.0000001
 43
0.0000001
 44
0.0000000001
 40
0.0
 40
0.0
 40
0.0
 40
0.0
 40
0.4780737216
 40
1.0
 40
1.0
 40
1.0
 40
1.0
 10
5.4089074484
 20
2.4478196268
 30
0.0
 10
5.4112519287
 20
2.4492087384
 30
0.0
 10
5.4162653556
 20
2.4519313339
 30
0.0
 10
5.4214302428
 20
2.4543499937
 30
0.0
 10
5.4241542595
 20
2.4555461602
 30
0.0
  0
SPLINE
  5
2B3
100
AcDbEntity
  8
ALL_ASSEMBLY_MEMBERS
100
AcDbSpline
 62
7
  6
CONTINUOUS
 70
0
 71
3
 72
11
 73
7
 74
0
 42
0.0000001
 43
0.0000001
 44
0.0000000001
 40
0.0
 40
0.0
 40
0.0
 40
0.0
 40
0.2753825577
 40
0.5329808993
 40
0.7739983492
 40
1.0
 40
1.0
 40
1.0
 40
1.0
 10
5.926229617
 20
2.405738648
 30
0.0
 10
5.9271559792
 20
2.4064968979
 30
0.0
 10
5.9289050949
 20
2.4080194002
 30
0.0
 10
5.9312803759
 20
2.4104070565
 30
0.0
 10
5.9333141616
 20
2.4128173878
 30
0.0
 10
5.9344752063
 20
2.4144877179
 30
0.0
 10
5.9349911567
 20
2.4153237859
 30
0.0
  0
SPLINE
  5
2B4
100
AcDbEntity
  8
ALL_ASSEMBLY_MEMBERS
100
AcDbSpline
 62
7
  6
CONTINUOUS
 70
0
 71
3
 72
15
 73
11
 74
0
 42
0.0000001
 43
0.0000001
 44
0.0000000001
 40
0.0
 40
0.0
 40
0.0
 40
0.0
 40
0.1316766896
 40
0.2559457204
 40
0.3753325024
 40
0.4927018482
 40
0.611075118
 40
0.7333952578
 40
0.8622972013
 40
1.0
 40
1.0
 40
1.0
 40
1.0
 10
5.9349911567
 20
2.4153237859
 30
0.0
 10
5.9355563811
 20
2.4162396995
 30
0.0
 10
5.9365502386
 20
2.4180886602
 30
0.0
 10
5.9376107034
 20
2.4209791488
 30
0.0
 10
5.9381849532
 20
2.4238869215
 30
0.0
 10
5.9382684496
 20
2.4268021161
 30
0.0
 10
5.9378597416
 20
2.4297135975
 30
0.0
 10
5.9369625865
 20
2.4326108559
 30
0.0
 10
5.9355847424
 20
2.4354864919
 30
0.0
 10
5.93439375
 20
2.4373187136
 30
0.0
 10
5.933730216
 20
2.4382278616
 30
0.0
  0
LINE
  5
2B5
100
AcDbEntity
  8
ALL_ASSEMBLY_MEMBERS
100
AcDbLine
 62
7
  6
CONTINUOUS
 10
5.933730216
 20
2.4382278616
 11
5.931974308
 21
2.4404298558
  0
SPLINE
  5
2B6
100
AcDbEntity
  8
ALL_ASSEMBLY_MEMBERS
100
AcDbSpline
 62
7
  6
CONTINUOUS
 70
0
 71
3
 72
17
 73
13
 74
0
 42
0.0000001
 43
0.0000001
 44
0.0000000001
 40
0.0
 40
0.0
 40
0.0
 40
0.0
 40
0.0488721732
 40
0.0981502916
 40
0.1482289173
 40
0.1994830189
 40
0.3067970028
 40
0.4225746223
 40
0.5486596844
 40
0.6864073324
 40
0.8366777251
 40
1.0
 40
1.0
 40
1.0
 40
1.0
 10
5.3877730325
 20
2.4202937065
 30
0.0
 10
5.3877730986
 20
2.4208827497
 30
0.0
 10
5.3878295136
 20
2.4220664784
 30
0.0
 10
5.3880823719
 20
2.4238375258
 30
0.0
 10
5.3885032882
 20
2.4256059445
 30
0.0
 10
5.3892997584
 20
2.4279941988
 30
0.0
 10
5.3907437818
 20
2.4309857719
 30
0.0
 10
5.3931120835
 20
2.4344792417
 30
0.0
 10
5.3961323359
 20
2.4379291671
 30
0.0
 10
5.3997962114
 20
2.4413292695
 30
0.0
 10
5.4040925412
 20
2.4446749494
 30
0.0
 10
5.4072385461
 20
2.4467757505
 30
0.0
 10
5.4089074484
 20
2.4478196268
 30
0.0
  0
SPLINE
  5
2B7
100
AcDbEntity
  8
ALL_ASSEMBLY_MEMBERS
100
AcDbSpline
 62
7
  6
CONTINUOUS
 70
0
 71
3
 72
24
 73
20
 74
0
 42
0.0000001
 43
0.0000001
 44
0.0000000001
 40
0.0
 40
0.0
 40
0.0
 40
0.0
 40
0.0676814763
 40
0.1348600246
 40
0.2017028811
 40
0.2682484091
 40
0.3343086401
 40
0.3670890817
 40
0.3996627763
 40
0.4641480117
 40
0.5277044164
 40
0.5902217958
 40
0.6516524355
 40
0.7120395276
 40
0.7713883172
 40
0.8296991184
 40
0.8871240569
 40
0.9438416744
 40
1.0
 40
1.0
 40
1.0
 40
1.0
 10
6.0221009725
 20
2.4903233294
 30
0.0
 10
6.0221009725
 20
2.4875921236
 30
0.0
 10
6.0218950079
 20
2.4821477274
 30
0.0
 10
6.0209722103
 20
2.4740533185
 30
0.0
 10
6.0194509814
 20
2.4660960486
 30
0.0
 10
6.0173563178
 20
2.458317673
 30
0.0
 10
6.0151603943
 20
2.4520087965
 30
0.0
 10
6.0131515307
 20
2.4470998984
 30
0.0
 10
6.0109953507
 20
2.4423235553
 30
0.0
 10
6.0080223586
 20
2.4365580258
 30
0.0
 10
6.0040486391
 20
2.4299683378
 30
0.0
 10
5.999731523
 20
2.4237481257
 30
0.0
 10
5.9951192703
 20
2.4179063511
 30
0.0
 10
5.9902612195
 20
2.4124379857
 30
0.0
 10
5.9852011899
 20
2.4073324751
 30
0.0
 10
5.9799756977
 20
2.4025728408
 30
0.0
 10
5.9746080157
 20
2.3981396001
 30
0.0
 10
5.9691151502
 20
2.3940061481
 30
0.0
 10
5.9653636184
 20
2.3914203274
 30
0.0
 10
5.9634737345
 20
2.3901697223
 30
0.0
  0
SPLINE
  5
2B8
100
AcDbEntity
  8
ALL_ASSEMBLY_MEMBERS
100
AcDbSpline
 62
7
  6
CONTINUOUS
 70
0
 71
3
 72
49
 73
45
 74
0
 42
0.0000001
 43
0.0000001
 44
0.0000000001
 40
0.0
 40
0.0
 40
0.0
 40
0.0
 40
0.0088277335
 40
0.0181947695
 40
0.0281046657
 40
0.0385581035
 40
0.0495523724
 40
0.0610825288
 40
0.0731416667
 40
0.0857205193
 40
0.0988086556
 40
0.1123938688
 40
0.1409989561
 40
0.171415039
 40
0.2035034163
 40
0.2371112093
 40
0.2720734548
 40
0.3082150706
 40
0.3453524397
 40
0.3832948364
 40
0.4218458874
 40
0.4608051144
 40
0.4999692849
 40
0.5391337404
 40
0.5780938205
 40
0.6166462874
 40
0.6545906524
 40
0.6917305287
 40
0.7278751738
 40
0.7628409488
 40
0.7964527449
 40
0.8285455674
 40
0.8589665032
 40
0.8875768086
 40
0.9011647506
 40
0.9142556892
 40
0.9268374059
 40
0.9388994632
 40
0.9504325851
 40
0.9614298515
 40
0.9718863097
 40
0.9817992317
 40
0.9911692819
 40
1.0
 40
1.0
 40
1.0
 40
1.0
 10
5.9634737316
 20
2.3901697397
 30
0.0
 10
5.9619763062
 20
2.3891789352
 30
0.0
 10
5.958836343
 20
2.3872170753
 30
0.0
 10
5.9538562604
 20
2.3844073957
 30
0.0
 10
5.9484739717
 20
2.381647662
 30
0.0
 10
5.942696878
 20
2.3789420247
 30
0.0
 10
5.9365329319
 20
2.3762939672
 30
0.0
 10
5.9299906149
 20
2.3737072184
 30
0.0
 10
5.9230789349
 20
2.3711855232
 30
0.0
 10
5.9158075358
 20
2.3687321919
 30
0.0
 10
5.9081864669
 20
2.3663508256
 30
0.0
 10
5.8973863154
 20
2.3632221103
 30
0.0
 10
5.8830828586
 20
2.359532636
 30
0.0
 10
5.8649892487
 20
2.3555140855
 30
0.0
 10
5.8457829909
 20
2.3518546314
 30
0.0
 10
5.8255712836
 20
2.3485750503
 30
0.0
 10
5.8044667972
 20
2.3456939821
 30
0.0
 10
5.7825874078
 20
2.3432277992
 30
0.0
 10
5.760055368
 20
2.3411905339
 30
0.0
 10
5.736996668
 20
2.3395937727
 30
0.0
 10
5.7135403005
 20
2.338446527
 30
0.0
 10
5.689817504
 20
2.3377552943
 30
0.0
 10
5.6659610181
 20
2.337524006
 30
0.0
 10
5.6421043463
 20
2.3377540116
 30
0.0
 10
5.618380993
 20
2.3384439684
 30
0.0
 10
5.5949237011
 20
2.3395899528
 30
0.0
 10
5.5718637144
 20
2.3411854747
 30
0.0
 10
5.5493300328
 20
2.3432215294
 30
0.0
 10
5.5274486558
 20
2.3456865371
 30
0.0
 10
5.5063418472
 20
2.3485664722
 30
0.0
 10
5.4861274968
 20
2.3518449691
 30
0.0
 10
5.46691829
 20
2.3555033945
 30
0.0
 10
5.4488214421
 20
2.3595209768
 30
0.0
 10
5.4345150961
 20
2.3632096651
 30
0.0
 10
5.4237124952
 20
2.3663377807
 30
0.0
 10
5.4160895095
 20
2.3687187364
 30
0.0
 10
5.4088161362
 20
2.3711716774
 30
0.0
 10
5.4019024272
 20
2.3736930014
 30
0.0
 10
5.3953580289
 20
2.3762793979
 30
0.0
 10
5.3891919533
 20
2.3789271251
 30
0.0
 10
5.3834126839
 20
2.3816324511
 30
0.0
 10
5.3780281773
 20
2.3843918951
 30
0.0
 10
5.3730458379
 20
2.3872013068
 30
0.0
 10
5.3699043223
 20
2.3891629813
 30
0.0
 10
5.3684061107
 20
2.3901536976
 30
0.0
  0
SPLINE
  5
2B9
100
AcDbEntity
  8
ALL_ASSEMBLY_MEMBERS
100
AcDbSpline
 62
7
  6
CONTINUOUS
 70
0
 71
3
 72
22
 73
18
 74
0
 42
0.0000001
 43
0.0000001
 44
0.0000000001
 40
0.0
 40
0.0
 40
0.0
 40
0.0
 40
0.1128108678
 40
0.1702820377
 40
0.2286061993
 40
0.2878996459
 40
0.3482851021
 40
0.4097488416
 40
0.4722609448
 40
0.5358119191
 40
0.6003000068
 40
0.665624821
 40
0.7316773588
 40
0.7982509605
 40
0.8651575228
 40
0.9323764955
 40
1.0
 40
1.0
 40
1.0
 40
1.0
 10
5.3684168272
 20
2.3901432129
 30
0.0
 10
5.3646184641
 20
2.3926551608
 30
0.0
 10
5.3590305081
 20
2.3966760894
 30
0.0
 10
5.3519098774
 20
2.4025498284
 30
0.0
 10
5.3466782569
 20
2.4073067361
 30
0.0
 10
5.3416166082
 20
2.412411507
 30
0.0
 10
5.3367578002
 20
2.4178811363
 30
0.0
 10
5.3321426394
 20
2.4237249871
 30
0.0
 10
5.3278201799
 20
2.4299455701
 30
0.0
 10
5.3238447613
 20
2.436537057
 30
0.0
 10
5.3202642383
 20
2.4434796326
 30
0.0
 10
5.3171327603
 20
2.4507467813
 30
0.0
 10
5.3145028814
 20
2.4582996166
 30
0.0
 10
5.3124070261
 20
2.4660840778
 30
0.0
 10
5.3108848037
 20
2.4740492509
 30
0.0
 10
5.3099613172
 20
2.4821481248
 30
0.0
 10
5.3097546176
 20
2.4875935701
 30
0.0
 10
5.3097546176
 20
2.4903233294
 30
0.0
  0
SPLINE
  5
2BA
100
AcDbEntity
  8
ALL_ASSEMBLY_MEMBERS
100
AcDbSpline
 62
7
  6
CONTINUOUS
 70
0
 71
3
 72
49
 73
45
 74
0
 42
0.0000001
 43
0.0000001
 44
0.0000000001
 40
0.0
 40
0.0
 40
0.0
 40
0.0
 40
0.0088307181
 40
0.0182007683
 40
0.0281136903
 40
0.0385701485
 40
0.0495674149
 40
0.0611005368
 40
0.0731625941
 40
0.0857443108
 40
0.0988352494
 40
0.1124231914
 40
0.1410334968
 40
0.1714544326
 40
0.2035472551
 40
0.2371590512
 40
0.2721248262
 40
0.3082694713
 40
0.3454093476
 40
0.3833537126
 40
0.4219061795
 40
0.4608662596
 40
0.5000307151
 40
0.5391948856
 40
0.5781541126
 40
0.6167051636
 40
0.6546475603
 40
0.6917849294
 40
0.7279265452
 40
0.7628887907
 40
0.7964965837
 40
0.828584961
 40
0.8590010439
 40
0.8876061312
 40
0.9011913444
 40
0.9142794807
 40
0.9268583333
 40
0.9389174712
 40
0.9504476276
 40
0.9614418965
 40
0.9718953343
 40
0.9818052305
 40
0.9911722665
 40
1.0
 40
1.0
 40
1.0
 40
1.0
 10
5.9634494794
 20
2.5904929611
 30
0.0
 10
5.9619512678
 20
2.5914836774
 30
0.0
 10
5.9588097522
 20
2.5934453519
 30
0.0
 10
5.9538274128
 20
2.5962547637
 30
0.0
 10
5.9484429062
 20
2.5990142076
 30
0.0
 10
5.9426636368
 20
2.6017195337
 30
0.0
 10
5.9364975611
 20
2.6043672609
 30
0.0
 10
5.9299531629
 20
2.6069536573
 30
0.0
 10
5.9230394539
 20
2.6094749814
 30
0.0
 10
5.9157660806
 20
2.6119279223
 30
0.0
 10
5.9081430949
 20
2.614308878
 30
0.0
 10
5.897340494
 20
2.6174369936
 30
0.0
 10
5.8830341479
 20
2.6211256819
 30
0.0
 10
5.8649373
 20
2.6251432643
 30
0.0
 10
5.8457280933
 20
2.6288016896
 30
0.0
 10
5.8255137428
 20
2.6320801866
 30
0.0
 10
5.8044069342
 20
2.6349601217
 30
0.0
 10
5.7825255573
 20
2.6374251293
 30
0.0
 10
5.7599918756
 20
2.6394611841
 30
0.0
 10
5.7369318889
 20
2.6410567059
 30
0.0
 10
5.713474597
 20
2.6422026903
 30
0.0
 10
5.6897512438
 20
2.6428926471
 30
0.0
 10
5.665894572
 20
2.6431226527
 30
0.0
 10
5.6420380861
 20
2.6428913644
 30
0.0
 10
5.6183152896
 20
2.6422001318
 30
0.0
 10
5.5948589221
 20
2.641052886
 30
0.0
 10
5.5718002221
 20
2.6394561248
 30
0.0
 10
5.5492681822
 20
2.6374188596
 30
0.0
 10
5.5273887929
 20
2.6349526766
 30
0.0
 10
5.5062843065
 20
2.6320716084
 30
0.0
 10
5.4860725992
 20
2.6287920273
 30
0.0
 10
5.4668663413
 20
2.6251325732
 30
0.0
 10
5.4487727314
 20
2.6211140227
 30
0.0
 10
5.4344692746
 20
2.6174245484
 30
0.0
 10
5.4236691232
 20
2.6142958331
 30
0.0
 10
5.4160480543
 20
2.6119144668
 30
0.0
 10
5.4087766552
 20
2.6094611355
 30
0.0
 10
5.4018649752
 20
2.6069394404
 30
0.0
 10
5.3953226582
 20
2.6043526916
 30
0.0
 10
5.3891587121
 20
2.601704634
 30
0.0
 10
5.3833816184
 20
2.5989989967
 30
0.0
 10
5.3779993297
 20
2.596239263
 30
0.0
 10
5.3730192471
 20
2.5934295835
 30
0.0
 10
5.3698792838
 20
2.5914677235
 30
0.0
 10
5.3683818585
 20
2.590476919
 30
0.0
  0
SPLINE
  5
2BB
100
AcDbEntity
  8
ALL_ASSEMBLY_MEMBERS
100
AcDbSpline
 62
7
  6
CONTINUOUS
 70
0
 71
3
 72
24
 73
20
 74
0
 42
0.0000001
 43
0.0000001
 44
0.0000000001
 40
0.0
 40
0.0
 40
0.0
 40
0.0
 40
0.0676814763
 40
0.1348600246
 40
0.2017028811
 40
0.2682484091
 40
0.3343086401
 40
0.3670890817
 40
0.3996627763
 40
0.4641480117
 40
0.5277044164
 40
0.5902217958
 40
0.6516524355
 40
0.7120395276
 40
0.7713883172
 40
0.8296991184
 40
0.8871240569
 40
0.9438416744
 40
1.0
 40
1.0
 40
1.0
 40
1.0
 10
5.3097546176
 20
2.4903233294
 30
0.0
 10
5.3097546176
 20
2.4930545352
 30
0.0
 10
5.3099605821
 20
2.4984989314
 30
0.0
 10
5.3108833798
 20
2.5065933403
 30
0.0
 10
5.3124046087
 20
2.5145506102
 30
0.0
 10
5.3144992723
 20
2.5223289858
 30
0.0
 10
5.3166951957
 20
2.5286378623
 30
0.0
 10
5.3187040593
 20
2.5335467603
 30
0.0
 10
5.3208602393
 20
2.5383231034
 30
0.0
 10
5.3238332314
 20
2.5440886329
 30
0.0
 10
5.3278069509
 20
2.5506783209
 30
0.0
 10
5.3321240671
 20
2.5568985331
 30
0.0
 10
5.3367363197
 20
2.5627403076
 30
0.0
 10
5.3415943705
 20
2.5682086731
 30
0.0
 10
5.3466544002
 20
2.5733141837
 30
0.0
 10
5.3518798924
 20
2.578073818
 30
0.0
 10
5.3572475744
 20
2.5825070586
 30
0.0
 10
5.3627404398
 20
2.5866405106
 30
0.0
 10
5.3664919716
 20
2.5892263313
 30
0.0
 10
5.3683818556
 20
2.5904769364
 30
0.0
  0
SPLINE
  5
2BC
100
AcDbEntity
  8
ALL_ASSEMBLY_MEMBERS
100
AcDbSpline
 62
7
  6
CONTINUOUS
 70
0
 71
3
 72
22
 73
18
 74
0
 42
0.0000001
 43
0.0000001
 44
0.0000000001
 40
0.0
 40
0.0
 40
0.0
 40
0.0
 40
0.1128108678
 40
0.1702820377
 40
0.2286061993
 40
0.2878996459
 40
0.3482851021
 40
0.4097488416
 40
0.4722609448
 40
0.5358119191
 40
0.6003000068
 40
0.665624821
 40
0.7316773588
 40
0.7982509605
 40
0.8651575228
 40
0.9323764955
 40
1.0
 40
1.0
 40
1.0
 40
1.0
 10
5.9634387628
 20
2.5905034459
 30
0.0
 10
5.9672371259
 20
2.5879914979
 30
0.0
 10
5.9728250819
 20
2.5839705694
 30
0.0
 10
5.9799457127
 20
2.5780968303
 30
0.0
 10
5.9851773331
 20
2.5733399226
 30
0.0
 10
5.9902389819
 20
2.5682351517
 30
0.0
 10
5.9950977898
 20
2.5627655224
 30
0.0
 10
5.9997129506
 20
2.5569216716
 30
0.0
 10
6.0040354102
 20
2.5507010886
 30
0.0
 10
6.0080108287
 20
2.5441096017
 30
0.0
 10
6.0115913517
 20
2.5371670261
 30
0.0
 10
6.0147228298
 20
2.5298998775
 30
0.0
 10
6.0173527086
 20
2.5223470421
 30
0.0
 10
6.0194485639
 20
2.5145625809
 30
0.0
 10
6.0209707864
 20
2.5065974078
 30
0.0
 10
6.0218942729
 20
2.4984985339
 30
0.0
 10
6.0221009725
 20
2.4930530887
 30
0.0
 10
6.0221009725
 20
2.4903233294
 30
0.0
  0
SPLINE
  5
2BD
100
AcDbEntity
  8
ALL_ASSEMBLY_MEMBERS
100
AcDbSpline
 62
7
  6
CONTINUOUS
 70
0
 71
3
 72
21
 73
17
 74
0
 42
0.0000001
 43
0.0000001
 44
0.0000000001
 40
0.0
 40
0.0
 40
0.0
 40
0.0
 40
0.1599743892
 40
0.3123003248
 40
0.385130015
 40
0.4555337236
 40
0.5233675018
 40
0.5884947406
 40
0.6507840818
 40
0.7101195865
 40
0.7664065319
 40
0.8195608407
 40
0.869520613
 40
0.9162501264
 40
0.9597349374
 40
1.0
 40
1.0
 40
1.0
 40
1.0
 10
5.5594734225
 20
2.3537829174
 30
0.0
 10
5.5509969735
 20
2.3547915572
 30
0.0
 10
5.5344775982
 20
2.3570088599
 30
0.0
 10
5.5142075618
 20
2.3604209901
 30
0.0
 10
5.4987355064
 20
2.3634821504
 30
0.0
 10
5.4877324527
 20
2.3658898232
 30
0.0
 10
5.4771834462
 20
2.3684382521
 30
0.0
 10
5.467115059
 20
2.3711207487
 30
0.0
 10
5.4575532134
 20
2.3739311032
 30
0.0
 10
5.4485223975
 20
2.3768627911
 30
0.0
 10
5.4400452136
 20
2.3799079801
 30
0.0
 10
5.4321430068
 20
2.3830597941
 30
0.0
 10
5.4248355976
 20
2.3863107547
 30
0.0
 10
5.4181406599
 20
2.3896524708
 30
0.0
 10
5.4120753361
 20
2.3930775622
 30
0.0
 10
5.4083180014
 20
2.3955038514
 30
0.0
 10
5.4065563479
 20
2.3967338244
 30
0.0
  0
LINE
  5
2BE
100
AcDbEntity
  8
ALL_ASSEMBLY_MEMBERS
100
AcDbLine
 62
7
  6
CONTINUOUS
 10
5.4048561271
 20
2.3979519015
 11
5.4007399641
 21
2.4012062987
  0
SPLINE
  5
2BF
100
AcDbEntity
  8
ALL_ASSEMBLY_MEMBERS
100
AcDbSpline
 62
7
  6
CONTINUOUS
 70
0
 71
3
 72
14
 73
10
 74
0
 42
0.0000001
 43
0.0000001
 44
0.0000000001
 40
0.0
 40
0.0
 40
0.0
 40
0.0
 40
0.1473012868
 40
0.2871824815
 40
0.4200483509
 40
0.5463907952
 40
0.7817773484
 40
0.892597576
 40
1.0
 40
1.0
 40
1.0
 40
1.0
 10
5.4002995373
 20
2.4015857848
 30
0.0
 10
5.3994938218
 20
2.4022864894
 30
0.0
 10
5.3979573509
 20
2.4036930016
 30
0.0
 10
5.3958328637
 20
2.4058766957
 30
0.0
 10
5.3939510528
 20
2.4080773974
 30
0.0
 10
5.391819227
 20
2.4109621673
 30
0.0
 10
5.3901039101
 20
2.4139511284
 30
0.0
 10
5.3888915782
 20
2.4170123572
 30
0.0
 10
5.3884593371
 20
2.4185376605
 30
0.0
 10
5.3882877594
 20
2.4192970777
 30
0.0
  0
SPLINE
  5
2C0
100
AcDbEntity
  8
ALL_ASSEMBLY_MEMBERS
100
AcDbSpline
 62
7
  6
CONTINUOUS
 70
0
 71
3
 72
13
 73
9
 74
0
 42
0.0000001
 43
0.0000001
 44
0.0000000001
 40
0.0
 40
0.0
 40
0.0
 40
0.0
 40
0.2687556253
 40
0.5267562399
 40
0.6508613753
 40
0.7712990299
 40
0.8877746321
 40
1.0
 40
1.0
 40
1.0
 40
1.0
 10
5.5913672386
 20
2.3511124978
 30
0.0
 10
5.5821467545
 20
2.3520962482
 30
0.0
 10
5.5641024136
 20
2.3542962501
 30
0.0
 10
5.5419081228
 20
2.3577502621
 30
0.0
 10
5.524855653
 20
2.3608953911
 30
0.0
 10
5.5126521424
 20
2.3633957854
 30
0.0
 10
5.500903698
 20
2.3660618039
 30
0.0
 10
5.4932493516
 20
2.3679827444
 30
0.0
 10
5.4895059265
 20
2.3689726044
 30
0.0
  0
LINE
  5
2C1
100
AcDbEntity
  8
ALL_ASSEMBLY_MEMBERS
100
AcDbLine
 62
7
  6
CONTINUOUS
 10
5.933484642
 20
2.4393471396
 11
5.9364600694
 21
2.4362869669
  0
LINE
  5
2C2
100
AcDbEntity
  8
ALL_ASSEMBLY_MEMBERS
100
AcDbLine
 62
7
  6
CONTINUOUS
 10
5.9364600694
 20
2.4362869669
 11
5.939115602
 21
2.4329061163
  0
LINE
  5
2C3
100
AcDbEntity
  8
ALL_ASSEMBLY_MEMBERS
100
AcDbLine
 62
7
  6
CONTINUOUS
 10
5.939115602
 20
2.4329061163
 11
5.9411404321
 21
2.4294958668
  0
LINE
  5
2C4
100
AcDbEntity
  8
ALL_ASSEMBLY_MEMBERS
100
AcDbLine
 62
7
  6
CONTINUOUS
 10
5.9411404321
 20
2.4294958668
 11
5.9425329003
 21
2.426056299
  0
SPLINE
  5
2C5
100
AcDbEntity
  8
ALL_ASSEMBLY_MEMBERS
100
AcDbSpline
 62
7
  6
CONTINUOUS
 70
0
 71
3
 72
11
 73
7
 74
0
 42
0.0000001
 43
0.0000001
 44
0.0000000001
 40
0.0
 40
0.0
 40
0.0
 40
0.0
 40
0.2549002286
 40
0.5052579452
 40
0.7529687599
 40
1.0
 40
1.0
 40
1.0
 40
1.0
 10
5.9425329003
 20
2.426056299
 30
0.0
 10
5.9427091764
 20
2.4254896333
 30
0.0
 10
5.9430114334
 20
2.4243509969
 30
0.0
 10
5.9433089455
 20
2.4226210214
 30
0.0
 10
5.9434450081
 20
2.4208892487
 30
0.0
 10
5.9434280759
 20
2.4197355778
 30
0.0
 10
5.9433930659
 20
2.4191615144
 30
0.0
  0
SPLINE
  5
2C6
100
AcDbEntity
  8
ALL_ASSEMBLY_MEMBERS
100
AcDbSpline
 62
7
  6
CONTINUOUS
 70
0
 71
3
 72
17
 73
13
 74
0
 42
0.0000001
 43
0.0000001
 44
0.0000000001
 40
0.0
 40
0.0
 40
0.0
 40
0.0
 40
0.0464085371
 40
0.0935362294
 40
0.141810527
 40
0.1916280163
 40
0.2971905713
 40
0.4126489571
 40
0.5397016528
 40
0.6795056814
 40
0.832790671
 40
1.0
 40
1.0
 40
1.0
 40
1.0
 10
5.9433930659
 20
2.4191615144
 30
0.0
 10
5.9433538597
 20
2.4185186463
 30
0.0
 10
5.9432075571
 20
2.4172261104
 30
0.0
 10
5.9427893053
 20
2.4152998835
 30
0.0
 10
5.9421717989
 20
2.4133781823
 30
0.0
 10
5.9410625946
 20
2.4107748962
 30
0.0
 10
5.9391413756
 20
2.4075238151
 30
0.0
 10
5.936103153
 20
2.4037515639
 30
0.0
 10
5.9322997933
 20
2.4000370923
 30
0.0
 10
5.9277430706
 20
2.3963869941
 30
0.0
 10
5.9224453541
 20
2.3928073418
 30
0.0
 10
5.9185962076
 20
2.3905718658
 30
0.0
 10
5.9165582009
 20
2.3894621477
 30
0.0
  0
SPLINE
  5
2C7
100
AcDbEntity
  8
ALL_ASSEMBLY_MEMBERS
100
AcDbSpline
 62
7
  6
CONTINUOUS
 70
0
 71
3
 72
26
 73
22
 74
0
 42
0.0000001
 43
0.0000001
 44
0.0000000001
 40
0.0
 40
0.0
 40
0.0
 40
0.0
 40
0.0192223103
 40
0.0394292799
 40
0.0606184606
 40
0.0827836108
 40
0.1059129395
 40
0.1299920699
 40
0.1809312492
 40
0.2354443519
 40
0.2933368654
 40
0.3543887626
 40
0.4183535087
 40
0.4849672928
 40
0.5539453405
 40
0.6249910495
 40
0.6977913759
 40
0.7720260753
 40
0.8473646461
 40
0.9234712193
 40
1.0
 40
1.0
 40
1.0
 40
1.0
 10
5.9165582009
 20
2.3894621477
 30
0.0
 10
5.9151438127
 20
2.388691997
 30
0.0
 10
5.9122120183
 20
2.3871679028
 30
0.0
 10
5.907628516
 20
2.3849786065
 30
0.0
 10
5.9027543769
 20
2.382831636
 30
0.0
 10
5.8975953391
 20
2.3807298102
 30
0.0
 10
5.8921576895
 20
2.3786753332
 30
0.0
 10
5.8843984006
 20
2.3759511973
 30
0.0
 10
5.8740416673
 20
2.3726978922
 30
0.0
 10
5.8608378194
 20
2.3690898081
 30
0.0
 10
5.8466976178
 20
2.3657254018
 30
0.0
 10
5.8316888117
 20
2.3626214319
 30
0.0
 10
5.8158831161
 20
2.3597925802
 30
0.0
 10
5.7993563493
 20
2.3572532662
 30
0.0
 10
5.7821877988
 20
2.3550151991
 30
0.0
 10
5.764460012
 20
2.3530900567
 30
0.0
 10
5.7462581898
 20
2.3514863822
 30
0.0
 10
5.7276698427
 20
2.3502128511
 30
0.0
 10
5.7087842319
 20
2.3492748002
 30
0.0
 10
5.6896925666
 20
2.3486777503
 30
0.0
 10
5.6769048541
 20
2.3485084768
 30
0.0
 10
5.6704932165
 20
2.3484811426
 30
0.0
  0
SPLINE
  5
2C8
100
AcDbEntity
  8
ALL_ASSEMBLY_MEMBERS
100
AcDbSpline
 62
7
  6
CONTINUOUS
 70
0
 71
3
 72
11
 73
7
 74
0
 42
0.0000001
 43
0.0000001
 44
0.0000000001
 40
0.0
 40
0.0
 40
0.0
 40
0.0
 40
0.252698484
 40
0.5043507387
 40
0.7538664888
 40
1.0
 40
1.0
 40
1.0
 40
1.0
 10
5.6659216081
 20
2.3484714124
 30
0.0
 10
5.6596364788
 20
2.3484714475
 30
0.0
 10
5.6470919648
 20
2.3485817288
 30
0.0
 10
5.6283473554
 20
2.349077282
 30
0.0
 10
5.6097777311
 20
2.3499010355
 30
0.0
 10
5.5974731913
 20
2.3506716721
 30
0.0
 10
5.5913672386
 20
2.3511124978
 30
0.0
  0
SPLINE
  5
2C9
100
AcDbEntity
  8
ALL_ASSEMBLY_MEMBERS
100
AcDbSpline
 62
7
  6
CONTINUOUS
 70
0
 71
3
 72
50
 73
46
 74
0
 42
0.0000001
 43
0.0000001
 44
0.0000000001
 40
0.0
 40
0.0
 40
0.0
 40
0.0
 40
0.0053398951
 40
0.0107826343
 40
0.0164222888
 40
0.0223431952
 40
0.0254332785
 40
0.0286196244
 40
0.0353066709
 40
0.0424529403
 40
0.0500941687
 40
0.0582574405
 40
0.0669619018
 40
0.0762210219
 40
0.0860430931
 40
0.0964319062
 40
0.1073882826
 40
0.1189095451
 40
0.1309906419
 40
0.143624549
 40
0.1568017496
 40
0.1705114972
 40
0.1847412781
 40
0.2147025124
 40
0.2465609704
 40
0.2801734801
 40
0.3153820771
 40
0.3520162588
 40
0.3898949786
 40
0.4288282601
 40
0.4686186404
 40
0.5090627452
 40
0.5499528416
 40
0.5910782038
 40
0.6322264849
 40
0.6731852099
 40
0.7137432015
 40
0.7536919255
 40
0.7928269243
 40
0.8309494055
 40
0.8678676488
 40
0.9033984755
 40
0.9373689258
 40
0.9696182893
 40
1.0
 40
1.0
 40
1.0
 40
1.0
 10
5.985427795
 20
2.420293707
 30
0.0
 10
5.985427795
 20
2.4213215676
 30
0.0
 10
5.9852768128
 20
2.42340005
 30
0.0
 10
5.9846017605
 20
2.426498066
 30
0.0
 10
5.98348052
 20
2.4295825788
 30
0.0
 10
5.9821960456
 20
2.4321007146
 30
0.0
 10
5.9809624019
 20
2.4340993045
 30
0.0
 10
5.9795429467
 20
2.4361527842
 30
0.0
 10
5.9774825046
 20
2.4387062718
 30
0.0
 10
5.9746197098
 20
2.4416937762
 30
0.0
 10
5.9713318485
 20
2.4446498172
 30
0.0
 10
5.9676233722
 20
2.4475705769
 30
0.0
 10
5.9634993559
 20
2.4504529929
 30
0.0
 10
5.9589651178
 20
2.4532932748
 30
0.0
 10
5.9540266778
 20
2.4560877528
 30
0.0
 10
5.9486907105
 20
2.4588329226
 30
0.0
 10
5.9429642857
 20
2.4615248106
 30
0.0
 10
5.9368552409
 20
2.4641599447
 30
0.0
 10
5.9303718751
 20
2.4667346966
 30
0.0
 10
5.9235230041
 20
2.4692453549
 30
0.0
 10
5.916318074
 20
2.4716886715
 30
0.0
 10
5.9087669263
 20
2.4740611224
 30
0.0
 10
5.8980661418
 20
2.4771792188
 30
0.0
 10
5.883893856
 20
2.4808587058
 30
0.0
 10
5.8659647945
 20
2.4848705464
 30
0.0
 10
5.8469309095
 20
2.4885286463
 30
0.0
 10
5.8268971791
 20
2.4918125019
 30
0.0
 10
5.8059739497
 20
2.4947036672
 30
0.0
 10
5.7842766867
 20
2.4971859063
 30
0.0
 10
5.7619251821
 20
2.4992452507
 30
0.0
 10
5.7390429354
 20
2.5008701531
 30
0.0
 10
5.7157564313
 20
2.502051548
 30
0.0
 10
5.6921944062
 20
2.5027828193
 30
0.0
 10
5.6684871345
 20
2.5030598421
 30
0.0
 10
5.6447657105
 20
2.5028810493
 30
0.0
 10
5.6211613055
 20
2.5022474851
 30
0.0
 10
5.5978044317
 20
2.501162701
 30
0.0
 10
5.5748242277
 20
2.499632749
 30
0.0
 10
5.5523477221
 20
2.4976661708
 30
0.0
 10
5.5304991046
 20
2.4952740372
 30
0.0
 10
5.5093990217
 20
2.4924697762
 30
0.0
 10
5.4891639677
 20
2.4892691227
 30
0.0
 10
5.4699053959
 20
2.4856900124
 30
0.0
 10
5.4517296552
 20
2.4817526642
 30
0.0
 10
5.4400350588
 20
2.4788118798
 30
0.0
 10
5.4343922727
 20
2.4772759531
 30
0.0
  0
SPLINE
  5
2CA
100
AcDbEntity
  8
ALL_ASSEMBLY_MEMBERS
100
AcDbSpline
 62
7
  6
CONTINUOUS
 70
0
 71
3
 72
9
 73
5
 74
0
 42
0.0000001
 43
0.0000001
 44
0.0000000001
 40
0.0
 40
0.0
 40
0.0
 40
0.0
 40
0.5177527747
 40
1.0
 40
1.0
 40
1.0
 40
1.0
 10
5.4255278468
 20
2.4747614829
 30
0.0
 10
5.4211154557
 20
2.4734569475
 30
0.0
 10
5.4126355846
 20
2.4707908475
 30
0.0
 10
5.4042695861
 20
2.4677832805
 30
0.0
 10
5.4002732539
 20
2.4662353012
 30
0.0
  0
SPLINE
  5
2CB
100
AcDbEntity
  8
ALL_ASSEMBLY_MEMBERS
100
AcDbSpline
 62
7
  6
CONTINUOUS
 70
0
 71
3
 72
23
 73
19
 74
0
 42
0.0000001
 43
0.0000001
 44
0.0000000001
 40
0.0
 40
0.0
 40
0.0
 40
0.0
 40
0.0896651997
 40
0.1752743275
 40
0.2568277395
 40
0.3343419258
 40
0.4078528214
 40
0.4774258948
 40
0.5431541056
 40
0.6051637469
 40
0.6636265918
 40
0.71876155
 40
0.7708439846
 40
0.8202197706
 40
0.867305346
 40
0.9125884071
 40
0.9566196763
 40
1.0
 40
1.0
 40
1.0
 40
1.0
 10
5.3892308626
 20
2.4616392044
 30
0.0
 10
5.3875268137
 20
2.4608752898
 30
0.0
 10
5.3842160899
 20
2.4593360921
 30
0.0
 10
5.3794367241
 20
2.4569323255
 30
0.0
 10
5.3749633607
 20
2.4544894449
 30
0.0
 10
5.3708007006
 20
2.4520100319
 30
0.0
 10
5.3669531679
 20
2.4494964421
 30
0.0
 10
5.3634246409
 20
2.4469513673
 30
0.0
 10
5.360218724
 20
2.4443773039
 30
0.0
 10
5.35733891
 20
2.4417764832
 30
0.0
 10
5.3547880734
 20
2.4391514697
 30
0.0
 10
5.3525689629
 20
2.4365045521
 30
0.0
 10
5.3506844635
 20
2.4338377188
 30
0.0
 10
5.349137019
 20
2.4311532155
 30
0.0
 10
5.3479292654
 20
2.4284533244
 30
0.0
 10
5.3470642579
 20
2.4257406464
 30
0.0
 10
5.3465439841
 20
2.4230197281
 30
0.0
 10
5.346427795
 20
2.4211971828
 30
0.0
 10
5.346427795
 20
2.420293707
 30
0.0
  0
SPLINE
  5
2CC
100
AcDbEntity
  8
ALL_ASSEMBLY_MEMBERS
100
AcDbSpline
 62
7
  6
CONTINUOUS
 70
0
 71
3
 72
17
 73
13
 74
0
 42
0.0000001
 43
0.0000001
 44
0.0000000001
 40
0.0
 40
0.0
 40
0.0
 40
0.0
 40
0.0497340646
 40
0.0998536896
 40
0.1507184213
 40
0.2026711054
 40
0.3110210935
 40
0.4272419797
 40
0.553112265
 40
0.6899491821
 40
0.8386980676
 40
1.0
 40
1.0
 40
1.0
 40
1.0
 10
5.985427795
 20
2.420293707
 30
0.0
 10
5.985427795
 20
2.4196509121
 30
0.0
 10
5.9853693727
 20
2.4183595925
 30
0.0
 10
5.9851071849
 20
2.4164268998
 30
0.0
 10
5.9846706217
 20
2.4144964567
 30
0.0
 10
5.9838455152
 20
2.4118919944
 30
0.0
 10
5.9823508781
 20
2.408628673
 30
0.0
 10
5.9798941487
 20
2.4048086923
 30
0.0
 10
5.9767589951
 20
2.4010328204
 30
0.0
 10
5.9729545413
 20
2.3973059018
 30
0.0
 10
5.9684890339
 20
2.3936332535
 30
0.0
 10
5.9652123621
 20
2.3913201429
 30
0.0
 10
5.9634737316
 20
2.3901697397
 30
0.0
  0
SPLINE
  5
2CD
100
AcDbEntity
  8
ALL_ASSEMBLY_MEMBERS
100
AcDbSpline
 62
7
  6
CONTINUOUS
 70
0
 71
3
 72
9
 73
5
 74
0
 42
0.0000001
 43
0.0000001
 44
0.0000000001
 40
0.0
 40
0.0
 40
0.0
 40
0.0
 40
0.2532794017
 40
1.0
 40
1.0
 40
1.0
 40
1.0
 10
5.5913672386
 20
2.3511124978
 30
0.0
 10
5.5886710641
 20
2.3512925232
 30
0.0
 10
5.5780290091
 20
2.3520473752
 30
0.0
 10
5.5673994058
 20
2.3529796288
 30
0.0
 10
5.5594734225
 20
2.3537829174
 30
0.0
  0
SPLINE
  5
2CE
100
AcDbEntity
  8
ALL_ASSEMBLY_MEMBERS
100
AcDbSpline
 62
7
  6
CONTINUOUS
 70
0
 71
3
 72
33
 73
29
 74
0
 42
0.0000001
 43
0.0000001
 44
0.0000000001
 40
0.0
 40
0.0
 40
0.0
 40
0.0
 40
0.0972319333
 40
0.1912628728
 40
0.2815647626
 40
0.3677240452
 40
0.4493613417
 40
0.5261185309
 40
0.5625656571
 40
0.597678681
 40
0.6314269884
 40
0.6637823066
 40
0.6947225569
 40
0.7242318374
 40
0.7522980584
 40
0.7789142062
 40
0.8040834253
 40
0.8278184457
 40
0.8501407527
 40
0.8710835694
 40
0.8906985635
 40
0.909056407
 40
0.9262487927
 40
0.9423938087
 40
0.9576426468
 40
0.97217904
 40
0.9862177382
 40
1.0
 40
1.0
 40
1.0
 40
1.0
 10
5.5594734225
 20
2.3537829174
 30
0.0
 10
5.5532620961
 20
2.3544488775
 30
0.0
 10
5.5410576689
 20
2.3558917911
 30
0.0
 10
5.5231457101
 20
2.3584348379
 30
0.0
 10
5.5060048986
 20
2.3613113117
 30
0.0
 10
5.4897305429
 20
2.3645039206
 30
0.0
 10
5.4744089006
 20
2.3679960136
 30
0.0
 10
5.4623022737
 20
2.3711914364
 30
0.0
 10
5.453164464
 20
2.3738959193
 30
0.0
 10
5.446717964
 20
2.3759517335
 30
0.0
 10
5.4405681157
 20
2.3780672204
 30
0.0
 10
5.4347233093
 20
2.3802397835
 30
0.0
 10
5.429191356
 20
2.3824664676
 30
0.0
 10
5.4239794544
 20
2.3847440612
 30
0.0
 10
5.419094561
 20
2.3870694943
 30
0.0
 10
5.4145433985
 20
2.3894399851
 30
0.0
 10
5.4103318986
 20
2.391852296
 30
0.0
 10
5.4064653409
 20
2.3943031054
 30
0.0
 10
5.4029487818
 20
2.3967893109
 30
0.0
 10
5.3997871459
 20
2.3993082618
 30
0.0
 10
5.396984375
 20
2.4018568311
 30
0.0
 10
5.3945438849
 20
2.4044320856
 30
0.0
 10
5.3924691713
 20
2.4070314718
 30
0.0
 10
5.3907642321
 20
2.4096528895
 30
0.0
 10
5.3894322717
 20
2.4122934199
 30
0.0
 10
5.3884766438
 20
2.4149501064
 30
0.0
 10
5.3879011522
 20
2.4176182453
 30
0.0
 10
5.3877729332
 20
2.4194082282
 30
0.0
 10
5.3877730325
 20
2.4202937065
 30
0.0
  0
SPLINE
  5
2CF
100
AcDbEntity
  8
ALL_ASSEMBLY_MEMBERS
100
AcDbSpline
 62
7
  6
CONTINUOUS
 70
0
 71
3
 72
17
 73
13
 74
0
 42
0.0000001
 43
0.0000001
 44
0.0000000001
 40
0.0
 40
0.0
 40
0.0
 40
0.0
 40
0.1613247586
 40
0.3100898707
 40
0.4469360078
 40
0.5728083899
 40
0.6890243991
 40
0.7973632588
 40
0.8493084896
 40
0.900164811
 40
0.9502753586
 40
1.0
 40
1.0
 40
1.0
 40
1.0
 10
5.3684061107
 20
2.3901536976
 30
0.0
 10
5.3666656058
 20
2.3913046342
 30
0.0
 10
5.3633854022
 20
2.3936188286
 30
0.0
 10
5.3589149875
 20
2.3972933141
 30
0.0
 10
5.3551063311
 20
2.4010221561
 30
0.0
 10
5.3519676921
 20
2.4048000264
 30
0.0
 10
5.3495082113
 20
2.4086220767
 30
0.0
 10
5.348011864
 20
2.4118872513
 30
0.0
 10
5.3471858199
 20
2.4144932006
 30
0.0
 10
5.346748766
 20
2.4164247249
 30
0.0
 10
5.3464862833
 20
2.4183585035
 30
0.0
 10
5.346427795
 20
2.4196505522
 30
0.0
 10
5.346427795
 20
2.420293707
 30
0.0
  0
SPLINE
  5
2D0
100
AcDbEntity
  8
ALL_ASSEMBLY_MEMBERS
100
AcDbSpline
 62
7
  6
CONTINUOUS
 70
0
 71
3
 72
28
 73
24
 74
0
 42
0.0000001
 43
0.0000001
 44
0.0000000001
 40
0.0
 40
0.0
 40
0.0
 40
0.0
 40
0.0910221711
 40
0.1813364583
 40
0.2699935093
 40
0.3562025591
 40
0.4392365016
 40
0.5183861036
 40
0.5929632172
 40
0.6623593271
 40
0.7260407523
 40
0.7835702547
 40
0.8346327928
 40
0.8576870054
 40
0.8790879771
 40
0.8988553721
 40
0.9170286473
 40
0.9336807268
 40
0.9489274634
 40
0.9629302173
 40
0.9759077577
 40
0.988147231
 40
1.0
 40
1.0
 40
1.0
 40
1.0
 10
5.665927795
 20
2.4730280874
 30
0.0
 10
5.6592745208
 20
2.4730280874
 30
0.0
 10
5.6460191088
 20
2.4728593582
 30
0.0
 10
5.6262961679
 20
2.4721069822
 30
0.0
 10
5.606950675
 20
2.4708584989
 30
0.0
 10
5.5881764522
 20
2.4691287902
 30
0.0
 10
5.5701505814
 20
2.4669332597
 30
0.0
 10
5.5530434623
 20
2.4642956772
 30
0.0
 10
5.5370191226
 20
2.4612401268
 30
0.0
 10
5.5222313149
 20
2.4577977685
 30
0.0
 10
5.5088190828
 20
2.4540027579
 30
0.0
 10
5.496909001
 20
2.4498915691
 30
0.0
 10
5.488043489
 20
2.4461192727
 30
0.0
 10
5.4818262899
 20
2.4429364031
 30
0.0
 10
5.4777650055
 20
2.4405769407
 30
0.0
 10
5.474153439
 20
2.4381687943
 30
0.0
 10
5.4710003875
 20
2.4357161377
 30
0.0
 10
5.4683132889
 20
2.433223147
 30
0.0
 10
5.4660974002
 20
2.4306943859
 30
0.0
 10
5.4643587092
 20
2.4281330233
 30
0.0
 10
5.4631054447
 20
2.4255413223
 30
0.0
 10
5.4623486192
 20
2.4229253687
 30
0.0
 10
5.4621788248
 20
2.4211600862
 30
0.0
 10
5.4621788248
 20
2.420293707
 30
0.0
  0
SPLINE
  5
2D1
100
AcDbEntity
  8
ALL_ASSEMBLY_MEMBERS
100
AcDbSpline
 62
7
  6
CONTINUOUS
 70
0
 71
3
 72
20
 73
16
 74
0
 42
0.0000001
 43
0.0000001
 44
0.0000000001
 40
0.0
 40
0.0
 40
0.0
 40
0.0
 40
0.152423754
 40
0.3020982176
 40
0.4460938689
 40
0.5151678681
 40
0.581882623
 40
0.6459396979
 40
0.7070515702
 40
0.7649427262
 40
0.8193581535
 40
0.8701580331
 40
0.9172730933
 40
0.9606225983
 40
1.0
 40
1.0
 40
1.0
 40
1.0
 10
5.665927795
 20
2.3515772505
 30
0.0
 10
5.6784007473
 20
2.3515772505
 30
0.0
 10
5.7031241957
 20
2.3520270955
 30
0.0
 10
5.739580868
 20
2.3540385525
 30
0.0
 10
5.7691422064
 20
2.3568323554
 30
0.0
 10
5.791854186
 20
2.3597343768
 30
0.0
 10
5.808025358
 20
2.3621805207
 30
0.0
 10
5.8234892713
 20
2.3649145541
 30
0.0
 10
5.8381660863
 20
2.3679229569
 30
0.0
 10
5.8519784941
 20
2.3711893545
 30
0.0
 10
5.8648578201
 20
2.3747031573
 30
0.0
 10
5.8767522041
 20
2.3784437517
 30
0.0
 10
5.8876229622
 20
2.3823875272
 30
0.0
 10
5.8974231929
 20
2.3865039026
 30
0.0
 10
5.9034998988
 20
2.3895023856
 30
0.0
 10
5.9063286221
 20
2.3910455744
 30
0.0
  0
SPLINE
  5
2D2
100
AcDbEntity
  8
ALL_ASSEMBLY_MEMBERS
100
AcDbSpline
 62
7
  6
CONTINUOUS
 70
0
 71
3
 72
9
 73
5
 74
0
 42
0.0000001
 43
0.0000001
 44
0.0000000001
 40
0.0
 40
0.0
 40
0.0
 40
0.0
 40
0.2622564612
 40
1.0
 40
1.0
 40
1.0
 40
1.0
 10
5.9132559313
 20
2.3951861596
 30
0.0
 10
5.913832614
 20
2.3955666981
 30
0.0
 10
5.9160125936
 20
2.3970459453
 30
0.0
 10
5.9181147517
 20
2.3986419948
 30
0.0
 10
5.9196007535
 20
2.3998947506
 30
0.0
  0
SPLINE
  5
2D3
100
AcDbEntity
  8
ALL_ASSEMBLY_MEMBERS
100
AcDbSpline
 62
7
  6
CONTINUOUS
 70
0
 71
3
 72
21
 73
17
 74
0
 42
0.0000001
 43
0.0000001
 44
0.0000000001
 40
0.0
 40
0.0
 40
0.0
 40
0.0
 40
0.1562564008
 40
0.3093786905
 40
0.3836761761
 40
0.4559716825
 40
0.5259083038
 40
0.5931415002
 40
0.6573338013
 40
0.7181663025
 40
0.7753718528
 40
0.8287058175
 40
0.8779539936
 40
0.9229721304
 40
0.9636629244
 40
1.0
 40
1.0
 40
1.0
 40
1.0
 10
5.665927795
 20
2.3515772505
 30
0.0
 10
5.6527164544
 20
2.3515772505
 30
0.0
 10
5.6265561857
 20
2.3520820368
 30
0.0
 10
5.5941625747
 20
2.3539754685
 30
0.0
 10
5.5689232804
 20
2.3562592757
 30
0.0
 10
5.5507296247
 20
2.3583112672
 30
0.0
 10
5.5331809545
 20
2.3607099132
 30
0.0
 10
5.5163742291
 20
2.363439442
 30
0.0
 10
5.5004043858
 20
2.3664841423
 30
0.0
 10
5.4853618299
 20
2.3698294981
 30
0.0
 10
5.4713298533
 20
2.3734537642
 30
0.0
 10
5.4583856504
 20
2.3773359002
 30
0.0
 10
5.446601146
 20
2.3814569447
 30
0.0
 10
5.4360386462
 20
2.3857910568
 30
0.0
 10
5.4267549608
 20
2.3903131514
 30
0.0
 10
5.4211356013
 20
2.3936263289
 30
0.0
 10
5.4185758789
 20
2.3953253431
 30
0.0
  0
SPLINE
  5
2D4
100
AcDbEntity
  8
ALL_ASSEMBLY_MEMBERS
100
AcDbSpline
 62
7
  6
CONTINUOUS
 70
0
 71
3
 72
9
 73
5
 74
0
 42
0.0000001
 43
0.0000001
 44
0.0000000001
 40
0.0
 40
0.0
 40
0.0
 40
0.0
 40
0.5218931071
 40
1.0
 40
1.0
 40
1.0
 40
1.0
 10
5.4185758789
 20
2.3953253431
 30
0.0
 10
5.4170257325
 20
2.3963542519
 30
0.0
 10
5.4141183033
 20
2.3984230815
 30
0.0
 10
5.4113849978
 20
2.4007203094
 30
0.0
 10
5.4101370559
 20
2.4018812421
 30
0.0
  0
SPLINE
  5
2D5
100
AcDbEntity
  8
ALL_ASSEMBLY_MEMBERS
100
AcDbSpline
 62
7
  6
CONTINUOUS
 70
0
 71
3
 72
9
 73
5
 74
0
 42
0.0000001
 43
0.0000001
 44
0.0000000001
 40
0.0
 40
0.0
 40
0.0
 40
0.0
 40
0.2660229863
 40
1.0
 40
1.0
 40
1.0
 40
1.0
 10
5.401589698
 20
2.4427315267
 30
0.0
 10
5.4010875289
 20
2.4421551487
 30
0.0
 10
5.3992602232
 20
2.4399382292
 30
0.0
 10
5.3976894804
 20
2.4374979328
 30
0.0
 10
5.3967739552
 20
2.4355978171
 30
0.0
  0
SPLINE
  5
2D6
100
AcDbEntity
  8
ALL_ASSEMBLY_MEMBERS
100
AcDbSpline
 62
7
  6
CONTINUOUS
 70
0
 71
3
 72
15
 73
11
 74
0
 42
0.0000001
 43
0.0000001
 44
0.0000000001
 40
0.0
 40
0.0
 40
0.0
 40
0.0
 40
0.1178741576
 40
0.2312634224
 40
0.3436346274
 40
0.4585520716
 40
0.5792297278
 40
0.7083604121
 40
0.8480729987
 40
1.0
 40
1.0
 40
1.0
 40
1.0
 10
5.3963320023
 20
2.4346285468
 30
0.0
 10
5.3958434027
 20
2.4334926393
 30
0.0
 10
5.3950540036
 20
2.4311846415
 30
0.0
 10
5.3945024007
 20
2.4276025432
 30
0.0
 10
5.3946267933
 20
2.424009642
 30
0.0
 10
5.3954265337
 20
2.4204282195
 30
0.0
 10
5.3968861849
 20
2.4168738899
 30
0.0
 10
5.3989922286
 20
2.4133568421
 30
0.0
 10
5.4017336189
 20
2.4098845881
 30
0.0
 10
5.4038840219
 20
2.4077001226
 30
0.0
 10
5.4050508264
 20
2.4066144749
 30
0.0
  0
LINE
  5
2D7
100
AcDbEntity
  8
ALL_ASSEMBLY_MEMBERS
100
AcDbLine
 62
7
  6
CONTINUOUS
 10
5.9299173249
 20
2.4101167151
 11
5.9340039273
 21
2.4138989845
  0
SPLINE
  5
2D8
100
AcDbEntity
  8
ALL_ASSEMBLY_MEMBERS
100
AcDbSpline
 62
7
  6
CONTINUOUS
 70
0
 71
3
 72
28
 73
24
 74
0
 42
0.0000001
 43
0.0000001
 44
0.0000000001
 40
0.0
 40
0.0
 40
0.0
 40
0.0
 40
0.011852769
 40
0.0240922423
 40
0.0370697827
 40
0.0510725366
 40
0.0663192732
 40
0.0829713527
 40
0.1011446279
 40
0.1209120229
 40
0.1423129946
 40
0.1653672072
 40
0.2164297453
 40
0.2739592477
 40
0.3376406729
 40
0.4070367828
 40
0.4816138964
 40
0.5607634984
 40
0.6437974409
 40
0.7300064907
 40
0.8186635417
 40
0.9089778289
 40
1.0
 40
1.0
 40
1.0
 40
1.0
 10
5.8696767653
 20
2.420293707
 30
0.0
 10
5.8696767653
 20
2.4211600862
 30
0.0
 10
5.8695069709
 20
2.4229253687
 30
0.0
 10
5.8687501453
 20
2.4255413223
 30
0.0
 10
5.8674968809
 20
2.4281330233
 30
0.0
 10
5.8657581898
 20
2.4306943859
 30
0.0
 10
5.8635423012
 20
2.433223147
 30
0.0
 10
5.8608552025
 20
2.4357161377
 30
0.0
 10
5.8577021511
 20
2.4381687943
 30
0.0
 10
5.8540905846
 20
2.4405769407
 30
0.0
 10
5.8500293001
 20
2.4429364031
 30
0.0
 10
5.843812101
 20
2.4461192727
 30
0.0
 10
5.8349465891
 20
2.4498915691
 30
0.0
 10
5.8230365072
 20
2.4540027579
 30
0.0
 10
5.8096242751
 20
2.4577977685
 30
0.0
 10
5.7948364675
 20
2.4612401268
 30
0.0
 10
5.7788121277
 20
2.4642956772
 30
0.0
 10
5.7617050086
 20
2.4669332597
 30
0.0
 10
5.7436791379
 20
2.4691287902
 30
0.0
 10
5.7249049151
 20
2.4708584989
 30
0.0
 10
5.7055594221
 20
2.4721069822
 30
0.0
 10
5.6858364813
 20
2.4728593582
 30
0.0
 10
5.6725810692
 20
2.4730280874
 30
0.0
 10
5.665927795
 20
2.4730280874
 30
0.0
  0
SPLINE
  5
2D9
100
AcDbEntity
  8
ALL_ASSEMBLY_MEMBERS
100
AcDbSpline
 62
7
  6
CONTINUOUS
 70
0
 71
3
 72
20
 73
16
 74
0
 42
0.0000001
 43
0.0000001
 44
0.0000000001
 40
0.0
 40
0.0
 40
0.0
 40
0.0
 40
0.1519983872
 40
0.3012267051
 40
0.444948503
 40
0.5139236269
 40
0.5805813721
 40
0.6446406571
 40
0.7058249202
 40
0.7638642614
 40
0.8185063364
 40
0.8695701322
 40
0.9169153674
 40
0.9604219091
 40
1.0
 40
1.0
 40
1.0
 40
1.0
 10
5.665927795
 20
2.6435701848
 30
0.0
 10
5.6511088421
 20
2.6435701848
 30
0.0
 10
5.6217381072
 20
2.6430352465
 30
0.0
 10
5.5784139375
 20
2.6406657902
 30
0.0
 10
5.5432703764
 20
2.637381884
 30
0.0
 10
5.5162487962
 20
2.633959784
 30
0.0
 10
5.496993148
 20
2.6310742181
 30
0.0
 10
5.4785616632
 20
2.6278506635
 30
0.0
 10
5.4610455706
 20
2.6243051736
 30
0.0
 10
5.4445350517
 20
2.6204543615
 30
0.0
 10
5.4291144339
 20
2.6163110403
 30
0.0
 10
5.4148560037
 20
2.6118987951
 30
0.0
 10
5.4018214958
 20
2.6072430124
 30
0.0
 10
5.3900708566
 20
2.6023679411
 30
0.0
 10
5.3827820002
 20
2.5988174328
 30
0.0
 10
5.3793812785
 20
2.596994212
 30
0.0
  0
SPLINE
  5
2DA
100
AcDbEntity
  8
ALL_ASSEMBLY_MEMBERS
100
AcDbSpline
 62
7
  6
CONTINUOUS
 70
0
 71
3
 72
27
 73
23
 74
0
 42
0.0000001
 43
0.0000001
 44
0.0000000001
 40
0.0
 40
0.0
 40
0.0
 40
0.0
 40
0.013639853
 40
0.027548924
 40
0.0419699865
 40
0.0571188306
 40
0.073179895
 40
0.0903062849
 40
0.1281817837
 40
0.1714215704
 40
0.2203679164
 40
0.2470321743
 40
0.275154244
 40
0.3357336087
 40
0.40200274
 40
0.4737336837
 40
0.5506315994
 40
0.6323714506
 40
0.7186050895
 40
0.8089658067
 40
0.902960278
 40
1.0
 40
1.0
 40
1.0
 40
1.0
 10
5.9317712835
 20
2.4206064278
 30
0.0
 10
5.9317709911
 20
2.4214660236
 30
0.0
 10
5.9316433691
 20
2.4232046424
 30
0.0
 10
5.9310751132
 20
2.4257961242
 30
0.0
 10
5.9301326915
 20
2.4283772333
 30
0.0
 10
5.9288195445
 20
2.4309428716
 30
0.0
 10
5.9271388049
 20
2.4334900526
 30
0.0
 10
5.9243150949
 20
2.4369738455
 30
0.0
 10
5.919799469
 20
2.4412480787
 30
0.0
 10
5.9131627653
 20
2.4460840708
 30
0.0
 10
5.9066925786
 20
2.4498783967
 30
0.0
 10
5.9008717742
 20
2.4528560812
 30
0.0
 10
5.8942833838
 20
2.4559340542
 30
0.0
 10
5.8852363298
 20
2.4596294369
 30
0.0
 10
5.8734103628
 20
2.4637379405
 30
0.0
 10
5.8604281044
 20
2.4676083501
 30
0.0
 10
5.8463648372
 20
2.4712256702
 30
0.0
 10
5.83129725
 20
2.4745713861
 30
0.0
 10
5.8153025057
 20
2.4776202674
 30
0.0
 10
5.7984665795
 20
2.4803438614
 30
0.0
 10
5.7808924713
 20
2.4827304165
 30
0.0
 10
5.7689274859
 20
2.4840750846
 30
0.0
 10
5.76284331
 20
2.4846935699
 30
0.0
  0
SPLINE
  5
2DB
100
AcDbEntity
  8
ALL_ASSEMBLY_MEMBERS
100
AcDbSpline
 62
7
  6
CONTINUOUS
 70
0
 71
3
 72
9
 73
5
 74
0
 42
0.0000001
 43
0.0000001
 44
0.0000000001
 40
0.0
 40
0.0
 40
0.0
 40
0.0
 40
0.5268009007
 40
1.0
 40
1.0
 40
1.0
 40
1.0
 10
5.4101370559
 20
2.4018812421
 30
0.0
 10
5.408772798
 20
2.403150381
 30
0.0
 10
5.4063114877
 20
2.4057049013
 30
0.0
 10
5.4042427277
 20
2.4085964247
 30
0.0
 10
5.4034001465
 20
2.4100425862
 30
0.0
  0
SPLINE
  5
2DC
100
AcDbEntity
  8
ALL_ASSEMBLY_MEMBERS
100
AcDbSpline
 62
7
  6
CONTINUOUS
 70
0
 71
3
 72
11
 73
7
 74
0
 42
0.0000001
 43
0.0000001
 44
0.0000000001
 40
0.0
 40
0.0
 40
0.0
 40
0.0
 40
0.2649776799
 40
0.51347902
 40
0.7549972789
 40
1.0
 40
1.0
 40
1.0
 40
1.0
 10
5.4034001465
 20
2.4100425862
 30
0.0
 10
5.4026900759
 20
2.4112613137
 30
0.0
 10
5.401497452
 20
2.4137395876
 30
0.0
 10
5.4004805936
 20
2.4176567316
 30
0.0
 10
5.4003317194
 20
2.4215973679
 30
0.0
 10
5.4008064021
 20
2.4241664654
 30
0.0
 10
5.4011688087
 20
2.4254192677
 30
0.0
  0
SPLINE
  5
2DD
100
AcDbEntity
  8
ALL_ASSEMBLY_MEMBERS
100
AcDbSpline
 62
7
  6
CONTINUOUS
 70
0
 71
3
 72
9
 73
5
 74
0
 42
0.0000001
 43
0.0000001
 44
0.0000000001
 40
0.0
 40
0.0
 40
0.0
 40
0.0
 40
0.2423156742
 40
1.0
 40
1.0
 40
1.0
 40
1.0
 10
5.4011688087
 20
2.4254192677
 30
0.0
 10
5.4012829301
 20
2.4258137736
 30
0.0
 10
5.401804114
 20
2.4274271793
 30
0.0
 10
5.4025205206
 20
2.4289751156
 30
0.0
 10
5.4031451109
 20
2.4300971192
 30
0.0
  0
SPLINE
  5
2DE
100
AcDbEntity
  8
ALL_ASSEMBLY_MEMBERS
100
AcDbSpline
 62
7
  6
CONTINUOUS
 70
0
 71
3
 72
11
 73
7
 74
0
 42
0.0000001
 43
0.0000001
 44
0.0000000001
 40
0.0
 40
0.0
 40
0.0
 40
0.0
 40
0.2140775492
 40
0.4503502322
 40
0.7117198168
 40
1.0
 40
1.0
 40
1.0
 40
1.0
 10
5.4034001465
 20
2.4305448277
 30
0.0
 10
5.404175025
 20
2.431874788
 30
0.0
 10
5.4060481372
 20
2.4345342612
 30
0.0
 10
5.4095462171
 20
2.4382853612
 30
0.0
 10
5.413841398
 20
2.4419718355
 30
0.0
 10
5.4170652086
 20
2.444266532
 30
0.0
 10
5.4187956834
 20
2.4454074783
 30
0.0
  0
LINE
  5
2DF
100
AcDbEntity
  8
ALL_ASSEMBLY_MEMBERS
100
AcDbLine
 62
7
  6
CONTINUOUS
 10
5.4210193596
 20
2.4468269366
 11
5.4267205606
 21
2.45010866
  0
SPLINE
  5
2E0
100
AcDbEntity
  8
ALL_ASSEMBLY_MEMBERS
100
AcDbSpline
 62
7
  6
CONTINUOUS
 70
0
 71
3
 72
21
 73
17
 74
0
 42
0.0000001
 43
0.0000001
 44
0.0000000001
 40
0.0
 40
0.0
 40
0.0
 40
0.0
 40
0.0410758532
 40
0.085871225
 40
0.1342967122
 40
0.1862241018
 40
0.2414764088
 40
0.2998606382
 40
0.3611683588
 40
0.4251514362
 40
0.4915463053
 40
0.5600851079
 40
0.6304916085
 40
0.7024830753
 40
0.8500393305
 40
1.0
 40
1.0
 40
1.0
 40
1.0
 10
5.4313126757
 20
2.452459903
 30
0.0
 10
5.4342531703
 20
2.4538962927
 30
0.0
 10
5.4405018027
 20
2.4566936542
 30
0.0
 10
5.4504892655
 20
2.4605425683
 30
0.0
 10
5.4614602791
 20
2.464209742
 30
0.0
 10
5.4733656753
 20
2.4676769509
 30
0.0
 10
5.4861511731
 20
2.4709305831
 30
0.0
 10
5.4997591631
 20
2.4739548832
 30
0.0
 10
5.5141282596
 20
2.476733777
 30
0.0
 10
5.5291918339
 20
2.4792563888
 30
0.0
 10
5.5448799037
 20
2.4815113815
 30
0.0
 10
5.5611211775
 20
2.4834866414
 30
0.0
 10
5.5778430802
 20
2.4851735335
 30
0.0
 10
5.6008695088
 20
2.4870444845
 30
0.0
 10
5.630274727
 20
2.4885956101
 30
0.0
 10
5.6539802159
 20
2.4890101634
 30
0.0
 10
5.665927795
 20
2.4890101634
 30
0.0
  0
LINE
  5
2E1
100
AcDbEntity
  8
ALL_ASSEMBLY_MEMBERS
100
AcDbLine
 62
7
  6
CONTINUOUS
 10
5.9251414055
 20
2.4053682375
 11
5.9281256879
 21
2.409489709
  0
SPLINE
  5
2E2
100
AcDbEntity
  8
ALL_ASSEMBLY_MEMBERS
100
AcDbSpline
 62
7
  6
CONTINUOUS
 70
0
 71
3
 72
9
 73
5
 74
0
 42
0.0000001
 43
0.0000001
 44
0.0000000001
 40
0.0
 40
0.0
 40
0.0
 40
0.0
 40
0.2596426705
 40
1.0
 40
1.0
 40
1.0
 40
1.0
 10
5.9281256879
 20
2.409489709
 30
0.0
 10
5.9283688842
 20
2.4098909754
 30
0.0
 10
5.9292670846
 20
2.4114590478
 30
0.0
 10
5.9300025991
 20
2.4131231069
 30
0.0
 10
5.9304243298
 20
2.4143928323
 30
0.0
  0
SPLINE
  5
2E3
100
AcDbEntity
  8
ALL_ASSEMBLY_MEMBERS
100
AcDbSpline
 62
7
  6
CONTINUOUS
 70
0
 71
3
 72
9
 73
5
 74
0
 42
0.0000001
 43
0.0000001
 44
0.0000000001
 40
0.0
 40
0.0
 40
0.0
 40
0.0
 40
0.5060381681
 40
1.0
 40
1.0
 40
1.0
 40
1.0
 10
5.9304243298
 20
2.4143928323
 30
0.0
 10
5.9306934771
 20
2.4152031672
 30
0.0
 10
5.9311281681
 20
2.4168389301
 30
0.0
 10
5.9313408516
 20
2.418518862
 30
0.0
 10
5.9313875672
 20
2.4193510384
 30
0.0
  0
SPLINE
  5
2E4
100
AcDbEntity
  8
ALL_ASSEMBLY_MEMBERS
100
AcDbSpline
 62
7
  6
CONTINUOUS
 70
0
 71
3
 72
9
 73
5
 74
0
 42
0.0000001
 43
0.0000001
 44
0.0000000001
 40
0.0
 40
0.0
 40
0.0
 40
0.0
 40
0.4973382922
 40
1.0
 40
1.0
 40
1.0
 40
1.0
 10
5.9313875672
 20
2.4193510384
 30
0.0
 10
5.9314337131
 20
2.4201730669
 30
0.0
 10
5.9314122153
 20
2.4218344206
 30
0.0
 10
5.9311597399
 20
2.4234764405
 30
0.0
 10
5.9309787374
 20
2.4242886519
 30
0.0
  0
SPLINE
  5
2E5
100
AcDbEntity
  8
ALL_ASSEMBLY_MEMBERS
100
AcDbSpline
 62
7
  6
CONTINUOUS
 70
0
 71
3
 72
12
 73
8
 74
0
 42
0.0000001
 43
0.0000001
 44
0.0000000001
 40
0.0
 40
0.0
 40
0.0
 40
0.0
 40
0.1033139108
 40
0.2108040835
 40
0.4428687452
 40
0.7042703224
 40
1.0
 40
1.0
 40
1.0
 40
1.0
 10
5.9309787374
 20
2.4242886519
 30
0.0
 10
5.9308009758
 20
2.4250863209
 30
0.0
 10
5.9303311248
 20
2.4266916952
 30
0.0
 10
5.9289485935
 20
2.4299179672
 30
0.0
 10
5.9263547621
 20
2.4339430534
 30
0.0
 10
5.9221066316
 20
2.4385465938
 30
0.0
 10
5.9187018769
 20
2.4413640826
 30
0.0
 10
5.9168283852
 20
2.4427649033
 30
0.0
  0
SPLINE
  5
2E6
100
AcDbEntity
  8
ALL_ASSEMBLY_MEMBERS
100
AcDbSpline
 62
7
  6
CONTINUOUS
 70
0
 71
3
 72
9
 73
5
 74
0
 42
0.0000001
 43
0.0000001
 44
0.0000000001
 40
0.0
 40
0.0
 40
0.0
 40
0.0
 40
0.4797750629
 40
1.0
 40
1.0
 40
1.0
 40
1.0
 10
5.9156801096
 20
2.4436058197
 30
0.0
 10
5.9141033739
 20
2.4447371414
 30
0.0
 10
5.910725451
 20
2.4469688006
 30
0.0
 10
5.9072156631
 20
2.4489840867
 30
0.0
 10
5.9053644334
 20
2.4499844482
 30
0.0
  0
SPLINE
  5
2E7
100
AcDbEntity
  8
ALL_ASSEMBLY_MEMBERS
100
AcDbSpline
 62
7
  6
CONTINUOUS
 70
0
 71
3
 72
21
 73
17
 74
0
 42
0.0000001
 43
0.0000001
 44
0.0000000001
 40
0.0
 40
0.0
 40
0.0
 40
0.0
 40
0.0394460471
 40
0.0828532832
 40
0.1301336448
 40
0.1811643515
 40
0.2357831747
 40
0.2937813828
 40
0.354935614
 40
0.4189988804
 40
0.4856855602
 40
0.5547009829
 40
0.6257448915
 40
0.6985087808
 40
0.8479206534
 40
1.0
 40
1.0
 40
1.0
 40
1.0
 10
5.9053644334
 20
2.4499844482
 30
0.0
 10
5.9025368942
 20
2.4515123847
 30
0.0
 10
5.8964707278
 20
2.4544886977
 30
0.0
 10
5.8866801615
 20
2.4585716488
 30
0.0
 10
5.8758069721
 20
2.4624708909
 30
0.0
 10
5.863903317
 20
2.4661649542
 30
0.0
 10
5.8510262299
 20
2.4696347298
 30
0.0
 10
5.8372388981
 20
2.4728651761
 30
0.0
 10
5.8226080845
 20
2.4758387801
 30
0.0
 10
5.8072054835
 20
2.4785395134
 30
0.0
 10
5.7911079811
 20
2.4809561704
 30
0.0
 10
5.7743953535
 20
2.4830758865
 30
0.0
 10
5.7571485691
 20
2.4848868068
 30
0.0
 10
5.7333411263
 20
2.4868975764
 30
0.0
 10
5.7028857092
 20
2.4885652807
 30
0.0
 10
5.6783188372
 20
2.4890101634
 30
0.0
 10
5.665927795
 20
2.4890101634
 30
0.0
  0
SPLINE
  5
2E8
100
AcDbEntity
  8
ALL_ASSEMBLY_MEMBERS
100
AcDbSpline
 62
7
  6
CONTINUOUS
 70
0
 71
3
 72
28
 73
24
 74
0
 42
0.0000001
 43
0.0000001
 44
0.0000000001
 40
0.0
 40
0.0
 40
0.0
 40
0.0
 40
0.011852769
 40
0.0240922423
 40
0.0370697827
 40
0.0510725366
 40
0.0663192732
 40
0.0829713527
 40
0.1011446279
 40
0.1209120229
 40
0.1423129946
 40
0.1653672072
 40
0.2164297453
 40
0.2739592477
 40
0.3376406729
 40
0.4070367828
 40
0.4816138964
 40
0.5607634984
 40
0.6437974409
 40
0.7300064907
 40
0.8186635417
 40
0.9089778289
 40
1.0
 40
1.0
 40
1.0
 40
1.0
 10
5.4621788248
 20
2.420293707
 30
0.0
 10
5.4621788248
 20
2.4194273277
 30
0.0
 10
5.4623486192
 20
2.4176620452
 30
0.0
 10
5.4631054447
 20
2.4150460916
 30
0.0
 10
5.4643587092
 20
2.4124543907
 30
0.0
 10
5.4660974002
 20
2.409893028
 30
0.0
 10
5.4683132889
 20
2.4073642669
 30
0.0
 10
5.4710003875
 20
2.4048712763
 30
0.0
 10
5.474153439
 20
2.4024186197
 30
0.0
 10
5.4777650055
 20
2.4000104733
 30
0.0
 10
5.4818262899
 20
2.3976510108
 30
0.0
 10
5.488043489
 20
2.3944681412
 30
0.0
 10
5.496909001
 20
2.3906958448
 30
0.0
 10
5.5088190828
 20
2.386584656
 30
0.0
 10
5.5222313149
 20
2.3827896454
 30
0.0
 10
5.5370191226
 20
2.3793472872
 30
0.0
 10
5.5530434623
 20
2.3762917367
 30
0.0
 10
5.5701505814
 20
2.3736541543
 30
0.0
 10
5.5881764522
 20
2.3714586237
 30
0.0
 10
5.606950675
 20
2.369728915
 30
0.0
 10
5.6262961679
 20
2.3684804318
 30
0.0
 10
5.6460191088
 20
2.3677280558
 30
0.0
 10
5.6592745208
 20
2.3675593265
 30
0.0
 10
5.665927795
 20
2.3675593265
 30
0.0
  0
SPLINE
  5
2E9
100
AcDbEntity
  8
ALL_ASSEMBLY_MEMBERS
100
AcDbSpline
 62
7
  6
CONTINUOUS
 70
0
 71
3
 72
28
 73
24
 74
0
 42
0.0000001
 43
0.0000001
 44
0.0000000001
 40
0.0
 40
0.0
 40
0.0
 40
0.0
 40
0.0624815578
 40
0.0937499825
 40
0.1250141627
 40
0.1875082177
 40
0.2500027194
 40
0.2812617582
 40
0.3125206932
 40
0.3750184138
 40
0.40627674
 40
0.4375351272
 40
0.5000329906
 40
0.5625304987
 40
0.6250280967
 40
0.6875247485
 40
0.7187825118
 40
0.7500401932
 40
0.8125362176
 40
0.875027426
 40
0.9062814395
 40
0.9375351583
 40
1.0
 40
1.0
 40
1.0
 40
1.0
 10
6.2342888095
 20
3.051262969
 30
0.0
 10
6.23438727
 20
3.069880461
 30
0.0
 10
6.233170805
 20
3.0978472161
 30
0.0
 10
6.2288318999
 20
3.1348551248
 30
0.0
 10
6.2226759925
 20
3.1716113872
 30
0.0
 10
6.2115964627
 20
3.2169154564
 30
0.0
 10
6.1960887558
 20
3.2609003173
 30
0.0
 10
6.1811195158
 20
3.2950253901
 30
0.0
 10
6.1644733406
 20
3.3283640731
 30
0.0
 10
6.1453487429
 20
3.3604165269
 30
0.0
 10
6.1239227075
 20
3.3909035849
 30
0.0
 10
6.1010015671
 20
3.4202848338
 30
0.0
 10
6.0696503232
 20
3.4548195212
 30
0.0
 10
6.0281005542
 20
3.4923021296
 30
0.0
 10
5.9830459476
 20
3.5254878361
 30
0.0
 10
5.942942603
 20
3.549301347
 30
0.0
 10
5.9095870114
 20
3.5659127009
 30
0.0
 10
5.8754536105
 20
3.5808609639
 30
0.0
 10
5.8314772288
 20
3.5963839725
 30
0.0
 10
5.7861988554
 20
3.6075434397
 30
0.0
 10
5.7494696653
 20
3.6138072389
 30
0.0
 10
5.7124908137
 20
3.6182829486
 30
0.0
 10
5.6845405663
 20
3.6196255416
 30
0.0
 10
5.665927795
 20
3.6196232399
 30
0.0
  0
LINE
  5
2EA
100
AcDbEntity
  8
ALL_ASSEMBLY_MEMBERS
100
AcDbLine
 62
7
  6
CONTINUOUS
 10
6.2342888095
 20
3.051262969
 11
6.2521770713
 21
3.051627334
  0
SPLINE
  5
2EB
100
AcDbEntity
  8
ALL_ASSEMBLY_MEMBERS
100
AcDbSpline
 62
7
  6
CONTINUOUS
 70
0
 71
3
 72
28
 73
24
 74
0
 42
0.0000001
 43
0.0000001
 44
0.0000000001
 40
0.0
 40
0.0
 40
0.0
 40
0.0
 40
0.0624588837
 40
0.0937008239
 40
0.1249431238
 40
0.187415759
 40
0.249895207
 40
0.2811467454
 40
0.3124005801
 40
0.3748961787
 40
0.4373998969
 40
0.4999061533
 40
0.5624120688
 40
0.5936742604
 40
0.6249363658
 40
0.6874416004
 40
0.7187043082
 40
0.7499671166
 40
0.8124691047
 40
0.8749707115
 40
0.9062387141
 40
0.9375109611
 40
1.0
 40
1.0
 40
1.0
 40
1.0
 10
5.665927795
 20
3.6196229759
 30
0.0
 10
5.6473178237
 20
3.6196201571
 30
0.0
 10
5.6193747259
 20
3.6182707928
 30
0.0
 10
5.5824078943
 20
3.6137862226
 30
0.0
 10
5.5456941416
 20
3.6075187429
 30
0.0
 10
5.5004341856
 20
3.5963541676
 30
0.0
 10
5.4564726289
 20
3.580834421
 30
0.0
 10
5.4223489029
 20
3.5658890057
 30
0.0
 10
5.3889972461
 20
3.5492818653
 30
0.0
 10
5.3488942701
 20
3.5254722119
 30
0.0
 10
5.3038344251
 20
3.4922920813
 30
0.0
 10
5.2622748666
 20
3.45481481
 30
0.0
 10
5.2309138671
 20
3.420284177
 30
0.0
 10
5.2079846473
 20
3.3909059233
 30
0.0
 10
5.1865504215
 20
3.3604216329
 30
0.0
 10
5.1674174509
 20
3.3283713159
 30
0.0
 10
5.1507631954
 20
3.2950339383
 30
0.0
 10
5.1357861486
 20
3.2609096333
 30
0.0
 10
5.1202697481
 20
3.216924536
 30
0.0
 10
5.1091838753
 20
3.171618768
 30
0.0
 10
5.1030247479
 20
3.134860513
 30
0.0
 10
5.0986839527
 20
3.0978503384
 30
0.0
 10
5.0974675832
 20
3.069881661
 30
0.0
 10
5.0975668387
 20
3.0512629691
 30
0.0
  0
SPLINE
  5
2EC
100
AcDbEntity
  8
ALL_ASSEMBLY_MEMBERS
100
AcDbSpline
 62
7
  6
CONTINUOUS
 70
0
 71
3
 72
22
 73
18
 74
0
 42
0.0000001
 43
0.0000001
 44
0.0000000001
 40
0.0
 40
0.0
 40
0.0
 40
0.0
 40
0.1249377609
 40
0.1874580689
 40
0.2499622587
 40
0.312459934
 40
0.3749607566
 40
0.4374650149
 40
0.4999693266
 40
0.5624728482
 40
0.6249760331
 40
0.6874795542
 40
0.7499835527
 40
0.8124873772
 40
0.8749916724
 40
0.9374960429
 40
1.0
 40
1.0
 40
1.0
 40
1.0
 10
5.0975667749
 20
3.0512629688
 30
0.0
 10
5.097692197
 20
3.0281795543
 30
0.0
 10
5.0999776679
 20
2.9935087005
 30
0.0
 10
5.1071641503
 20
2.9478687579
 30
0.0
 10
5.1146150986
 20
2.9140089829
 30
0.0
 10
5.1240905334
 20
2.8806652911
 30
0.0
 10
5.1355615691
 20
2.8479537021
 30
0.0
 10
5.1489838258
 20
2.8159920555
 30
0.0
 10
5.16431248
 20
2.7848988603
 30
0.0
 10
5.1814970364
 20
2.7547919078
 30
0.0
 10
5.2004694232
 20
2.7257785311
 30
0.0
 10
5.2211660319
 20
2.6979686205
 30
0.0
 10
5.2435103281
 20
2.6714642833
 30
0.0
 10
5.2674217916
 20
2.6463643788
 30
0.0
 10
5.2928187881
 20
2.6227680546
 30
0.0
 10
5.3196019783
 20
2.6007598295
 30
0.0
 10
5.3383215113
 20
2.5872015827
 30
0.0
 10
5.3478768704
 20
2.580716238
 30
0.0
  0
SPLINE
  5
2ED
100
AcDbEntity
  8
ALL_ASSEMBLY_MEMBERS
100
AcDbSpline
 62
7
  6
CONTINUOUS
 70
0
 71
3
 72
20
 73
16
 74
0
 42
0.0000001
 43
0.0000001
 44
0.0000000001
 40
0.0
 40
0.0
 40
0.0
 40
0.0
 40
0.0395780909
 40
0.0830846326
 40
0.1304298678
 40
0.1814936636
 40
0.2361357386
 40
0.2941750798
 40
0.3553593429
 40
0.4194186279
 40
0.4860763731
 40
0.555051497
 40
0.6987732949
 40
0.8480016128
 40
1.0
 40
1.0
 40
1.0
 40
1.0
 10
5.9524743115
 20
2.596994212
 30
0.0
 10
5.9490735899
 20
2.5988174328
 30
0.0
 10
5.9417847334
 20
2.6023679411
 30
0.0
 10
5.9300340942
 20
2.6072430124
 30
0.0
 10
5.9169995864
 20
2.6118987951
 30
0.0
 10
5.9027411562
 20
2.6163110403
 30
0.0
 10
5.8873205384
 20
2.6204543615
 30
0.0
 10
5.8708100195
 20
2.6243051736
 30
0.0
 10
5.8532939268
 20
2.6278506635
 30
0.0
 10
5.834862442
 20
2.6310742181
 30
0.0
 10
5.8156067938
 20
2.633959784
 30
0.0
 10
5.7885852137
 20
2.637381884
 30
0.0
 10
5.7534416525
 20
2.6406657902
 30
0.0
 10
5.7101174829
 20
2.6430352465
 30
0.0
 10
5.6807467479
 20
2.6435701848
 30
0.0
 10
5.665927795
 20
2.6435701848
 30
0.0
  0
LINE
  5
2EE
100
AcDbEntity
  8
ALL_ASSEMBLY_MEMBERS
100
AcDbLine
 62
7
  6
CONTINUOUS
 10
5.0975667749
 20
3.0512629688
 11
5.0796783572
 21
3.0516301922
  0
SPLINE
  5
2EF
100
AcDbEntity
  8
ALL_ASSEMBLY_MEMBERS
100
AcDbSpline
 62
7
  6
CONTINUOUS
 70
0
 71
3
 72
22
 73
18
 74
0
 42
0.0000001
 43
0.0000001
 44
0.0000000001
 40
0.0
 40
0.0
 40
0.0
 40
0.0
 40
0.0625040704
 40
0.1250085374
 40
0.1875129083
 40
0.2500167744
 40
0.3125208189
 40
0.3750243866
 40
0.437527596
 40
0.5000311278
 40
0.5625354073
 40
0.6250396282
 40
0.6875404292
 40
0.7500380592
 40
0.8125421709
 40
0.8750623449
 40
1.0
 40
1.0
 40
1.0
 40
1.0
 10
5.9840424902
 20
2.5806633315
 30
0.0
 10
5.9935980325
 20
2.5871491294
 30
0.0
 10
6.0123176437
 20
2.6007086852
 30
0.0
 10
6.0391000082
 20
2.6227198557
 30
0.0
 10
6.0644951855
 20
2.6463199295
 30
0.0
 10
6.0884037852
 20
2.6714242285
 30
0.0
 10
6.1107442663
 20
2.697933346
 30
0.0
 10
6.1314362566
 20
2.7257481744
 30
0.0
 10
6.1504033615
 20
2.7547664118
 30
0.0
 10
6.1675821186
 20
2.7848780092
 30
0.0
 10
6.1829046153
 20
2.8159755156
 30
0.0
 10
6.196320578
 20
2.8479410341
 30
0.0
 10
6.207785491
 20
2.8806559619
 30
0.0
 10
6.2172552447
 20
2.9140024269
 30
0.0
 10
6.2247011056
 20
2.9478644361
 30
0.0
 10
6.2318818382
 20
2.9935067707
 30
0.0
 10
6.2341644087
 20
3.0281787988
 30
0.0
 10
6.234288849
 20
3.0512629689
 30
0.0
  0
SPLINE
  5
2F0
100
AcDbEntity
  8
ALL_ASSEMBLY_MEMBERS
100
AcDbSpline
 62
7
  6
CONTINUOUS
 70
0
 71
3
 72
28
 73
24
 74
0
 42
0.0000001
 43
0.0000001
 44
0.0000000001
 40
0.0
 40
0.0
 40
0.0
 40
0.0
 40
0.0910221711
 40
0.1813364583
 40
0.2699935093
 40
0.3562025591
 40
0.4392365016
 40
0.5183861036
 40
0.5929632172
 40
0.6623593271
 40
0.7260407523
 40
0.7835702547
 40
0.8346327928
 40
0.8576870054
 40
0.8790879771
 40
0.8988553721
 40
0.9170286473
 40
0.9336807268
 40
0.9489274634
 40
0.9629302173
 40
0.9759077577
 40
0.988147231
 40
1.0
 40
1.0
 40
1.0
 40
1.0
 10
5.665927795
 20
2.3675593265
 30
0.0
 10
5.6725810692
 20
2.3675593265
 30
0.0
 10
5.6858364813
 20
2.3677280558
 30
0.0
 10
5.7055594221
 20
2.3684804318
 30
0.0
 10
5.7249049151
 20
2.369728915
 30
0.0
 10
5.7436791379
 20
2.3714586237
 30
0.0
 10
5.7617050086
 20
2.3736541543
 30
0.0
 10
5.7788121277
 20
2.3762917367
 30
0.0
 10
5.7948364675
 20
2.3793472872
 30
0.0
 10
5.8096242751
 20
2.3827896454
 30
0.0
 10
5.8230365072
 20
2.386584656
 30
0.0
 10
5.8349465891
 20
2.3906958448
 30
0.0
 10
5.843812101
 20
2.3944681412
 30
0.0
 10
5.8500293001
 20
2.3976510108
 30
0.0
 10
5.8540905846
 20
2.4000104733
 30
0.0
 10
5.8577021511
 20
2.4024186197
 30
0.0
 10
5.8608552025
 20
2.4048712763
 30
0.0
 10
5.8635423012
 20
2.4073642669
 30
0.0
 10
5.8657581898
 20
2.409893028
 30
0.0
 10
5.8674968809
 20
2.4124543907
 30
0.0
 10
5.8687501453
 20
2.4150460916
 30
0.0
 10
5.8695069709
 20
2.4176620452
 30
0.0
 10
5.8696767653
 20
2.4194273277
 30
0.0
 10
5.8696767653
 20
2.420293707
 30
0.0
  0
SPLINE
  5
2F1
100
AcDbEntity
  8
ALL_ASSEMBLY_MEMBERS
100
AcDbSpline
 62
7
  6
CONTINUOUS
 70
0
 71
3
 72
11
 73
7
 74
0
 42
0.0000001
 43
0.0000001
 44
0.0000000001
 40
0.0
 40
0.0
 40
0.0
 40
0.0
 40
0.2690422473
 40
0.5269596606
 40
0.7712632418
 40
1.0
 40
1.0
 40
1.0
 40
1.0
 10
5.76284331
 20
2.4846935699
 30
0.0
 10
5.7707909661
 20
2.4841845666
 30
0.0
 10
5.7863446551
 20
2.4829693644
 30
0.0
 10
5.8090475037
 20
2.4805303399
 30
0.0
 10
5.8304831845
 20
2.4775589211
 30
0.0
 10
5.8442811497
 20
2.4751503832
 30
0.0
 10
5.85092473
 20
2.4738437492
 30
0.0
  0
SPLINE
  5
2F2
100
AcDbEntity
  8
ALL_ASSEMBLY_MEMBERS
100
AcDbSpline
 62
7
  6
CONTINUOUS
 70
0
 71
3
 72
20
 73
16
 74
0
 42
0.0000001
 43
0.0000001
 44
0.0000000001
 40
0.0
 40
0.0
 40
0.0
 40
0.0
 40
0.1717821297
 40
0.3335520191
 40
0.4831594497
 40
0.5528576571
 40
0.6188880944
 40
0.6810659219
 40
0.7392189034
 40
0.7932046155
 40
0.8429570738
 40
0.8884546398
 40
0.9297186439
 40
0.9668352137
 40
1.0
 40
1.0
 40
1.0
 40
1.0
 10
5.76284331
 20
2.4846935699
 30
0.0
 10
5.7725588395
 20
2.48382718
 30
0.0
 10
5.7913971979
 20
2.4818232446
 30
0.0
 10
5.818553832
 20
2.4778793799
 30
0.0
 10
5.8398186886
 20
2.4738266512
 30
0.0
 10
5.8556024113
 20
2.4701614042
 30
0.0
 10
5.8664725704
 20
2.4673048504
 30
0.0
 10
5.8766171007
 20
2.4642867966
 30
0.0
 10
5.8859968978
 20
2.4611181649
 30
0.0
 10
5.8945760997
 20
2.4578080547
 30
0.0
 10
5.9023260779
 20
2.4543712006
 30
0.0
 10
5.9092227974
 20
2.4508216519
 30
0.0
 10
5.9152440957
 20
2.4471717194
 30
0.0
 10
5.9203678534
 20
2.4434339625
 30
0.0
 10
5.9233306646
 20
2.4407429596
 30
0.0
 10
5.9246317217
 20
2.4393815203
 30
0.0
  0
LINE
  5
2F3
100
AcDbEntity
  8
ALL_ASSEMBLY_MEMBERS
100
AcDbLine
 62
7
  6
CONTINUOUS
 10
5.9255630098
 20
2.4383713925
 11
5.9278507411
 21
2.4354907025
  0
SPLINE
  5
2F4
100
AcDbEntity
  8
ALL_ASSEMBLY_MEMBERS
100
AcDbSpline
 62
7
  6
CONTINUOUS
 70
0
 71
3
 72
11
 73
7
 74
0
 42
0.0000001
 43
0.0000001
 44
0.0000000001
 40
0.0
 40
0.0
 40
0.0
 40
0.0
 40
0.2699263322
 40
0.5232263308
 40
0.7647058698
 40
1.0
 40
1.0
 40
1.0
 40
1.0
 10
5.9280526572
 20
2.4351987183
 30
0.0
 10
5.9286484074
 20
2.4343254187
 30
0.0
 10
5.9297082239
 20
2.4325641301
 30
0.0
 10
5.9308934891
 20
2.4298025141
 30
0.0
 10
5.9316100825
 20
2.4270223704
 30
0.0
 10
5.9317710586
 20
2.4251514835
 30
0.0
 10
5.9317710545
 20
2.4242299666
 30
0.0
  0
ENDSEC
  0
SECTION
  2
OBJECTS
  0
DICTIONARY
  5
C
100
AcDbDictionary
280
0
281
1
  3
ACAD_GROUP
350
D
  3
ACAD_MLINESTYLE
350
17
  3
ACAD_LAYOUT
350
1A
  3
ACAD_PLOTSETTINGS
350
19
  3
ACAD_PLOTSTYLENAME
350
E
  0
DICTIONARY
  5
D
102
{ACAD_REACTORS
330
C
102
}
100
AcDbDictionary
280
0
281
1
  0
ACDBDICTIONARYWDFLT
  5
E
102
{ACAD_REACTORS
330
C
102
}
100
AcDbDictionary
281
1
  3
Normal
350
F
100
AcDbDictionaryWithDefault
340
F
  0
DICTIONARY
  5
17
102
{ACAD_REACTORS
330
C
102
}
100
AcDbDictionary
280
0
281
1
  3
Standard
350
18
  0
DICTIONARY
  5
19
102
{ACAD_REACTORS
330
C
102
}
100
AcDbDictionary
281
1
  0
DICTIONARY
  5
1A
102
{ACAD_REACTORS
330
C
102
}
100
AcDbDictionary
281
1
  3
Model
350
2F5
  3
Layout1
350
2F6
  0
ACDBPLACEHOLDER
  5
F
102
{ACAD_REACTORS
330
E
102
}
  0
MLINESTYLE
  5
18
102
{ACAD_REACTORS
330
17
102
}
100
AcDbMlineStyle
  2
STANDARD
 70
0
  3

 62
256
 51
90.0
 52
90.0
 71
2
 49
0.5
 62
256
  6
BYLAYER
 49
-0.5
 62
256
  6
BYLAYER
  0
LAYOUT
  5
2F5
102
{ACAD_REACTORS
330
1A
102
}
100
AcDbPlotSettings
  1

  2
none_device
  4
ANSI_A_(11.00_x_8.50_Inches)
  6

 40
0.0
 41
0.0
 42
0.0
 43
0.0
 44
279.4
 45
215.9
 46
0.0
 47
0.0
 48
0.0
 49
0.0
140
0.0
141
0.0
142
1.0
143
1.0
 70
1024
 72
0
 73
0
 74
0
  7

 75
0
147
1.0
148
0.0
149
0.0
100
AcDbLayout
  1
Model
 70
0
 71
0
 10
0.0
 20
0.0
 11
11.0
 21
8.5
 12
0.0
 22
0.0
 32
0.0
 14
0.0
 24
0.0
 34
0.0
 15
0.0
 25
0.0
 35
0.0
146
0.0
 13
0.0
 23
0.0
 33
0.0
 16
1.0
 26
0.0
 36
0.0
 17
0.0
 27
1.0
 37
0.0
 76
0
330
222
345
0
346
0
  0
LAYOUT
  5
2F6
102
{ACAD_REACTORS
330
1A
102
}
100
AcDbPlotSettings
  1

  2
none_device
  4
ANSI_A_(11.00_x_8.50_Inches)
  6

 40
0.0
 41
0.0
 42
0.0
 43
0.0
 44
279.4
 45
215.9
 46
0.0
 47
0.0
 48
0.0
 49
0.0
140
0.0
141
0.0
142
1.0
143
1.0
 70
0
 72
0
 73
0
 74
0
  7

 75
0
147
1.0
148
0.0
149
0.0
100
AcDbLayout
  1
Layout1
 70
0
 71
1
 10
0.0
 20
0.0
 11
11.0
 21
8.5
 12
0.0
 22
0.0
 32
0.0
 14
0.0
 24
0.0
 34
0.0
 15
0.0
 25
0.0
 35
0.0
146
0.0
 13
0.0
 23
0.0
 33
0.0
 16
1.0
 26
0.0
 36
0.0
 17
0.0
 27
1.0
 37
0.0
 76
0
330
223
345
0
346
0
  0
ENDSEC
  0
EOF
