999
DXF file: 3-855_TOP.dxf
999
Pro/ENGINEER 2018400 by Parametric Technology Corporation
  0
SECTION
  2
HEADER
  9
$ACADVER
  1
AC1027
  9
$DWGCODEPAGE
  3
ANSI_1252
  9
$EXTMAX
 10
11.0
 20
8.5
 30
0.0
  9
$EXTMIN
 10
0.0
 20
0.0
 30
0.0
  9
$LIMMIN
 10
0.0
 20
0.0
  9
$LIMMAX
 10
11.0
 20
8.5
  9
$VIEWCTR
 10
5.5
 20
4.25
  9
$VIEWSIZE
 40
8.5
  9
$CLAYER
  8
0
  9
$LTSCALE
 40
0.605
  9
$CELTYPE
  6
BYLAYER
  9
$DIMSCALE
 40
1.0
  9
$DIMASZ
 40
0.1
  9
$DIMEXO
 40
0.0625
  9
$DIMDLI
 40
0.418
  9
$DIMEXE
 40
0.125
  9
$DIMCEN
 40
0.099
  9
$DIMLFAC
 40
1.0
  9
$DIMBLK
  1
_FILLED
  9
$DIMALT
 70
1
  9
$DIMALTD
 70
2
  9
$DIMALTTD
 70
2
  9
$DIMALTF
 40
25.4
  9
$DIMTXT
 40
0.08
  9
$DIMTOL
 70
1
  9
$DIMLIM
 70
0
  9
$DIMTFAC
 40
1.0
  9
$DIMTP
 40
0.001
  9
$DIMTM
 40
0.001
  9
$DIMGAP
 40
0.09
  9
$DIMDSEP
 70
46
  9
$AUNITS
 70
0
  9
$PDMODE
 70
3
  9
$PDSIZE
 40
0.3125
  9
$HANDSEED
  5
38D
  9
$TILEMODE
 70
1
  9
$MEASUREMENT
 70
0
  9
$INSUNITS
 70
1
  0
ENDSEC
  0
SECTION
  2
CLASSES
  0
CLASS
  1
ACDBDICTIONARYWDFLT
  2
AcDbDictionaryWithDefault
  3
AutoCAD 2000
 90
0
 91
1
280
0
281
0
  0
CLASS
  1
ACDBPLACEHOLDER
  2
AcDbPlaceHolder
  3
AutoCAD 2000
 90
0
 91
1
280
0
281
0
  0
CLASS
  1
LAYOUT
  2
AcDbLayout
  3
AutoCAD 2000
 90
0
 91
0
280
0
281
0
  0
ENDSEC
  0
SECTION
  2
TABLES
  0
TABLE
  2
VPORT
  5
8
100
AcDbSymbolTable
 70
2
  0
VPORT
  5
1F4
100
AcDbSymbolTableRecord
100
AcDbViewportTableRecord
  2
*ACTIVE
 70
0
 10
0.0
 20
0.0
 11
1.0
 21
1.0
 12
5.5
 22
4.25
 13
0.0
 23
0.0
 14
1.0
 24
1.0
 15
0.0
 25
0.0
 16
0.0
 26
0.0
 36
1.0
 17
0.0
 27
0.0
 37
0.0
 40
8.5
 41
1.2941176471
 42
50.0
 43
0.0
 44
0.0
 50
0.0
 51
0.0
 71
0
 72
100
 73
1
 74
1
 75
0
 76
0
 77
0
 78
0
  0
ENDTAB
  0
TABLE
  2
LTYPE
  5
5
100
AcDbSymbolTable
 70
6
  0
LTYPE
  5
14
100
AcDbSymbolTableRecord
100
AcDbLinetypeTableRecord
  2
BYBLOCK
 70
0
  3

 72
65
 73
0
 40
0.0
  0
LTYPE
  5
15
100
AcDbSymbolTableRecord
100
AcDbLinetypeTableRecord
  2
BYLAYER
 70
0
  3

 72
65
 73
0
 40
0.0
  0
LTYPE
  5
16
100
AcDbSymbolTableRecord
100
AcDbLinetypeTableRecord
  2
CONTINUOUS
 70
64
  3
Solid line
 72
65
 73
0
 40
0.0
  0
LTYPE
  5
1F5
100
AcDbSymbolTableRecord
100
AcDbLinetypeTableRecord
  2
CENTER
 70
64
  3
____ _ ____ _ ____ _ ____ _ ____ _ ____ _ ____
 72
65
 73
4
 40
0.6
 49
0.375
 74
0
 49
-0.075
 74
0
 49
0.075
 74
0
 49
-0.075
 74
0
  0
LTYPE
  5
1F6
100
AcDbSymbolTableRecord
100
AcDbLinetypeTableRecord
  2
HIDDEN
 70
64
  3
- - - - - - - - - - - - - - - - - - - -
 72
65
 73
2
 40
0.2
 49
0.1
 74
0
 49
-0.1
 74
0
  0
LTYPE
  5
1F7
100
AcDbSymbolTableRecord
100
AcDbLinetypeTableRecord
  2
PHANTOM
 70
64
  3
_____ _ _ _____ _ _ _____ _ _ _____
 72
65
 73
6
 40
0.8
 49
0.45
 74
0
 49
-0.05
 74
0
 49
0.1
 74
0
 49
-0.05
 74
0
 49
0.1
 74
0
 49
-0.05
 74
0
  0
LTYPE
  5
1F8
100
AcDbSymbolTableRecord
100
AcDbLinetypeTableRecord
  2
DOT
 70
64
  3
. . . . . . . . . . . . . . . . . . . .
 72
65
 73
2
 40
0.2
 49
0.1
 74
0
 49
-0.1
 74
0
  0
LTYPE
  5
1F9
100
AcDbSymbolTableRecord
100
AcDbLinetypeTableRecord
  2
DASHED
 70
64
  3
- - - - - - - - - - - - - - - - - - - -
 72
65
 73
2
 40
0.2
 49
0.1
 74
0
 49
-0.1
 74
0
  0
ENDTAB
  0
TABLE
  2
LAYER
  5
2
100
AcDbSymbolTable
 70
36
  0
LAYER
  5
10
100
AcDbSymbolTableRecord
100
AcDbLayerTableRecord
  2
0
 70
0
 62
7
  6
CONTINUOUS
370
-3
390
F
  0
LAYER
  5
1FA
100
AcDbSymbolTableRecord
100
AcDbLayerTableRecord
  2
DEFAULT_1
 70
0
 62
7
  6
CENTER
370
-3
390
F
  0
LAYER
  5
1FB
100
AcDbSymbolTableRecord
100
AcDbLayerTableRecord
  2
DEFAULT_2
 70
0
 62
8
  6
HIDDEN
370
-3
390
F
  0
LAYER
  5
1FC
100
AcDbSymbolTableRecord
100
AcDbLayerTableRecord
  2
DEFAULT_3
 70
0
 62
7
  6
PHANTOM
370
-3
390
F
  0
LAYER
  5
1FD
100
AcDbSymbolTableRecord
100
AcDbLayerTableRecord
  2
2-116_ASSY_DATUMS
 70
0
 62
7
  6
CONTINUOUS
370
-3
390
F
  0
LAYER
  5
1FE
100
AcDbSymbolTableRecord
100
AcDbLayerTableRecord
  2
2201_ASSY_PLANES
 70
0
 62
7
  6
CONTINUOUS
370
-3
390
F
  0
LAYER
  5
1FF
100
AcDbSymbolTableRecord
100
AcDbLayerTableRecord
  2
3-202_ASSY_PLANES
 70
0
 62
7
  6
CONTINUOUS
370
-3
390
F
  0
LAYER
  5
200
100
AcDbSymbolTableRecord
100
AcDbLayerTableRecord
  2
3-985_ASSY_PLANES
 70
0
 62
7
  6
CONTINUOUS
370
-3
390
F
  0
LAYER
  5
201
100
AcDbSymbolTableRecord
100
AcDbLayerTableRecord
  2
ALL_ASSEMBLY_MEMBERS
 70
0
 62
7
  6
CONTINUOUS
370
-3
390
F
  0
LAYER
  5
202
100
AcDbSymbolTableRecord
100
AcDbLayerTableRecord
  2
ALL_FEATURES
 70
0
 62
7
  6
CONTINUOUS
370
-3
390
F
  0
LAYER
  5
203
100
AcDbSymbolTableRecord
100
AcDbLayerTableRecord
  2
AXES_FEATURES
 70
0
 62
7
  6
CONTINUOUS
370
-3
390
F
  0
LAYER
  5
204
100
AcDbSymbolTableRecord
100
AcDbLayerTableRecord
  2
CHAMFER_FEATURES
 70
0
 62
7
  6
CONTINUOUS
370
-3
390
F
  0
LAYER
  5
205
100
AcDbSymbolTableRecord
100
AcDbLayerTableRecord
  2
CURVES
 70
0
 62
7
  6
CONTINUOUS
370
-3
390
F
  0
LAYER
  5
206
100
AcDbSymbolTableRecord
100
AcDbLayerTableRecord
  2
CUT_FEATURES
 70
0
 62
7
  6
CONTINUOUS
370
-3
390
F
  0
LAYER
  5
207
100
AcDbSymbolTableRecord
100
AcDbLayerTableRecord
  2
DATUM_CURVES
 70
0
 62
7
  6
CONTINUOUS
370
-3
390
F
  0
LAYER
  5
208
100
AcDbSymbolTableRecord
100
AcDbLayerTableRecord
  2
DATUM_PLANES
 70
0
 62
7
  6
CONTINUOUS
370
-3
390
F
  0
LAYER
  5
209
100
AcDbSymbolTableRecord
100
AcDbLayerTableRecord
  2
DATUM_POINTS
 70
0
 62
7
  6
CONTINUOUS
370
-3
390
F
  0
LAYER
  5
20A
100
AcDbSymbolTableRecord
100
AcDbLayerTableRecord
  2
DATUM_SHAPER
 70
0
 62
7
  6
CONTINUOUS
370
-3
390
F
  0
LAYER
  5
20B
100
AcDbSymbolTableRecord
100
AcDbLayerTableRecord
  2
DEFAULT_COORDINATE_SYSTEM
 70
0
 62
7
  6
CONTINUOUS
370
-3
390
F
  0
LAYER
  5
20C
100
AcDbSymbolTableRecord
100
AcDbLayerTableRecord
  2
DEFAULT_DATUM_AXES
 70
0
 62
7
  6
CONTINUOUS
370
-3
390
F
  0
LAYER
  5
20D
100
AcDbSymbolTableRecord
100
AcDbLayerTableRecord
  2
DEFAULT_DATUM_PLANES
 70
0
 62
7
  6
CONTINUOUS
370
-3
390
F
  0
LAYER
  5
20E
100
AcDbSymbolTableRecord
100
AcDbLayerTableRecord
  2
DEFAULT_SURFACES
 70
0
 62
7
  6
CONTINUOUS
370
-3
390
F
  0
LAYER
  5
20F
100
AcDbSymbolTableRecord
100
AcDbLayerTableRecord
  2
DIMENSIONS
 70
0
 62
7
  6
CONTINUOUS
370
-3
390
F
  0
LAYER
  5
210
100
AcDbSymbolTableRecord
100
AcDbLayerTableRecord
  2
INTF_1
 70
0
 62
7
  6
CONTINUOUS
370
-3
390
F
  0
LAYER
  5
211
100
AcDbSymbolTableRecord
100
AcDbLayerTableRecord
  2
PART_REFERENCE_DIMENSIONS
 70
0
 62
7
  6
CONTINUOUS
370
-3
390
F
  0
LAYER
  5
212
100
AcDbSymbolTableRecord
100
AcDbLayerTableRecord
  2
PLATED_AREA
 70
0
 62
7
  6
CONTINUOUS
370
-3
390
F
  0
LAYER
  5
213
100
AcDbSymbolTableRecord
100
AcDbLayerTableRecord
  2
POINTS
 70
0
 62
7
  6
CONTINUOUS
370
-3
390
F
  0
LAYER
  5
214
100
AcDbSymbolTableRecord
100
AcDbLayerTableRecord
  2
PROTRUSION_FEATURES
 70
0
 62
7
  6
CONTINUOUS
370
-3
390
F
  0
LAYER
  5
215
100
AcDbSymbolTableRecord
100
AcDbLayerTableRecord
  2
QUILT
 70
0
 62
7
  6
CONTINUOUS
370
-3
390
F
  0
LAYER
  5
216
100
AcDbSymbolTableRecord
100
AcDbLayerTableRecord
  2
QUILTS
 70
0
 62
7
  6
CONTINUOUS
370
-3
390
F
  0
LAYER
  5
217
100
AcDbSymbolTableRecord
100
AcDbLayerTableRecord
  2
REFERENCE_DIMENSIONS
 70
0
 62
7
  6
CONTINUOUS
370
-3
390
F
  0
LAYER
  5
218
100
AcDbSymbolTableRecord
100
AcDbLayerTableRecord
  2
REF_CURVES
 70
0
 62
7
  6
CONTINUOUS
370
-3
390
F
  0
LAYER
  5
219
100
AcDbSymbolTableRecord
100
AcDbLayerTableRecord
  2
RGB(   0_   0_   0 )
 70
0
 62
7
  6
CONTINUOUS
370
-3
390
F
  0
LAYER
  5
21A
100
AcDbSymbolTableRecord
100
AcDbLayerTableRecord
  2
ROUND_FEATURES
 70
0
 62
7
  6
CONTINUOUS
370
-3
390
F
  0
LAYER
  5
21B
100
AcDbSymbolTableRecord
100
AcDbLayerTableRecord
  2
SET_SCRW_MATE
 70
0
 62
7
  6
CONTINUOUS
370
-3
390
F
  0
LAYER
  5
21C
100
AcDbSymbolTableRecord
100
AcDbLayerTableRecord
  2
SHELL_FEATURES
 70
0
 62
7
  6
CONTINUOUS
370
-3
390
F
  0
LAYER
  5
21D
100
AcDbSymbolTableRecord
100
AcDbLayerTableRecord
  2
SIZE_REF
 70
0
 62
7
  6
CONTINUOUS
370
-3
390
F
  0
LAYER
  5
21E
100
AcDbSymbolTableRecord
100
AcDbLayerTableRecord
  2
SURFACE_FEATURES
 70
0
 62
7
  6
CONTINUOUS
370
-3
390
F
  0
LAYER
  5
21F
100
AcDbSymbolTableRecord
100
AcDbLayerTableRecord
  2
XSEC_DATUMS
 70
0
 62
7
  6
CONTINUOUS
370
-3
390
F
  0
ENDTAB
  0
TABLE
  2
STYLE
  5
3
100
AcDbSymbolTable
 70
1
  0
STYLE
  5
11
100
AcDbSymbolTableRecord
100
AcDbTextStyleTableRecord
  2
STANDARD
 70
0
 40
0.0
 41
0.8
 50
0.0
 71
0
 42
0.2
  3
txt
  4

  0
STYLE
  5
220
100
AcDbSymbolTableRecord
100
AcDbTextStyleTableRecord
  2
TEXTSTYLE_1
 70
0
 40
0.0
 41
0.8
 50
0.0
 71
0
 42
0.2
  3
gdt
  4

  0
ENDTAB
  0
TABLE
  2
VIEW
  5
6
100
AcDbSymbolTable
 70
0
  0
ENDTAB
  0
TABLE
  2
UCS
  5
7
100
AcDbSymbolTable
 70
0
  0
ENDTAB
  0
TABLE
  2
APPID
  5
9
100
AcDbSymbolTable
 70
1
  0
APPID
  5
221
100
AcDbSymbolTableRecord
100
AcDbRegAppTableRecord
  2
ACAD
 70
0
  0
ENDTAB
  0
TABLE
  2
BLOCK_RECORD
  5
1
100
AcDbSymbolTable
 70
0
  0
BLOCK_RECORD
  5
222
100
AcDbSymbolTableRecord
100
AcDbBlockTableRecord
  2
*Model_Space
  0
BLOCK_RECORD
  5
223
100
AcDbSymbolTableRecord
100
AcDbBlockTableRecord
  2
*Paper_Space
  0
BLOCK_RECORD
  5
224
100
AcDbSymbolTableRecord
100
AcDbBlockTableRecord
  2
_FILLED
  0
ENDTAB
  0
TABLE
  2
DIMSTYLE
  5
A
100
AcDbSymbolTable
 70
1
100
AcDbDimStyleTable
 71
0
  0
DIMSTYLE
105
225
100
AcDbSymbolTableRecord
100
AcDbDimStyleTableRecord
  2
STANDARD
 70
0
  3

  4

 40
1.0
 41
0.1
 42
0.0625
 43
0.38
 44
0.125
 45
0.0
 46
0.0
 47
0.001
 48
0.001
140
0.08
141
0.09
142
0.0
143
25.4
144
1.0
145
0.0
146
1.0
147
0.09
 71
1.0
 72
0.0
 73
1
 74
1
 75
0
 76
0
 77
0
 78
4
 79
1
170
1
171
2
172
0
173
0
174
0
175
0
176
0
177
0
178
0
270
2
179
3
271
3
272
3
273
2
274
2
275
0
280
0
281
0
282
0
283
1
284
4
285
0
286
0
287
3
288
0
340
11
278
46
341
224
342
224
343
224
344
224
  0
ENDTAB
  0
ENDSEC
  0
SECTION
  2
BLOCKS
  0
BLOCK
  5
20
100
AcDbEntity
  8
0
100
AcDbBlockBegin
  2
*Model_Space
 70
0
 10
0.0
 20
0.0
 30
0.0
  3
*Model_Space
  1

  0
ENDBLK
  5
21
100
AcDbEntity
  8
0
100
AcDbBlockEnd
  0
BLOCK
  5
1C
100
AcDbEntity
  8
0
100
AcDbBlockBegin
  2
*Paper_Space
 70
0
 10
0.0
 20
0.0
 30
0.0
  3
*Paper_Space
  1

  0
ENDBLK
  5
1D
100
AcDbEntity
  8
0
100
AcDbBlockEnd
  0
BLOCK
  5
226
100
AcDbEntity
  8
0
100
AcDbBlockBegin
  2
_FILLED
 70
64
 10
0.0
 20
0.0
  3
_FILLED
  1

  0
SOLID
  5
227
100
AcDbEntity
  8
0
  6
BYBLOCK
 62
0
100
AcDbTrace
 10
0.0
 20
0.0
 11
-1.0
 21
0.2
 12
-1.0
 22
-0.2
 13
-1.0
 23
-0.2
  0
ENDBLK
  5
228
100
AcDbEntity
  8
0
  6
BYBLOCK
 62
0
100
AcDbBlockEnd
  0
ENDSEC
  0
SECTION
  2
ENTITIES
  0
MTEXT
  5
229
100
AcDbEntity
  8
0
100
AcDbMText
 62
2
  6
CONTINUOUS
  7
STANDARD
 71
3
 72
1
 10
2.6003299689
 20
1.9134370336
 30
0.0
 11
1.0
 21
0.0
 31
0.0
 73
2
 44
0.9
  1
SCALE  .500
 40
0.08
 41
0.704
  0
LINE
  5
22A
100
AcDbEntity
  8
0
100
AcDbLine
 62
7
  6
CONTINUOUS
 10
0.0
 20
0.0
 11
0.0
 21
8.5
  0
LINE
  5
22B
100
AcDbEntity
  8
0
100
AcDbLine
 62
7
  6
CONTINUOUS
 10
0.0
 20
0.0
 11
11.0
 21
0.0
  0
LINE
  5
22C
100
AcDbEntity
  8
0
100
AcDbLine
 62
7
  6
CONTINUOUS
 10
0.0
 20
8.5
 11
11.0
 21
8.5
  0
LINE
  5
22D
100
AcDbEntity
  8
0
100
AcDbLine
 62
7
  6
CONTINUOUS
 10
11.0
 20
0.0
 11
11.0
 21
8.5
  0
LINE
  5
22E
100
AcDbEntity
  8
ALL_ASSEMBLY_MEMBERS
100
AcDbLine
 62
7
  6
CONTINUOUS
 10
2.215927795
 20
4.9173618794
 11
2.215927795
 21
4.6798618794
  0
LINE
  5
22F
100
AcDbEntity
  8
ALL_ASSEMBLY_MEMBERS
100
AcDbLine
 62
7
  6
CONTINUOUS
 10
2.2809567128
 20
4.9067101436
 11
2.2809567128
 21
4.6905136152
  0
LINE
  5
230
100
AcDbEntity
  8
ALL_ASSEMBLY_MEMBERS
100
AcDbLine
 62
7
  6
CONTINUOUS
 10
2.377427795
 20
4.9078618794
 11
2.377427795
 21
4.6893618794
  0
LINE
  5
231
100
AcDbEntity
  8
ALL_ASSEMBLY_MEMBERS
100
AcDbLine
 62
7
  6
CONTINUOUS
 10
2.5493076675
 20
4.9957365336
 11
2.5493076675
 21
4.6014872252
  0
LINE
  5
232
100
AcDbEntity
  8
ALL_ASSEMBLY_MEMBERS
100
AcDbLine
 62
7
  6
CONTINUOUS
 10
3.0767257535
 20
4.893216843
 11
3.0767257535
 21
4.7040069158
  0
LINE
  5
233
100
AcDbEntity
  8
ALL_ASSEMBLY_MEMBERS
100
AcDbLine
 62
7
  6
CONTINUOUS
 10
3.113427795
 20
6.1597368794
 11
3.113427795
 21
6.1527368794
  0
LINE
  5
234
100
AcDbEntity
  8
ALL_ASSEMBLY_MEMBERS
100
AcDbLine
 62
7
  6
CONTINUOUS
 10
3.473427795
 20
4.9236118794
 11
3.473427795
 21
4.6736118794
  0
LINE
  5
235
100
AcDbEntity
  8
ALL_ASSEMBLY_MEMBERS
100
AcDbLine
 62
7
  6
CONTINUOUS
 10
3.495927795
 20
4.9236118794
 11
3.495927795
 21
4.6736118794
  0
LINE
  5
236
100
AcDbEntity
  8
ALL_ASSEMBLY_MEMBERS
100
AcDbLine
 62
7
  6
CONTINUOUS
 10
3.508427795
 20
4.9111332294
 11
3.508427795
 21
4.6861118794
  0
LINE
  5
237
100
AcDbEntity
  8
ALL_ASSEMBLY_MEMBERS
100
AcDbLine
 62
7
  6
CONTINUOUS
 10
3.522177795
 20
5.1151118794
 11
3.522177795
 21
5.1401118794
  0
LINE
  5
238
100
AcDbEntity
  8
ALL_ASSEMBLY_MEMBERS
100
AcDbLine
 62
7
  6
CONTINUOUS
 10
3.533177795
 20
4.6236118794
 11
3.533177795
 21
4.6591118794
  0
LINE
  5
239
100
AcDbEntity
  8
ALL_ASSEMBLY_MEMBERS
100
AcDbLine
 62
7
  6
CONTINUOUS
 10
3.562427795
 20
4.5881118794
 11
3.562427795
 21
4.6001118794
  0
LINE
  5
23A
100
AcDbEntity
  8
ALL_ASSEMBLY_MEMBERS
100
AcDbLine
 62
7
  6
CONTINUOUS
 10
3.834427795
 20
4.5881118794
 11
3.834427795
 21
4.6001118794
  0
LINE
  5
23B
100
AcDbEntity
  8
ALL_ASSEMBLY_MEMBERS
100
AcDbLine
 62
7
  6
CONTINUOUS
 10
3.863677795
 20
4.6236118794
 11
3.863677795
 21
4.6591118794
  0
LINE
  5
23C
100
AcDbEntity
  8
ALL_ASSEMBLY_MEMBERS
100
AcDbLine
 62
7
  6
CONTINUOUS
 10
3.9157605668
 20
5.2582893744
 11
3.9035061199
 21
5.1887909523
  0
LINE
  5
23D
100
AcDbEntity
  8
ALL_ASSEMBLY_MEMBERS
100
AcDbLine
 62
7
  6
CONTINUOUS
 10
3.8070040678
 20
5.0437311214
 11
3.8059592827
 21
5.0401118794
  0
LINE
  5
23E
100
AcDbEntity
  8
ALL_ASSEMBLY_MEMBERS
100
AcDbLine
 62
7
  6
CONTINUOUS
 10
3.8232797907
 20
5.0201118794
 11
3.8290532934
 21
5.0401118794
  0
LINE
  5
23F
100
AcDbEntity
  8
ALL_ASSEMBLY_MEMBERS
100
AcDbLine
 62
7
  6
CONTINUOUS
 10
3.8264552172
 20
5.0148004854
 11
3.8253447221
 21
5.0132300081
  0
LINE
  5
240
100
AcDbEntity
  8
ALL_ASSEMBLY_MEMBERS
100
AcDbLine
 62
7
  6
CONTINUOUS
 10
3.508427795
 20
4.9111421181
 11
3.5101991586
 21
4.913465989
  0
LINE
  5
241
100
AcDbEntity
  8
ALL_ASSEMBLY_MEMBERS
100
AcDbLine
 62
7
  6
CONTINUOUS
 10
3.4810950232
 20
5.2582893744
 11
3.4933494702
 21
5.1887909523
  0
LINE
  5
242
100
AcDbEntity
  8
ALL_ASSEMBLY_MEMBERS
100
AcDbLine
 62
7
  6
CONTINUOUS
 10
3.874677795
 20
5.1151118794
 11
3.874677795
 21
5.1401118794
  0
LINE
  5
243
100
AcDbEntity
  8
ALL_ASSEMBLY_MEMBERS
100
AcDbLine
 62
7
  6
CONTINUOUS
 10
3.8252742243
 20
5.0132875291
 11
3.8252555573
 21
5.0132646507
  0
LINE
  5
244
100
AcDbEntity
  8
ALL_ASSEMBLY_MEMBERS
100
AcDbLine
 62
7
  6
CONTINUOUS
 10
3.8252745816
 20
5.0132862953
 11
3.8252556346
 21
5.0132643827
  0
LINE
  5
245
100
AcDbEntity
  8
ALL_ASSEMBLY_MEMBERS
100
AcDbLine
 62
7
  6
CONTINUOUS
 10
3.495927795
 20
4.6736118794
 11
3.508427795
 21
4.6861118794
  0
LINE
  5
246
100
AcDbEntity
  8
ALL_ASSEMBLY_MEMBERS
100
AcDbLine
 62
7
  6
CONTINUOUS
 10
3.8059592827
 20
5.0401118794
 11
3.8117327854
 21
5.0201118794
  0
LINE
  5
247
100
AcDbEntity
  8
ALL_ASSEMBLY_MEMBERS
100
AcDbLine
 62
7
  6
CONTINUOUS
 10
3.8290532934
 20
5.0401118794
 11
3.8232797907
 21
5.0601118794
  0
LINE
  5
248
100
AcDbEntity
  8
ALL_ASSEMBLY_MEMBERS
100
AcDbLine
 62
7
  6
CONTINUOUS
 10
4.283427795
 20
6.1597368794
 11
4.283427795
 21
6.1527368794
  0
LINE
  5
249
100
AcDbEntity
  8
ALL_ASSEMBLY_MEMBERS
100
AcDbLine
 62
7
  6
CONTINUOUS
 10
3.783427795
 20
4.5551118794
 11
3.788427795
 21
4.5601118794
  0
LINE
  5
24A
100
AcDbEntity
  8
ALL_ASSEMBLY_MEMBERS
100
AcDbLine
 62
7
  6
CONTINUOUS
 10
3.613427795
 20
4.5551118794
 11
3.608427795
 21
4.5601118794
  0
LINE
  5
24B
100
AcDbEntity
  8
ALL_ASSEMBLY_MEMBERS
100
AcDbLine
 62
7
  6
CONTINUOUS
 10
3.495927795
 20
4.9236118794
 11
3.508427795
 21
4.9111118794
  0
LINE
  5
24C
100
AcDbEntity
  8
ALL_ASSEMBLY_MEMBERS
100
AcDbLine
 62
7
  6
CONTINUOUS
 10
3.8264552172
 20
5.0654232734
 11
3.8225249508
 21
5.0709815095
  0
LINE
  5
24D
100
AcDbEntity
  8
ALL_ASSEMBLY_MEMBERS
100
AcDbLine
 62
7
  6
CONTINUOUS
 10
5.07967791
 20
5.8009277384
 11
5.079677795
 21
5.8009299795
  0
LINE
  5
24E
100
AcDbEntity
  8
ALL_ASSEMBLY_MEMBERS
100
AcDbLine
 62
7
  6
CONTINUOUS
 10
4.953427795
 20
6.1597368794
 11
4.953427795
 21
6.0932368794
  0
LINE
  5
24F
100
AcDbEntity
  8
ALL_ASSEMBLY_MEMBERS
100
AcDbLine
 62
7
  6
CONTINUOUS
 10
5.039427795
 20
5.9471957893
 11
5.039427795
 21
5.9462368794
  0
LINE
  5
250
100
AcDbEntity
  8
ALL_ASSEMBLY_MEMBERS
100
AcDbLine
 62
7
  6
CONTINUOUS
 10
5.079677795
 20
5.8009288271
 11
5.079677795
 21
5.8722368794
  0
LINE
  5
251
100
AcDbEntity
  8
ALL_ASSEMBLY_MEMBERS
100
AcDbLine
 62
7
  6
CONTINUOUS
 10
6.2342888095
 20
5.743851614
 11
6.23429596
 21
5.7438564891
  0
LINE
  5
252
100
AcDbEntity
  8
ALL_ASSEMBLY_MEMBERS
100
AcDbLine
 62
7
  6
CONTINUOUS
 10
5.0802950253
 20
5.7898383628
 11
5.0801062149
 21
5.7916861731
  0
LWPOLYLINE
  5
253
100
AcDbEntity
  8
ALL_ASSEMBLY_MEMBERS
100
AcDbPolyline
 62
7
  6
CONTINUOUS
 90
8
 70
0
 10
6.2342954373
 20
5.7438557367
 10
6.2354148426
 20
5.7455015268
 10
6.2395927243
 20
5.7523589753
 10
6.2432075942
 20
5.759530537
 10
6.2462359567
 20
5.766970351
 10
6.2486578954
 20
5.7746303883
 10
6.2504573704
 20
5.7824606992
 10
6.2515647523
 20
5.7898772678
  0
LWPOLYLINE
  5
254
100
AcDbEntity
  8
ALL_ASSEMBLY_MEMBERS
100
AcDbPolyline
 62
7
  6
CONTINUOUS
 90
8
 70
0
 10
5.0802952438
 20
5.7898383873
 10
5.0813980188
 20
5.78246214
 10
5.0831974396
 20
5.7746315496
 10
5.0856193635
 20
5.7669712386
 10
5.0886477457
 20
5.7595311678
 10
5.0922626649
 20
5.7523593716
 10
5.0964406226
 20
5.7455017106
 10
5.0975601537
 20
5.7438557227
  0
LINE
  5
255
100
AcDbEntity
  8
ALL_ASSEMBLY_MEMBERS
100
AcDbLine
 62
7
  6
CONTINUOUS
 10
5.4710229299
 20
4.0546161107
 11
5.4710224905
 21
4.0557993631
  0
LINE
  5
256
100
AcDbEntity
  8
ALL_ASSEMBLY_MEMBERS
100
AcDbLine
 62
7
  6
CONTINUOUS
 10
5.665927795
 20
2.8689289917
 11
5.665927795
 21
5.8009293511
  0
LWPOLYLINE
  5
257
100
AcDbEntity
  8
ALL_ASSEMBLY_MEMBERS
100
AcDbPolyline
 62
7
  6
CONTINUOUS
 90
31
 70
0
 10
5.4710229299
 20
4.0546161107
 10
5.4706259742
 20
4.0250868049
 10
5.469537695
 20
3.9951106032
 10
5.4679238183
 20
3.9661479135
 10
5.4659201475
 20
3.9383928197
 10
5.4636245421
 20
3.9117575424
 10
5.4610706492
 20
3.885784838
 10
5.4583091171
 20
3.8604619353
 10
5.4553933741
 20
3.835869539
 10
5.452319991
 20
3.8116838548
 10
5.4491050023
 20
3.7878310324
 10
5.4457865963
 20
3.7644262328
 10
5.4423811487
 20
3.7414377674
 10
5.4389082928
 20
3.7188742329
 10
5.4353877065
 20
3.6967543323
 10
5.4318326908
 20
3.6750659447
 10
5.4282582652
 20
3.6538167495
 10
5.4246788168
 20
3.6330190374
 10
5.4211052839
 20
3.6126753801
 10
5.4175516098
 20
3.5928108792
 10
5.4140270977
 20
3.5734282611
 10
5.4105349713
 20
3.554500815
 10
5.4070856287
 20
3.536042883
 10
5.4036874099
 20
3.5180597267
 10
5.4003400791
 20
3.5005141589
 10
5.3970516077
 20
3.4834148132
 10
5.3938299689
 20
3.4667717498
 10
5.390674995
 20
3.4505545417
 10
5.3875911068
 20
3.434757878
 10
5.3845885013
 20
3.4194068091
 10
5.3788579283
 20
3.3900932889
  0
LWPOLYLINE
  5
258
100
AcDbEntity
  8
ALL_ASSEMBLY_MEMBERS
100
AcDbPolyline
 62
7
  6
CONTINUOUS
 90
21
 70
0
 10
5.3788579283
 20
3.3900932889
 10
5.3761421205
 20
3.3761417691
 10
5.3735343375
 20
3.3626702816
 10
5.3710406521
 20
3.3496861727
 10
5.3686641446
 20
3.337181913
 10
5.3664052191
 20
3.3251359076
 10
5.3642681432
 20
3.3135468418
 10
5.3622554825
 20
3.3024042593
 10
5.360363623
 20
3.2916617785
 10
5.3585976055
 20
3.281319413
 10
5.3569573771
 20
3.2713461616
 10
5.3554315627
 20
3.2616326328
 10
5.3540263411
 20
3.252166261
 10
5.3527447219
 20
3.2429062376
 10
5.3515752352
 20
3.2336775891
 10
5.3505259737
 20
3.2244012341
 10
5.3496173391
 20
3.2150727061
 10
5.3488641874
 20
3.2055968893
 10
5.3482896577
 20
3.1958952413
 10
5.3479248523
 20
3.1859268694
 10
5.3478044822
 20
3.1762112272
  0
LINE
  5
259
100
AcDbEntity
  8
ALL_ASSEMBLY_MEMBERS
100
AcDbLine
 62
7
  6
CONTINUOUS
 10
8.2576298365
 20
4.893216843
 11
8.7850479226
 21
4.9957365336
  0
LINE
  5
25A
100
AcDbEntity
  8
ALL_ASSEMBLY_MEMBERS
100
AcDbLine
 62
7
  6
CONTINUOUS
 10
3.0767257535
 20
4.893216843
 11
2.5493076675
 21
4.9957365336
  0
LWPOLYLINE
  5
25B
100
AcDbEntity
  8
ALL_ASSEMBLY_MEMBERS
100
AcDbPolyline
 62
7
  6
CONTINUOUS
 90
37
 70
0
 10
5.9840511074
 20
3.1761950087
 10
5.9838126045
 20
3.1905063484
 10
5.9831105772
 20
3.2049453668
 10
5.982025403
 20
3.21895232
 10
5.9806382552
 20
3.2325024941
 10
5.978993571
 20
3.245817539
 10
5.977078887
 20
3.2593407491
 10
5.9748993893
 20
3.2732145345
 10
5.9724749828
 20
3.2874506564
 10
5.9697860801
 20
3.3022644956
 10
5.9668450375
 20
3.3176826229
 10
5.963665004
 20
3.333748819
 10
5.9602195619
 20
3.350690093
 10
5.9565155618
 20
3.3685540995
 10
5.9525720107
 20
3.3873316855
 10
5.9483757185
 20
3.4071695106
 10
5.9439366807
 20
3.4281085528
 10
5.9392816715
 20
3.4501190602
 10
5.9344256598
 20
3.4732365997
 10
5.9293934267
 20
3.497462555
 10
5.924223181
 20
3.5227475669
 10
5.9189549119
 20
3.5490482879
 10
5.9136376581
 20
3.5762931587
 10
5.9083118985
 20
3.6044584121
 10
5.9030003669
 20
3.6335948889
 10
5.8977599035
 20
3.6635831976
 10
5.8926200364
 20
3.6944918817
 10
5.8875735527
 20
3.7267004884
 10
5.8826519499
 20
3.7604865975
 10
5.8779712371
 20
3.7956251108
 10
5.8736602885
 20
3.8317680584
 10
5.8697387673
 20
3.8696009958
 10
5.8663826462
 20
3.9085494011
 10
5.8638374562
 20
3.9462975966
 10
5.8621115923
 20
3.9820153297
 10
5.861105586
 20
4.0164549168
 10
5.8608025254
 20
4.047908413
  0
LINE
  5
25C
100
AcDbEntity
  8
ALL_ASSEMBLY_MEMBERS
100
AcDbLine
 62
7
  6
CONTINUOUS
 10
5.8608025254
 20
4.047908413
 11
5.8608034681
 21
4.0495875176
  0
LWPOLYLINE
  5
25D
100
AcDbEntity
  8
ALL_ASSEMBLY_MEMBERS
100
AcDbPolyline
 62
7
  6
CONTINUOUS
 90
39
 70
0
 10
5.8608105569
 20
4.0534659664
 10
5.8609292821
 20
4.0711080665
 10
5.861299217
 20
4.0987359943
 10
5.8618195485
 20
4.1273425556
 10
5.8624403933
 20
4.1567782304
 10
5.8631657044
 20
4.186806619
 10
5.8640129503
 20
4.2173179333
 10
5.8650019458
 20
4.2484415028
 10
5.8661420293
 20
4.2803404143
 10
5.8674373935
 20
4.3130533296
 10
5.8688914623
 20
4.3465302265
 10
5.8705152657
 20
4.3807980904
 10
5.8723172141
 20
4.4158135977
 10
5.8743098682
 20
4.4516150426
 10
5.8765136292
 20
4.4883521385
 10
5.8789412292
 20
4.5260127418
 10
5.8816068287
 20
4.5645999642
 10
5.8845370567
 20
4.6042832464
 10
5.8877404129
 20
4.6450331541
 10
5.8912258237
 20
4.6868630314
 10
5.8950220376
 20
4.730010388
 10
5.8991440591
 20
4.774509878
 10
5.9036468725
 20
4.8203148112
 10
5.9086723534
 20
4.8675691231
 10
5.9145465526
 20
4.9161573206
 10
5.9218335486
 20
4.9661447931
 10
5.9308992663
 20
5.0179057216
 10
5.9418394229
 20
5.0712846459
 10
5.9547575152
 20
5.1262077515
 10
5.9699207685
 20
5.1830926124
 10
5.9875159407
 20
5.2417299875
 10
6.0077728498
 20
5.3020080347
 10
6.0311794296
 20
5.3644432469
 10
6.0584818482
 20
5.4298910175
 10
6.0895566129
 20
5.496972994
 10
6.1233634518
 20
5.562975959
 10
6.1594163563
 20
5.626998183
 10
6.1980970561
 20
5.6897562774
 10
6.2342955435
 20
5.7438558819
  0
LINE
  5
25E
100
AcDbEntity
  8
ALL_ASSEMBLY_MEMBERS
100
AcDbLine
 62
7
  6
CONTINUOUS
 10
3.613427795
 20
4.5551118794
 11
3.783427795
 21
4.5551118794
  0
LINE
  5
25F
100
AcDbEntity
  8
ALL_ASSEMBLY_MEMBERS
100
AcDbLine
 62
7
  6
CONTINUOUS
 10
7.550927795
 20
4.5551118794
 11
7.720927795
 21
4.5551118794
  0
LINE
  5
260
100
AcDbEntity
  8
ALL_ASSEMBLY_MEMBERS
100
AcDbLine
 62
7
  6
CONTINUOUS
 10
3.608427795
 20
4.5601118794
 11
3.788427795
 21
4.5601118794
  0
LINE
  5
261
100
AcDbEntity
  8
ALL_ASSEMBLY_MEMBERS
100
AcDbLine
 62
7
  6
CONTINUOUS
 10
7.545927795
 20
4.5601118794
 11
7.725927795
 21
4.5601118794
  0
LINE
  5
262
100
AcDbEntity
  8
ALL_ASSEMBLY_MEMBERS
100
AcDbLine
 62
7
  6
CONTINUOUS
 10
3.5624301721
 20
4.5881118794
 11
3.8344254179
 21
4.5881118794
  0
LINE
  5
263
100
AcDbEntity
  8
ALL_ASSEMBLY_MEMBERS
100
AcDbLine
 62
7
  6
CONTINUOUS
 10
7.4999301721
 20
4.5881118794
 11
7.7719254179
 21
4.5881118794
  0
LINE
  5
264
100
AcDbEntity
  8
ALL_ASSEMBLY_MEMBERS
100
AcDbLine
 62
7
  6
CONTINUOUS
 10
3.5566802726
 20
4.6001118794
 11
3.8401753174
 21
4.6001118794
  0
LINE
  5
265
100
AcDbEntity
  8
ALL_ASSEMBLY_MEMBERS
100
AcDbLine
 62
7
  6
CONTINUOUS
 10
7.4941802726
 20
4.6001118794
 11
7.7776753174
 21
4.6001118794
  0
LINE
  5
266
100
AcDbEntity
  8
ALL_ASSEMBLY_MEMBERS
100
AcDbLine
 62
7
  6
CONTINUOUS
 10
3.533177795
 20
4.6236118794
 11
3.863677795
 21
4.6236118794
  0
LINE
  5
267
100
AcDbEntity
  8
ALL_ASSEMBLY_MEMBERS
100
AcDbLine
 62
7
  6
CONTINUOUS
 10
7.470677795
 20
4.6236118794
 11
7.801177795
 21
4.6236118794
  0
LINE
  5
268
100
AcDbEntity
  8
ALL_ASSEMBLY_MEMBERS
100
AcDbLine
 62
7
  6
CONTINUOUS
 10
3.533177795
 20
4.6591118794
 11
3.863677795
 21
4.6591118794
  0
LINE
  5
269
100
AcDbEntity
  8
ALL_ASSEMBLY_MEMBERS
100
AcDbLine
 62
7
  6
CONTINUOUS
 10
7.470677795
 20
4.6591118794
 11
7.801177795
 21
4.6591118794
  0
LINE
  5
26A
100
AcDbEntity
  8
ALL_ASSEMBLY_MEMBERS
100
AcDbLine
 62
7
  6
CONTINUOUS
 10
3.495927795
 20
4.6736118794
 11
3.473427795
 21
4.6736118794
  0
LINE
  5
26B
100
AcDbEntity
  8
ALL_ASSEMBLY_MEMBERS
100
AcDbLine
 62
7
  6
CONTINUOUS
 10
7.838427795
 20
4.6736118794
 11
7.860927795
 21
4.6736118794
  0
LWPOLYLINE
  5
26C
100
AcDbEntity
  8
ALL_ASSEMBLY_MEMBERS
100
AcDbPolyline
 62
7
  6
CONTINUOUS
 90
54
 70
0
 10
5.0975600343
 20
5.7438558304
 10
5.127882666
 20
5.6988213698
 10
5.1603686877
 20
5.6471847405
 10
5.1900501277
 20
5.5964568883
 10
5.2170085372
 20
5.5469385976
 10
5.2414771744
 20
5.4986467378
 10
5.2637986789
 20
5.4512983599
 10
5.2841007449
 20
5.4049781398
 10
5.3024883887
 20
5.3598155557
 10
5.3192050233
 20
5.3155576083
 10
5.3343502664
 20
5.2722542459
 10
5.348006584
 20
5.2300090365
 10
5.3603470056
 20
5.1886285125
 10
5.3714532534
 20
5.1481583054
 10
5.3813971762
 20
5.1086673729
 10
5.3902946427
 20
5.0699876715
 10
5.3981869738
 20
5.0321526315
 10
5.405108616
 20
4.9952232662
 10
5.4111284826
 20
4.9590570692
 10
5.4162832658
 20
4.9236677036
 10
5.4206849604
 20
4.8891026249
 10
5.4245480315
 20
4.8552380065
 10
5.4280448356
 20
4.8220375359
 10
5.4312657352
 20
4.7895397892
 10
5.4342765732
 20
4.7577205743
 10
5.4371205594
 20
4.726606485
 10
5.4398083158
 20
4.6961735828
 10
5.4423487092
 20
4.6663374136
 10
5.4447426929
 20
4.6371033938
 10
5.4469918977
 20
4.6084738101
 10
5.4491047384
 20
4.5803636605
 10
5.4510841188
 20
4.5527649657
 10
5.4529346232
 20
4.5256903539
 10
5.4546659423
 20
4.4990841282
 10
5.4562834946
 20
4.4729462178
 10
5.4577923671
 20
4.4472791881
 10
5.4592005035
 20
4.4220303504
 10
5.4605126275
 20
4.3971944932
 10
5.4617323069
 20
4.3727796142
 10
5.4628641476
 20
4.3487538705
 10
5.4639109721
 20
4.3251148859
 10
5.4648751299
 20
4.3018708792
 10
5.4657603915
 20
4.279001912
 10
5.4665703825
 20
4.2564956659
 10
5.4673081801
 20
4.2343534113
 10
5.4679769662
 20
4.2125723613
 10
5.4685767486
 20
4.1912487494
 10
5.4691118775
 20
4.1703171017
 10
5.4695895821
 20
4.1495389807
 10
5.4700140118
 20
4.1287143506
 10
5.4703847732
 20
4.1079883882
 10
5.4707052936
 20
4.0875947087
 10
5.4709519331
 20
4.0682317089
 10
5.4710188615
 20
4.0580498766
  0
LINE
  5
26D
100
AcDbEntity
  8
ALL_ASSEMBLY_MEMBERS
100
AcDbLine
 62
7
  6
CONTINUOUS
 10
6.252177795
 20
5.8009299416
 11
6.2521776818
 21
5.8009277374
  0
LINE
  5
26E
100
AcDbEntity
  8
ALL_ASSEMBLY_MEMBERS
100
AcDbLine
 62
7
  6
CONTINUOUS
 10
6.2515647523
 20
5.7898772678
 11
6.2517525309
 21
5.7917218436
  0
LINE
  5
26F
100
AcDbEntity
  8
ALL_ASSEMBLY_MEMBERS
100
AcDbLine
 62
7
  6
CONTINUOUS
 10
3.5101991586
 20
4.913465989
 11
3.8866564315
 21
4.913465989
  0
LINE
  5
270
100
AcDbEntity
  8
ALL_ASSEMBLY_MEMBERS
100
AcDbLine
 62
7
  6
CONTINUOUS
 10
7.4476991586
 20
4.913465989
 11
7.8241564315
 21
4.913465989
  0
LINE
  5
271
100
AcDbEntity
  8
ALL_ASSEMBLY_MEMBERS
100
AcDbLine
 62
7
  6
CONTINUOUS
 10
3.495927795
 20
4.9236118794
 11
3.473427795
 21
4.9236118794
  0
LINE
  5
272
100
AcDbEntity
  8
ALL_ASSEMBLY_MEMBERS
100
AcDbLine
 62
7
  6
CONTINUOUS
 10
7.838427795
 20
4.9236118794
 11
7.860927795
 21
4.9236118794
  0
LINE
  5
273
100
AcDbEntity
  8
ALL_ASSEMBLY_MEMBERS
100
AcDbLine
 62
7
  6
CONTINUOUS
 10
3.8117327854
 20
5.0201118794
 11
3.8232797907
 21
5.0201118794
  0
LINE
  5
274
100
AcDbEntity
  8
ALL_ASSEMBLY_MEMBERS
100
AcDbLine
 62
7
  6
CONTINUOUS
 10
7.5110757993
 20
5.0201118794
 11
7.5226228047
 21
5.0201118794
  0
LINE
  5
275
100
AcDbEntity
  8
ALL_ASSEMBLY_MEMBERS
100
AcDbLine
 62
7
  6
CONTINUOUS
 10
3.8290532934
 20
5.0401118794
 11
3.8059592827
 21
5.0401118794
  0
LINE
  5
276
100
AcDbEntity
  8
ALL_ASSEMBLY_MEMBERS
100
AcDbLine
 62
7
  6
CONTINUOUS
 10
7.5053022966
 20
5.0401118794
 11
7.5270331948
 21
5.0401118794
  0
LINE
  5
277
100
AcDbEntity
  8
ALL_ASSEMBLY_MEMBERS
100
AcDbLine
 62
7
  6
CONTINUOUS
 10
6.252177795
 20
5.8009287276
 11
6.252177795
 21
5.8722368794
  0
LINE
  5
278
100
AcDbEntity
  8
ALL_ASSEMBLY_MEMBERS
100
AcDbLine
 62
7
  6
CONTINUOUS
 10
6.292427795
 20
5.9471957893
 11
6.292427795
 21
5.9462368794
  0
LINE
  5
279
100
AcDbEntity
  8
ALL_ASSEMBLY_MEMBERS
100
AcDbLine
 62
7
  6
CONTINUOUS
 10
6.378427795
 20
6.1597368794
 11
6.378427795
 21
6.0932368794
  0
LINE
  5
27A
100
AcDbEntity
  8
ALL_ASSEMBLY_MEMBERS
100
AcDbLine
 62
7
  6
CONTINUOUS
 10
3.0767257535
 20
4.7040069158
 11
2.5493076675
 21
4.6014872252
  0
LINE
  5
27B
100
AcDbEntity
  8
ALL_ASSEMBLY_MEMBERS
100
AcDbLine
 62
7
  6
CONTINUOUS
 10
7.522173765
 20
5.0601118794
 11
7.5110757993
 21
5.0601118794
  0
LINE
  5
27C
100
AcDbEntity
  8
ALL_ASSEMBLY_MEMBERS
100
AcDbLine
 62
7
  6
CONTINUOUS
 10
3.8232797907
 20
5.0601118794
 11
3.8161035201
 21
5.0601118794
  0
LINE
  5
27D
100
AcDbEntity
  8
ALL_ASSEMBLY_MEMBERS
100
AcDbLine
 62
7
  6
CONTINUOUS
 10
3.522177795
 20
5.1151118794
 11
3.874677795
 21
5.1151118794
  0
LINE
  5
27E
100
AcDbEntity
  8
ALL_ASSEMBLY_MEMBERS
100
AcDbLine
 62
7
  6
CONTINUOUS
 10
7.459677795
 20
5.1151118794
 11
7.812177795
 21
5.1151118794
  0
LINE
  5
27F
100
AcDbEntity
  8
ALL_ASSEMBLY_MEMBERS
100
AcDbLine
 62
7
  6
CONTINUOUS
 10
3.5221798602
 20
5.1401118794
 11
3.8746757299
 21
5.1401118794
  0
LINE
  5
280
100
AcDbEntity
  8
ALL_ASSEMBLY_MEMBERS
100
AcDbLine
 62
7
  6
CONTINUOUS
 10
7.4596798602
 20
5.1401118794
 11
7.8121757299
 21
5.1401118794
  0
LINE
  5
281
100
AcDbEntity
  8
ALL_ASSEMBLY_MEMBERS
100
AcDbLine
 62
7
  6
CONTINUOUS
 10
7.8016138098
 20
5.1557368794
 11
7.4702417803
 21
5.1557368794
  0
LINE
  5
282
100
AcDbEntity
  8
ALL_ASSEMBLY_MEMBERS
100
AcDbLine
 62
7
  6
CONTINUOUS
 10
3.8641138098
 20
5.1557368794
 11
3.5327417803
 21
5.1557368794
  0
LINE
  5
283
100
AcDbEntity
  8
ALL_ASSEMBLY_MEMBERS
100
AcDbLine
 62
7
  6
CONTINUOUS
 10
7.8410061199
 20
5.1887909523
 11
7.4308494702
 21
5.1887909523
  0
LINE
  5
284
100
AcDbEntity
  8
ALL_ASSEMBLY_MEMBERS
100
AcDbLine
 62
7
  6
CONTINUOUS
 10
3.9035061199
 20
5.1887909523
 11
3.4933494702
 21
5.1887909523
  0
LINE
  5
285
100
AcDbEntity
  8
ALL_ASSEMBLY_MEMBERS
100
AcDbLine
 62
7
  6
CONTINUOUS
 10
3.9157605668
 20
5.2582893744
 11
3.4810950232
 21
5.2582893744
  0
LINE
  5
286
100
AcDbEntity
  8
ALL_ASSEMBLY_MEMBERS
100
AcDbLine
 62
7
  6
CONTINUOUS
 10
7.4185950232
 20
5.2582893744
 11
7.8532605668
 21
5.2582893744
  0
LINE
  5
287
100
AcDbEntity
  8
ALL_ASSEMBLY_MEMBERS
100
AcDbLine
 62
7
  6
CONTINUOUS
 10
8.2576298365
 20
4.7040069158
 11
8.7850479226
 21
4.6014872252
  0
LINE
  5
288
100
AcDbEntity
  8
ALL_ASSEMBLY_MEMBERS
100
AcDbLine
 62
7
  6
CONTINUOUS
 10
3.9606753453
 20
5.3534896395
 11
3.4361802448
 21
5.3534896395
  0
LINE
  5
289
100
AcDbEntity
  8
ALL_ASSEMBLY_MEMBERS
100
AcDbLine
 62
7
  6
CONTINUOUS
 10
7.3736802448
 20
5.3534896395
 11
7.8981753453
 21
5.3534896395
  0
LINE
  5
28A
100
AcDbEntity
  8
ALL_ASSEMBLY_MEMBERS
100
AcDbLine
 62
7
  6
CONTINUOUS
 10
7.838427795
 20
4.9236118794
 11
7.825927795
 21
4.9111118794
  0
LINE
  5
28B
100
AcDbEntity
  8
ALL_ASSEMBLY_MEMBERS
100
AcDbLine
 62
7
  6
CONTINUOUS
 10
4.0923015768
 20
5.6227368794
 11
3.3045540133
 21
5.6227368794
  0
LINE
  5
28C
100
AcDbEntity
  8
ALL_ASSEMBLY_MEMBERS
100
AcDbLine
 62
7
  6
CONTINUOUS
 10
7.2420540133
 20
5.6227368794
 11
8.0298015768
 21
5.6227368794
  0
LINE
  5
28D
100
AcDbEntity
  8
ALL_ASSEMBLY_MEMBERS
100
AcDbLine
 62
7
  6
CONTINUOUS
 10
4.1061630763
 20
5.8252368794
 11
3.2906925138
 21
5.8252368794
  0
LINE
  5
28E
100
AcDbEntity
  8
ALL_ASSEMBLY_MEMBERS
100
AcDbLine
 62
7
  6
CONTINUOUS
 10
7.2281925138
 20
5.8252368794
 11
8.0436630763
 21
5.8252368794
  0
LINE
  5
28F
100
AcDbEntity
  8
ALL_ASSEMBLY_MEMBERS
100
AcDbLine
 62
7
  6
CONTINUOUS
 10
7.050927795
 20
6.1597368794
 11
7.050927795
 21
6.1527368794
  0
LINE
  5
290
100
AcDbEntity
  8
ALL_ASSEMBLY_MEMBERS
100
AcDbLine
 62
7
  6
CONTINUOUS
 10
7.720927795
 20
4.5551118794
 11
7.725927795
 21
4.5601118794
  0
LINE
  5
291
100
AcDbEntity
  8
ALL_ASSEMBLY_MEMBERS
100
AcDbLine
 62
7
  6
CONTINUOUS
 10
5.079677795
 20
5.8722368794
 11
6.252177795
 21
5.8722368794
  0
LINE
  5
292
100
AcDbEntity
  8
ALL_ASSEMBLY_MEMBERS
100
AcDbLine
 62
7
  6
CONTINUOUS
 10
5.039427795
 20
5.9462368794
 11
6.292427795
 21
5.9462368794
  0
LINE
  5
293
100
AcDbEntity
  8
ALL_ASSEMBLY_MEMBERS
100
AcDbLine
 62
7
  6
CONTINUOUS
 10
5.039427795
 20
5.9471957893
 11
6.292427795
 21
5.9471957893
  0
LINE
  5
294
100
AcDbEntity
  8
ALL_ASSEMBLY_MEMBERS
100
AcDbLine
 62
7
  6
CONTINUOUS
 10
4.1693396801
 20
5.9697368794
 11
3.2275159099
 21
5.9697368794
  0
LINE
  5
295
100
AcDbEntity
  8
ALL_ASSEMBLY_MEMBERS
100
AcDbLine
 62
7
  6
CONTINUOUS
 10
7.1650159099
 20
5.9697368794
 11
8.1068396801
 21
5.9697368794
  0
LINE
  5
296
100
AcDbEntity
  8
ALL_ASSEMBLY_MEMBERS
100
AcDbLine
 62
7
  6
CONTINUOUS
 10
4.1744018718
 20
5.9772368794
 11
3.2224537182
 21
5.9772368794
  0
LINE
  5
297
100
AcDbEntity
  8
ALL_ASSEMBLY_MEMBERS
100
AcDbLine
 62
7
  6
CONTINUOUS
 10
7.1599537182
 20
5.9772368794
 11
8.1119018718
 21
5.9772368794
  0
LINE
  5
298
100
AcDbEntity
  8
ALL_ASSEMBLY_MEMBERS
100
AcDbLine
 62
7
  6
CONTINUOUS
 10
5.0193439627
 20
5.9813011936
 11
6.3125116274
 21
5.9813011936
  0
LINE
  5
299
100
AcDbEntity
  8
ALL_ASSEMBLY_MEMBERS
100
AcDbLine
 62
7
  6
CONTINUOUS
 10
4.1880995736
 20
5.9947368794
 11
3.2087560165
 21
5.9947368794
  0
LINE
  5
29A
100
AcDbEntity
  8
ALL_ASSEMBLY_MEMBERS
100
AcDbLine
 62
7
  6
CONTINUOUS
 10
7.1462560165
 20
5.9947368794
 11
8.1255995736
 21
5.9947368794
  0
LINE
  5
29B
100
AcDbEntity
  8
ALL_ASSEMBLY_MEMBERS
100
AcDbLine
 62
7
  6
CONTINUOUS
 10
4.2066630482
 20
6.0227368794
 11
3.1901925419
 21
6.0227368794
  0
LINE
  5
29C
100
AcDbEntity
  8
ALL_ASSEMBLY_MEMBERS
100
AcDbLine
 62
7
  6
CONTINUOUS
 10
7.1276925419
 20
6.0227368794
 11
8.1441630482
 21
6.0227368794
  0
LINE
  5
29D
100
AcDbEntity
  8
ALL_ASSEMBLY_MEMBERS
100
AcDbLine
 62
7
  6
CONTINUOUS
 10
4.2188007588
 20
6.0432368794
 11
3.1780548312
 21
6.0432368794
  0
LINE
  5
29E
100
AcDbEntity
  8
ALL_ASSEMBLY_MEMBERS
100
AcDbLine
 62
7
  6
CONTINUOUS
 10
7.1155548312
 20
6.0432368794
 11
8.1563007588
 21
6.0432368794
  0
LINE
  5
29F
100
AcDbEntity
  8
ALL_ASSEMBLY_MEMBERS
100
AcDbLine
 62
7
  6
CONTINUOUS
 10
4.2343889799
 20
6.0722368794
 11
3.1624666102
 21
6.0722368794
  0
LINE
  5
2A0
100
AcDbEntity
  8
ALL_ASSEMBLY_MEMBERS
100
AcDbLine
 62
7
  6
CONTINUOUS
 10
7.0999666102
 20
6.0722368794
 11
8.1718889799
 21
6.0722368794
  0
LINE
  5
2A1
100
AcDbEntity
  8
ALL_ASSEMBLY_MEMBERS
100
AcDbLine
 62
7
  6
CONTINUOUS
 10
7.550927795
 20
4.5551118794
 11
7.545927795
 21
4.5601118794
  0
LINE
  5
2A2
100
AcDbEntity
  8
ALL_ASSEMBLY_MEMBERS
100
AcDbLine
 62
7
  6
CONTINUOUS
 10
7.459677795
 20
5.1151118794
 11
7.459677795
 21
5.1401118794
  0
LINE
  5
2A3
100
AcDbEntity
  8
ALL_ASSEMBLY_MEMBERS
100
AcDbLine
 62
7
  6
CONTINUOUS
 10
7.470677795
 20
4.6236118794
 11
7.470677795
 21
4.6591118794
  0
LINE
  5
2A4
100
AcDbEntity
  8
ALL_ASSEMBLY_MEMBERS
100
AcDbLine
 62
7
  6
CONTINUOUS
 10
7.499927795
 20
4.5881118794
 11
7.499927795
 21
4.6001118794
  0
LINE
  5
2A5
100
AcDbEntity
  8
ALL_ASSEMBLY_MEMBERS
100
AcDbLine
 62
7
  6
CONTINUOUS
 10
7.5110757993
 20
5.0601118794
 11
7.5053022966
 21
5.0401118794
  0
LINE
  5
2A6
100
AcDbEntity
  8
ALL_ASSEMBLY_MEMBERS
100
AcDbLine
 62
7
  6
CONTINUOUS
 10
7.5226228047
 20
5.0201118794
 11
7.5271453022
 21
5.0357782703
  0
LINE
  5
2A7
100
AcDbEntity
  8
ALL_ASSEMBLY_MEMBERS
100
AcDbLine
 62
7
  6
CONTINUOUS
 10
4.953427795
 20
6.0932368794
 11
6.378427795
 21
6.0932368794
  0
LINE
  5
2A8
100
AcDbEntity
  8
ALL_ASSEMBLY_MEMBERS
100
AcDbLine
 62
7
  6
CONTINUOUS
 10
4.2506136502
 20
6.0977368794
 11
3.1462419398
 21
6.0977368794
  0
LINE
  5
2A9
100
AcDbEntity
  8
ALL_ASSEMBLY_MEMBERS
100
AcDbLine
 62
7
  6
CONTINUOUS
 10
7.0837419398
 20
6.0977368794
 11
8.1881136502
 21
6.0977368794
  0
LINE
  5
2AA
100
AcDbEntity
  8
ALL_ASSEMBLY_MEMBERS
100
AcDbLine
 62
7
  6
CONTINUOUS
 10
4.283427795
 20
6.1527368794
 11
3.113427795
 21
6.1527368794
  0
LINE
  5
2AB
100
AcDbEntity
  8
ALL_ASSEMBLY_MEMBERS
100
AcDbLine
 62
7
  6
CONTINUOUS
 10
7.050927795
 20
6.1527368794
 11
8.220927795
 21
6.1527368794
  0
LINE
  5
2AC
100
AcDbEntity
  8
ALL_ASSEMBLY_MEMBERS
100
AcDbLine
 62
7
  6
CONTINUOUS
 10
4.283427795
 20
6.1597368794
 11
3.113427795
 21
6.1597368794
  0
LINE
  5
2AD
100
AcDbEntity
  8
ALL_ASSEMBLY_MEMBERS
100
AcDbLine
 62
7
  6
CONTINUOUS
 10
4.953427795
 20
6.1597368794
 11
6.378427795
 21
6.1597368794
  0
LINE
  5
2AE
100
AcDbEntity
  8
ALL_ASSEMBLY_MEMBERS
100
AcDbLine
 62
7
  6
CONTINUOUS
 10
7.050927795
 20
6.1597368794
 11
8.220927795
 21
6.1597368794
  0
LINE
  5
2AF
100
AcDbEntity
  8
ALL_ASSEMBLY_MEMBERS
100
AcDbLine
 62
7
  6
CONTINUOUS
 10
6.282177795
 20
6.1687368794
 11
5.049677795
 21
6.1687368794
  0
LINE
  5
2B0
100
AcDbEntity
  8
ALL_ASSEMBLY_MEMBERS
100
AcDbLine
 62
7
  6
CONTINUOUS
 10
7.838427795
 20
4.6736118794
 11
7.825927795
 21
4.6861118794
  0
LINE
  5
2B1
100
AcDbEntity
  8
ALL_ASSEMBLY_MEMBERS
100
AcDbLine
 62
7
  6
CONTINUOUS
 10
7.5079003728
 20
5.0148004854
 11
7.5101313252
 21
5.0116454423
  0
LINE
  5
2B2
100
AcDbEntity
  8
ALL_ASSEMBLY_MEMBERS
100
AcDbLine
 62
7
  6
CONTINUOUS
 10
7.4185950232
 20
5.2582893744
 11
7.4308494702
 21
5.1887909523
  0
LINE
  5
2B3
100
AcDbEntity
  8
ALL_ASSEMBLY_MEMBERS
100
AcDbLine
 62
7
  6
CONTINUOUS
 10
7.771927795
 20
4.5881118794
 11
7.771927795
 21
4.6001118794
  0
LINE
  5
2B4
100
AcDbEntity
  8
ALL_ASSEMBLY_MEMBERS
100
AcDbLine
 62
7
  6
CONTINUOUS
 10
7.8532605668
 20
5.2582893744
 11
7.8410061199
 21
5.1887909523
  0
LINE
  5
2B5
100
AcDbEntity
  8
ALL_ASSEMBLY_MEMBERS
100
AcDbLine
 62
7
  6
CONTINUOUS
 10
7.825927795
 20
4.9111421181
 11
7.8241564315
 21
4.913465989
  0
LINE
  5
2B6
100
AcDbEntity
  8
ALL_ASSEMBLY_MEMBERS
100
AcDbLine
 62
7
  6
CONTINUOUS
 10
7.5053022966
 20
5.0401118794
 11
7.5110757993
 21
5.0201118794
  0
LINE
  5
2B7
100
AcDbEntity
  8
ALL_ASSEMBLY_MEMBERS
100
AcDbLine
 62
7
  6
CONTINUOUS
 10
7.5257731928
 20
5.049198615
 11
7.5236280687
 21
5.0566295428
  0
LINE
  5
2B8
100
AcDbEntity
  8
ALL_ASSEMBLY_MEMBERS
100
AcDbLine
 62
7
  6
CONTINUOUS
 10
7.801177795
 20
4.6236118794
 11
7.801177795
 21
4.6591118794
  0
LINE
  5
2B9
100
AcDbEntity
  8
ALL_ASSEMBLY_MEMBERS
100
AcDbLine
 62
7
  6
CONTINUOUS
 10
7.812177795
 20
5.1151118794
 11
7.812177795
 21
5.1401118794
  0
LINE
  5
2BA
100
AcDbEntity
  8
ALL_ASSEMBLY_MEMBERS
100
AcDbLine
 62
7
  6
CONTINUOUS
 10
7.825927795
 20
4.6861118794
 11
7.825927795
 21
4.9111332294
  0
LINE
  5
2BB
100
AcDbEntity
  8
ALL_ASSEMBLY_MEMBERS
100
AcDbLine
 62
7
  6
CONTINUOUS
 10
7.838427795
 20
4.9236118794
 11
7.838427795
 21
4.6736118794
  0
LINE
  5
2BC
100
AcDbEntity
  8
ALL_ASSEMBLY_MEMBERS
100
AcDbLine
 62
7
  6
CONTINUOUS
 10
7.860927795
 20
4.9236118794
 11
7.860927795
 21
4.6736118794
  0
LINE
  5
2BD
100
AcDbEntity
  8
ALL_ASSEMBLY_MEMBERS
100
AcDbLine
 62
7
  6
CONTINUOUS
 10
8.220927795
 20
6.1597368794
 11
8.220927795
 21
6.1527368794
  0
LINE
  5
2BE
100
AcDbEntity
  8
ALL_ASSEMBLY_MEMBERS
100
AcDbLine
 62
7
  6
CONTINUOUS
 10
8.2576298365
 20
4.893216843
 11
8.2576298365
 21
4.7040069158
  0
LINE
  5
2BF
100
AcDbEntity
  8
ALL_ASSEMBLY_MEMBERS
100
AcDbLine
 62
7
  6
CONTINUOUS
 10
8.7850479226
 20
4.9957365336
 11
8.7850479226
 21
4.6014872252
  0
LINE
  5
2C0
100
AcDbEntity
  8
ALL_ASSEMBLY_MEMBERS
100
AcDbLine
 62
7
  6
CONTINUOUS
 10
8.956927795
 20
4.9078618794
 11
8.956927795
 21
4.6893618794
  0
LINE
  5
2C1
100
AcDbEntity
  8
ALL_ASSEMBLY_MEMBERS
100
AcDbLine
 62
7
  6
CONTINUOUS
 10
9.0533988773
 20
4.9067101436
 11
9.0533988773
 21
4.6905136152
  0
LINE
  5
2C2
100
AcDbEntity
  8
ALL_ASSEMBLY_MEMBERS
100
AcDbLine
 62
7
  6
CONTINUOUS
 10
9.118427795
 20
4.9173618794
 11
9.118427795
 21
4.6798618794
  0
ARC
  5
2C3
100
AcDbEntity
  8
ALL_ASSEMBLY_MEMBERS
100
AcDbCircle
 62
7
  6
CONTINUOUS
 10
3.2198325001
 20
3.9677865282
 40
0.75
100
AcDbArc
 50
70.2371945424
 51
101.0
  0
ARC
  5
2C4
100
AcDbEntity
  8
ALL_ASSEMBLY_MEMBERS
100
AcDbCircle
 62
7
  6
CONTINUOUS
 10
5.6447689855
 20
3.1698297292
 40
0.2983412943
100
AcDbArc
 50
172.0751588986
 51
178.0548603388
  0
ARC
  5
2C5
100
AcDbEntity
  8
ALL_ASSEMBLY_MEMBERS
100
AcDbCircle
 62
7
  6
CONTINUOUS
 10
5.6446154473
 20
3.1698336306
 40
0.2981877121
100
AcDbArc
 50
178.0546081689
 51
178.7699126441
  0
ARC
  5
2C6
100
AcDbEntity
  8
ALL_ASSEMBLY_MEMBERS
100
AcDbCircle
 62
7
  6
CONTINUOUS
 10
5.6443056796
 20
3.1698397448
 40
0.2978778846
100
AcDbArc
 50
178.7698093277
 51
179.999821061
  0
ARC
  5
2C7
100
AcDbEntity
  8
ALL_ASSEMBLY_MEMBERS
100
AcDbCircle
 62
7
  6
CONTINUOUS
 10
2.2529086105
 20
4.6579206105
 40
0.043
100
AcDbArc
 50
49.2861651139
 51
149.3187124064
  0
ARC
  5
2C8
100
AcDbEntity
  8
ALL_ASSEMBLY_MEMBERS
100
AcDbCircle
 62
7
  6
CONTINUOUS
 10
3.816427795
 20
4.5601118794
 40
0.028
100
AcDbArc
 50
90.0
 51
180.0
  0
ARC
  5
2C9
100
AcDbEntity
  8
ALL_ASSEMBLY_MEMBERS
100
AcDbCircle
 62
7
  6
CONTINUOUS
 10
3.580427795
 20
4.5601118794
 40
0.028
100
AcDbArc
 50
0.0
 51
90.0
  0
ARC
  5
2CA
100
AcDbEntity
  8
ALL_ASSEMBLY_MEMBERS
100
AcDbCircle
 62
7
  6
CONTINUOUS
 10
3.840177795
 20
4.6236118794
 40
0.0235
100
AcDbArc
 50
270.0
 51
360.0
  0
ARC
  5
2CB
100
AcDbEntity
  8
ALL_ASSEMBLY_MEMBERS
100
AcDbCircle
 62
7
  6
CONTINUOUS
 10
3.556677795
 20
4.6236118794
 40
0.0235
100
AcDbArc
 50
180.0
 51
270.0
  0
ARC
  5
2CC
100
AcDbEntity
  8
ALL_ASSEMBLY_MEMBERS
100
AcDbCircle
 62
7
  6
CONTINUOUS
 10
3.2841334726
 20
5.2235597388
 40
0.2
100
AcDbArc
 50
10.0
 51
40.5151811264
  0
ARC
  5
2CD
100
AcDbEntity
  8
ALL_ASSEMBLY_MEMBERS
100
AcDbCircle
 62
7
  6
CONTINUOUS
 10
3.658427795
 20
4.7986421181
 40
0.1875
100
AcDbArc
 50
216.8698976458
 51
228.0871091166
  0
ARC
  5
2CE
100
AcDbEntity
  8
ALL_ASSEMBLY_MEMBERS
100
AcDbCircle
 62
7
  6
CONTINUOUS
 10
3.3687371189
 20
5.0230481815
 40
0.1789406761
100
AcDbArc
 50
322.2371948106
 51
30.9635622203
  0
ARC
  5
2CF
100
AcDbEntity
  8
ALL_ASSEMBLY_MEMBERS
100
AcDbCircle
 62
7
  6
CONTINUOUS
 10
2.5194460597
 20
4.8421118794
 40
0.1565
100
AcDbArc
 50
79.0
 51
155.157343983
  0
ARC
  5
2D0
100
AcDbEntity
  8
ALL_ASSEMBLY_MEMBERS
100
AcDbCircle
 62
7
  6
CONTINUOUS
 10
2.5194460597
 20
4.7551118794
 40
0.1565
100
AcDbArc
 50
204.842656017
 51
281.0
  0
ARC
  5
2D1
100
AcDbEntity
  8
ALL_ASSEMBLY_MEMBERS
100
AcDbCircle
 62
7
  6
CONTINUOUS
 10
2.2549136235
 20
4.7986118794
 40
0.1249858285
100
AcDbArc
 50
108.1750968409
 51
251.8249031591
  0
ARC
  5
2D2
100
AcDbEntity
  8
ALL_ASSEMBLY_MEMBERS
100
AcDbCircle
 62
7
  6
CONTINUOUS
 10
2.3298778213
 20
4.8498618794
 40
0.075
100
AcDbArc
 50
50.6541702338
 51
130.7138348861
  0
ARC
  5
2D3
100
AcDbEntity
  8
ALL_ASSEMBLY_MEMBERS
100
AcDbCircle
 62
7
  6
CONTINUOUS
 10
2.3298778213
 20
4.7473618794
 40
0.075
100
AcDbArc
 50
229.2861651139
 51
309.3458297662
  0
ARC
  5
2D4
100
AcDbEntity
  8
ALL_ASSEMBLY_MEMBERS
100
AcDbCircle
 62
7
  6
CONTINUOUS
 10
2.2529086105
 20
4.9393031484
 40
0.043
100
AcDbArc
 50
210.6812875936
 51
310.7138348861
  0
ARC
  5
2D5
100
AcDbEntity
  8
ALL_ASSEMBLY_MEMBERS
100
AcDbCircle
 62
7
  6
CONTINUOUS
 10
3.5327417803
 20
5.1957368794
 40
0.04
100
AcDbArc
 50
190.0000000004
 51
270.0
  0
ARC
  5
2D6
100
AcDbEntity
  8
ALL_ASSEMBLY_MEMBERS
100
AcDbCircle
 62
7
  6
CONTINUOUS
 10
3.3477972827
 20
5.7754239979
 40
0.76
100
AcDbArc
 50
348.4101664982
 51
3.7580464625
  0
ARC
  5
2D7
100
AcDbEntity
  8
ALL_ASSEMBLY_MEMBERS
100
AcDbCircle
 62
7
  6
CONTINUOUS
 10
3.2198325001
 20
5.6294372306
 40
0.75
100
AcDbArc
 50
259.0
 51
289.7628054576
  0
ARC
  5
2D8
100
AcDbEntity
  8
ALL_ASSEMBLY_MEMBERS
100
AcDbCircle
 62
7
  6
CONTINUOUS
 10
3.5045350288
 20
5.7432793414
 40
0.6
100
AcDbArc
 50
319.4848188736
 51
348.4101664982
  0
ARC
  5
2D9
100
AcDbEntity
  8
ALL_ASSEMBLY_MEMBERS
100
AcDbCircle
 62
7
  6
CONTINUOUS
 10
3.1195612854
 20
5.8364775494
 40
0.1715
100
AcDbArc
 50
356.2419535375
 51
50.9887457037
  0
ARC
  5
2DA
100
AcDbEntity
  8
ALL_ASSEMBLY_MEMBERS
100
AcDbCircle
 62
7
  6
CONTINUOUS
 10
3.175927795
 20
6.1527368794
 40
0.0625
100
AcDbArc
 50
180.0
 51
241.6423634237
  0
ARC
  5
2DB
100
AcDbEntity
  8
ALL_ASSEMBLY_MEMBERS
100
AcDbCircle
 62
7
  6
CONTINUOUS
 10
3.201402266
 20
6.0744762343
 40
0.039
100
AcDbArc
 50
183.291697165
 51
233.2265724874
  0
ARC
  5
2DC
100
AcDbEntity
  8
ALL_ASSEMBLY_MEMBERS
100
AcDbCircle
 62
7
  6
CONTINUOUS
 10
3.2288099997
 20
6.0281859117
 40
0.039
100
AcDbArc
 50
188.03157335
 51
239.0556893899
  0
ARC
  5
2DD
100
AcDbEntity
  8
ALL_ASSEMBLY_MEMBERS
100
AcDbCircle
 62
7
  6
CONTINUOUS
 10
3.1315177556
 20
6.0704568794
 40
0.031
100
AcDbArc
 50
3.291697165
 51
61.6423634237
  0
ARC
  5
2DE
100
AcDbEntity
  8
ALL_ASSEMBLY_MEMBERS
100
AcDbCircle
 62
7
  6
CONTINUOUS
 10
3.1594966139
 20
6.0184055974
 40
0.031
100
AcDbArc
 50
8.03157335
 51
53.2265724874
  0
ARC
  5
2DF
100
AcDbEntity
  8
ALL_ASSEMBLY_MEMBERS
100
AcDbCircle
 62
7
  6
CONTINUOUS
 10
3.1928156709
 20
5.9681491871
 40
0.031
100
AcDbArc
 50
17.0467181651
 51
59.0556893899
  0
ARC
  5
2E0
100
AcDbEntity
  8
ALL_ASSEMBLY_MEMBERS
100
AcDbCircle
 62
7
  6
CONTINUOUS
 10
3.2372727419
 20
5.9817807256
 40
0.0155
100
AcDbArc
 50
197.0467181651
 51
230.9887457037
  0
ARC
  5
2E1
100
AcDbEntity
  8
ALL_ASSEMBLY_MEMBERS
100
AcDbCircle
 62
7
  6
CONTINUOUS
 10
4.1127221174
 20
5.2235597388
 40
0.2
100
AcDbArc
 50
139.4848188736
 51
170.0
  0
ARC
  5
2E2
100
AcDbEntity
  8
ALL_ASSEMBLY_MEMBERS
100
AcDbCircle
 62
7
  6
CONTINUOUS
 10
3.738427795
 20
4.7986421181
 40
0.1875
100
AcDbArc
 50
311.9128908834
 51
37.7628051894
  0
ARC
  5
2E3
100
AcDbEntity
  8
ALL_ASSEMBLY_MEMBERS
100
AcDbCircle
 62
7
  6
CONTINUOUS
 10
4.0281184711
 20
5.0230481815
 40
0.1789406761
100
AcDbArc
 50
149.0364377797
 51
217.7628051894
  0
ARC
  5
2E4
100
AcDbEntity
  8
ALL_ASSEMBLY_MEMBERS
100
AcDbCircle
 62
7
  6
CONTINUOUS
 10
3.7740107603
 20
5.0443946701
 40
0.0644347095
100
AcDbArc
 50
356.1889039067
 51
3.7223873051
  0
ARC
  5
2E5
100
AcDbEntity
  8
ALL_ASSEMBLY_MEMBERS
100
AcDbCircle
 62
7
  6
CONTINUOUS
 10
3.855715127
 20
5.0348283912
 40
0.051466978
100
AcDbArc
 50
132.8083968493
 51
134.8571306621
  0
ARC
  5
2E6
100
AcDbEntity
  8
ALL_ASSEMBLY_MEMBERS
100
AcDbCircle
 62
7
  6
CONTINUOUS
 10
3.8417678964
 20
5.0437837626
 40
0.042673192
100
AcDbArc
 50
236.5911076344
 51
238.8474559734
  0
ARC
  5
2E7
100
AcDbEntity
  8
ALL_ASSEMBLY_MEMBERS
100
AcDbCircle
 62
7
  6
CONTINUOUS
 10
3.8526826624
 20
5.0358550457
 40
0.0426102293
100
AcDbArc
 50
152.1375027508
 51
159.8864007162
  0
ARC
  5
2E8
100
AcDbEntity
  8
ALL_ASSEMBLY_MEMBERS
100
AcDbCircle
 62
7
  6
CONTINUOUS
 10
3.8641138098
 20
5.1957368794
 40
0.04
100
AcDbArc
 50
270.0
 51
349.9999999996
  0
ARC
  5
2E9
100
AcDbEntity
  8
ALL_ASSEMBLY_MEMBERS
100
AcDbCircle
 62
7
  6
CONTINUOUS
 10
3.8162377588
 20
5.0235588929
 40
0.0273069494
100
AcDbArc
 50
317.6009376257
 51
318.6805710265
  0
ARC
  5
2EA
100
AcDbEntity
  8
ALL_ASSEMBLY_MEMBERS
100
AcDbCircle
 62
7
  6
CONTINUOUS
 10
3.8079810783
 20
5.0523629065
 40
0.0226244745
100
AcDbArc
 50
33.1317531746
 51
35.2585488323
  0
ARC
  5
2EB
100
AcDbEntity
  8
ALL_ASSEMBLY_MEMBERS
100
AcDbCircle
 62
7
  6
CONTINUOUS
 10
3.8202134103
 20
5.0179991082
 40
0.0104372288
100
AcDbArc
 50
265.7075036634
 51
269.9956684761
  0
ARC
  5
2EC
100
AcDbEntity
  8
ALL_ASSEMBLY_MEMBERS
100
AcDbCircle
 62
7
  6
CONTINUOUS
 10
3.8253797163
 20
5.0662790396
 40
0.0063848814
100
AcDbArc
 50
74.7108559854
 51
82.4684629247
  0
ARC
  5
2ED
100
AcDbEntity
  8
ALL_ASSEMBLY_MEMBERS
100
AcDbCircle
 62
7
  6
CONTINUOUS
 10
3.8270053188
 20
5.0662989235
 40
0.0063644099
100
AcDbArc
 50
97.1261875037
 51
104.0226748369
  0
ARC
  5
2EE
100
AcDbEntity
  8
ALL_ASSEMBLY_MEMBERS
100
AcDbCircle
 62
7
  6
CONTINUOUS
 10
3.8269801187
 20
5.0665063566
 40
0.006155453
100
AcDbArc
 50
90.0155434496
 51
97.1329616542
  0
ARC
  5
2EF
100
AcDbEntity
  8
ALL_ASSEMBLY_MEMBERS
100
AcDbCircle
 62
7
  6
CONTINUOUS
 10
4.0490583073
 20
5.7754239979
 40
0.76
100
AcDbArc
 50
176.2419535375
 51
191.5898335018
  0
ARC
  5
2F0
100
AcDbEntity
  8
ALL_ASSEMBLY_MEMBERS
100
AcDbCircle
 62
7
  6
CONTINUOUS
 10
3.8923205612
 20
5.7432793414
 40
0.6
100
AcDbArc
 50
191.5898335018
 51
220.5151811264
  0
ARC
  5
2F1
100
AcDbEntity
  8
ALL_ASSEMBLY_MEMBERS
100
AcDbCircle
 62
7
  6
CONTINUOUS
 10
4.2772943047
 20
5.8364775494
 40
0.1715
100
AcDbArc
 50
129.0112542963
 51
183.7580464625
  0
ARC
  5
2F2
100
AcDbEntity
  8
ALL_ASSEMBLY_MEMBERS
100
AcDbCircle
 62
7
  6
CONTINUOUS
 10
5.081427795
 20
6.0932368794
 40
0.128
100
AcDbArc
 50
180.0
 51
240.9855659776
  0
ARC
  5
2F3
100
AcDbEntity
  8
ALL_ASSEMBLY_MEMBERS
100
AcDbCircle
 62
7
  6
CONTINUOUS
 10
5.1797192355
 20
5.8009404342
 40
0.1000408792
100
AcDbArc
 50
180.0072711732
 51
185.3076647344
  0
ARC
  5
2F4
100
AcDbEntity
  8
ALL_ASSEMBLY_MEMBERS
100
AcDbCircle
 62
7
  6
CONTINUOUS
 10
5.113427795
 20
5.9462368794
 40
0.074
100
AcDbArc
 50
180.0
 51
270.0
  0
ARC
  5
2F5
100
AcDbEntity
  8
ALL_ASSEMBLY_MEMBERS
100
AcDbCircle
 62
7
  6
CONTINUOUS
 10
4.220927795
 20
6.1527368794
 40
0.0625
100
AcDbArc
 50
298.3576365763
 51
360.0
  0
ARC
  5
2F6
100
AcDbEntity
  8
ALL_ASSEMBLY_MEMBERS
100
AcDbCircle
 62
7
  6
CONTINUOUS
 10
5.000427795
 20
5.9471957893
 40
0.039
100
AcDbArc
 50
0.0
 51
60.9855659776
  0
ARC
  5
2F7
100
AcDbEntity
  8
ALL_ASSEMBLY_MEMBERS
100
AcDbCircle
 62
7
  6
CONTINUOUS
 10
4.1954533241
 20
6.0744762343
 40
0.039
100
AcDbArc
 50
306.7734275126
 51
356.708302835
  0
ARC
  5
2F8
100
AcDbEntity
  8
ALL_ASSEMBLY_MEMBERS
100
AcDbCircle
 62
7
  6
CONTINUOUS
 10
4.1680455904
 20
6.0281859117
 40
0.039
100
AcDbArc
 50
300.9443106101
 51
351.96842665
  0
ARC
  5
2F9
100
AcDbEntity
  8
ALL_ASSEMBLY_MEMBERS
100
AcDbCircle
 62
7
  6
CONTINUOUS
 10
4.2653378344
 20
6.0704568794
 40
0.031
100
AcDbArc
 50
118.3576365763
 51
176.708302835
  0
ARC
  5
2FA
100
AcDbEntity
  8
ALL_ASSEMBLY_MEMBERS
100
AcDbCircle
 62
7
  6
CONTINUOUS
 10
4.2373589762
 20
6.0184055974
 40
0.031
100
AcDbArc
 50
126.7734275126
 51
171.96842665
  0
ARC
  5
2FB
100
AcDbEntity
  8
ALL_ASSEMBLY_MEMBERS
100
AcDbCircle
 62
7
  6
CONTINUOUS
 10
4.2040399192
 20
5.9681491871
 40
0.031
100
AcDbArc
 50
120.9443106101
 51
162.9532818349
  0
ARC
  5
2FC
100
AcDbEntity
  8
ALL_ASSEMBLY_MEMBERS
100
AcDbCircle
 62
7
  6
CONTINUOUS
 10
5.049677795
 20
6.1429868794
 40
0.02575
100
AcDbArc
 50
90.0
 51
139.366485035
  0
ARC
  5
2FD
100
AcDbEntity
  8
ALL_ASSEMBLY_MEMBERS
100
AcDbCircle
 62
7
  6
CONTINUOUS
 10
4.1595828482
 20
5.9817807256
 40
0.0155
100
AcDbArc
 50
309.0112542963
 51
342.9532818349
  0
ARC
  5
2FE
100
AcDbEntity
  8
ALL_ASSEMBLY_MEMBERS
100
AcDbCircle
 62
7
  6
CONTINUOUS
 10
8.11452309
 20
3.9677865282
 40
0.75
100
AcDbArc
 50
79.0
 51
109.7628054576
  0
ARC
  5
2FF
100
AcDbEntity
  8
ALL_ASSEMBLY_MEMBERS
100
AcDbCircle
 62
7
  6
CONTINUOUS
 10
5.6870873175
 20
3.1698297053
 40
0.2983405826
100
AcDbArc
 50
1.9451489027
 51
7.6898982078
  0
ARC
  5
300
100
AcDbEntity
  8
ALL_ASSEMBLY_MEMBERS
100
AcDbCircle
 62
7
  6
CONTINUOUS
 10
5.6872401427
 20
3.1698336306
 40
0.2981877122
100
AcDbArc
 50
1.2300873559
 51
1.945391831
  0
ARC
  5
301
100
AcDbEntity
  8
ALL_ASSEMBLY_MEMBERS
100
AcDbCircle
 62
7
  6
CONTINUOUS
 10
5.6875499104
 20
3.1698397448
 40
0.2978778846
100
AcDbArc
 50
0.000178939
 51
1.2301906723
  0
ARC
  5
302
100
AcDbEntity
  8
ALL_ASSEMBLY_MEMBERS
100
AcDbCircle
 62
7
  6
CONTINUOUS
 10
9.0814469795
 20
4.6579206105
 40
0.043
100
AcDbArc
 50
30.6812875936
 51
130.7138348861
  0
ARC
  5
303
100
AcDbEntity
  8
ALL_ASSEMBLY_MEMBERS
100
AcDbCircle
 62
7
  6
CONTINUOUS
 10
7.517927795
 20
4.5601118794
 40
0.028
100
AcDbArc
 50
0.0
 51
90.0
  0
ARC
  5
304
100
AcDbEntity
  8
ALL_ASSEMBLY_MEMBERS
100
AcDbCircle
 62
7
  6
CONTINUOUS
 10
7.753927795
 20
4.5601118794
 40
0.028
100
AcDbArc
 50
90.0
 51
180.0
  0
ARC
  5
305
100
AcDbEntity
  8
ALL_ASSEMBLY_MEMBERS
100
AcDbCircle
 62
7
  6
CONTINUOUS
 10
7.494177795
 20
4.6236118794
 40
0.0235
100
AcDbArc
 50
180.0
 51
270.0
  0
ARC
  5
306
100
AcDbEntity
  8
ALL_ASSEMBLY_MEMBERS
100
AcDbCircle
 62
7
  6
CONTINUOUS
 10
7.777677795
 20
4.6236118794
 40
0.0235
100
AcDbArc
 50
270.0
 51
360.0
  0
ARC
  5
307
100
AcDbEntity
  8
ALL_ASSEMBLY_MEMBERS
100
AcDbCircle
 62
7
  6
CONTINUOUS
 10
7.2216334726
 20
5.2235597388
 40
0.2
100
AcDbArc
 50
10.0
 51
40.5151811264
  0
ARC
  5
308
100
AcDbEntity
  8
ALL_ASSEMBLY_MEMBERS
100
AcDbCircle
 62
7
  6
CONTINUOUS
 10
7.595927795
 20
4.7986421181
 40
0.1875
100
AcDbArc
 50
142.2371948106
 51
228.0871091166
  0
ARC
  5
309
100
AcDbEntity
  8
ALL_ASSEMBLY_MEMBERS
100
AcDbCircle
 62
7
  6
CONTINUOUS
 10
7.3062371189
 20
5.0230481815
 40
0.1789406761
100
AcDbArc
 50
322.2371948106
 51
30.9635622203
  0
ARC
  5
30A
100
AcDbEntity
  8
ALL_ASSEMBLY_MEMBERS
100
AcDbCircle
 62
7
  6
CONTINUOUS
 10
7.5652481832
 20
5.036054672
 40
0.0760696549
100
AcDbArc
 50
176.9426621
 51
178.3370817047
  0
ARC
  5
30B
100
AcDbEntity
  8
ALL_ASSEMBLY_MEMBERS
100
AcDbCircle
 62
7
  6
CONTINUOUS
 10
7.4542422699
 20
5.0358226983
 40
0.0729186943
100
AcDbArc
 50
356.6895601389
 51
3.3721529706
  0
ARC
  5
30C
100
AcDbEntity
  8
ALL_ASSEMBLY_MEMBERS
100
AcDbCircle
 62
7
  6
CONTINUOUS
 10
7.5662877065
 20
5.0358080669
 40
0.065179059
100
AcDbArc
 50
174.9998610357
 51
176.2139705269
  0
ARC
  5
30D
100
AcDbEntity
  8
ALL_ASSEMBLY_MEMBERS
100
AcDbCircle
 62
7
  6
CONTINUOUS
 10
7.5543163232
 20
5.0389828886
 40
0.0528878843
100
AcDbArc
 50
189.1942474705
 51
192.537894059
  0
ARC
  5
30E
100
AcDbEntity
  8
ALL_ASSEMBLY_MEMBERS
100
AcDbCircle
 62
7
  6
CONTINUOUS
 10
7.5507876986
 20
5.0381988092
 40
0.0492731959
100
AcDbArc
 50
192.5386280877
 51
194.2882458054
  0
ARC
  5
30F
100
AcDbEntity
  8
ALL_ASSEMBLY_MEMBERS
100
AcDbCircle
 62
7
  6
CONTINUOUS
 10
7.4860161867
 20
5.0430004425
 40
0.0400036717
100
AcDbArc
 50
25.0696527753
 51
25.4132940583
  0
ARC
  5
310
100
AcDbEntity
  8
ALL_ASSEMBLY_MEMBERS
100
AcDbCircle
 62
7
  6
CONTINUOUS
 10
7.4702417803
 20
5.1957368794
 40
0.04
100
AcDbArc
 50
190.0000000004
 51
270.0
  0
ARC
  5
311
100
AcDbEntity
  8
ALL_ASSEMBLY_MEMBERS
100
AcDbCircle
 62
7
  6
CONTINUOUS
 10
7.4877191141
 20
5.0438187122
 40
0.0381143717
100
AcDbArc
 50
25.400834753
 51
28.4569361075
  0
ARC
  5
312
100
AcDbEntity
  8
ALL_ASSEMBLY_MEMBERS
100
AcDbCircle
 62
7
  6
CONTINUOUS
 10
7.5451813618
 20
5.025781616
 40
0.0375720852
100
AcDbArc
 50
203.3575548373
 51
206.4644044639
  0
ARC
  5
313
100
AcDbEntity
  8
ALL_ASSEMBLY_MEMBERS
100
AcDbCircle
 62
7
  6
CONTINUOUS
 10
7.5090365178
 20
5.0589003565
 40
0.0240876537
100
AcDbArc
 50
133.6266410525
 51
134.7761386084
  0
ARC
  5
314
100
AcDbEntity
  8
ALL_ASSEMBLY_MEMBERS
100
AcDbCircle
 62
7
  6
CONTINUOUS
 10
7.5280258146
 20
5.0255907725
 40
0.0236840944
100
AcDbArc
 50
208.2031776757
 51
209.5978510877
  0
ARC
  5
315
100
AcDbEntity
  8
ALL_ASSEMBLY_MEMBERS
100
AcDbCircle
 62
7
  6
CONTINUOUS
 10
7.5209976718
 20
5.0208542587
 40
0.015196593
100
AcDbArc
 50
219.2330704452
 51
220.4252862414
  0
ARC
  5
316
100
AcDbEntity
  8
ALL_ASSEMBLY_MEMBERS
100
AcDbCircle
 62
7
  6
CONTINUOUS
 10
7.5063198808
 20
5.0592139769
 40
0.0136481924
100
AcDbArc
 50
59.5188647622
 51
64.7700733658
  0
ARC
  5
317
100
AcDbEntity
  8
ALL_ASSEMBLY_MEMBERS
100
AcDbCircle
 62
7
  6
CONTINUOUS
 10
7.5067133007
 20
5.0600138196
 40
0.0127569639
100
AcDbArc
 50
64.8372411581
 51
65.7490480202
  0
ARC
  5
318
100
AcDbEntity
  8
ALL_ASSEMBLY_MEMBERS
100
AcDbCircle
 62
7
  6
CONTINUOUS
 10
7.5206804546
 20
5.0175826706
 40
0.011924575
100
AcDbArc
 50
231.953244532
 51
234.2918252247
  0
ARC
  5
319
100
AcDbEntity
  8
ALL_ASSEMBLY_MEMBERS
100
AcDbCircle
 62
7
  6
CONTINUOUS
 10
7.5073766794
 20
5.0622063798
 40
0.0104555009
100
AcDbArc
 50
85.39399693
 51
86.5611954018
  0
ARC
  5
31A
100
AcDbEntity
  8
ALL_ASSEMBLY_MEMBERS
100
AcDbCircle
 62
7
  6
CONTINUOUS
 10
7.5073785723
 20
5.0622360765
 40
0.0104257442
100
AcDbArc
 50
86.5617901768
 51
90.0078062566
  0
ARC
  5
31B
100
AcDbEntity
  8
ALL_ASSEMBLY_MEMBERS
100
AcDbCircle
 62
7
  6
CONTINUOUS
 10
7.5159220122
 20
5.0145814162
 40
0.007046838
100
AcDbArc
 50
248.2520475732
 51
251.7958386187
  0
ARC
  5
31C
100
AcDbEntity
  8
ALL_ASSEMBLY_MEMBERS
100
AcDbCircle
 62
7
  6
CONTINUOUS
 10
7.5141425324
 20
5.0137026519
 40
0.0061407721
100
AcDbArc
 50
270.0041894218
 51
277.5421822789
  0
ARC
  5
31D
100
AcDbEntity
  8
ALL_ASSEMBLY_MEMBERS
100
AcDbCircle
 62
7
  6
CONTINUOUS
 10
7.2852972827
 20
5.7754239979
 40
0.76
100
AcDbArc
 50
348.4101664982
 51
3.7580464625
  0
ARC
  5
31E
100
AcDbEntity
  8
ALL_ASSEMBLY_MEMBERS
100
AcDbCircle
 62
7
  6
CONTINUOUS
 10
7.4420350288
 20
5.7432793414
 40
0.6
100
AcDbArc
 50
319.4848188736
 51
348.4101664982
  0
ARC
  5
31F
100
AcDbEntity
  8
ALL_ASSEMBLY_MEMBERS
100
AcDbCircle
 62
7
  6
CONTINUOUS
 10
7.0570612854
 20
5.8364775494
 40
0.1715
100
AcDbArc
 50
356.2419535375
 51
50.9887457037
  0
ARC
  5
320
100
AcDbEntity
  8
ALL_ASSEMBLY_MEMBERS
100
AcDbCircle
 62
7
  6
CONTINUOUS
 10
6.250427795
 20
6.0932368794
 40
0.128
100
AcDbArc
 50
299.0144340224
 51
360.0
  0
ARC
  5
321
100
AcDbEntity
  8
ALL_ASSEMBLY_MEMBERS
100
AcDbCircle
 62
7
  6
CONTINUOUS
 10
6.1521380697
 20
5.8009402144
 40
0.1000390024
100
AcDbArc
 50
354.7128787958
 51
359.992853978
  0
ARC
  5
322
100
AcDbEntity
  8
ALL_ASSEMBLY_MEMBERS
100
AcDbCircle
 62
7
  6
CONTINUOUS
 10
6.218427795
 20
5.9462368794
 40
0.074
100
AcDbArc
 50
270.0
 51
360.0
  0
ARC
  5
323
100
AcDbEntity
  8
ALL_ASSEMBLY_MEMBERS
100
AcDbCircle
 62
7
  6
CONTINUOUS
 10
7.113427795
 20
6.1527368794
 40
0.0625
100
AcDbArc
 50
180.0
 51
241.6423634237
  0
ARC
  5
324
100
AcDbEntity
  8
ALL_ASSEMBLY_MEMBERS
100
AcDbCircle
 62
7
  6
CONTINUOUS
 10
6.331427795
 20
5.9471957893
 40
0.039
100
AcDbArc
 50
119.0144340224
 51
180.0
  0
ARC
  5
325
100
AcDbEntity
  8
ALL_ASSEMBLY_MEMBERS
100
AcDbCircle
 62
7
  6
CONTINUOUS
 10
7.138902266
 20
6.0744762343
 40
0.039
100
AcDbArc
 50
183.291697165
 51
233.2265724874
  0
ARC
  5
326
100
AcDbEntity
  8
ALL_ASSEMBLY_MEMBERS
100
AcDbCircle
 62
7
  6
CONTINUOUS
 10
7.1663099997
 20
6.0281859117
 40
0.039
100
AcDbArc
 50
188.03157335
 51
239.0556893899
  0
ARC
  5
327
100
AcDbEntity
  8
ALL_ASSEMBLY_MEMBERS
100
AcDbCircle
 62
7
  6
CONTINUOUS
 10
7.0690177556
 20
6.0704568794
 40
0.031
100
AcDbArc
 50
3.291697165
 51
61.6423634237
  0
ARC
  5
328
100
AcDbEntity
  8
ALL_ASSEMBLY_MEMBERS
100
AcDbCircle
 62
7
  6
CONTINUOUS
 10
7.0969966139
 20
6.0184055974
 40
0.031
100
AcDbArc
 50
8.03157335
 51
53.2265724874
  0
ARC
  5
329
100
AcDbEntity
  8
ALL_ASSEMBLY_MEMBERS
100
AcDbCircle
 62
7
  6
CONTINUOUS
 10
7.1303156709
 20
5.9681491871
 40
0.031
100
AcDbArc
 50
17.0467181651
 51
59.0556893899
  0
ARC
  5
32A
100
AcDbEntity
  8
ALL_ASSEMBLY_MEMBERS
100
AcDbCircle
 62
7
  6
CONTINUOUS
 10
6.282177795
 20
6.1429868794
 40
0.02575
100
AcDbArc
 50
40.633514965
 51
90.0
  0
ARC
  5
32B
100
AcDbEntity
  8
ALL_ASSEMBLY_MEMBERS
100
AcDbCircle
 62
7
  6
CONTINUOUS
 10
7.1747727419
 20
5.9817807256
 40
0.0155
100
AcDbArc
 50
197.0467181651
 51
230.9887457037
  0
ARC
  5
32C
100
AcDbEntity
  8
ALL_ASSEMBLY_MEMBERS
100
AcDbCircle
 62
7
  6
CONTINUOUS
 10
8.0502221174
 20
5.2235597388
 40
0.2
100
AcDbArc
 50
139.4848188736
 51
170.0
  0
ARC
  5
32D
100
AcDbEntity
  8
ALL_ASSEMBLY_MEMBERS
100
AcDbCircle
 62
7
  6
CONTINUOUS
 10
7.675927795
 20
4.7986421181
 40
0.1875
100
AcDbArc
 50
311.9128908834
 51
323.1301023542
  0
ARC
  5
32E
100
AcDbEntity
  8
ALL_ASSEMBLY_MEMBERS
100
AcDbCircle
 62
7
  6
CONTINUOUS
 10
7.9656184711
 20
5.0230481815
 40
0.1789406761
100
AcDbArc
 50
149.0364377797
 51
217.7628051894
  0
ARC
  5
32F
100
AcDbEntity
  8
ALL_ASSEMBLY_MEMBERS
100
AcDbCircle
 62
7
  6
CONTINUOUS
 10
8.8149095304
 20
4.8421118794
 40
0.1565
100
AcDbArc
 50
24.842656017
 51
101.0
  0
ARC
  5
330
100
AcDbEntity
  8
ALL_ASSEMBLY_MEMBERS
100
AcDbCircle
 62
7
  6
CONTINUOUS
 10
8.8149095304
 20
4.7551118794
 40
0.1565
100
AcDbArc
 50
259.0
 51
335.157343983
  0
ARC
  5
331
100
AcDbEntity
  8
ALL_ASSEMBLY_MEMBERS
100
AcDbCircle
 62
7
  6
CONTINUOUS
 10
9.0794419665
 20
4.7986118794
 40
0.1249858285
100
AcDbArc
 50
288.1750968409
 51
71.8249031591
  0
ARC
  5
332
100
AcDbEntity
  8
ALL_ASSEMBLY_MEMBERS
100
AcDbCircle
 62
7
  6
CONTINUOUS
 10
9.0044777687
 20
4.8498618794
 40
0.075
100
AcDbArc
 50
49.2861651139
 51
129.3458297662
  0
ARC
  5
333
100
AcDbEntity
  8
ALL_ASSEMBLY_MEMBERS
100
AcDbCircle
 62
7
  6
CONTINUOUS
 10
9.0044777687
 20
4.7473618794
 40
0.075
100
AcDbArc
 50
230.6541702338
 51
310.7138348861
  0
ARC
  5
334
100
AcDbEntity
  8
ALL_ASSEMBLY_MEMBERS
100
AcDbCircle
 62
7
  6
CONTINUOUS
 10
9.0814469795
 20
4.9393031484
 40
0.043
100
AcDbArc
 50
229.2861651139
 51
329.3187124064
  0
ARC
  5
335
100
AcDbEntity
  8
ALL_ASSEMBLY_MEMBERS
100
AcDbCircle
 62
7
  6
CONTINUOUS
 10
7.8016138098
 20
5.1957368794
 40
0.04
100
AcDbArc
 50
270.0
 51
349.9999999996
  0
ARC
  5
336
100
AcDbEntity
  8
ALL_ASSEMBLY_MEMBERS
100
AcDbCircle
 62
7
  6
CONTINUOUS
 10
7.9865583073
 20
5.7754239979
 40
0.76
100
AcDbArc
 50
176.2419535375
 51
191.5898335018
  0
ARC
  5
337
100
AcDbEntity
  8
ALL_ASSEMBLY_MEMBERS
100
AcDbCircle
 62
7
  6
CONTINUOUS
 10
8.11452309
 20
5.6294372306
 40
0.75
100
AcDbArc
 50
250.2371945424
 51
281.0
  0
ARC
  5
338
100
AcDbEntity
  8
ALL_ASSEMBLY_MEMBERS
100
AcDbCircle
 62
7
  6
CONTINUOUS
 10
7.8298205612
 20
5.7432793414
 40
0.6
100
AcDbArc
 50
191.5898335018
 51
220.5151811264
  0
ARC
  5
339
100
AcDbEntity
  8
ALL_ASSEMBLY_MEMBERS
100
AcDbCircle
 62
7
  6
CONTINUOUS
 10
8.2147943047
 20
5.8364775494
 40
0.1715
100
AcDbArc
 50
129.0112542963
 51
183.7580464625
  0
ARC
  5
33A
100
AcDbEntity
  8
ALL_ASSEMBLY_MEMBERS
100
AcDbCircle
 62
7
  6
CONTINUOUS
 10
8.158427795
 20
6.1527368794
 40
0.0625
100
AcDbArc
 50
298.3576365763
 51
360.0
  0
ARC
  5
33B
100
AcDbEntity
  8
ALL_ASSEMBLY_MEMBERS
100
AcDbCircle
 62
7
  6
CONTINUOUS
 10
8.1329533241
 20
6.0744762343
 40
0.039
100
AcDbArc
 50
306.7734275126
 51
356.708302835
  0
ARC
  5
33C
100
AcDbEntity
  8
ALL_ASSEMBLY_MEMBERS
100
AcDbCircle
 62
7
  6
CONTINUOUS
 10
8.1055455904
 20
6.0281859117
 40
0.039
100
AcDbArc
 50
300.9443106101
 51
351.96842665
  0
ARC
  5
33D
100
AcDbEntity
  8
ALL_ASSEMBLY_MEMBERS
100
AcDbCircle
 62
7
  6
CONTINUOUS
 10
8.2028378344
 20
6.0704568794
 40
0.031
100
AcDbArc
 50
118.3576365763
 51
176.708302835
  0
ARC
  5
33E
100
AcDbEntity
  8
ALL_ASSEMBLY_MEMBERS
100
AcDbCircle
 62
7
  6
CONTINUOUS
 10
8.1748589762
 20
6.0184055974
 40
0.031
100
AcDbArc
 50
126.7734275126
 51
171.96842665
  0
ARC
  5
33F
100
AcDbEntity
  8
ALL_ASSEMBLY_MEMBERS
100
AcDbCircle
 62
7
  6
CONTINUOUS
 10
8.1415399192
 20
5.9681491871
 40
0.031
100
AcDbArc
 50
120.9443106101
 51
162.9532818349
  0
ARC
  5
340
100
AcDbEntity
  8
ALL_ASSEMBLY_MEMBERS
100
AcDbCircle
 62
7
  6
CONTINUOUS
 10
8.0970828482
 20
5.9817807256
 40
0.0155
100
AcDbArc
 50
309.0112542963
 51
342.9532818349
  0
LINE
  5
341
100
AcDbEntity
  8
ALL_ASSEMBLY_MEMBERS
100
AcDbLine
 62
7
  6
CONTINUOUS
 10
3.8194029647
 20
5.0076075136
 11
3.8208087945
 21
5.0085034677
  0
SPLINE
  5
342
100
AcDbEntity
  8
ALL_ASSEMBLY_MEMBERS
100
AcDbSpline
 62
7
  6
CONTINUOUS
 70
0
 71
3
 72
11
 73
7
 74
0
 42
0.0000001
 43
0.0000001
 44
0.0000000001
 40
0.0
 40
0.0
 40
0.0
 40
0.0
 40
0.4759281614
 40
0.6023646435
 40
0.731843774
 40
1.0
 40
1.0
 40
1.0
 40
1.0
 10
3.8208087945
 20
5.0085034677
 30
0.0
 10
3.8216544833
 20
5.0091142534
 30
0.0
 10
3.8226472465
 20
5.0099997142
 30
0.0
 10
3.8237335771
 20
5.0111797169
 30
0.0
 10
3.824478308
 20
5.0120547545
 30
0.0
 10
3.8250053715
 20
5.0127500915
 30
0.0
 10
3.8253447217
 20
5.0132300082
 30
0.0
  0
SPLINE
  5
343
100
AcDbEntity
  8
ALL_ASSEMBLY_MEMBERS
100
AcDbSpline
 62
7
  6
CONTINUOUS
 70
0
 71
3
 72
21
 73
17
 74
0
 42
0.0000001
 43
0.0000001
 44
0.0000000001
 40
0.0
 40
0.0
 40
0.0
 40
0.0
 40
0.0697308383
 40
0.1393243434
 40
0.2771865865
 40
0.4120853488
 40
0.4780180745
 40
0.5427142836
 40
0.6060179606
 40
0.6677893778
 40
0.7278972869
 40
0.7862254717
 40
0.8426740382
 40
0.8971565679
 40
0.9496121506
 40
1.0
 40
1.0
 40
1.0
 40
1.0
 10
3.8330062881
 20
5.0401118794
 30
0.0
 10
3.8330062881
 20
5.0394954859
 30
0.0
 10
3.832987863
 20
5.0382638233
 30
0.0
 10
3.8328781454
 20
5.0358157759
 30
0.0
 10
3.8326066123
 20
5.0327997113
 30
0.0
 10
3.8321534915
 20
5.029838061
 30
0.0
 10
3.8316840172
 20
5.0275379442
 30
0.0
 10
3.8312842367
 20
5.0258705567
 30
0.0
 10
3.8308353827
 20
5.0242538397
 30
0.0
 10
3.8303392456
 20
5.0226934771
 30
0.0
 10
3.8297974688
 20
5.0211950178
 30
0.0
 10
3.829211949
 20
5.0197637737
 30
0.0
 10
3.8285849065
 20
5.0184047565
 30
0.0
 10
3.8279183237
 20
5.0171228462
 30
0.0
 10
3.8272147268
 20
5.015922568
 30
0.0
 10
3.8267123804
 20
5.0151641588
 30
0.0
 10
3.8264552159
 20
5.0148004891
 30
0.0
  0
SPLINE
  5
344
100
AcDbEntity
  8
ALL_ASSEMBLY_MEMBERS
100
AcDbSpline
 62
7
  6
CONTINUOUS
 70
0
 71
3
 72
21
 73
17
 74
0
 42
0.0000001
 43
0.0000001
 44
0.0000000001
 40
0.0
 40
0.0
 40
0.0
 40
0.0
 40
0.0512381848
 40
0.1044250032
 40
0.1595137161
 40
0.2164352173
 40
0.2751033436
 40
0.3354211718
 40
0.3972751437
 40
0.460542547
 40
0.5250911937
 40
0.5907747068
 40
0.7249257436
 40
0.8617983556
 40
0.9308381316
 40
1.0
 40
1.0
 40
1.0
 40
1.0
 10
3.8269271739
 20
5.0647286781
 30
0.0
 10
3.8271670276
 20
5.0643614865
 30
0.0
 10
3.8276352123
 20
5.0635994824
 30
0.0
 10
3.8282909525
 20
5.0624012765
 30
0.0
 10
3.8289112177
 20
5.0611299767
 30
0.0
 10
3.8294940546
 20
5.0597898283
 30
0.0
 10
3.8300376407
 20
5.058385214
 30
0.0
 10
3.8305400272
 20
5.0569206673
 30
0.0
 10
3.8309997363
 20
5.0554010188
 30
0.0
 10
3.8314152153
 20
5.0538312193
 30
0.0
 10
3.8317850039
 20
5.0522163939
 30
0.0
 10
3.8322187538
 20
5.04999495
 30
0.0
 10
3.8326372298
 20
5.0471414044
 30
0.0
 10
3.8328880223
 20
5.0442395966
 30
0.0
 10
3.8329892885
 20
5.0418869465
 30
0.0
 10
3.8330062881
 20
5.0407038904
 30
0.0
 10
3.8330062881
 20
5.0401118794
 30
0.0
  0
SPLINE
  5
345
100
AcDbEntity
  8
ALL_ASSEMBLY_MEMBERS
100
AcDbSpline
 62
7
  6
CONTINUOUS
 70
0
 71
3
 72
13
 73
9
 74
0
 42
0.0000001
 43
0.0000001
 44
0.0000000001
 40
0.0
 40
0.0
 40
0.0
 40
0.0
 40
0.1114709152
 40
0.2263411224
 40
0.3449123503
 40
0.4674287709
 40
0.7249496834
 40
1.0
 40
1.0
 40
1.0
 40
1.0
 10
3.8214859421
 20
5.0700726354
 30
0.0
 10
3.8217111858
 20
5.0699529707
 30
0.0
 10
3.8221595456
 20
5.0696926939
 30
0.0
 10
3.8228130584
 20
5.0692492368
 30
0.0
 10
3.8234559039
 20
5.0687481962
 30
0.0
 10
3.8243112774
 20
5.0679923306
 30
0.0
 10
3.8253450964
 20
5.0669026085
 30
0.0
 10
3.8260918527
 20
5.0659371203
 30
0.0
 10
3.8264552159
 20
5.0654232697
 30
0.0
  0
LINE
  5
346
100
AcDbEntity
  8
ALL_ASSEMBLY_MEMBERS
100
AcDbLine
 62
7
  6
CONTINUOUS
 10
3.8264552159
 20
5.0148004891
 11
3.8252745816
 21
5.0132862953
  0
SPLINE
  5
347
100
AcDbEntity
  8
ALL_ASSEMBLY_MEMBERS
100
AcDbSpline
 62
7
  6
CONTINUOUS
 70
0
 71
3
 72
19
 73
15
 74
0
 42
0.0000001
 43
0.0000001
 44
0.0000000001
 40
0.0
 40
0.0
 40
0.0
 40
0.0
 40
0.1452348602
 40
0.2150274036
 40
0.2830058806
 40
0.413793186
 40
0.5384214599
 40
0.6579454153
 40
0.7162188295
 40
0.7737197531
 40
0.8306430866
 40
0.8871913408
 40
0.943572948
 40
1.0
 40
1.0
 40
1.0
 40
1.0
 10
3.8252556346
 20
5.0132643827
 30
0.0
 10
3.8249470927
 20
5.0129081287
 30
0.0
 10
3.8244691575
 20
5.012398193
 30
0.0
 10
3.8237966298
 20
5.0117724147
 30
0.0
 10
3.8231310273
 20
5.0112094652
 30
0.0
 10
3.8222802592
 20
5.0105915196
 30
0.0
 10
3.821220618
 20
5.0099883555
 30
0.0
 10
3.8203126374
 20
5.0096084152
 30
0.0
 10
3.8195821182
 20
5.0093846019
 30
0.0
 10
3.8190360289
 20
5.0092567476
 30
0.0
 10
3.8184879709
 20
5.0091676621
 30
0.0
 10
3.8179386194
 20
5.0091174588
 30
0.0
 10
3.8173887261
 20
5.0091062651
 30
0.0
 10
3.8170227685
 20
5.0091248348
 30
0.0
 10
3.8168403357
 20
5.0091405363
 30
0.0
  0
SPLINE
  5
348
100
AcDbEntity
  8
ALL_ASSEMBLY_MEMBERS
100
AcDbSpline
 62
7
  6
CONTINUOUS
 70
0
 71
3
 72
21
 73
17
 74
0
 42
0.0000001
 43
0.0000001
 44
0.0000000001
 40
0.0
 40
0.0
 40
0.0
 40
0.0
 40
0.0697308383
 40
0.1393243434
 40
0.2771865865
 40
0.4120853488
 40
0.4780180745
 40
0.5427142836
 40
0.6060179606
 40
0.6677893778
 40
0.7278972869
 40
0.7862254717
 40
0.8426740382
 40
0.8971565679
 40
0.9496121506
 40
1.0
 40
1.0
 40
1.0
 40
1.0
 10
7.501349302
 20
5.0401118794
 30
0.0
 10
7.501349302
 20
5.0407282729
 30
0.0
 10
7.5013677271
 20
5.0419599355
 30
0.0
 10
7.5014774447
 20
5.044407983
 30
0.0
 10
7.5017489777
 20
5.0474240475
 30
0.0
 10
7.5022020986
 20
5.0503856979
 30
0.0
 10
7.5026715729
 20
5.0526858147
 30
0.0
 10
7.5030713534
 20
5.0543532022
 30
0.0
 10
7.5035202074
 20
5.0559699191
 30
0.0
 10
7.5040163444
 20
5.0575302817
 30
0.0
 10
7.5045581213
 20
5.059028741
 30
0.0
 10
7.5051436411
 20
5.0604599851
 30
0.0
 10
7.5057706835
 20
5.0618190023
 30
0.0
 10
7.5064372663
 20
5.0631009126
 30
0.0
 10
7.5071408633
 20
5.0643011908
 30
0.0
 10
7.5076432096
 20
5.0650596001
 30
0.0
 10
7.5079003742
 20
5.0654232697
 30
0.0
  0
SPLINE
  5
349
100
AcDbEntity
  8
ALL_ASSEMBLY_MEMBERS
100
AcDbSpline
 62
7
  6
CONTINUOUS
 70
0
 71
3
 72
11
 73
7
 74
0
 42
0.0000001
 43
0.0000001
 44
0.0000000001
 40
0.0
 40
0.0
 40
0.0
 40
0.0
 40
0.2317771635
 40
0.4760144148
 40
0.7323061792
 40
1.0
 40
1.0
 40
1.0
 40
1.0
 10
7.5079003742
 20
5.0148004891
 30
0.0
 10
7.5075570211
 20
5.0152860425
 30
0.0
 10
7.5068921958
 20
5.0163122147
 30
0.0
 10
7.5059838258
 20
5.0179584897
 30
0.0
 10
7.5051435275
 20
5.0197428207
 30
0.0
 10
7.5046423184
 20
5.0209912075
 30
0.0
 10
7.5044033246
 20
5.0216351279
 30
0.0
  0
LINE
  5
34A
100
AcDbEntity
  8
ALL_ASSEMBLY_MEMBERS
100
AcDbLine
 62
7
  6
CONTINUOUS
 10
7.5044033246
 20
5.0216351279
 11
7.5030387009
 21
5.0260381739
  0
SPLINE
  5
34B
100
AcDbEntity
  8
ALL_ASSEMBLY_MEMBERS
100
AcDbSpline
 62
7
  6
CONTINUOUS
 70
0
 71
3
 72
11
 73
7
 74
0
 42
0.0000001
 43
0.0000001
 44
0.0000000001
 40
0.0
 40
0.0
 40
0.0
 40
0.0
 40
0.2459354179
 40
0.4953660283
 40
0.747181397
 40
1.0
 40
1.0
 40
1.0
 40
1.0
 10
7.502107926
 20
5.0305323526
 30
0.0
 10
7.5019814641
 20
5.0313107118
 30
0.0
 10
7.5017601528
 20
5.032884102
 30
0.0
 10
7.5015235036
 20
5.03526877
 30
0.0
 10
7.5013811108
 20
5.0376830127
 30
0.0
 10
7.501349302
 20
5.0393012436
 30
0.0
 10
7.501349302
 20
5.0401118794
 30
0.0
  0
SPLINE
  5
34C
100
AcDbEntity
  8
ALL_ASSEMBLY_MEMBERS
100
AcDbSpline
 62
7
  6
CONTINUOUS
 70
0
 71
3
 72
10
 73
6
 74
0
 42
0.0000001
 43
0.0000001
 44
0.0000000001
 40
0.0
 40
0.0
 40
0.0
 40
0.0
 40
0.268112911
 40
0.5239484192
 40
1.0
 40
1.0
 40
1.0
 40
1.0
 10
7.510131331
 20
5.0116454599
 30
0.0
 10
7.5103749606
 20
5.0113008984
 30
0.0
 10
7.5108710183
 20
5.0106411558
 30
0.0
 10
7.5118976715
 20
5.0094475724
 30
0.0
 10
7.5127411772
 20
5.0086536892
 30
0.0
 10
7.5133312875
 20
5.0081919713
 30
0.0
  0
SPLINE
  5
34D
100
AcDbEntity
  8
ALL_ASSEMBLY_MEMBERS
100
AcDbSpline
 62
7
  6
CONTINUOUS
 70
0
 71
3
 72
15
 73
11
 74
0
 42
0.0000001
 43
0.0000001
 44
0.0000000001
 40
0.0
 40
0.0
 40
0.0
 40
0.0
 40
0.1185781939
 40
0.2359165475
 40
0.3536643947
 40
0.4734439389
 40
0.5967658212
 40
0.7249444233
 40
0.8590740256
 40
1.0
 40
1.0
 40
1.0
 40
1.0
 10
7.5187111547
 20
5.0093363624
 30
0.0
 10
7.5183624662
 20
5.0092520047
 30
0.0
 10
7.5176567614
 20
5.0091293646
 30
0.0
 10
7.5165841787
 20
5.0090917744
 30
0.0
 10
7.515512895
 20
5.0092027109
 30
0.0
 10
7.5144488953
 20
5.009460968
 30
0.0
 10
7.5133977546
 20
5.0098651804
 30
0.0
 10
7.5123644071
 20
5.0104123611
 30
0.0
 10
7.5113538342
 20
5.0110996022
 30
0.0
 10
7.5107147239
 20
5.011634814
 30
0.0
 10
7.510400178
 20
5.0119226383
 30
0.0
  0
SPLINE
  5
34E
100
AcDbEntity
  8
ALL_ASSEMBLY_MEMBERS
100
AcDbSpline
 62
7
  6
CONTINUOUS
 70
0
 71
3
 72
10
 73
6
 74
0
 42
0.0000001
 43
0.0000001
 44
0.0000000001
 40
0.0
 40
0.0
 40
0.0
 40
0.0
 40
0.482662079
 40
0.7369502828
 40
1.0
 40
1.0
 40
1.0
 40
1.0
 10
7.510400178
 20
5.0119226383
 30
0.0
 10
7.5099470017
 20
5.0123373159
 30
0.0
 10
7.5092946086
 20
5.013014874
 30
0.0
 10
7.5084862228
 20
5.0139981452
 30
0.0
 10
7.5080936623
 20
5.0145271504
 30
0.0
 10
7.5079003742
 20
5.0148004891
 30
0.0
  0
SPLINE
  5
34F
100
AcDbEntity
  8
ALL_ASSEMBLY_MEMBERS
100
AcDbSpline
 62
7
  6
CONTINUOUS
 70
0
 71
3
 72
14
 73
10
 74
0
 42
0.0000001
 43
0.0000001
 44
0.0000000001
 40
0.0
 40
0.0
 40
0.0
 40
0.0
 40
0.1425486523
 40
0.2796858354
 40
0.5380427303
 40
0.6598499294
 40
0.7771304969
 40
0.8903302811
 40
1.0
 40
1.0
 40
1.0
 40
1.0
 10
7.5079003742
 20
5.0654232697
 30
0.0
 10
7.5081199806
 20
5.0657338266
 30
0.0
 10
7.508566867
 20
5.0663321441
 30
0.0
 10
7.5094904738
 20
5.0674317968
 30
0.0
 10
7.5104739086
 20
5.0684074726
 30
0.0
 10
7.5115144125
 20
5.0692333078
 30
0.0
 10
7.5122951008
 20
5.0697588282
 30
0.0
 10
7.5130890656
 20
5.0702008036
 30
0.0
 10
7.5136335595
 20
5.0704424351
 30
0.0
 10
7.5139064812
 20
5.0705480062
 30
0.0
  0
SPLINE
  5
350
100
AcDbEntity
  8
ALL_ASSEMBLY_MEMBERS
100
AcDbSpline
 62
7
  6
CONTINUOUS
 70
0
 71
3
 72
57
 73
53
 74
0
 42
0.0000001
 43
0.0000001
 44
0.0000000001
 40
0.0
 40
0.0
 40
0.0
 40
0.0
 40
0.0309485446
 40
0.0464359038
 40
0.0619248116
 40
0.0774176674
 40
0.0929172466
 40
0.1239332529
 40
0.1394608228
 40
0.1549993672
 40
0.1705497885
 40
0.1861128851
 40
0.2172700938
 40
0.2484840377
 40
0.2641175115
 40
0.2797655398
 40
0.2954279329
 40
0.3111042938
 40
0.3424879452
 40
0.3739205301
 40
0.3896575595
 40
0.4054039842
 40
0.4369113359
 40
0.4684413831
 40
0.4842159216
 40
0.4999919375
 40
0.5157679515
 40
0.5315424758
 40
0.5473141248
 40
0.563081444
 40
0.5788430676
 40
0.5945977196
 40
0.6103440942
 40
0.6260810604
 40
0.6575135083
 40
0.6888969992
 40
0.7045732742
 40
0.7202355784
 40
0.7358835201
 40
0.7515169027
 40
0.7827306664
 40
0.8138876988
 40
0.8294507143
 40
0.8450010551
 40
0.8605395235
 40
0.8760670216
 40
0.9070829117
 40
0.9225824451
 40
0.9380752566
 40
0.9535641277
 40
0.9690514656
 40
1.0
 40
1.0
 40
1.0
 40
1.0
 10
5.3097546176
 20
3.1510762943
 30
0.0
 10
5.3097546176
 20
3.1396819771
 30
0.0
 10
5.3106215144
 20
3.122569198
 30
0.0
 10
5.3134934136
 20
3.0999454109
 30
0.0
 10
5.3165040881
 20
3.0830959568
 30
0.0
 10
5.320360689
 20
3.0664154125
 30
0.0
 10
5.3266188087
 20
3.0444526912
 30
0.0
 10
5.3345320998
 20
3.0229757267
 30
0.0
 10
5.3440258063
 20
3.0021760252
 30
0.0
 10
5.3519269426
 20
2.9869316129
 30
0.0
 10
5.3605841481
 20
2.972088634
 30
0.0
 10
5.3731108543
 20
2.9528777951
 30
0.0
 10
5.3905564001
 20
2.9300345086
 30
0.0
 10
5.4101875104
 20
2.9090051371
 30
0.0
 10
5.4270870742
 20
2.8933792242
 30
0.0
 10
5.4403416848
 20
2.8822763291
 30
0.0
 10
5.454133959
 20
2.8718227868
 30
0.0
 10
5.4732010585
 20
2.8587820277
 30
0.0
 10
5.4982190529
 20
2.8442211292
 30
0.0
 10
5.5245449363
 20
2.8321333323
 30
0.0
 10
5.5462438476
 20
2.8240044831
 30
0.0
 10
5.568334227
 20
2.8169183147
 30
0.0
 10
5.5965638532
 20
2.8100513748
 30
0.0
 10
5.6253304054
 20
2.8059096477
 30
0.0
 10
5.6485027192
 20
2.8042495956
 30
0.0
 10
5.6659288859
 20
2.8038347408
 30
0.0
 10
5.6833546628
 20
2.8042497254
 30
0.0
 10
5.7007393455
 20
2.8054951498
 30
0.0
 10
5.7180416215
 20
2.8075679146
 30
0.0
 10
5.7352208003
 20
2.8104620648
 30
0.0
 10
5.7522359052
 20
2.8141728958
 30
0.0
 10
5.7690466216
 20
2.8186907866
 30
0.0
 10
5.7856136964
 20
2.8240051308
 30
0.0
 10
5.8073121292
 20
2.8321339554
 30
0.0
 10
5.8336380169
 20
2.8442218571
 30
0.0
 10
5.8586557338
 20
2.8587828439
 30
0.0
 10
5.8777227328
 20
2.8718235419
 30
0.0
 10
5.8915148754
 20
2.8822770987
 30
0.0
 10
5.9047693529
 20
2.8933799979
 30
0.0
 10
5.9216688187
 20
2.9090058228
 30
0.0
 10
5.9412997139
 20
2.9300351717
 30
0.0
 10
5.9587451261
 20
2.9528783533
 30
0.0
 10
5.9712717324
 20
2.9720891089
 30
0.0
 10
5.9799288834
 20
2.9869320185
 30
0.0
 10
5.987829943
 20
3.0021763757
 30
0.0
 10
5.9973236097
 20
3.0229759883
 30
0.0
 10
6.0052368363
 20
3.044452885
 30
0.0
 10
6.0114949334
 20
3.0664155332
 30
0.0
 10
6.0153515186
 20
3.0830960333
 30
0.0
 10
6.0183621821
 20
3.099945451
 30
0.0
 10
6.0212340773
 20
3.1225692133
 30
0.0
 10
6.0221009725
 20
3.1396819809
 30
0.0
 10
6.0221009725
 20
3.1510762943
 30
0.0
  0
SPLINE
  5
351
100
AcDbEntity
  8
ALL_ASSEMBLY_MEMBERS
100
AcDbSpline
 62
7
  6
CONTINUOUS
 70
0
 71
3
 72
18
 73
14
 74
0
 42
0.0000001
 43
0.0000001
 44
0.0000000001
 40
0.0
 40
0.0
 40
0.0
 40
0.0
 40
0.1247179085
 40
0.249511181
 40
0.3743302774
 40
0.4992145846
 40
0.62420218
 40
0.6867504249
 40
0.7493296294
 40
0.8119422066
 40
0.8745902505
 40
0.937275566
 40
1.0
 40
1.0
 40
1.0
 40
1.0
 10
6.0221009725
 20
3.1510762943
 30
0.0
 10
6.0221009725
 20
3.1596484654
 30
0.0
 10
6.0214472159
 20
3.1768050649
 30
0.0
 10
6.0185185471
 20
3.2023901512
 30
0.0
 10
6.0136521122
 20
3.2276917258
 30
0.0
 10
6.0068805609
 20
3.2525638058
 30
0.0
 10
5.9996814866
 20
3.2728181626
 30
0.0
 10
5.9930170406
 20
3.2886684202
 30
0.0
 10
5.9875691024
 20
3.3003693528
 30
0.0
 10
5.9816821528
 20
3.3118631296
 30
0.0
 10
5.9753647374
 20
3.3231345188
 30
0.0
 10
5.9686255058
 20
3.334167664
 30
0.0
 10
5.9638587563
 20
3.3413522771
 30
0.0
 10
5.9614087503
 20
3.3448996658
 30
0.0
  0
SPLINE
  5
352
100
AcDbEntity
  8
ALL_ASSEMBLY_MEMBERS
100
AcDbSpline
 62
7
  6
CONTINUOUS
 70
0
 71
3
 72
18
 73
14
 74
0
 42
0.0000001
 43
0.0000001
 44
0.0000000001
 40
0.0
 40
0.0
 40
0.0
 40
0.0
 40
0.0627228175
 40
0.1254067657
 40
0.1880536838
 40
0.2506653747
 40
0.3132439367
 40
0.3757917631
 40
0.500779254
 40
0.6256642461
 40
0.7504848789
 40
0.8752800855
 40
1.0
 40
1.0
 40
1.0
 40
1.0
 10
5.3700051181
 20
3.3442585492
 30
0.0
 10
5.3675723638
 20
3.3407191663
 30
0.0
 10
5.3628393306
 20
3.3335515225
 30
0.0
 10
5.3561481599
 20
3.3225465792
 30
0.0
 10
5.3498760926
 20
3.3113059903
 30
0.0
 10
5.3440316779
 20
3.2998454335
 30
0.0
 10
5.3386233625
 20
3.2881799745
 30
0.0
 10
5.3320076244
 20
3.2723797626
 30
0.0
 10
5.3248615543
 20
3.2521928412
 30
0.0
 10
5.3181402927
 20
3.2274079375
 30
0.0
 10
5.3133101819
 20
3.2021983014
 30
0.0
 10
5.3104034748
 20
3.1767083221
 30
0.0
 10
5.3097546176
 20
3.1596162527
 30
0.0
 10
5.3097546176
 20
3.1510762943
 30
0.0
  0
SPLINE
  5
353
100
AcDbEntity
  8
ALL_ASSEMBLY_MEMBERS
100
AcDbSpline
 62
7
  6
CONTINUOUS
 70
0
 71
3
 72
39
 73
35
 74
0
 42
0.0000001
 43
0.0000001
 44
0.0000000001
 40
0.0
 40
0.0
 40
0.0
 40
0.0
 40
0.0307087108
 40
0.0614384909
 40
0.092209558
 40
0.1230404662
 40
0.15394737
 40
0.184943397
 40
0.2160381526
 40
0.2472373761
 40
0.2785427552
 40
0.3099519017
 40
0.3414584823
 40
0.3730524945
 40
0.4047206711
 40
0.4364469968
 40
0.4682133142
 40
0.5
 40
0.5317866858
 40
0.5635530032
 40
0.5952793289
 40
0.6269475055
 40
0.6585415177
 40
0.6900480983
 40
0.7214572448
 40
0.7527626239
 40
0.7839618474
 40
0.815056603
 40
0.84605263
 40
0.8769595338
 40
0.907790442
 40
0.9385615091
 40
0.9692912892
 40
1.0
 40
1.0
 40
1.0
 40
1.0
 10
5.985427795
 20
3.1698406751
 30
0.0
 10
5.985427795
 20
3.1597445113
 30
0.0
 10
5.9843996652
 20
3.1395302306
 30
0.0
 10
5.9797885607
 20
3.1095168792
 30
0.0
 10
5.9721530675
 20
3.0800824566
 30
0.0
 10
5.9615671682
 20
3.0515149919
 30
0.0
 10
5.9481333712
 20
3.0240887982
 30
0.0
 10
5.9319816673
 20
2.9980684121
 30
0.0
 10
5.9132682184
 20
2.9737042671
 30
0.0
 10
5.892173798
 20
2.9512307735
 30
0.0
 10
5.8689020045
 20
2.9308639619
 30
0.0
 10
5.8436772659
 20
2.9127994775
 30
0.0
 10
5.8167426595
 20
2.897210733
 30
0.0
 10
5.788357565
 20
2.884247288
 30
0.0
 10
5.7587951743
 20
2.8740334541
 30
0.0
 10
5.7283398792
 20
2.8666671367
 30
0.0
 10
5.6972845591
 20
2.8622189257
 30
0.0
 10
5.665927795
 20
2.8607314386
 30
0.0
 10
5.6345710309
 20
2.8622189257
 30
0.0
 10
5.6035157109
 20
2.8666671367
 30
0.0
 10
5.5730604157
 20
2.8740334541
 30
0.0
 10
5.5434980251
 20
2.884247288
 30
0.0
 10
5.5151129306
 20
2.897210733
 30
0.0
 10
5.4881783242
 20
2.9127994775
 30
0.0
 10
5.4629535856
 20
2.9308639619
 30
0.0
 10
5.439681792
 20
2.9512307735
 30
0.0
 10
5.4185873717
 20
2.9737042671
 30
0.0
 10
5.3998739228
 20
2.9980684121
 30
0.0
 10
5.3837222189
 20
3.0240887982
 30
0.0
 10
5.3702884219
 20
3.0515149919
 30
0.0
 10
5.3597025226
 20
3.0800824566
 30
0.0
 10
5.3520670293
 20
3.1095168792
 30
0.0
 10
5.3474559248
 20
3.1395302306
 30
0.0
 10
5.346427795
 20
3.1597445113
 30
0.0
 10
5.346427795
 20
3.1698406751
 30
0.0
  0
SPLINE
  5
354
100
AcDbEntity
  8
ALL_ASSEMBLY_MEMBERS
100
AcDbSpline
 62
7
  6
CONTINUOUS
 70
0
 71
3
 72
17
 73
13
 74
0
 42
0.0000001
 43
0.0000001
 44
0.0000000001
 40
0.0
 40
0.0
 40
0.0
 40
0.0
 40
0.1567652884
 40
0.3023794957
 40
0.3710121064
 40
0.4369557833
 40
0.5613183699
 40
0.6773242301
 40
0.7873854377
 40
0.8410659016
 40
0.8942331974
 40
1.0
 40
1.0
 40
1.0
 40
1.0
 10
3.8272351799
 20
5.0776016325
 30
0.0
 10
3.8282839897
 20
5.0777465763
 30
0.0
 10
3.8303159216
 20
5.0779677203
 30
0.0
 10
3.8328243575
 20
5.0780421949
 30
0.0
 10
3.834715516
 20
5.0779518485
 30
0.0
 10
3.836455664
 20
5.0777707009
 30
0.0
 10
3.8384915447
 20
5.0773670364
 30
0.0
 10
3.8407307557
 20
5.0765728867
 30
0.0
 10
3.8423949372
 20
5.07565914
 30
0.0
 10
3.8435839431
 20
5.0748008924
 30
0.0
 10
3.844678424
 20
5.0738694832
 30
0.0
 10
3.845413839
 20
5.0730806794
 30
0.0
 10
3.8458638408
 20
5.0725259015
 30
0.0
  0
SPLINE
  5
355
100
AcDbEntity
  8
ALL_ASSEMBLY_MEMBERS
100
AcDbSpline
 62
7
  6
CONTINUOUS
 70
0
 71
3
 72
9
 73
5
 74
0
 42
0.0000001
 43
0.0000001
 44
0.0000000001
 40
0.0
 40
0.0
 40
0.0
 40
0.0
 40
0.5170564793
 40
1.0
 40
1.0
 40
1.0
 40
1.0
 10
3.8207408025
 20
5.0725861248
 30
0.0
 10
3.8217796535
 20
5.0735480712
 30
0.0
 10
3.8238679569
 20
5.0753252247
 30
0.0
 10
3.8261128486
 20
5.0769022413
 30
0.0
 10
3.8272351799
 20
5.0776016325
 30
0.0
  0
SPLINE
  5
356
100
AcDbEntity
  8
ALL_ASSEMBLY_MEMBERS
100
AcDbSpline
 62
7
  6
CONTINUOUS
 70
0
 71
3
 72
11
 73
7
 74
0
 42
0.0000001
 43
0.0000001
 44
0.0000000001
 40
0.0
 40
0.0
 40
0.0
 40
0.0
 40
0.2636595187
 40
0.5180987097
 40
0.7635400572
 40
1.0
 40
1.0
 40
1.0
 40
1.0
 10
3.8041367249
 20
5.0382622579
 30
0.0
 10
3.8046102637
 20
5.0394954735
 30
0.0
 10
3.805744781
 20
5.0418431696
 30
0.0
 10
3.8078396642
 20
5.0450524869
 30
0.0
 10
3.8101558526
 20
5.0479304289
 30
0.0
 10
3.8118222788
 20
5.0496814888
 30
0.0
 10
3.8126711177
 20
5.0505079613
 30
0.0
  0
SPLINE
  5
357
100
AcDbEntity
  8
ALL_ASSEMBLY_MEMBERS
100
AcDbSpline
 62
7
  6
CONTINUOUS
 70
0
 71
3
 72
15
 73
11
 74
0
 42
0.0000001
 43
0.0000001
 44
0.0000000001
 40
0.0
 40
0.0
 40
0.0
 40
0.0
 40
0.1189219252
 40
0.2401973438
 40
0.3634376686
 40
0.4883388378
 40
0.6146848355
 40
0.7423042921
 40
0.8708884515
 40
1.0
 40
1.0
 40
1.0
 40
1.0
 10
3.8092895256
 20
5.0159888433
 30
0.0
 10
3.8088536551
 20
5.0167958162
 30
0.0
 10
3.8080247441
 20
5.0184541085
 30
0.0
 10
3.80693202
 20
5.021037264
 30
0.0
 10
3.8059941328
 20
5.0237297523
 30
0.0
 10
3.8052280092
 20
5.026516706
 30
0.0
 10
3.8046453353
 20
5.0293822983
 30
0.0
 10
3.8042598063
 20
5.0323098073
 30
0.0
 10
3.8040777132
 20
5.0352781629
 30
0.0
 10
3.8040937221
 20
5.0372674381
 30
0.0
 10
3.8041367249
 20
5.0382622579
 30
0.0
  0
SPLINE
  5
358
100
AcDbEntity
  8
ALL_ASSEMBLY_MEMBERS
100
AcDbSpline
 62
7
  6
CONTINUOUS
 70
0
 71
3
 72
15
 73
11
 74
0
 42
0.0000001
 43
0.0000001
 44
0.0000000001
 40
0.0
 40
0.0
 40
0.0
 40
0.0
 40
0.0966722287
 40
0.1992169926
 40
0.3091092521
 40
0.427572745
 40
0.5555726021
 40
0.6935871524
 40
0.8417818768
 40
1.0
 40
1.0
 40
1.0
 40
1.0
 10
3.838179423
 20
5.0034631744
 30
0.0
 10
3.8375850576
 20
5.0032646531
 30
0.0
 10
3.8363292183
 20
5.0029434285
 30
0.0
 10
3.834332644
 20
5.0027165396
 30
0.0
 10
3.8321823382
 20
5.0027541653
 30
0.0
 10
3.8298890236
 20
5.0030692925
 30
0.0
 10
3.8274667315
 20
5.0036736804
 30
0.0
 10
3.8249325356
 20
5.0045719933
 30
0.0
 10
3.822308236
 20
5.0057680496
 30
0.0
 10
3.8205700045
 20
5.0067338514
 30
0.0
 10
3.8196922705
 20
5.0072643424
 30
0.0
  0
SPLINE
  5
359
100
AcDbEntity
  8
ALL_ASSEMBLY_MEMBERS
100
AcDbSpline
 62
7
  6
CONTINUOUS
 70
0
 71
3
 72
12
 73
8
 74
0
 42
0.0000001
 43
0.0000001
 44
0.0000000001
 40
0.0
 40
0.0
 40
0.0
 40
0.0
 40
0.2343843939
 40
0.4792719372
 40
0.6056309131
 40
0.7345702233
 40
1.0
 40
1.0
 40
1.0
 40
1.0
 10
3.8182715972
 20
5.0081617857
 30
0.0
 10
3.8174922205
 20
5.0086756199
 30
0.0
 10
3.8159314573
 20
5.0097770656
 30
0.0
 10
3.8140505195
 20
5.0112899313
 30
0.0
 10
3.8125609862
 20
5.012613354
 30
0.0
 10
3.8110582492
 20
5.0140431217
 30
0.0
 10
3.8099811965
 20
5.0151893491
 30
0.0
 10
3.8092895256
 20
5.0159888433
 30
0.0
  0
SPLINE
  5
35A
100
AcDbEntity
  8
ALL_ASSEMBLY_MEMBERS
100
AcDbSpline
 62
7
  6
CONTINUOUS
 70
0
 71
3
 72
21
 73
17
 74
0
 42
0.0000001
 43
0.0000001
 44
0.0000000001
 40
0.0
 40
0.0
 40
0.0
 40
0.0
 40
0.0767217578
 40
0.1532880727
 40
0.3035875959
 40
0.4471951297
 40
0.5155609718
 40
0.5811735012
 40
0.6438012384
 40
0.7032849393
 40
0.759568261
 40
0.8127102036
 40
0.8628955839
 40
0.910478121
 40
0.9559582954
 40
1.0
 40
1.0
 40
1.0
 40
1.0
 10
3.8383029798
 20
5.0401118782
 30
0.0
 10
3.8382358307
 20
5.0390969862
 30
0.0
 10
3.838054159
 20
5.0370720353
 30
0.0
 10
3.8375071342
 20
5.0330835307
 30
0.0
 10
3.836491174
 20
5.02826976
 30
0.0
 10
3.8350116928
 20
5.0236889877
 30
0.0
 10
3.8335654074
 20
5.0203027141
 30
0.0
 10
3.8323848936
 20
5.0179765882
 30
0.0
 10
3.8311002217
 20
5.0158423362
 30
0.0
 10
3.8297198607
 20
5.0139184273
 30
0.0
 10
3.8282534507
 20
5.0122216439
 30
0.0
 10
3.8267118389
 20
5.0107661927
 30
0.0
 10
3.8251046607
 20
5.0095665039
 30
0.0
 10
3.8234441723
 20
5.0086327134
 30
0.0
 10
3.8217424196
 20
5.00797587
 30
0.0
 10
3.8205762439
 20
5.0077250488
 30
0.0
 10
3.8199972502
 20
5.00764977
 30
0.0
  0
SPLINE
  5
35B
100
AcDbEntity
  8
ALL_ASSEMBLY_MEMBERS
100
AcDbSpline
 62
7
  6
CONTINUOUS
 70
0
 71
3
 72
20
 73
16
 74
0
 42
0.0000001
 43
0.0000001
 44
0.0000000001
 40
0.0
 40
0.0
 40
0.0
 40
0.0
 40
0.0397127942
 40
0.0814650177
 40
0.1258435243
 40
0.173273526
 40
0.224049921
 40
0.2783585332
 40
0.336264532
 40
0.3977594791
 40
0.4627758397
 40
0.531174506
 40
0.6773359937
 40
0.8343884005
 40
1.0
 40
1.0
 40
1.0
 40
1.0
 10
3.8270633475
 20
5.0724379434
 30
0.0
 10
3.8274174263
 20
5.0723415886
 30
0.0
 10
3.8281283572
 20
5.0720832422
 30
0.0
 10
3.8291529307
 20
5.0715255997
 30
0.0
 10
3.8301508442
 20
5.0707938563
 30
0.0
 10
3.8311165234
 20
5.0698937295
 30
0.0
 10
3.8320445209
 20
5.0688302122
 30
0.0
 10
3.832928845
 20
5.0676088776
 30
0.0
 10
3.833764788
 20
5.066236877
 30
0.0
 10
3.8345469472
 20
5.0647214993
 30
0.0
 10
3.8352699125
 20
5.0630707469
 30
0.0
 10
3.8361691603
 20
5.0606477085
 30
0.0
 10
3.8371030579
 20
5.0573369518
 30
0.0
 10
3.8379003961
 20
5.0530740958
 30
0.0
 10
3.8382084927
 20
5.0501048633
 30
0.0
 10
3.8383095337
 20
5.0485779145
 30
0.0
  0
SPLINE
  5
35C
100
AcDbEntity
  8
ALL_ASSEMBLY_MEMBERS
100
AcDbSpline
 62
7
  6
CONTINUOUS
 70
0
 71
3
 72
11
 73
7
 74
0
 42
0.0000001
 43
0.0000001
 44
0.0000000001
 40
0.0
 40
0.0
 40
0.0
 40
0.0
 40
0.2296303011
 40
0.470671287
 40
0.7265854801
 40
1.0
 40
1.0
 40
1.0
 40
1.0
 10
3.8254631849
 20
5.0724736734
 30
0.0
 10
3.8251084782
 20
5.072385383
 30
0.0
 10
3.8243955508
 20
5.0721430682
 30
0.0
 10
3.823366533
 20
5.0716067474
 30
0.0
 10
3.8223631519
 20
5.0708960813
 30
0.0
 10
3.8217372355
 20
5.0703289277
 30
0.0
 10
3.8214300155
 20
5.0700206458
 30
0.0
  0
SPLINE
  5
35D
100
AcDbEntity
  8
ALL_ASSEMBLY_MEMBERS
100
AcDbSpline
 62
7
  6
CONTINUOUS
 70
0
 71
3
 72
15
 73
11
 74
0
 42
0.0000001
 43
0.0000001
 44
0.0000000001
 40
0.0
 40
0.0
 40
0.0
 40
0.0
 40
0.0986397535
 40
0.2049290811
 40
0.3190305844
 40
0.4409202523
 40
0.5704028675
 40
0.7071689269
 40
0.8506301966
 40
1.0
 40
1.0
 40
1.0
 40
1.0
 10
3.8214300155
 20
5.0700206458
 30
0.0
 10
3.821062531
 20
5.069651891
 30
0.0
 10
3.8203453458
 20
5.0688388564
 30
0.0
 10
3.8193625469
 20
5.0674688999
 30
0.0
 10
3.8184407614
 20
5.0659128695
 30
0.0
 10
3.8175876563
 20
5.0641810297
 30
0.0
 10
3.816809207
 20
5.0622846399
 30
0.0
 10
3.8161126949
 20
5.0602361959
 30
0.0
 10
3.815503721
 20
5.0580511045
 30
0.0
 10
3.8151659246
 20
5.0565421926
 30
0.0
 10
3.8150121636
 20
5.0557689895
 30
0.0
  0
LINE
  5
35E
100
AcDbEntity
  8
ALL_ASSEMBLY_MEMBERS
100
AcDbLine
 62
7
  6
CONTINUOUS
 10
3.833884124
 20
5.0027489822
 11
3.8364030227
 21
5.0051460817
  0
SPLINE
  5
35F
100
AcDbEntity
  8
ALL_ASSEMBLY_MEMBERS
100
AcDbSpline
 62
7
  6
CONTINUOUS
 70
0
 71
3
 72
10
 73
6
 74
0
 42
0.0000001
 43
0.0000001
 44
0.0000000001
 40
0.0
 40
0.0
 40
0.0
 40
0.0
 40
0.4785668453
 40
0.7342701785
 40
1.0
 40
1.0
 40
1.0
 40
1.0
 10
3.8367463778
 20
5.0055293052
 30
0.0
 10
3.8377703989
 20
5.0066939407
 30
0.0
 10
3.8391947262
 20
5.0086135816
 30
0.0
 10
3.8408688946
 20
5.0113889851
 30
0.0
 10
3.8416541761
 20
5.0128866336
 30
0.0
 10
3.8420330348
 20
5.0136599146
 30
0.0
  0
SPLINE
  5
360
100
AcDbEntity
  8
ALL_ASSEMBLY_MEMBERS
100
AcDbSpline
 62
7
  6
CONTINUOUS
 70
0
 71
3
 72
21
 73
17
 74
0
 42
0.0000001
 43
0.0000001
 44
0.0000000001
 40
0.0
 40
0.0
 40
0.0
 40
0.0
 40
0.0570255124
 40
0.1168344582
 40
0.1791086831
 40
0.2434651177
 40
0.3094637011
 40
0.3766310304
 40
0.5123782012
 40
0.6465465341
 40
0.7117458688
 40
0.7749992675
 40
0.8358451714
 40
0.8938578769
 40
0.9486733399
 40
1.0
 40
1.0
 40
1.0
 40
1.0
 10
3.8272530256
 20
5.0112907463
 30
0.0
 10
3.8278334064
 20
5.0123147904
 30
0.0
 10
3.8289344353
 20
5.0144636418
 30
0.0
 10
3.8303768939
 20
5.0178706463
 30
0.0
 10
3.8316392421
 20
5.0215088869
 30
0.0
 10
3.8327107503
 20
5.0253402507
 30
0.0
 10
3.8335830629
 20
5.0293251823
 30
0.0
 10
3.8344733249
 20
5.0348063074
 30
0.0
 10
3.8350489428
 20
5.0417532043
 30
0.0
 10
3.8349242578
 20
5.0486822004
 30
0.0
 10
3.8343985455
 20
5.0540797314
 30
0.0
 10
3.8338065732
 20
5.0579441449
 30
0.0
 10
3.8330225482
 20
5.0616227607
 30
0.0
 10
3.8320565783
 20
5.06507775
 30
0.0
 10
3.830920891
 20
5.0682730062
 30
0.0
 10
3.8300296183
 20
5.0702777082
 30
0.0
 10
3.8295553626
 20
5.0712250757
 30
0.0
  0
SPLINE
  5
361
100
AcDbEntity
  8
ALL_ASSEMBLY_MEMBERS
100
AcDbSpline
 62
7
  6
CONTINUOUS
 70
0
 71
3
 72
14
 73
10
 74
0
 42
0.0000001
 43
0.0000001
 44
0.0000000001
 40
0.0
 40
0.0
 40
0.0
 40
0.0
 40
0.14608164
 40
0.2869550282
 40
0.5507598091
 40
0.6730639408
 40
0.7887114373
 40
0.8976571535
 40
1.0
 40
1.0
 40
1.0
 40
1.0
 10
3.846638246
 20
5.0611107515
 30
0.0
 10
3.8464381858
 20
5.0619562808
 30
0.0
 10
3.8460086726
 20
5.0636089684
 30
0.0
 10
3.8450360047
 20
5.0667377079
 30
0.0
 10
3.8438842305
 20
5.0696612573
 30
0.0
 10
3.8425372165
 20
5.0723263184
 30
0.0
 10
3.8414842708
 20
5.0741028334
 30
0.0
 10
3.8403689937
 20
5.0756980861
 30
0.0
 10
3.8395635938
 20
5.0766654374
 30
0.0
 10
3.8391515924
 20
5.077113542
 30
0.0
  0
SPLINE
  5
362
100
AcDbEntity
  8
ALL_ASSEMBLY_MEMBERS
100
AcDbSpline
 62
7
  6
CONTINUOUS
 70
0
 71
3
 72
9
 73
5
 74
0
 42
0.0000001
 43
0.0000001
 44
0.0000000001
 40
0.0
 40
0.0
 40
0.0
 40
0.0
 40
0.2498398986
 40
1.0
 40
1.0
 40
1.0
 40
1.0
 10
3.8150121636
 20
5.0557689895
 30
0.0
 10
3.8152549994
 20
5.057093238
 30
0.0
 10
3.8163721725
 20
5.0623670744
 30
0.0
 10
3.8180032917
 20
5.0675231265
 30
0.0
 10
3.8194133374
 20
5.0713116737
 30
0.0
  0
SPLINE
  5
363
100
AcDbEntity
  8
ALL_ASSEMBLY_MEMBERS
100
AcDbSpline
 62
7
  6
CONTINUOUS
 70
0
 71
3
 72
24
 73
20
 74
0
 42
0.0000001
 43
0.0000001
 44
0.0000000001
 40
0.0
 40
0.0
 40
0.0
 40
0.0
 40
0.0842765573
 40
0.1677823303
 40
0.2497819125
 40
0.3296796198
 40
0.4069498292
 40
0.4810893618
 40
0.5516222988
 40
0.6181415525
 40
0.6803446035
 40
0.7380194013
 40
0.7911042586
 40
0.8396887835
 40
0.884107527
 40
0.9249567914
 40
0.9631602719
 40
0.9816713202
 40
1.0
 40
1.0
 40
1.0
 40
1.0
 10
3.839870535
 20
5.0401118794
 30
0.0
 10
3.8399407536
 20
5.0411731643
 30
0.0
 10
3.840028852
 20
5.0432898027
 30
0.0
 10
3.8400071658
 20
5.0464432776
 30
0.0
 10
3.8398321643
 20
5.0495367422
 30
0.0
 10
3.8395081137
 20
5.052539059
 30
0.0
 10
3.8390399962
 20
5.0554219713
 30
0.0
 10
3.8384345374
 20
5.0581584114
 30
0.0
 10
3.8376998018
 20
5.0607223865
 30
0.0
 10
3.8368440374
 20
5.0630892438
 30
0.0
 10
3.8358782819
 20
5.0652370824
 30
0.0
 10
3.8348122443
 20
5.0671455134
 30
0.0
 10
3.8336585903
 20
5.0687975252
 30
0.0
 10
3.8324277062
 20
5.0701769886
 30
0.0
 10
3.8311318316
 20
5.0712711303
 30
0.0
 10
3.829782409
 20
5.0720669802
 30
0.0
 10
3.8286102974
 20
5.0724754797
 30
0.0
 10
3.8276751602
 20
5.0726354345
 30
0.0
 10
3.8272097645
 20
5.0726618551
 30
0.0
 10
3.8269784489
 20
5.0726618094
 30
0.0
  0
SPLINE
  5
364
100
AcDbEntity
  8
ALL_ASSEMBLY_MEMBERS
100
AcDbSpline
 62
7
  6
CONTINUOUS
 70
0
 71
3
 72
11
 73
7
 74
0
 42
0.0000001
 43
0.0000001
 44
0.0000000001
 40
0.0
 40
0.0
 40
0.0
 40
0.0
 40
0.2842853341
 40
0.5453869738
 40
0.7834757662
 40
1.0
 40
1.0
 40
1.0
 40
1.0
 10
3.8420330348
 20
5.0136599146
 30
0.0
 10
3.8418101538
 20
5.0126454962
 30
0.0
 10
3.8413358954
 20
5.0107089702
 30
0.0
 10
3.8404681906
 20
5.0079781573
 30
0.0
 10
3.8394523969
 20
5.0055642402
 30
0.0
 10
3.8386261201
 20
5.0041160368
 30
0.0
 10
3.838179423
 20
5.0034631744
 30
0.0
  0
SPLINE
  5
365
100
AcDbEntity
  8
ALL_ASSEMBLY_MEMBERS
100
AcDbSpline
 62
7
  6
CONTINUOUS
 70
0
 71
3
 72
14
 73
10
 74
0
 42
0.0000001
 43
0.0000001
 44
0.0000000001
 40
0.0
 40
0.0
 40
0.0
 40
0.0
 40
0.2492018646
 40
0.3760799864
 40
0.5035873436
 40
0.6307448191
 40
0.7565288785
 40
0.8799452373
 40
1.0
 40
1.0
 40
1.0
 40
1.0
 10
3.846638246
 20
5.0611107515
 30
0.0
 10
3.846085464
 20
5.0571885981
 30
0.0
 10
3.8453364948
 20
5.051257208
 30
0.0
 10
3.8444792625
 20
5.0432989268
 30
0.0
 10
3.8438980096
 20
5.0372623143
 30
0.0
 10
3.8433766233
 20
5.0312377542
 30
0.0
 10
3.8429052698
 20
5.0252743297
 30
0.0
 10
3.842468552
 20
5.019421508
 30
0.0
 10
3.8421804309
 20
5.0155624127
 30
0.0
 10
3.8420330348
 20
5.0136599146
 30
0.0
  0
SPLINE
  5
366
100
AcDbEntity
  8
ALL_ASSEMBLY_MEMBERS
100
AcDbSpline
 62
7
  6
CONTINUOUS
 70
0
 71
3
 72
23
 73
19
 74
0
 42
0.0000001
 43
0.0000001
 44
0.0000000001
 40
0.0
 40
0.0
 40
0.0
 40
0.0
 40
0.0440905426
 40
0.089108402
 40
0.1358935347
 40
0.1851255425
 40
0.2372995849
 40
0.2927285533
 40
0.3515472527
 40
0.4137568167
 40
0.4792215227
 40
0.5477168006
 40
0.6189087196
 40
0.6924016415
 40
0.7677642327
 40
0.8445349443
 40
0.9221702501
 40
1.0
 40
1.0
 40
1.0
 40
1.0
 10
3.8202126213
 20
5.0075618794
 30
0.0
 10
3.8208170824
 20
5.0075618791
 30
0.0
 10
3.8220412112
 20
5.0076695395
 30
0.0
 10
3.8238503072
 20
5.0081475795
 30
0.0
 10
3.8256236375
 20
5.0089372751
 30
0.0
 10
3.8273457509
 20
5.0100270401
 30
0.0
 10
3.8290031841
 20
5.011405022
 30
0.0
 10
3.8305830847
 20
5.0130570463
 30
0.0
 10
3.8320742213
 20
5.0149665195
 30
0.0
 10
3.8334642788
 20
5.0171158992
 30
0.0
 10
3.8347437413
 20
5.0194842965
 30
0.0
 10
3.8359014121
 20
5.0220498998
 30
0.0
 10
3.8369297006
 20
5.024787627
 30
0.0
 10
3.8378200574
 20
5.0276717544
 30
0.0
 10
3.8385663846
 20
5.0306751583
 30
0.0
 10
3.8391634901
 20
5.0337695281
 30
0.0
 10
3.8396071023
 20
5.0369235879
 30
0.0
 10
3.8398000917
 20
5.0390471971
 30
0.0
 10
3.839870535
 20
5.0401118794
 30
0.0
  0
SPLINE
  5
367
100
AcDbEntity
  8
ALL_ASSEMBLY_MEMBERS
100
AcDbSpline
 62
7
  6
CONTINUOUS
 70
0
 71
3
 72
11
 73
7
 74
0
 42
0.0000001
 43
0.0000001
 44
0.0000000001
 40
0.0
 40
0.0
 40
0.0
 40
0.0
 40
0.2203946071
 40
0.4608983679
 40
0.7210706122
 40
1.0
 40
1.0
 40
1.0
 40
1.0
 10
3.8458638408
 20
5.0725259015
 30
0.0
 10
3.8460374901
 20
5.0717019069
 30
0.0
 10
3.8463150143
 20
5.0699603995
 30
0.0
 10
3.8465564615
 20
5.0672144764
 30
0.0
 10
3.8466620609
 20
5.0642365656
 30
0.0
 10
3.8466558984
 20
5.0621763509
 30
0.0
 10
3.846638246
 20
5.0611107515
 30
0.0
  0
SPLINE
  5
368
100
AcDbEntity
  8
ALL_ASSEMBLY_MEMBERS
100
AcDbSpline
 62
7
  6
CONTINUOUS
 70
0
 71
3
 72
12
 73
8
 74
0
 42
0.0000001
 43
0.0000001
 44
0.0000000001
 40
0.0
 40
0.0
 40
0.0
 40
0.0
 40
0.2602312463
 40
0.5168783374
 40
0.7648186135
 40
0.8842515762
 40
1.0
 40
1.0
 40
1.0
 40
1.0
 10
7.5270350672
 20
5.0401118813
 30
0.0
 10
7.52691758
 20
5.0418875833
 30
0.0
 10
7.5265407017
 20
5.0454068636
 30
0.0
 10
7.5255521008
 20
5.0505487206
 30
0.0
 10
7.5243738325
 20
5.0546576549
 30
0.0
 10
7.523225409
 20
5.0577567192
 30
0.0
 10
7.5225866435
 20
5.0592338153
 30
0.0
 10
7.5222512467
 20
5.0599507871
 30
0.0
  0
SPLINE
  5
369
100
AcDbEntity
  8
ALL_ASSEMBLY_MEMBERS
100
AcDbSpline
 62
7
  6
CONTINUOUS
 70
0
 71
3
 72
11
 73
7
 74
0
 42
0.0000001
 43
0.0000001
 44
0.0000000001
 40
0.0
 40
0.0
 40
0.0
 40
0.0
 40
0.2786184214
 40
0.5379709189
 40
0.7779892452
 40
1.0
 40
1.0
 40
1.0
 40
1.0
 10
7.5212283358
 20
5.0619801379
 30
0.0
 10
7.5206893388
 20
5.0629729504
 30
0.0
 10
7.5195576634
 20
5.0648430191
 30
0.0
 10
7.5176266775
 20
5.0673470877
 30
0.0
 10
7.5155458923
 20
5.0694158192
 30
0.0
 10
7.5140189313
 20
5.0705196333
 30
0.0
 10
7.5132429898
 20
5.0709759376
 30
0.0
  0
SPLINE
  5
36A
100
AcDbEntity
  8
ALL_ASSEMBLY_MEMBERS
100
AcDbSpline
 62
7
  6
CONTINUOUS
 70
0
 71
3
 72
9
 73
5
 74
0
 42
0.0000001
 43
0.0000001
 44
0.0000000001
 40
0.0
 40
0.0
 40
0.0
 40
0.0
 40
0.5079088038
 40
1.0
 40
1.0
 40
1.0
 40
1.0
 10
7.5119530195
 20
5.071645048
 30
0.0
 10
7.5113543617
 20
5.0719147201
 30
0.0
 10
7.510131755
 20
5.0723546338
 30
0.0
 10
7.508850382
 20
5.0725770343
 30
0.0
 10
7.5082162912
 20
5.0726281144
 30
0.0
  0
SPLINE
  5
36B
100
AcDbEntity
  8
ALL_ASSEMBLY_MEMBERS
100
AcDbSpline
 62
7
  6
CONTINUOUS
 70
0
 71
3
 72
21
 73
17
 74
0
 42
0.0000001
 43
0.0000001
 44
0.0000000001
 40
0.0
 40
0.0
 40
0.0
 40
0.0
 40
0.0715161675
 40
0.1401645467
 40
0.268848765
 40
0.329331047
 40
0.3876729017
 40
0.4443738256
 40
0.5000729009
 40
0.5554846264
 40
0.6113683216
 40
0.6685211014
 40
0.7276992145
 40
0.7896676143
 40
0.8552047487
 40
1.0
 40
1.0
 40
1.0
 40
1.0
 10
7.514668769
 20
5.0034632042
 30
0.0
 10
7.5139851988
 20
5.0033223843
 30
0.0
 10
7.5126383348
 20
5.0030784181
 30
0.0
 10
7.510033795
 20
5.0027577137
 30
0.0
 10
7.5075066725
 20
5.0026923806
 30
0.0
 10
7.5051019927
 20
5.0029509549
 30
0.0
 10
7.5034216175
 20
5.0032987273
 30
0.0
 10
7.5018322765
 20
5.0038104546
 30
0.0
 10
7.500337339
 20
5.0044881182
 30
0.0
 10
7.4989391232
 20
5.005332741
 30
0.0
 10
7.4976394739
 20
5.0063454694
 30
0.0
 10
7.4964380249
 20
5.0075256012
 30
0.0
 10
7.4953325357
 20
5.0088732815
 30
0.0
 10
7.4943204579
 20
5.0103914846
 30
0.0
 10
7.4930487075
 20
5.0127278396
 30
0.0
 10
7.492292865
 20
5.0146464749
 30
0.0
 10
7.4918518668
 20
5.01598895
 30
0.0
  0
SPLINE
  5
36C
100
AcDbEntity
  8
ALL_ASSEMBLY_MEMBERS
100
AcDbSpline
 62
7
  6
CONTINUOUS
 70
0
 71
3
 72
11
 73
7
 74
0
 42
0.0000001
 43
0.0000001
 44
0.0000000001
 40
0.0
 40
0.0
 40
0.0
 40
0.0
 40
0.2674373823
 40
0.5242859794
 40
0.768989205
 40
1.0
 40
1.0
 40
1.0
 40
1.0
 10
7.5237136026
 20
5.0136599611
 30
0.0
 10
7.5230680092
 20
5.0126236049
 30
0.0
 10
7.5217157524
 20
5.0106443604
 30
0.0
 10
7.5194926771
 20
5.0079215988
 30
0.0
 10
7.5171572275
 20
5.0055217273
 30
0.0
 10
7.5155041619
 20
5.0041070075
 30
0.0
 10
7.514668769
 20
5.0034632042
 30
0.0
  0
SPLINE
  5
36D
100
AcDbEntity
  8
ALL_ASSEMBLY_MEMBERS
100
AcDbSpline
 62
7
  6
CONTINUOUS
 70
0
 71
3
 72
10
 73
6
 74
0
 42
0.0000001
 43
0.0000001
 44
0.0000000001
 40
0.0
 40
0.0
 40
0.0
 40
0.0
 40
0.2392758477
 40
0.4866587191
 40
1.0
 40
1.0
 40
1.0
 40
1.0
 10
7.5136797509
 20
5.0725258686
 30
0.0
 10
7.5145426111
 20
5.07172406
 30
0.0
 10
7.5162412039
 20
5.0700312859
 30
0.0
 10
7.5194896888
 20
5.0663297204
 30
0.0
 10
7.5216709232
 20
5.0632662278
 30
0.0
 10
7.5229898809
 20
5.0611107048
 30
0.0
  0
SPLINE
  5
36E
100
AcDbEntity
  8
ALL_ASSEMBLY_MEMBERS
100
AcDbSpline
 62
7
  6
CONTINUOUS
 70
0
 71
3
 72
15
 73
11
 74
0
 42
0.0000001
 43
0.0000001
 44
0.0000000001
 40
0.0
 40
0.0
 40
0.0
 40
0.0
 40
0.0901432098
 40
0.1892935135
 40
0.298524491
 40
0.4184865641
 40
0.5492313333
 40
0.6903296588
 40
0.8409488465
 40
1.0
 40
1.0
 40
1.0
 40
1.0
 10
7.4903985316
 20
5.0776016166
 30
0.0
 10
7.4911091387
 20
5.0777585747
 30
0.0
 10
7.49262528
 20
5.0779859596
 30
0.0
 10
7.4950395501
 20
5.0780496762
 30
0.0
 10
7.4976858841
 20
5.077829759
 30
0.0
 10
7.5005495023
 20
5.0773154616
 30
0.0
 10
7.5036113547
 20
5.0765107255
 30
0.0
 10
7.5068473722
 20
5.0754271874
 30
0.0
 10
7.5102325459
 20
5.0740879659
 30
0.0
 10
7.512516072
 20
5.0730686384
 30
0.0
 10
7.5136797509
 20
5.0725258686
 30
0.0
  0
SPLINE
  5
36F
100
AcDbEntity
  8
ALL_ASSEMBLY_MEMBERS
100
AcDbSpline
 62
7
  6
CONTINUOUS
 70
0
 71
3
 72
11
 73
7
 74
0
 42
0.0000001
 43
0.0000001
 44
0.0000000001
 40
0.0
 40
0.0
 40
0.0
 40
0.0
 40
0.2841782648
 40
0.5435975218
 40
0.7813689052
 40
1.0
 40
1.0
 40
1.0
 40
1.0
 10
7.4892868013
 20
5.0401118694
 30
0.0
 10
7.4893402627
 20
5.0411080015
 30
0.0
 10
7.4894815481
 20
5.0430117252
 30
0.0
 10
7.4898137018
 20
5.0457355658
 30
0.0
 10
7.4902514205
 20
5.0482112244
 30
0.0
 10
7.490629333
 20
5.0497697325
 30
0.0
 10
7.4908393121
 20
5.0505079208
 30
0.0
  0
LINE
  5
370
100
AcDbEntity
  8
ALL_ASSEMBLY_MEMBERS
100
AcDbLine
 62
7
  6
CONTINUOUS
 10
7.5149474286
 20
5.0076095212
 11
7.5137205524
 21
5.0078872769
  0
SPLINE
  5
371
100
AcDbEntity
  8
ALL_ASSEMBLY_MEMBERS
100
AcDbSpline
 62
7
  6
CONTINUOUS
 70
0
 71
3
 72
11
 73
7
 74
0
 42
0.0000001
 43
0.0000001
 44
0.0000000001
 40
0.0
 40
0.0
 40
0.0
 40
0.0
 40
0.2274753879
 40
0.4684061144
 40
0.7253170862
 40
1.0
 40
1.0
 40
1.0
 40
1.0
 10
7.5133109878
 20
5.0080361524
 30
0.0
 10
7.5129638058
 20
5.0081744946
 30
0.0
 10
7.512270174
 20
5.0085151261
 30
0.0
 10
7.5112798638
 20
5.009183494
 30
0.0
 10
7.5103187928
 20
5.0100165596
 30
0.0
 10
7.5097218857
 20
5.0106564038
 30
0.0
 10
7.509429232
 20
5.010999938
 30
0.0
  0
LINE
  5
372
100
AcDbEntity
  8
ALL_ASSEMBLY_MEMBERS
100
AcDbLine
 62
7
  6
CONTINUOUS
 10
7.5092267015
 20
5.011242771
 11
7.5074321758
 21
5.013892979
  0
SPLINE
  5
373
100
AcDbEntity
  8
ALL_ASSEMBLY_MEMBERS
100
AcDbSpline
 62
7
  6
CONTINUOUS
 70
0
 71
3
 72
10
 73
6
 74
0
 42
0.0000001
 43
0.0000001
 44
0.0000000001
 40
0.0
 40
0.0
 40
0.0
 40
0.0
 40
0.2307770176
 40
0.474784156
 40
1.0
 40
1.0
 40
1.0
 40
1.0
 10
7.5071535612
 20
5.0143976779
 30
0.0
 10
7.5068716622
 20
5.0149231257
 30
0.0
 10
7.5063309113
 20
5.0160255644
 30
0.0
 10
7.5053421282
 20
5.0184139615
 30
0.0
 10
7.5047439154
 20
5.0203146667
 30
0.0
 10
7.5043969581
 20
5.0216266376
 30
0.0
  0
LINE
  5
374
100
AcDbEntity
  8
ALL_ASSEMBLY_MEMBERS
100
AcDbLine
 62
7
  6
CONTINUOUS
 10
7.5149485461
 20
5.0076150068
 11
7.5162499654
 21
5.0079268209
  0
SPLINE
  5
375
100
AcDbEntity
  8
ALL_ASSEMBLY_MEMBERS
100
AcDbSpline
 62
7
  6
CONTINUOUS
 70
0
 71
3
 72
13
 73
9
 74
0
 42
0.0000001
 43
0.0000001
 44
0.0000000001
 40
0.0
 40
0.0
 40
0.0
 40
0.0
 40
0.1057154078
 40
0.2156700601
 40
0.3306996606
 40
0.4514645119
 40
0.7119725254
 40
1.0
 40
1.0
 40
1.0
 40
1.0
 10
7.5162499654
 20
5.0079268209
 30
0.0
 10
7.516512272
 20
5.0080182252
 30
0.0
 10
7.5170366925
 20
5.0082368057
 30
0.0
 10
7.5177985147
 20
5.0086578914
 30
0.0
 10
7.5185465454
 20
5.0091759773
 30
0.0
 10
7.5195473389
 20
5.010014472
 30
0.0
 10
7.5207458003
 20
5.0113116373
 30
0.0
 10
7.5215735561
 20
5.0124963648
 30
0.0
 10
7.5219733364
 20
5.0131389736
 30
0.0
  0
SPLINE
  5
376
100
AcDbEntity
  8
ALL_ASSEMBLY_MEMBERS
100
AcDbSpline
 62
7
  6
CONTINUOUS
 70
0
 71
3
 72
15
 73
11
 74
0
 42
0.0000001
 43
0.0000001
 44
0.0000000001
 40
0.0
 40
0.0
 40
0.0
 40
0.0
 40
0.1025075224
 40
0.2123377144
 40
0.3291895062
 40
0.4526495629
 40
0.58215303
 40
0.7170281263
 40
0.856562618
 40
1.0
 40
1.0
 40
1.0
 40
1.0
 10
7.5219733364
 20
5.0131389736
 30
0.0
 10
7.5223228462
 20
5.0137007773
 30
0.0
 10
7.5229922642
 20
5.0148990275
 30
0.0
 10
7.5238788183
 20
5.0168320189
 30
0.0
 10
7.5246758425
 20
5.0189486707
 30
0.0
 10
7.5253745999
 20
5.02123263
 30
0.0
 10
7.5259686573
 20
5.0236657833
 30
0.0
 10
7.5264519707
 20
5.0262288938
 30
0.0
 10
7.5268184652
 20
5.0289019616
 30
0.0
 10
7.526980502
 20
5.0307220259
 30
0.0
 10
7.5270416269
 20
5.0316458436
 30
0.0
  0
SPLINE
  5
377
100
AcDbEntity
  8
ALL_ASSEMBLY_MEMBERS
100
AcDbSpline
 62
7
  6
CONTINUOUS
 70
0
 71
3
 72
19
 73
15
 74
0
 42
0.0000001
 43
0.0000001
 44
0.0000000001
 40
0.0
 40
0.0
 40
0.0
 40
0.0
 40
0.1570473326
 40
0.3069322048
 40
0.3785135283
 40
0.4476040005
 40
0.5140698769
 40
0.5778184759
 40
0.6969380659
 40
0.8055231977
 40
0.8564423457
 40
0.9055213944
 40
0.9532002119
 40
1.0
 40
1.0
 40
1.0
 40
1.0
 10
7.4908393121
 20
5.0505079208
 30
0.0
 10
7.4912018898
 20
5.0520291814
 30
0.0
 10
7.4920315406
 20
5.0549751838
 30
0.0
 10
7.4933776646
 20
5.0585026159
 30
0.0
 10
7.4946183394
 20
5.0611178783
 30
0.0
 10
7.4956050897
 20
5.062930509
 30
0.0
 10
7.496658188
 20
5.0646144196
 30
0.0
 10
7.4981105761
 20
5.066629871
 30
0.0
 10
7.5000531746
 20
5.068802123
 30
0.0
 10
7.5022481723
 20
5.0705305825
 30
0.0
 10
7.5040695603
 20
5.0715370933
 30
0.0
 10
7.5054329383
 20
5.0720977302
 30
0.0
 10
7.5068155145
 20
5.0724752467
 30
0.0
 10
7.5077507684
 20
5.0726037092
 30
0.0
 10
7.5082156633
 20
5.0726362276
 30
0.0
  0
SPLINE
  5
378
100
AcDbEntity
  8
ALL_ASSEMBLY_MEMBERS
100
AcDbSpline
 62
7
  6
CONTINUOUS
 70
0
 71
3
 72
11
 73
7
 74
0
 42
0.0000001
 43
0.0000001
 44
0.0000000001
 40
0.0
 40
0.0
 40
0.0
 40
0.0
 40
0.2501059268
 40
0.5002649896
 40
0.7502897041
 40
1.0
 40
1.0
 40
1.0
 40
1.0
 10
7.5229898809
 20
5.0611107048
 30
0.0
 10
7.5235315978
 20
5.059407566
 30
0.0
 10
7.5245288795
 20
5.0559725926
 30
0.0
 10
7.5257277737
 20
5.0507436491
 30
0.0
 10
7.5265946558
 20
5.0454518901
 30
0.0
 10
7.5269307507
 20
5.0418932208
 30
0.0
 10
7.527034708
 20
5.0401118634
 30
0.0
  0
SPLINE
  5
379
100
AcDbEntity
  8
ALL_ASSEMBLY_MEMBERS
100
AcDbSpline
 62
7
  6
CONTINUOUS
 70
0
 71
3
 72
11
 73
7
 74
0
 42
0.0000001
 43
0.0000001
 44
0.0000000001
 40
0.0
 40
0.0
 40
0.0
 40
0.0
 40
0.2781011502
 40
0.5367261319
 40
0.7767576782
 40
1.0
 40
1.0
 40
1.0
 40
1.0
 10
7.4882650063
 20
5.0713116553
 30
0.0
 10
7.4883655259
 20
5.071922995
 30
0.0
 10
7.4885953075
 20
5.0730975403
 30
0.0
 10
7.4890602576
 20
5.0747666727
 30
0.0
 10
7.4896426624
 20
5.0762688463
 30
0.0
 10
7.4901312657
 20
5.077182199
 30
0.0
 10
7.4903985316
 20
5.0776016166
 30
0.0
  0
LINE
  5
37A
100
AcDbEntity
  8
ALL_ASSEMBLY_MEMBERS
100
AcDbLine
 62
7
  6
CONTINUOUS
 10
7.490806478
 20
5.0557689643
 11
7.4882650063
 21
5.0713116553
  0
LINE
  5
37B
100
AcDbEntity
  8
ALL_ASSEMBLY_MEMBERS
100
AcDbLine
 62
7
  6
CONTINUOUS
 10
7.4908393121
 20
5.0505079208
 11
7.490806478
 21
5.0557689643
  0
SPLINE
  5
37C
100
AcDbEntity
  8
ALL_ASSEMBLY_MEMBERS
100
AcDbSpline
 62
7
  6
CONTINUOUS
 70
0
 71
3
 72
11
 73
7
 74
0
 42
0.0000001
 43
0.0000001
 44
0.0000000001
 40
0.0
 40
0.0
 40
0.0
 40
0.0
 40
0.252079752
 40
0.503008544
 40
0.7524746204
 40
1.0
 40
1.0
 40
1.0
 40
1.0
 10
7.5270392857
 20
5.0316119402
 30
0.0
 10
7.5269499438
 20
5.0300767474
 30
0.0
 10
7.5266738625
 20
5.027018172
 30
0.0
 10
7.525971616
 20
5.0224788273
 30
0.0
 10
7.5249935326
 20
5.0180194414
 30
0.0
 10
7.5241672478
 20
5.0151002132
 30
0.0
 10
7.5237136026
 20
5.0136599611
 30
0.0
  0
SPLINE
  5
37D
100
AcDbEntity
  8
ALL_ASSEMBLY_MEMBERS
100
AcDbSpline
 62
7
  6
CONTINUOUS
 70
0
 71
3
 72
19
 73
15
 74
0
 42
0.0000001
 43
0.0000001
 44
0.0000000001
 40
0.0
 40
0.0
 40
0.0
 40
0.0
 40
0.0490570736
 40
0.0985989278
 40
0.1490869597
 40
0.2009445252
 40
0.3100231943
 40
0.3679046928
 40
0.4282134553
 40
0.5563769233
 40
0.6243605285
 40
0.6948853296
 40
0.8431882038
 40
1.0
 40
1.0
 40
1.0
 40
1.0
 10
7.5073771518
 20
5.0726618206
 30
0.0
 10
7.5069663073
 20
5.0726617602
 30
0.0
 10
7.5061397545
 20
5.0726125996
 30
0.0
 10
7.5049079758
 20
5.0723930146
 30
0.0
 10
7.5036864827
 20
5.0720282816
 30
0.0
 10
7.5020522123
 20
5.0713395316
 30
0.0
 10
7.5004823343
 20
5.0703689835
 30
0.0
 10
7.4990043771
 20
5.0691675908
 30
0.0
 10
7.497510939
 20
5.0677411842
 30
0.0
 10
7.4961278893
 20
5.0660878645
 30
0.0
 10
7.4948559502
 20
5.0642512169
 30
0.0
 10
7.4936025939
 20
5.0622006579
 30
0.0
 10
7.4921811904
 20
5.0593880461
 30
0.0
 10
7.4912400948
 20
5.0570085849
 30
0.0
 10
7.490806478
 20
5.0557689643
 30
0.0
  0
LINE
  5
37E
100
AcDbEntity
  8
ALL_ASSEMBLY_MEMBERS
100
AcDbLine
 62
7
  6
CONTINUOUS
 10
7.4944109311
 20
5.0780252831
 11
7.492417092
 21
5.0763362318
  0
SPLINE
  5
37F
100
AcDbEntity
  8
ALL_ASSEMBLY_MEMBERS
100
AcDbSpline
 62
7
  6
CONTINUOUS
 70
0
 71
3
 72
9
 73
5
 74
0
 42
0.0000001
 43
0.0000001
 44
0.0000000001
 40
0.0
 40
0.0
 40
0.0
 40
0.0
 40
0.4847737766
 40
1.0
 40
1.0
 40
1.0
 40
1.0
 10
7.4920706525
 20
5.0759993177
 30
0.0
 10
7.491377109
 20
5.0753112986
 30
0.0
 10
7.4900298843
 20
5.0738065629
 30
0.0
 10
7.4888402421
 20
5.0721760314
 30
0.0
 10
7.4882650063
 20
5.0713116553
 30
0.0
  0
SPLINE
  5
380
100
AcDbEntity
  8
ALL_ASSEMBLY_MEMBERS
100
AcDbSpline
 62
7
  6
CONTINUOUS
 70
0
 71
3
 72
23
 73
19
 74
0
 42
0.0000001
 43
0.0000001
 44
0.0000000001
 40
0.0
 40
0.0
 40
0.0
 40
0.0
 40
0.0590158484
 40
0.1212154304
 40
0.186160467
 40
0.2533280695
 40
0.3221198197
 40
0.3918924915
 40
0.4619657188
 40
0.5316482419
 40
0.6002445898
 40
0.6670816744
 40
0.7315137323
 40
0.7929540224
 40
0.8508784773
 40
0.9048685181
 40
0.9546185481
 40
1.0
 40
1.0
 40
1.0
 40
1.0
 10
7.500310228
 20
5.0688859369
 30
0.0
 10
7.4996561284
 20
5.0677283433
 30
0.0
 10
7.4984245873
 20
5.0652862605
 30
0.0
 10
7.4968441578
 20
5.0613971699
 30
0.0
 10
7.4954948296
 20
5.0572286783
 30
0.0
 10
7.4943915215
 20
5.0528356596
 30
0.0
 10
7.493545059
 20
5.0482755949
 30
0.0
 10
7.4929634825
 20
5.04360845
 30
0.0
 10
7.4926511322
 20
5.0388955779
 30
0.0
 10
7.4926087276
 20
5.0341990763
 30
0.0
 10
7.4928337388
 20
5.0295807186
 30
0.0
 10
7.4933194937
 20
5.0251012865
 30
0.0
 10
7.4940567406
 20
5.0208195939
 30
0.0
 10
7.4950318107
 20
5.0167916301
 30
0.0
 10
7.4962293764
 20
5.0130700333
 30
0.0
 10
7.4976299399
 20
5.0097024756
 30
0.0
 10
7.4992130599
 20
5.006733053
 30
0.0
 10
7.5004313537
 20
5.0049615845
 30
0.0
 10
7.5010691766
 20
5.0041624906
 30
0.0
  0
SPLINE
  5
381
100
AcDbEntity
  8
ALL_ASSEMBLY_MEMBERS
100
AcDbSpline
 62
7
  6
CONTINUOUS
 70
0
 71
3
 72
24
 73
20
 74
0
 42
0.0000001
 43
0.0000001
 44
0.0000000001
 40
0.0
 40
0.0
 40
0.0
 40
0.0
 40
0.0842712507
 40
0.1677790148
 40
0.2497835843
 40
0.3296806467
 40
0.4069449815
 40
0.4810760129
 40
0.5516043607
 40
0.6181210624
 40
0.6803247974
 40
0.7380009429
 40
0.7910888858
 40
0.8396794333
 40
0.8841015741
 40
0.9249565001
 40
0.9631602306
 40
0.9816715104
 40
1.0
 40
1.0
 40
1.0
 40
1.0
 10
7.5012508944
 20
5.0401118794
 30
0.0
 10
7.5011806803
 20
5.0390506622
 30
0.0
 10
7.501092605
 20
5.036934066
 30
0.0
 10
7.5011142931
 20
5.033780574
 30
0.0
 10
7.5012892419
 20
5.0306870272
 30
0.0
 10
7.5016133465
 20
5.0276847392
 30
0.0
 10
7.5020813398
 20
5.0248020004
 30
0.0
 10
7.5026868184
 20
5.0220658126
 30
0.0
 10
7.503421402
 20
5.0195020025
 30
0.0
 10
7.5042771411
 20
5.0171352238
 30
0.0
 10
7.5052428005
 20
5.0149873562
 30
0.0
 10
7.5063087995
 20
5.0130788207
 30
0.0
 10
7.507462566
 20
5.0114267476
 30
0.0
 10
7.5086933511
 20
5.0100469569
 30
0.0
 10
7.5099895549
 20
5.0089529427
 30
0.0
 10
7.5113388411
 20
5.0081566217
 30
0.0
 10
7.5125111497
 20
5.007748362
 30
0.0
 10
7.5134462846
 20
5.007588477
 30
0.0
 10
7.5139116684
 20
5.0075618855
 30
0.0
 10
7.5141429814
 20
5.0075618799
 30
0.0
  0
SPLINE
  5
382
100
AcDbEntity
  8
ALL_ASSEMBLY_MEMBERS
100
AcDbSpline
 62
7
  6
CONTINUOUS
 70
0
 71
3
 72
14
 73
10
 74
0
 42
0.0000001
 43
0.0000001
 44
0.0000000001
 40
0.0
 40
0.0
 40
0.0
 40
0.0
 40
0.1112944397
 40
0.2277353475
 40
0.3487753581
 40
0.4738246371
 40
0.6022496363
 40
0.7333852087
 40
1.0
 40
1.0
 40
1.0
 40
1.0
 10
7.4918518668
 20
5.01598895
 30
0.0
 10
7.4916995343
 20
5.0168072565
 30
0.0
 10
7.491412283
 20
5.0184863055
 30
0.0
 10
7.4910299936
 20
5.0210667591
 30
0.0
 10
7.4906790954
 20
5.0237554063
 30
0.0
 10
7.4903532888
 20
5.0265374232
 30
0.0
 10
7.4900475249
 20
5.0293976353
 30
0.0
 10
7.4896571488
 20
5.0333134802
 30
0.0
 10
7.4893860123
 20
5.0362758996
 30
0.0
 10
7.489210565
 20
5.038262162
 30
0.0
  0
SPLINE
  5
383
100
AcDbEntity
  8
ALL_ASSEMBLY_MEMBERS
100
AcDbSpline
 62
7
  6
CONTINUOUS
 70
0
 71
3
 72
23
 73
19
 74
0
 42
0.0000001
 43
0.0000001
 44
0.0000000001
 40
0.0
 40
0.0
 40
0.0
 40
0.0
 40
0.0614186925
 40
0.1228824611
 40
0.1844257878
 40
0.2460805625
 40
0.3078897859
 40
0.3698861311
 40
0.4320794685
 40
0.4944740007
 40
0.5570824166
 40
0.619905783
 40
0.6829222206
 40
0.7461043053
 40
0.8094343986
 40
0.8728888477
 40
0.936425469
 40
1.0
 40
1.0
 40
1.0
 40
1.0
 10
5.9840511079
 20
3.1762125156
 30
0.0
 10
5.9840511079
 20
3.1661599874
 30
0.0
 10
5.9830149126
 20
3.1460328121
 30
0.0
 10
5.9784124497
 20
3.1161511715
 30
0.0
 10
5.9708212425
 20
3.0868427474
 30
0.0
 10
5.9602988021
 20
3.0583938732
 30
0.0
 10
5.9469063972
 20
3.0310955972
 30
0.0
 10
5.9308153486
 20
3.0051943164
 30
0.0
 10
5.9121924572
 20
2.9809288959
 30
0.0
 10
5.8912030663
 20
2.9585399241
 30
0.0
 10
5.8680195389
 20
2.9382753613
 30
0.0
 10
5.8428974859
 20
2.9202984608
 30
0.0
 10
5.8160857468
 20
2.904767868
 30
0.0
 10
5.7878322855
 20
2.891844152
 30
0.0
 10
5.7583935439
 20
2.8816919138
 30
0.0
 10
5.7280681106
 20
2.8743682654
 30
0.0
 10
5.6971510334
 20
2.8699283167
 30
0.0
 10
5.6763331739
 20
2.8689289917
 30
0.0
 10
5.665927795
 20
2.8689289917
 30
0.0
  0
SPLINE
  5
384
100
AcDbEntity
  8
ALL_ASSEMBLY_MEMBERS
100
AcDbSpline
 62
7
  6
CONTINUOUS
 70
0
 71
3
 72
23
 73
19
 74
0
 42
0.0000001
 43
0.0000001
 44
0.0000000001
 40
0.0
 40
0.0
 40
0.0
 40
0.0
 40
0.063574531
 40
0.1271111523
 40
0.1905656014
 40
0.2538956947
 40
0.3170777794
 40
0.380094217
 40
0.4429175834
 40
0.5055259993
 40
0.5679205315
 40
0.6301138689
 40
0.6921102141
 40
0.7539194375
 40
0.8155742122
 40
0.8771175389
 40
0.9385813075
 40
1.0
 40
1.0
 40
1.0
 40
1.0
 10
5.665927795
 20
2.8689289917
 30
0.0
 10
5.6555224162
 20
2.8689289917
 30
0.0
 10
5.6347045566
 20
2.8699283167
 30
0.0
 10
5.6037874795
 20
2.8743682654
 30
0.0
 10
5.5734620462
 20
2.8816919138
 30
0.0
 10
5.5440233045
 20
2.891844152
 30
0.0
 10
5.5157698433
 20
2.904767868
 30
0.0
 10
5.4889581042
 20
2.9202984608
 30
0.0
 10
5.4638360512
 20
2.9382753613
 30
0.0
 10
5.4406525237
 20
2.9585399241
 30
0.0
 10
5.4196631329
 20
2.9809288959
 30
0.0
 10
5.4010402414
 20
3.0051943164
 30
0.0
 10
5.3849491929
 20
3.0310955972
 30
0.0
 10
5.3715567879
 20
3.0583938732
 30
0.0
 10
5.3610343476
 20
3.0868427474
 30
0.0
 10
5.3534431404
 20
3.1161511715
 30
0.0
 10
5.3488406775
 20
3.1460328121
 30
0.0
 10
5.3478044822
 20
3.1661599874
 30
0.0
 10
5.3478044822
 20
3.1762125156
 30
0.0
  0
SPLINE
  5
385
100
AcDbEntity
  8
ALL_ASSEMBLY_MEMBERS
100
AcDbSpline
 62
7
  6
CONTINUOUS
 70
0
 71
3
 72
48
 73
44
 74
0
 42
0.0000001
 43
0.0000001
 44
0.0000000001
 40
0.0
 40
0.0
 40
0.0
 40
0.0
 40
0.0978793836
 40
0.1948613293
 40
0.2900348786
 40
0.3824941229
 40
0.4713437373
 40
0.5557140084
 40
0.595955579
 40
0.6347661455
 40
0.6720481465
 40
0.7077042042
 40
0.7737845671
 40
0.8040458387
 40
0.8323497564
 40
0.8586294645
 40
0.882820167
 40
0.9048588015
 40
0.9246956756
 40
0.9422872223
 40
0.9502273932
 40
0.957590333
 40
0.964372767
 40
0.9705718664
 40
0.9761848086
 40
0.9812087804
 40
0.9856409845
 40
0.9894786842
 40
0.9927203542
 40
0.9941176513
 40
0.9953659259
 40
0.9964651835
 40
0.997415434
 40
0.9982166949
 40
0.9988689999
 40
0.999372418
 40
0.999568344
 40
0.9997271301
 40
0.9998488589
 40
0.9999337226
 40
0.9999625054
 40
0.9999824452
 40
1.0
 40
1.0
 40
1.0
 40
1.0
 10
5.665927795
 20
5.7438511255
 30
0.0
 10
5.6473834024
 20
5.7438498854
 30
0.0
 10
5.6104646567
 20
5.7438955006
 30
0.0
 10
5.5555142453
 20
5.7439891114
 30
0.0
 10
5.5015906907
 20
5.7440501304
 30
0.0
 10
5.4492079373
 20
5.7441404003
 30
0.0
 10
5.3988721278
 20
5.7442863098
 30
0.0
 10
5.3584296052
 20
5.7444291256
 30
0.0
 10
5.3274673769
 20
5.7444914887
 30
0.0
 10
5.3054265294
 20
5.7445171154
 30
0.0
 10
5.2842544557
 20
5.7445361597
 30
0.0
 10
5.2579158124
 20
5.7445707171
 30
0.0
 10
5.2329073699
 20
5.7446280148
 30
0.0
 10
5.2092918188
 20
5.7446521386
 30
0.0
 10
5.193216958
 20
5.744641005
 30
0.0
 10
5.1782922711
 20
5.7446091509
 30
0.0
 10
5.1645546592
 20
5.7445634335
 30
0.0
 10
5.1520377495
 20
5.7445117145
 30
0.0
 10
5.1407711549
 20
5.744456591
 30
0.0
 10
5.1321756854
 20
5.7444072645
 30
0.0
 10
5.1259435387
 20
5.7443669128
 30
0.0
 10
5.1217592761
 20
5.7443376806
 30
0.0
 10
5.1179048929
 20
5.7443078428
 30
0.0
 10
5.1143820884
 20
5.7442767765
 30
0.0
 10
5.1111924769
 20
5.7442438829
 30
0.0
 10
5.1083376726
 20
5.7442085387
 30
0.0
 10
5.1058192788
 20
5.7441702417
 30
0.0
 10
5.1036386744
 20
5.7441282
 30
0.0
 10
5.1020331484
 20
5.7440885826
 30
0.0
 10
5.1009182359
 20
5.7440553092
 30
0.0
 10
5.1002091342
 20
5.7440314264
 30
0.0
 10
5.0995847831
 20
5.7440075985
 30
0.0
 10
5.0990451813
 20
5.7439840452
 30
0.0
 10
5.0985903287
 20
5.7439610494
 30
0.0
 10
5.0982202099
 20
5.7439387855
 30
0.0
 10
5.0979648154
 20
5.7439200535
 30
0.0
 10
5.0978028963
 20
5.7439049096
 30
0.0
 10
5.0977132345
 20
5.7438951221
 30
0.0
 10
5.0976444952
 20
5.7438852
 30
0.0
 10
5.0976009396
 20
5.7438779035
 30
0.0
 10
5.0975760626
 20
5.7438701225
 30
0.0
 10
5.0975651692
 20
5.7438671639
 30
0.0
 10
5.0975576222
 20
5.7438594142
 30
0.0
 10
5.0975594759
 20
5.7438566527
 30
0.0
  0
SPLINE
  5
386
100
AcDbEntity
  8
ALL_ASSEMBLY_MEMBERS
100
AcDbSpline
 62
7
  6
CONTINUOUS
 70
0
 71
3
 72
46
 73
42
 74
0
 42
0.0000001
 43
0.0000001
 44
0.0000000001
 40
0.0
 40
0.0
 40
0.0
 40
0.0
 40
0.0979170972
 40
0.1949044762
 40
0.2900279361
 40
0.3823717546
 40
0.427222592
 40
0.4710476993
 40
0.555203757
 40
0.5953298204
 40
0.6340242254
 40
0.7067468062
 40
0.7405959918
 40
0.7726629882
 40
0.8028695808
 40
0.8311410073
 40
0.8574123017
 40
0.8816202375
 40
0.9037033338
 40
0.923611035
 40
0.9412971431
 40
0.9492926871
 40
0.9567160638
 40
0.963563464
 40
0.9698313144
 40
0.9755160352
 40
0.9806140399
 40
0.985121736
 40
0.989035605
 40
0.9923534817
 40
0.9937886124
 40
0.9950743901
 40
0.9962107188
 40
0.9971975224
 40
0.9980347594
 40
0.9987224522
 40
0.9992607599
 40
0.9996501876
 40
0.999892437
 40
0.9999607488
 40
1.0
 40
1.0
 40
1.0
 40
1.0
 10
5.665927795
 20
5.8009293511
 30
0.0
 10
5.6467916987
 20
5.8009319477
 30
0.0
 10
5.6087011945
 20
5.8009315343
 30
0.0
 10
5.5520206116
 20
5.8008230324
 30
0.0
 10
5.4964296843
 20
5.8005789244
 30
0.0
 10
5.4510279822
 20
5.8003458521
 30
0.0
 10
5.415651414
 20
5.8001738826
 30
0.0
 10
5.3818749097
 20
5.8000237798
 30
0.0
 10
5.349021712
 20
5.7998900332
 30
0.0
 10
5.3171713453
 20
5.7997297913
 30
0.0
 10
5.2875554737
 20
5.7995712912
 30
0.0
 10
5.2591661112
 20
5.7994435101
 30
0.0
 10
5.2320717252
 20
5.7994045422
 30
0.0
 10
5.2132862931
 20
5.7994028396
 30
0.0
 10
5.1955909392
 20
5.7994174061
 30
0.0
 10
5.1790282555
 20
5.7994377121
 30
0.0
 10
5.1636379199
 20
5.7994709259
 30
0.0
 10
5.1494570336
 20
5.7995228142
 30
0.0
 10
5.1365199254
 20
5.7996003658
 30
0.0
 10
5.1248576081
 20
5.7997031948
 30
0.0
 10
5.1159486418
 20
5.7998115486
 30
0.0
 10
5.1094796374
 20
5.7999113694
 30
0.0
 10
5.1051287819
 20
5.7999889711
 30
0.0
 10
5.1011157055
 20
5.8000703355
 30
0.0
 10
5.0974425463
 20
5.8001540415
 30
0.0
 10
5.0941113951
 20
5.8002386525
 30
0.0
 10
5.0911243416
 20
5.8003227006
 30
0.0
 10
5.0884834625
 20
5.8004048216
 30
0.0
 10
5.0861905441
 20
5.8004833162
 30
0.0
 10
5.084497997
 20
5.8005482178
 30
0.0
 10
5.0833189463
 20
5.800599681
 30
0.0
 10
5.0825659881
 20
5.8006358641
 30
0.0
 10
5.0819007291
 20
5.8006716328
 30
0.0
 10
5.0813232783
 20
5.8007070814
 30
0.0
 10
5.0808336021
 20
5.8007422954
 30
0.0
 10
5.0804320344
 20
5.8007772596
 30
0.0
 10
5.0801177934
 20
5.800811997
 30
0.0
 10
5.079892517
 20
5.8008458798
 30
0.0
 10
5.0797573063
 20
5.800876817
 30
0.0
 10
5.0796955024
 20
5.8009033665
 30
0.0
 10
5.0796788701
 20
5.8009201278
 30
0.0
 10
5.07967791
 20
5.8009277384
 30
0.0
  0
SPLINE
  5
387
100
AcDbEntity
  8
ALL_ASSEMBLY_MEMBERS
100
AcDbSpline
 62
7
  6
CONTINUOUS
 70
0
 71
3
 72
33
 73
29
 74
0
 42
0.0000001
 43
0.0000001
 44
0.0000000001
 40
0.0
 40
0.0
 40
0.0
 40
0.0
 40
0.0049016729
 40
0.0103967564
 40
0.0164775904
 40
0.0231348459
 40
0.038135854
 40
0.055309327
 40
0.0745578908
 40
0.0957807912
 40
0.118875322
 40
0.143737609
 40
0.1702630721
 40
0.1983467164
 40
0.2587676002
 40
0.3241581362
 40
0.3936777608
 40
0.4664895781
 40
0.5417622159
 40
0.6186742304
 40
0.6964111365
 40
0.7741741475
 40
0.8128314383
 40
0.851208607
 40
0.8891948655
 40
0.9266932474
 40
0.9637248983
 40
1.0
 40
1.0
 40
1.0
 40
1.0
 10
5.3478044822
 20
3.1762125156
 30
0.0
 10
5.3478044822
 20
3.1776638954
 30
0.0
 10
5.3478752147
 20
3.1807424608
 30
0.0
 10
5.3481470467
 20
3.185614454
 30
0.0
 10
5.3485858231
 20
3.1909959131
 30
0.0
 10
5.3494210036
 20
3.1991672926
 30
0.0
 10
5.3508802682
 20
3.2105740347
 30
0.0
 10
5.3531416461
 20
3.2256321587
 30
0.0
 10
5.3559375616
 20
3.242470738
 30
0.0
 10
5.3592243678
 20
3.2610036017
 30
0.0
 10
5.362958665
 20
3.2811445237
 30
0.0
 10
5.3670963174
 20
3.3028070943
 30
0.0
 10
5.3715928985
 20
3.325904895
 30
0.0
 10
5.3781701882
 20
3.3593240591
 30
0.0
 10
5.387021445
 20
3.4040243008
 30
0.0
 10
5.3981144151
 20
3.4607879884
 30
0.0
 10
5.4095699713
 20
3.5212185293
 30
0.0
 10
5.4210314859
 20
3.5846243028
 30
0.0
 10
5.432142615
 20
3.6503141905
 30
0.0
 10
5.4425463771
 20
3.7175969313
 30
0.0
 10
5.4518862074
 20
3.7857810142
 30
0.0
 10
5.4585003112
 20
3.8428947306
 30
0.0
 10
5.4629127185
 20
3.8885184035
 30
0.0
 10
5.465722914
 20
3.9224609865
 30
0.0
 10
5.4679958216
 20
3.9561000418
 30
0.0
 10
5.4696851941
 20
3.9893748828
 30
0.0
 10
5.4707515286
 20
4.022168594
 30
0.0
 10
5.4710222058
 20
4.0438750943
 30
0.0
 10
5.4710229299
 20
4.0546161107
 30
0.0
  0
SPLINE
  5
388
100
AcDbEntity
  8
ALL_ASSEMBLY_MEMBERS
100
AcDbSpline
 62
7
  6
CONTINUOUS
 70
0
 71
3
 72
50
 73
46
 74
0
 42
0.0000001
 43
0.0000001
 44
0.0000000001
 40
0.0
 40
0.0
 40
0.0
 40
0.0
 40
0.0000175437
 40
0.0000375387
 40
0.0000663807
 40
0.0001513553
 40
0.0002731745
 40
0.0004320265
 40
0.0006279923
 40
0.0011314096
 40
0.0017836042
 40
0.0025846446
 40
0.0035345644
 40
0.0046333817
 40
0.0058811068
 40
0.0072777459
 40
0.0105177768
 40
0.0143534101
 40
0.0187831276
 40
0.023804217
 40
0.0294139068
 40
0.0356094097
 40
0.0423879292
 40
0.0497466628
 40
0.0576823515
 40
0.0752642226
 40
0.0950907376
 40
0.1171186433
 40
0.1412984281
 40
0.1675671839
 40
0.1958603071
 40
0.2261110537
 40
0.2921713141
 40
0.327817929
 40
0.3650912737
 40
0.4038949901
 40
0.4441325593
 40
0.5285054719
 40
0.5724310047
 40
0.617374272
 40
0.7098656411
 40
0.8050770652
 40
0.8534203854
 40
0.902104276
 40
1.0
 40
1.0
 40
1.0
 40
1.0
 10
6.2342960794
 20
5.7438566224
 30
0.0
 10
6.2342979166
 20
5.7438593924
 30
0.0
 10
6.2342902207
 20
5.7438670481
 30
0.0
 10
6.2342793494
 20
5.7438699895
 30
0.0
 10
6.2342543833
 20
5.743877714
 30
0.0
 10
6.234210796
 20
5.743884977
 30
0.0
 10
6.2341419871
 20
5.7438948508
 30
0.0
 10
6.234052289
 20
5.743904604
 30
0.0
 10
6.2338903435
 20
5.7439197019
 30
0.0
 10
6.2336349622
 20
5.7439384034
 30
0.0
 10
6.2332649052
 20
5.7439606574
 30
0.0
 10
6.2328101793
 20
5.7439836702
 30
0.0
 10
6.2322707674
 20
5.7440072657
 30
0.0
 10
6.2316466693
 20
5.7440311609
 30
0.0
 10
6.2309378831
 20
5.7440551353
 30
0.0
 10
6.2298235151
 20
5.74408857
 30
0.0
 10
6.2282188228
 20
5.7441284494
 30
0.0
 10
6.2260393994
 20
5.7441708748
 30
0.0
 10
6.2235224219
 20
5.744209647
 30
0.0
 10
6.2206692585
 20
5.7442455513
 30
0.0
 10
6.2174814977
 20
5.7442790866
 30
0.0
 10
6.2139607392
 20
5.744310872
 30
0.0
 10
6.2101085826
 20
5.7443415017
 30
0.0
 10
6.2059267142
 20
5.7443715956
 30
0.0
 10
6.1996980557
 20
5.7444132212
 30
0.0
 10
6.1911072422
 20
5.7444642929
 30
0.0
 10
6.1798464885
 20
5.7445217271
 30
0.0
 10
6.1673356549
 20
5.7445760978
 30
0.0
 10
6.1536042303
 20
5.7446247278
 30
0.0
 10
6.1386857393
 20
5.744659405
 30
0.0
 10
6.1226169954
 20
5.7446729543
 30
0.0
 10
6.0990092912
 20
5.744651274
 30
0.0
 10
6.0740084379
 20
5.7445958746
 30
0.0
 10
6.0476770311
 20
5.7445638625
 30
0.0
 10
6.0265096847
 20
5.7445462165
 30
0.0
 10
6.0044725337
 20
5.7445212435
 30
0.0
 10
5.9735118657
 20
5.7444576324
 30
0.0
 10
5.9415809469
 20
5.7443436943
 30
0.0
 10
5.9087584489
 20
5.7442392813
 30
0.0
 10
5.8743977524
 20
5.7441537205
 30
0.0
 10
5.8303203065
 20
5.7440764217
 30
0.0
 10
5.7855986683
 20
5.7440087686
 30
0.0
 10
5.7491768583
 20
5.7439525519
 30
0.0
 10
5.7122464902
 20
5.7438900708
 30
0.0
 10
5.6844752822
 20
5.7438511407
 30
0.0
 10
5.665927795
 20
5.7438509421
 30
0.0
  0
SPLINE
  5
389
100
AcDbEntity
  8
ALL_ASSEMBLY_MEMBERS
100
AcDbSpline
 62
7
  6
CONTINUOUS
 70
0
 71
3
 72
31
 73
27
 74
0
 42
0.0000001
 43
0.0000001
 44
0.0000000001
 40
0.0
 40
0.0
 40
0.0
 40
0.0
 40
0.0109274894
 40
0.0237377098
 40
0.0384942352
 40
0.0552519051
 40
0.074060271
 40
0.0949556356
 40
0.1178740024
 40
0.1426932555
 40
0.1692890719
 40
0.1975362407
 40
0.2584677462
 40
0.3243287485
 40
0.3938849321
 40
0.5400312342
 40
0.615342228
 40
0.6915126568
 40
0.7682422238
 40
0.8453300185
 40
0.8839600717
 40
0.9226249918
 40
0.9419667915
 40
0.9613121911
 40
0.9806576091
 40
1.0
 40
1.0
 40
1.0
 40
1.0
 10
5.9840511079
 20
3.1762125156
 30
0.0
 10
5.9840511079
 20
3.1794255541
 30
0.0
 10
5.9837937624
 20
3.1864053198
 30
0.0
 10
5.9828349527
 20
3.1976857247
 30
0.0
 10
5.9812714859
 20
3.2106266533
 30
0.0
 10
5.9791037475
 20
3.2252647561
 30
0.0
 10
5.9763333494
 20
3.2416344173
 30
0.0
 10
5.9729653508
 20
3.2597373049
 30
0.0
 10
5.9690442075
 20
3.2795333288
 30
0.0
 10
5.9646302807
 20
3.3009395899
 30
0.0
 10
5.9597851294
 20
3.3238563498
 30
0.0
 10
5.9526505949
 20
3.3571418133
 30
0.0
 10
5.9430365953
 20
3.4017031848
 30
0.0
 10
5.9310929247
 20
3.4581877617
 30
0.0
 10
5.9146842627
 20
3.5393347305
 30
0.0
 10
5.8994211776
 20
3.6235481226
 30
0.0
 10
5.8862263257
 20
3.7100653528
 30
0.0
 10
5.8775417492
 20
3.7766085143
 30
0.0
 10
5.8704034337
 20
3.8438615702
 30
0.0
 10
5.8659300201
 20
3.9002784963
 30
0.0
 10
5.8633331119
 20
3.9455991372
 30
0.0
 10
5.8621414717
 20
3.9739898019
 30
0.0
 10
5.8614557519
 20
3.9967237015
 30
0.0
 10
5.8610787618
 20
4.013783224
 30
0.0
 10
5.8608483801
 20
4.0308455503
 30
0.0
 10
5.860801582
 20
4.0422211189
 30
0.0
 10
5.8608025254
 20
4.047908413
 30
0.0
  0
SPLINE
  5
38A
100
AcDbEntity
  8
ALL_ASSEMBLY_MEMBERS
100
AcDbSpline
 62
7
  6
CONTINUOUS
 70
0
 71
3
 72
47
 73
43
 74
0
 42
0.0000001
 43
0.0000001
 44
0.0000000001
 40
0.0
 40
0.0
 40
0.0
 40
0.0
 40
0.0000390349
 40
0.0001072032
 40
0.0003492388
 40
0.0007384677
 40
0.0012765656
 40
0.0019640276
 40
0.0028010084
 40
0.0037875277
 40
0.0049235424
 40
0.0062089752
 40
0.0076437294
 40
0.0109607557
 40
0.0148736404
 40
0.0193802104
 40
0.0244769481
 40
0.030160264
 40
0.0364265746
 40
0.0432723031
 40
0.0506938797
 40
0.0586874922
 40
0.0763693305
 40
0.0962722527
 40
0.1183501027
 40
0.1425523165
 40
0.1688174497
 40
0.1970823471
 40
0.2272820448
 40
0.2593416612
 40
0.2931829123
 40
0.3658880613
 40
0.4045743497
 40
0.4446940896
 40
0.5288454162
 40
0.5726732445
 40
0.6175312483
 40
0.7098963732
 40
0.8050479981
 40
0.8533839497
 40
0.9020728241
 40
1.0
 40
1.0
 40
1.0
 40
1.0
 10
6.2521776818
 20
5.8009277374
 30
0.0
 10
6.2521767289
 20
5.8009201685
 30
0.0
 10
6.2521600681
 20
5.8009035157
 30
0.0
 10
6.2520983397
 20
5.8008771682
 30
0.0
 10
6.2519631835
 20
5.8008463847
 30
0.0
 10
6.2517380232
 20
5.80081265
 30
0.0
 10
6.2514238926
 20
5.8007780001
 30
0.0
 10
6.2510224604
 20
5.800743078
 30
0.0
 10
6.2505329352
 20
5.800707852
 30
0.0
 10
6.2499556556
 20
5.8006723394
 30
0.0
 10
6.2492905871
 20
5.8006364533
 30
0.0
 10
6.2485378392
 20
5.8006000994
 30
0.0
 10
6.2473591091
 20
5.8005483212
 30
0.0
 10
6.2456670141
 20
5.8004828822
 30
0.0
 10
6.2433747018
 20
5.8004035566
 30
0.0
 10
6.2407345135
 20
5.8003204035
 30
0.0
 10
6.2377482352
 20
5.8002351287
 30
0.0
 10
6.2344179413
 20
5.8001491034
 30
0.0
 10
6.2307457188
 20
5.8000638028
 30
0.0
 10
6.2267336554
 20
5.7999806702
 30
0.0
 10
6.222383888
 20
5.7999011355
 30
0.0
 10
6.2159164882
 20
5.7997984209
 30
0.0
 10
6.2070097105
 20
5.799686113
 30
0.0
 10
6.1953502226
 20
5.7995783976
 30
0.0
 10
6.1824162128
 20
5.7994959447
 30
0.0
 10
6.168238682
 20
5.7994392976
 30
0.0
 10
6.1528519449
 20
5.7994013228
 30
0.0
 10
6.1362930838
 20
5.7993761592
 30
0.0
 10
6.1186017881
 20
5.7993565794
 30
0.0
 10
6.0998206831
 20
5.7993536906
 30
0.0
 10
6.0727326697
 20
5.799387636
 30
0.0
 10
6.044349818
 20
5.7995132522
 30
0.0
 10
6.014740147
 20
5.799670262
 30
0.0
 10
5.982893497
 20
5.7998289684
 30
0.0
 10
5.9500419078
 20
5.7999632214
 30
0.0
 10
5.916264385
 20
5.8001163903
 30
0.0
 10
5.8808817413
 20
5.8002974696
 30
0.0
 10
5.8354689981
 20
5.8005426448
 30
0.0
 10
5.7893763042
 20
5.800742381
 30
0.0
 10
5.7518190777
 20
5.8008525315
 30
0.0
 10
5.7137193144
 20
5.8009185592
 30
0.0
 10
5.6850658743
 20
5.8009257895
 30
0.0
 10
5.665927795
 20
5.8009293511
 30
0.0
  0
ENDSEC
  0
SECTION
  2
OBJECTS
  0
DICTIONARY
  5
C
100
AcDbDictionary
280
0
281
1
  3
ACAD_GROUP
350
D
  3
ACAD_MLINESTYLE
350
17
  3
ACAD_LAYOUT
350
1A
  3
ACAD_PLOTSETTINGS
350
19
  3
ACAD_PLOTSTYLENAME
350
E
  0
DICTIONARY
  5
D
102
{ACAD_REACTORS
330
C
102
}
100
AcDbDictionary
280
0
281
1
  0
ACDBDICTIONARYWDFLT
  5
E
102
{ACAD_REACTORS
330
C
102
}
100
AcDbDictionary
281
1
  3
Normal
350
F
100
AcDbDictionaryWithDefault
340
F
  0
DICTIONARY
  5
17
102
{ACAD_REACTORS
330
C
102
}
100
AcDbDictionary
280
0
281
1
  3
Standard
350
18
  0
DICTIONARY
  5
19
102
{ACAD_REACTORS
330
C
102
}
100
AcDbDictionary
281
1
  0
DICTIONARY
  5
1A
102
{ACAD_REACTORS
330
C
102
}
100
AcDbDictionary
281
1
  3
Model
350
38B
  3
Layout1
350
38C
  0
ACDBPLACEHOLDER
  5
F
102
{ACAD_REACTORS
330
E
102
}
  0
MLINESTYLE
  5
18
102
{ACAD_REACTORS
330
17
102
}
100
AcDbMlineStyle
  2
STANDARD
 70
0
  3

 62
256
 51
90.0
 52
90.0
 71
2
 49
0.5
 62
256
  6
BYLAYER
 49
-0.5
 62
256
  6
BYLAYER
  0
LAYOUT
  5
38B
102
{ACAD_REACTORS
330
1A
102
}
100
AcDbPlotSettings
  1

  2
none_device
  4
ANSI_A_(11.00_x_8.50_Inches)
  6

 40
0.0
 41
0.0
 42
0.0
 43
0.0
 44
279.4
 45
215.9
 46
0.0
 47
0.0
 48
0.0
 49
0.0
140
0.0
141
0.0
142
1.0
143
1.0
 70
1024
 72
0
 73
0
 74
0
  7

 75
0
147
1.0
148
0.0
149
0.0
100
AcDbLayout
  1
Model
 70
0
 71
0
 10
0.0
 20
0.0
 11
11.0
 21
8.5
 12
0.0
 22
0.0
 32
0.0
 14
0.0
 24
0.0
 34
0.0
 15
0.0
 25
0.0
 35
0.0
146
0.0
 13
0.0
 23
0.0
 33
0.0
 16
1.0
 26
0.0
 36
0.0
 17
0.0
 27
1.0
 37
0.0
 76
0
330
222
345
0
346
0
  0
LAYOUT
  5
38C
102
{ACAD_REACTORS
330
1A
102
}
100
AcDbPlotSettings
  1

  2
none_device
  4
ANSI_A_(11.00_x_8.50_Inches)
  6

 40
0.0
 41
0.0
 42
0.0
 43
0.0
 44
279.4
 45
215.9
 46
0.0
 47
0.0
 48
0.0
 49
0.0
140
0.0
141
0.0
142
1.0
143
1.0
 70
0
 72
0
 73
0
 74
0
  7

 75
0
147
1.0
148
0.0
149
0.0
100
AcDbLayout
  1
Layout1
 70
0
 71
1
 10
0.0
 20
0.0
 11
11.0
 21
8.5
 12
0.0
 22
0.0
 32
0.0
 14
0.0
 24
0.0
 34
0.0
 15
0.0
 25
0.0
 35
0.0
146
0.0
 13
0.0
 23
0.0
 33
0.0
 16
1.0
 26
0.0
 36
0.0
 17
0.0
 27
1.0
 37
0.0
 76
0
330
223
345
0
346
0
  0
ENDSEC
  0
EOF
