999
DXF file: E:\BT Custom\CADOUTPUT\_TOP.dxf
999
Pro/ENGINEER 2018400 by Parametric Technology Corporation
  0
SECTION
  2
HEADER
  9
$ACADVER
  1
AC1018
  9
$DWGCODEPAGE
  3
ANSI_1252
  9
$EXTMAX
 10
22.0
 20
17.0
 30
0.0
  9
$EXTMIN
 10
0.0
 20
0.0
 30
0.0
  9
$LIMMIN
 10
0.0
 20
0.0
  9
$LIMMAX
 10
22.0
 20
17.0
  9
$VIEWCTR
 10
11.0
 20
8.5
  9
$VIEWSIZE
 40
17.0
  9
$CLAYER
  8
0
  9
$LTSCALE
 40
1.21
  9
$CELTYPE
  6
BYLAYER
  9
$DIMSCALE
 40
1.0
  9
$DIMASZ
 40
0.1
  9
$DIMEXO
 40
0.0625
  9
$DIMDLI
 40
0.836
  9
$DIMEXE
 40
0.125
  9
$DIMCEN
 40
0.198
  9
$DIMLFAC
 40
1.0
  9
$DIMBLK
  1
_FILLED
  9
$DIMALT
 70
1
  9
$DIMALTD
 70
2
  9
$DIMALTTD
 70
2
  9
$DIMALTF
 40
25.4
  9
$DIMTXT
 40
0.08
  9
$DIMTOL
 70
1
  9
$DIMLIM
 70
0
  9
$DIMTFAC
 40
1.0
  9
$DIMTP
 40
0.001
  9
$DIMTM
 40
0.001
  9
$DIMGAP
 40
0.09
  9
$DIMDSEP
 70
46
  9
$AUNITS
 70
0
  9
$PDMODE
 70
3
  9
$PDSIZE
 40
0.06
  9
$HANDSEED
  5
27E
  9
$TILEMODE
 70
1
  9
$MEASUREMENT
 70
0
  9
$INSUNITS
 70
1
  0
ENDSEC
  0
SECTION
  2
CLASSES
  0
CLASS
  1
ACDBDICTIONARYWDFLT
  2
AcDbDictionaryWithDefault
  3
AutoCAD 2000
 90
0
 91
1
280
0
281
0
  0
CLASS
  1
ACDBPLACEHOLDER
  2
AcDbPlaceHolder
  3
AutoCAD 2000
 90
0
 91
1
280
0
281
0
  0
CLASS
  1
LAYOUT
  2
AcDbLayout
  3
AutoCAD 2000
 90
0
 91
0
280
0
281
0
  0
ENDSEC
  0
SECTION
  2
TABLES
  0
TABLE
  2
VPORT
  5
8
100
AcDbSymbolTable
 70
2
  0
VPORT
  5
1F4
100
AcDbSymbolTableRecord
100
AcDbViewportTableRecord
  2
*ACTIVE
 70
0
 10
0.0
 20
0.0
 11
1.0
 21
1.0
 12
11.0
 22
8.5
 13
0.0
 23
0.0
 14
1.0
 24
1.0
 15
0.0
 25
0.0
 16
0.0
 26
0.0
 36
1.0
 17
0.0
 27
0.0
 37
0.0
 40
17.0
 41
1.2941176471
 42
50.0
 43
0.0
 44
0.0
 50
0.0
 51
0.0
 71
0
 72
100
 73
1
 74
1
 75
0
 76
0
 77
0
 78
0
  0
ENDTAB
  0
TABLE
  2
LTYPE
  5
5
100
AcDbSymbolTable
 70
6
  0
LTYPE
  5
14
100
AcDbSymbolTableRecord
100
AcDbLinetypeTableRecord
  2
BYBLOCK
 70
0
  3

 72
65
 73
0
 40
0.0
  0
LTYPE
  5
15
100
AcDbSymbolTableRecord
100
AcDbLinetypeTableRecord
  2
BYLAYER
 70
0
  3

 72
65
 73
0
 40
0.0
  0
LTYPE
  5
16
100
AcDbSymbolTableRecord
100
AcDbLinetypeTableRecord
  2
CONTINUOUS
 70
64
  3
Solid line
 72
65
 73
0
 40
0.0
  0
LTYPE
  5
1F5
100
AcDbSymbolTableRecord
100
AcDbLinetypeTableRecord
  2
CENTER
 70
64
  3
____ _ ____ _ ____ _ ____ _ ____ _ ____ _ ____
 72
65
 73
4
 40
0.6
 49
0.375
 74
0
 49
-0.075
 74
0
 49
0.075
 74
0
 49
-0.075
 74
0
  0
LTYPE
  5
1F6
100
AcDbSymbolTableRecord
100
AcDbLinetypeTableRecord
  2
HIDDEN
 70
64
  3
- - - - - - - - - - - - - - - - - - - -
 72
65
 73
2
 40
0.2
 49
0.1
 74
0
 49
-0.1
 74
0
  0
LTYPE
  5
1F7
100
AcDbSymbolTableRecord
100
AcDbLinetypeTableRecord
  2
PHANTOM
 70
64
  3
_____ _ _ _____ _ _ _____ _ _ _____
 72
65
 73
6
 40
0.8
 49
0.45
 74
0
 49
-0.05
 74
0
 49
0.1
 74
0
 49
-0.05
 74
0
 49
0.1
 74
0
 49
-0.05
 74
0
  0
LTYPE
  5
1F8
100
AcDbSymbolTableRecord
100
AcDbLinetypeTableRecord
  2
DOT
 70
64
  3
. . . . . . . . . . . . . . . . . . . .
 72
65
 73
2
 40
0.2
 49
0.1
 74
0
 49
-0.1
 74
0
  0
LTYPE
  5
1F9
100
AcDbSymbolTableRecord
100
AcDbLinetypeTableRecord
  2
DASHED
 70
64
  3
- - - - - - - - - - - - - - - - - - - -
 72
65
 73
2
 40
0.2
 49
0.1
 74
0
 49
-0.1
 74
0
  0
ENDTAB
  0
TABLE
  2
LAYER
  5
2
100
AcDbSymbolTable
 70
36
  0
LAYER
  5
10
100
AcDbSymbolTableRecord
100
AcDbLayerTableRecord
  2
0
 70
0
 62
7
  6
CONTINUOUS
370
-3
390
F
  0
LAYER
  5
1FA
100
AcDbSymbolTableRecord
100
AcDbLayerTableRecord
  2
DEFAULT_1
 70
0
 62
7
  6
CENTER
370
-3
390
F
  0
LAYER
  5
1FB
100
AcDbSymbolTableRecord
100
AcDbLayerTableRecord
  2
DEFAULT_2
 70
0
 62
8
  6
HIDDEN
370
-3
390
F
  0
LAYER
  5
1FC
100
AcDbSymbolTableRecord
100
AcDbLayerTableRecord
  2
DEFAULT_3
 70
0
 62
7
  6
PHANTOM
370
-3
390
F
  0
LAYER
  5
1FD
100
AcDbSymbolTableRecord
100
AcDbLayerTableRecord
  2
ALL_FEATURES
 70
0
 62
7
  6
CONTINUOUS
370
-3
390
F
  0
LAYER
  5
1FE
100
AcDbSymbolTableRecord
100
AcDbLayerTableRecord
  2
AXES_FEATURES
 70
0
 62
7
  6
CONTINUOUS
370
-3
390
F
  0
LAYER
  5
1FF
100
AcDbSymbolTableRecord
100
AcDbLayerTableRecord
  2
DIMENSIONS
 70
0
 62
7
  6
CONTINUOUS
370
-3
390
F
  0
ENDTAB
  0
TABLE
  2
STYLE
  5
3
100
AcDbSymbolTable
 70
1
  0
STYLE
  5
11
100
AcDbSymbolTableRecord
100
AcDbTextStyleTableRecord
  2
STANDARD
 70
0
 40
0.0
 41
0.8
 50
0.0
 71
0
 42
0.2
  3
txt
  4

  0
STYLE
  5
200
100
AcDbSymbolTableRecord
100
AcDbTextStyleTableRecord
  2
TEXTSTYLE_1
 70
0
 40
0.0
 41
0.8
 50
0.0
 71
0
 42
0.2
  3
gdt
  4

  0
ENDTAB
  0
TABLE
  2
VIEW
  5
6
100
AcDbSymbolTable
 70
0
  0
ENDTAB
  0
TABLE
  2
UCS
  5
7
100
AcDbSymbolTable
 70
0
  0
ENDTAB
  0
TABLE
  2
APPID
  5
9
100
AcDbSymbolTable
 70
1
  0
APPID
  5
201
100
AcDbSymbolTableRecord
100
AcDbRegAppTableRecord
  2
ACAD
 70
0
  0
ENDTAB
  0
TABLE
  2
BLOCK_RECORD
  5
1
100
AcDbSymbolTable
 70
0
  0
BLOCK_RECORD
  5
202
100
AcDbSymbolTableRecord
100
AcDbBlockTableRecord
  2
*Model_Space
  0
BLOCK_RECORD
  5
203
100
AcDbSymbolTableRecord
100
AcDbBlockTableRecord
  2
*Paper_Space
  0
BLOCK_RECORD
  5
204
100
AcDbSymbolTableRecord
100
AcDbBlockTableRecord
  2
_FILLED
  0
ENDTAB
  0
TABLE
  2
DIMSTYLE
  5
A
100
AcDbSymbolTable
 70
1
100
AcDbDimStyleTable
 71
0
  0
DIMSTYLE
105
205
100
AcDbSymbolTableRecord
100
AcDbDimStyleTableRecord
  2
STANDARD
 70
0
  3

  4

 40
1.0
 41
0.1
 42
0.0625
 43
0.38
 44
0.125
 45
0.0
 46
0.0
 47
0.001
 48
0.001
140
0.08
141
0.09
142
0.0
143
25.4
144
1.0
145
0.0
146
1.0
147
0.09
 71
1.0
 72
0.0
 73
1
 74
1
 75
0
 76
0
 77
0
 78
4
 79
1
170
1
171
2
172
0
173
0
174
0
175
0
176
0
177
0
178
0
270
2
179
3
271
3
272
3
273
2
274
2
275
0
280
0
281
0
282
0
283
1
284
4
285
0
286
0
287
3
288
0
340
11
278
46
341
204
342
204
343
204
344
204
  0
ENDTAB
  0
ENDSEC
  0
SECTION
  2
BLOCKS
  0
BLOCK
  5
20
100
AcDbEntity
  8
0
100
AcDbBlockBegin
  2
*Model_Space
 70
0
 10
0.0
 20
0.0
 30
0.0
  3
*Model_Space
  1

  0
ENDBLK
  5
21
100
AcDbEntity
  8
0
100
AcDbBlockEnd
  0
BLOCK
  5
1C
100
AcDbEntity
  8
0
100
AcDbBlockBegin
  2
*Paper_Space
 70
0
 10
0.0
 20
0.0
 30
0.0
  3
*Paper_Space
  1

  0
ENDBLK
  5
1D
100
AcDbEntity
  8
0
100
AcDbBlockEnd
  0
BLOCK
  5
206
100
AcDbEntity
  8
0
100
AcDbBlockBegin
  2
_FILLED
 70
64
 10
0.0
 20
0.0
  3
_FILLED
  1

  0
SOLID
  5
207
100
AcDbEntity
  8
0
  6
BYBLOCK
 62
0
100
AcDbTrace
 10
0.0
 20
0.0
 11
-1.0
 21
0.2
 12
-1.0
 22
-0.2
 13
-1.0
 23
-0.2
  0
ENDBLK
  5
208
100
AcDbEntity
  8
0
  6
BYBLOCK
 62
0
100
AcDbBlockEnd
  0
ENDSEC
  0
SECTION
  2
ENTITIES
  0
LINE
  5
209
100
AcDbEntity
  8
0
100
AcDbLine
 62
7
  6
CONTINUOUS
 10
4.0823183383
 20
11.6629338168
 11
4.0823183383
 21
12.1379338168
  0
LINE
  5
20A
100
AcDbEntity
  8
0
100
AcDbLine
 62
9
  6
CONTINUOUS
 10
4.2123761738
 20
11.6842372884
 11
4.2123761738
 21
12.1166303451
  0
LINE
  5
20B
100
AcDbEntity
  8
0
100
AcDbLine
 62
7
  6
CONTINUOUS
 10
4.4053183383
 20
11.6819338168
 11
4.4053183383
 21
12.1189338168
  0
LINE
  5
20C
100
AcDbEntity
  8
0
100
AcDbLine
 62
9
  6
CONTINUOUS
 10
4.7490780832
 20
12.2946831252
 11
4.7490780832
 21
11.5061845083
  0
LINE
  5
20D
100
AcDbEntity
  8
0
100
AcDbLine
 62
7
  6
CONTINUOUS
 10
6.6673183383
 20
11.6754338168
 11
6.6423183383
 21
11.6504338168
  0
LINE
  5
20E
100
AcDbEntity
  8
0
100
AcDbLine
 62
9
  6
CONTINUOUS
 10
5.8039142553
 20
11.7112238896
 11
5.8039142553
 21
12.0896437439
  0
LINE
  5
20F
100
AcDbEntity
  8
0
100
AcDbLine
 62
7
  6
CONTINUOUS
 10
6.5973183383
 20
12.1504338168
 11
6.5973183383
 21
11.6504338168
  0
LINE
  5
210
100
AcDbEntity
  8
0
100
AcDbLine
 62
7
  6
CONTINUOUS
 10
6.6423183383
 20
11.6504338168
 11
6.6423183383
 21
12.1504338168
  0
LINE
  5
211
100
AcDbEntity
  8
0
100
AcDbLine
 62
7
  6
CONTINUOUS
 10
6.6673183383
 20
11.8890693324
 11
6.6673183383
 21
11.6501943786
  0
LINE
  5
212
100
AcDbEntity
  8
0
100
AcDbLine
 62
7
  6
CONTINUOUS
 10
6.6673183383
 20
11.9117983011
 11
6.6673183383
 21
12.1506775371
  0
LWPOLYLINE
  5
213
100
AcDbEntity
  8
0
100
AcDbPolyline
 62
7
  6
CONTINUOUS
 90
11
 70
0
 10
10.3461567464
 20
8.0705208494
 10
10.3805129337
 20
7.4669245163
 10
10.4091493357
 20
6.8197477852
 10
10.4291261294
 20
6.1654593747
 10
10.4389848476
 20
5.5194891165
 10
10.4374788334
 20
4.8970726542
 10
10.4236976133
 20
4.3142459044
 10
10.3973896302
 20
3.7878076576
 10
10.3593660321
 20
3.3324327112
 10
10.3117552853
 20
2.9581950345
 10
10.2606672043
 20
2.6807589286
  0
LWPOLYLINE
  5
214
100
AcDbEntity
  8
0
100
AcDbPolyline
 62
7
  6
CONTINUOUS
 90
11
 70
0
 10
12.1093235189
 20
11.5354412047
 10
12.1542279518
 20
11.6861934429
 10
12.1748835454
 20
11.9053990278
 10
12.1522899914
 20
12.1244302505
 10
12.0874735852
 20
12.3351869296
 10
11.9824471596
 20
12.5294924592
 10
11.8414782552
 20
12.6997263382
 10
11.6699234405
 20
12.83895528
 10
11.4748225005
 20
12.9419931089
 10
11.2638582356
 20
13.0047546535
 10
11.0473183388
 20
13.0254338168
  0
LINE
  5
215
100
AcDbEntity
  8
0
100
AcDbLine
 62
7
  6
CONTINUOUS
 10
15.4273183383
 20
12.1254338168
 11
15.4523183383
 21
12.1504338168
  0
LWPOLYLINE
  5
216
100
AcDbEntity
  8
0
100
AcDbPolyline
 62
7
  6
CONTINUOUS
 90
33
 70
0
 10
9.9774364724
 20
11.5725683262
 10
9.9775701293
 20
11.5720085414
 10
9.9792484026
 20
11.5646106441
 10
9.9824536263
 20
11.5495868919
 10
9.9868878646
 20
11.5276033753
 10
9.9923712508
 20
11.4990062954
 10
9.998786026
 20
11.4639638109
 10
10.0060530516
 20
11.42251718
 10
10.0141211955
 20
11.3746064903
 10
10.0229403711
 20
11.3202006047
 10
10.0324679681
 20
11.2592410971
 10
10.0426660424
 20
11.1916487473
 10
10.0535006145
 20
11.1173211546
 10
10.0649417998
 20
11.0361427828
 10
10.0769522402
 20
10.9480592218
 10
10.0894932714
 20
10.8530223544
 10
10.1025249572
 20
10.7509880155
 10
10.1160098593
 20
10.6418896907
 10
10.1299200937
 20
10.5255925093
 10
10.1442278783
 20
10.4019406976
 10
10.1589036386
 20
10.2707619753
 10
10.1739157855
 20
10.1318665038
 10
10.189230582
 20
9.9850659104
 10
10.2048083058
 20
9.8302009735
 10
10.2206044986
 20
9.6671102147
 10
10.236569488
 20
9.4956301347
 10
10.252647937
 20
9.3156131253
 10
10.268777303
 20
9.1269399817
 10
10.284887149
 20
8.9295042931
 10
10.3008982307
 20
8.723216385
 10
10.3167214034
 20
8.5080236704
 10
10.3322561029
 20
8.2839177336
 10
10.3461570657
 20
8.0705157877
  0
LWPOLYLINE
  5
217
100
AcDbEntity
  8
0
100
AcDbPolyline
 62
7
  6
CONTINUOUS
 90
11
 70
0
 10
11.8339694723
 20
2.6807589286
 10
11.7828813901
 20
2.9581950417
 10
11.7352706436
 20
3.3324327193
 10
11.6972470458
 20
3.7878076661
 10
11.670939063
 20
4.3142459126
 10
11.6571578431
 20
4.8970726617
 10
11.655651829
 20
5.5194891228
 10
11.6655105473
 20
6.1654593795
 10
11.685487341
 20
6.8197477883
 10
11.7141237429
 20
7.4669245178
 10
11.7484799302
 20
8.0705208494
  0
LWPOLYLINE
  5
218
100
AcDbEntity
  8
0
100
AcDbPolyline
 62
7
  6
CONTINUOUS
 90
33
 70
0
 10
11.7484796131
 20
8.0705158235
 10
11.7619030658
 20
8.276802423
 10
11.776939206
 20
8.4943400157
 10
11.792252439
 20
8.7035120546
 10
11.8077504489
 20
8.9043232135
 10
11.8233510776
 20
9.0968161374
 10
11.8389810539
 20
9.2810692197
 10
11.8545749874
 20
9.4571768205
 10
11.8700745686
 20
9.6252443493
 10
11.8854280468
 20
9.7853985955
 10
11.9005889277
 20
9.9377874518
 10
11.9155154059
 20
10.082558414
 10
11.9301698788
 20
10.2198557176
 10
11.944519752
 20
10.3498377645
 10
11.9585359254
 20
10.4726835934
 10
11.972190606
 20
10.5885556527
 10
11.9854578656
 20
10.697602627
 10
11.9983130615
 20
10.7999588622
 10
12.010727297
 20
10.8957208862
 10
12.0226642125
 20
10.9849316476
 10
12.0340881075
 20
11.0676336076
 10
12.0449641964
 20
11.1438718217
 10
12.0552603728
 20
11.2137093243
 10
12.064950058
 20
11.2772613001
 10
12.0740007248
 20
11.3346107669
 10
12.0823770136
 20
11.3858255602
 10
12.0900387042
 20
11.4309525876
 10
12.0969393832
 20
11.4700196047
 10
12.1030305533
 20
11.5030776449
 10
12.1082348104
 20
11.5300679495
 10
12.1124400959
 20
11.5508228827
 10
12.1154773172
 20
11.5650138461
 10
12.1161856301
 20
11.5681846639
  0
LINE
  5
219
100
AcDbEntity
  8
0
100
AcDbLine
 62
7
  6
CONTINUOUS
 10
6.6673183383
 20
12.1254338168
 11
6.6423183383
 21
12.1504338168
  0
LINE
  5
21A
100
AcDbEntity
  8
0
100
AcDbLine
 62
7
  6
CONTINUOUS
 10
9.9404087249
 20
11.6861934426
 11
9.9852938244
 21
11.5355061099
  0
LINE
  5
21B
100
AcDbEntity
  8
0
100
AcDbLine
 62
7
  6
CONTINUOUS
 10
16.2907224213
 20
12.0896437439
 11
17.3455585934
 21
12.2946831252
  0
LINE
  5
21C
100
AcDbEntity
  8
0
100
AcDbLine
 62
7
  6
CONTINUOUS
 10
5.8039142553
 20
12.0896437439
 11
4.7490780832
 21
12.2946831252
  0
LINE
  5
21D
100
AcDbEntity
  8
0
100
AcDbLine
 62
7
  6
CONTINUOUS
 10
15.4273183383
 20
11.8890693324
 11
15.4273183383
 21
11.6501920221
  0
LINE
  5
21E
100
AcDbEntity
  8
0
100
AcDbLine
 62
7
  6
CONTINUOUS
 10
15.4273183383
 20
11.9117983011
 11
15.4273183383
 21
12.1506751825
  0
LINE
  5
21F
100
AcDbEntity
  8
0
100
AcDbLine
 62
7
  6
CONTINUOUS
 10
15.4973183383
 20
11.6504338168
 11
15.4523183383
 21
11.6504338168
  0
LINE
  5
220
100
AcDbEntity
  8
0
100
AcDbLine
 62
7
  6
CONTINUOUS
 10
6.5973183383
 20
11.6504338168
 11
6.6423183383
 21
11.6504338168
  0
LINE
  5
221
100
AcDbEntity
  8
0
100
AcDbLine
 62
7
  6
CONTINUOUS
 10
15.4523183383
 20
12.1504338168
 11
15.4523183383
 21
11.6504338168
  0
LINE
  5
222
100
AcDbEntity
  8
0
100
AcDbLine
 62
7
  6
CONTINUOUS
 10
15.4973183383
 20
11.6504338168
 11
15.4973183383
 21
12.1504338168
  0
LINE
  5
223
100
AcDbEntity
  8
0
100
AcDbLine
 62
7
  6
CONTINUOUS
 10
15.4973183383
 20
12.1504338168
 11
15.4523183383
 21
12.1504338168
  0
LINE
  5
224
100
AcDbEntity
  8
0
100
AcDbLine
 62
7
  6
CONTINUOUS
 10
6.5973183383
 20
12.1504338168
 11
6.6423183383
 21
12.1504338168
  0
LINE
  5
225
100
AcDbEntity
  8
0
100
AcDbLine
 62
9
  6
CONTINUOUS
 10
16.2907224213
 20
12.0896437439
 11
16.2907224213
 21
11.7112238896
  0
LINE
  5
226
100
AcDbEntity
  8
0
100
AcDbLine
 62
7
  6
CONTINUOUS
 10
5.8039142553
 20
11.7112238896
 11
4.7490780832
 21
11.5061845083
  0
LWPOLYLINE
  5
227
100
AcDbEntity
  8
0
100
AcDbPolyline
 62
7
  6
CONTINUOUS
 90
10
 70
0
 10
11.0473183388
 20
13.0254338168
 10
10.8307784398
 20
13.0047546533
 10
10.6198141744
 20
12.9419931082
 10
10.4247132343
 20
12.8389552789
 10
10.25315842
 20
12.6997263368
 10
10.1121895161
 20
12.5294924579
 10
10.0071630908
 20
12.3351869284
 10
9.942346685
 20
12.1244302497
 10
9.9197531312
 20
11.9053990272
 10
9.9404087249
 20
11.6861934426
  0
LINE
  5
228
100
AcDbEntity
  8
0
100
AcDbLine
 62
7
  6
CONTINUOUS
 10
11.0473183383
 20
13.0254338168
 11
11.0473608678
 21
13.0254338855
  0
LINE
  5
229
100
AcDbEntity
  8
0
100
AcDbLine
 62
7
  6
CONTINUOUS
 10
16.2907224213
 20
11.7112238896
 11
17.3455585934
 21
11.5061845083
  0
LINE
  5
22A
100
AcDbEntity
  8
0
100
AcDbLine
 62
7
  6
CONTINUOUS
 10
15.4273183383
 20
11.6754338168
 11
15.4523183383
 21
11.6504338168
  0
LINE
  5
22B
100
AcDbEntity
  8
0
100
AcDbLine
 62
9
  6
CONTINUOUS
 10
17.3455585934
 20
11.5061845083
 11
17.3455585934
 21
12.2946831252
  0
LINE
  5
22C
100
AcDbEntity
  8
0
100
AcDbLine
 62
7
  6
CONTINUOUS
 10
17.6893183383
 20
11.6819338168
 11
17.6893183383
 21
12.1189338168
  0
LINE
  5
22D
100
AcDbEntity
  8
0
100
AcDbLine
 62
9
  6
CONTINUOUS
 10
17.8822605028
 20
12.1166303451
 11
17.8822605028
 21
11.6842372884
  0
LINE
  5
22E
100
AcDbEntity
  8
0
100
AcDbLine
 62
7
  6
CONTINUOUS
 10
18.0123183383
 20
11.6629338168
 11
18.0123183383
 21
12.1379338168
  0
ARC
  5
22F
100
AcDbEntity
  8
0
100
AcDbCircle
 62
7
  6
CONTINUOUS
 10
11.0305942868
 20
2.4866631623
 40
0.8358828909
100
AcDbArc
 50
151.8490401611
 51
165.6621770446
  0
ARC
  5
230
100
AcDbEntity
  8
0
100
AcDbCircle
 62
7
  6
CONTINUOUS
 10
11.028834492
 20
2.4873163678
 40
0.8340161737
100
AcDbArc
 50
165.6757152495
 51
179.9874446465
  0
ARC
  5
231
100
AcDbEntity
  8
0
100
AcDbCircle
 62
7
  6
CONTINUOUS
 10
2.9452022038
 20
11.8984493281
 40
3.7221420897
100
AcDbArc
 50
0.030547687
 51
0.2054843286
  0
ARC
  5
232
100
AcDbEntity
  8
0
100
AcDbCircle
 62
7
  6
CONTINUOUS
 10
4.7944127623
 20
11.8986095073
 40
1.8729303668
100
AcDbArc
 50
359.7081502482
 51
0.0558083512
  0
ARC
  5
233
100
AcDbEntity
  8
0
100
AcDbCircle
 62
7
  6
CONTINUOUS
 10
6.0901277484
 20
10.2387831144
 40
1.5
100
AcDbArc
 50
70.2371945424
 51
101.0
  0
ARC
  5
234
100
AcDbEntity
  8
0
100
AcDbCircle
 62
7
  6
CONTINUOUS
 10
4.6893548676
 20
11.8134338168
 40
0.313
100
AcDbArc
 50
204.8426560169
 51
281.0
  0
ARC
  5
235
100
AcDbEntity
  8
0
100
AcDbCircle
 62
7
  6
CONTINUOUS
 10
4.3102183909
 20
11.7979338168
 40
0.15
100
AcDbArc
 50
229.2861651143
 51
309.345829766
  0
ARC
  5
236
100
AcDbEntity
  8
0
100
AcDbCircle
 62
7
  6
CONTINUOUS
 10
4.1562799693
 20
11.6190512788
 40
0.086
100
AcDbArc
 50
49.2861651143
 51
149.3187124064
  0
ARC
  5
237
100
AcDbEntity
  8
0
100
AcDbCircle
 62
7
  6
CONTINUOUS
 10
6.0901277484
 20
13.5620845191
 40
1.5
100
AcDbArc
 50
259.0
 51
289.7628054576
  0
ARC
  5
238
100
AcDbEntity
  8
0
100
AcDbCircle
 62
7
  6
CONTINUOUS
 10
4.6893548676
 20
11.9874338168
 40
0.313
100
AcDbArc
 50
79.0
 51
155.1573439831
  0
ARC
  5
239
100
AcDbEntity
  8
0
100
AcDbCircle
 62
7
  6
CONTINUOUS
 10
4.1602899953
 20
11.9004338168
 40
0.249971657
100
AcDbArc
 50
108.1750968409
 51
251.8249031591
  0
ARC
  5
23A
100
AcDbEntity
  8
0
100
AcDbCircle
 62
7
  6
CONTINUOUS
 10
4.3102183909
 20
12.0029338168
 40
0.15
100
AcDbArc
 50
50.654170234
 51
130.7138348857
  0
ARC
  5
23B
100
AcDbEntity
  8
0
100
AcDbCircle
 62
7
  6
CONTINUOUS
 10
4.1562799693
 20
12.1818163547
 40
0.086
100
AcDbArc
 50
210.6812875936
 51
310.7138348857
  0
ARC
  5
23C
100
AcDbEntity
  8
0
100
AcDbCircle
 62
7
  6
CONTINUOUS
 10
11.0473183383
 20
11.9004338168
 40
1.425
100
AcDbArc
 50
312.4641057223
 51
227.538807799
  0
ARC
  5
23D
100
AcDbEntity
  8
0
100
AcDbCircle
 62
9
  6
CONTINUOUS
 10
11.0473183383
 20
11.9004338168
 40
1.2931676647
100
AcDbArc
 50
319.9673280829
 51
220.0063181531
  0
ARC
  5
23E
100
AcDbEntity
  8
0
100
AcDbCircle
 62
7
  6
CONTINUOUS
 10
11.0473183383
 20
11.9004338168
 40
1.253
100
AcDbArc
 50
323.1940327068
 51
216.8068841373
  0
ARC
  5
23F
100
AcDbEntity
  8
0
100
AcDbCircle
 62
7
  6
CONTINUOUS
 10
7.0473183383
 20
11.9004338168
 40
1.17
100
AcDbArc
 50
188.7643023232
 51
171.2356976768
  0
ARC
  5
240
100
AcDbEntity
  8
0
100
AcDbCircle
 62
9
  6
CONTINUOUS
 10
11.0458898954
 20
11.9005007121
 40
1.124935098
100
AcDbArc
 50
342.7507648751
 51
89.9273256315
  0
ARC
  5
241
100
AcDbEntity
  8
0
100
AcDbCircle
 62
9
  6
CONTINUOUS
 10
7.0473183383
 20
11.9004338168
 40
1.1043717104
100
AcDbArc
 50
188.8601691675
 51
171.1398308325
  0
ARC
  5
242
100
AcDbEntity
  8
0
100
AcDbCircle
 62
9
  6
CONTINUOUS
 10
7.0473183383
 20
11.9004338168
 40
1.0719223696
100
AcDbArc
 50
188.9119067047
 51
171.0880932953
  0
ARC
  5
243
100
AcDbEntity
  8
0
100
AcDbCircle
 62
9
  6
CONTINUOUS
 10
7.0473183383
 20
11.9004338168
 40
1.0407459276
100
AcDbArc
 50
189.0847352785
 51
170.9152647215
  0
ARC
  5
244
100
AcDbEntity
  8
0
100
AcDbCircle
 62
9
  6
CONTINUOUS
 10
7.0473183383
 20
11.9004338168
 40
1.0164705063
100
AcDbArc
 50
189.3206665644
 51
170.6793334356
  0
ARC
  5
245
100
AcDbEntity
  8
0
100
AcDbCircle
 62
9
  6
CONTINUOUS
 10
7.0473183383
 20
11.9004338168
 40
0.9793435571
100
AcDbArc
 50
189.6968721863
 51
170.3031278137
  0
ARC
  5
246
100
AcDbEntity
  8
0
100
AcDbCircle
 62
9
  6
CONTINUOUS
 10
7.0473183383
 20
11.9004338168
 40
0.9519481536
100
AcDbArc
 50
189.999994434
 51
170.000005566
  0
ARC
  5
247
100
AcDbEntity
  8
0
100
AcDbCircle
 62
9
  6
CONTINUOUS
 10
7.0473183383
 20
11.9004338168
 40
0.9418237702
100
AcDbArc
 50
190.1164805376
 51
169.8835194624
  0
ARC
  5
248
100
AcDbEntity
  8
0
100
AcDbCircle
 62
7
  6
CONTINUOUS
 10
7.0473183383
 20
11.9004338168
 40
0.8187389754
100
AcDbArc
 50
192.1997160233
 51
167.8002839767
  0
ARC
  5
249
100
AcDbEntity
  8
0
100
AcDbCircle
 62
9
  6
CONTINUOUS
 10
7.0473183383
 20
11.9004338168
 40
0.7877475635
100
AcDbArc
 50
192.9952012349
 51
167.0047987651
  0
ARC
  5
24A
100
AcDbEntity
  8
0
100
AcDbCircle
 62
9
  6
CONTINUOUS
 10
7.0473183383
 20
11.9004338168
 40
0.5244951005
100
AcDbArc
 50
208.0348800943
 51
151.965215177
  0
ARC
  5
24B
100
AcDbEntity
  8
0
100
AcDbCircle
 62
7
  6
CONTINUOUS
 10
7.0473183383
 20
11.9004338168
 40
0.455
100
AcDbArc
 50
213.3669941408
 51
146.6330058592
  0
CIRCLE
  5
24C
100
AcDbEntity
  8
0
100
AcDbCircle
 62
7
  6
CONTINUOUS
 10
7.0473183383
 20
11.9004338168
 40
0.3305
  0
CIRCLE
  5
24D
100
AcDbEntity
  8
0
100
AcDbCircle
 62
9
  6
CONTINUOUS
 10
7.0473183383
 20
11.9004338168
 40
0.2835
  0
CIRCLE
  5
24E
100
AcDbEntity
  8
0
100
AcDbCircle
 62
7
  6
CONTINUOUS
 10
7.0473183383
 20
11.9004338168
 40
0.272
  0
CIRCLE
  5
24F
100
AcDbEntity
  8
0
100
AcDbCircle
 62
9
  6
CONTINUOUS
 10
7.0473183383
 20
11.9004338168
 40
0.236
  0
ARC
  5
250
100
AcDbEntity
  8
0
100
AcDbCircle
 62
7
  6
CONTINUOUS
 10
7.0473183383
 20
11.9004338168
 40
0.18
100
AcDbArc
 50
90.0
 51
89.6153846154
  0
ARC
  5
251
100
AcDbEntity
  8
0
100
AcDbCircle
 62
7
  6
CONTINUOUS
 10
7.0473183383
 20
11.9004338168
 40
0.18
100
AcDbArc
 50
89.6153846154
 51
90.0
  0
CIRCLE
  5
252
100
AcDbEntity
  8
0
100
AcDbCircle
 62
7
  6
CONTINUOUS
 10
7.0473183383
 20
11.9004338168
 40
0.17
  0
ARC
  5
253
100
AcDbEntity
  8
0
100
AcDbCircle
 62
7
  6
CONTINUOUS
 10
11.0640431089
 20
2.4866634359
 40
0.8358821293
100
AcDbArc
 50
14.3374409644
 51
28.1509725718
  0
ARC
  5
254
100
AcDbEntity
  8
0
100
AcDbCircle
 62
7
  6
CONTINUOUS
 10
11.0658025255
 20
2.4873164274
 40
0.8340158328
100
AcDbArc
 50
0.0125512654
 51
14.3239097086
  0
ARC
  5
255
100
AcDbEntity
  8
0
100
AcDbCircle
 62
7
  6
CONTINUOUS
 10
15.0473183383
 20
11.9004338168
 40
1.17
100
AcDbArc
 50
8.7643023232
 51
351.2356976768
  0
ARC
  5
256
100
AcDbEntity
  8
0
100
AcDbCircle
 62
9
  6
CONTINUOUS
 10
11.0487462542
 20
11.9005014547
 40
1.1249342563
100
AcDbArc
 50
90.0727274949
 51
197.0195324236
  0
ARC
  5
257
100
AcDbEntity
  8
0
100
AcDbCircle
 62
9
  6
CONTINUOUS
 10
15.0473183383
 20
11.9004338168
 40
1.1043717104
100
AcDbArc
 50
8.8601691675
 51
351.1398308325
  0
ARC
  5
258
100
AcDbEntity
  8
0
100
AcDbCircle
 62
9
  6
CONTINUOUS
 10
15.0473183383
 20
11.9004338168
 40
1.0719223696
100
AcDbArc
 50
8.9119067047
 51
351.0880932953
  0
ARC
  5
259
100
AcDbEntity
  8
0
100
AcDbCircle
 62
9
  6
CONTINUOUS
 10
15.0473183383
 20
11.9004338168
 40
1.0407459276
100
AcDbArc
 50
9.0847352785
 51
350.9152647215
  0
ARC
  5
25A
100
AcDbEntity
  8
0
100
AcDbCircle
 62
9
  6
CONTINUOUS
 10
15.0473183383
 20
11.9004338168
 40
1.0164705063
100
AcDbArc
 50
9.3206665644
 51
350.6793334356
  0
ARC
  5
25B
100
AcDbEntity
  8
0
100
AcDbCircle
 62
9
  6
CONTINUOUS
 10
15.0473183383
 20
11.9004338168
 40
0.9793435571
100
AcDbArc
 50
9.6968721863
 51
350.3031278137
  0
ARC
  5
25C
100
AcDbEntity
  8
0
100
AcDbCircle
 62
9
  6
CONTINUOUS
 10
15.0473183383
 20
11.9004338168
 40
0.9519481536
100
AcDbArc
 50
9.999994434
 51
350.000005566
  0
ARC
  5
25D
100
AcDbEntity
  8
0
100
AcDbCircle
 62
9
  6
CONTINUOUS
 10
15.0473183383
 20
11.9004338168
 40
0.9418237702
100
AcDbArc
 50
10.1164805376
 51
349.8835194624
  0
ARC
  5
25E
100
AcDbEntity
  8
0
100
AcDbCircle
 62
7
  6
CONTINUOUS
 10
15.0473183383
 20
11.9004338168
 40
0.8187389754
100
AcDbArc
 50
12.1997160233
 51
347.8002839767
  0
ARC
  5
25F
100
AcDbEntity
  8
0
100
AcDbCircle
 62
9
  6
CONTINUOUS
 10
15.0473183383
 20
11.9004338168
 40
0.7877475635
100
AcDbArc
 50
12.9952012349
 51
347.0047987651
  0
ARC
  5
260
100
AcDbEntity
  8
0
100
AcDbCircle
 62
9
  6
CONTINUOUS
 10
15.0473183383
 20
11.9004338168
 40
0.5244951005
100
AcDbArc
 50
28.0348800943
 51
331.965215177
  0
ARC
  5
261
100
AcDbEntity
  8
0
100
AcDbCircle
 62
7
  6
CONTINUOUS
 10
15.0473183383
 20
11.9004338168
 40
0.455
100
AcDbArc
 50
33.3669941408
 51
326.6330058592
  0
CIRCLE
  5
262
100
AcDbEntity
  8
0
100
AcDbCircle
 62
7
  6
CONTINUOUS
 10
15.0473183383
 20
11.9004338168
 40
0.3305
  0
CIRCLE
  5
263
100
AcDbEntity
  8
0
100
AcDbCircle
 62
9
  6
CONTINUOUS
 10
15.0473183383
 20
11.9004338168
 40
0.2835
  0
CIRCLE
  5
264
100
AcDbEntity
  8
0
100
AcDbCircle
 62
7
  6
CONTINUOUS
 10
15.0473183383
 20
11.9004338168
 40
0.272
  0
CIRCLE
  5
265
100
AcDbEntity
  8
0
100
AcDbCircle
 62
9
  6
CONTINUOUS
 10
15.0473183383
 20
11.9004338168
 40
0.236
  0
ARC
  5
266
100
AcDbEntity
  8
0
100
AcDbCircle
 62
7
  6
CONTINUOUS
 10
15.0473183383
 20
11.9004338168
 40
0.18
100
AcDbArc
 50
270.0
 51
269.6153846154
  0
ARC
  5
267
100
AcDbEntity
  8
0
100
AcDbCircle
 62
7
  6
CONTINUOUS
 10
15.0473183383
 20
11.9004338168
 40
0.18
100
AcDbArc
 50
269.6153846154
 51
270.0
  0
CIRCLE
  5
268
100
AcDbEntity
  8
0
100
AcDbCircle
 62
7
  6
CONTINUOUS
 10
15.0473183383
 20
11.9004338168
 40
0.17
  0
ARC
  5
269
100
AcDbEntity
  8
0
100
AcDbCircle
 62
7
  6
CONTINUOUS
 10
16.0045089282
 20
10.2387831144
 40
1.5
100
AcDbArc
 50
79.0
 51
109.7628054576
  0
ARC
  5
26A
100
AcDbEntity
  8
0
100
AcDbCircle
 62
7
  6
CONTINUOUS
 10
17.4052818089
 20
11.8134338168
 40
0.313
100
AcDbArc
 50
259.0
 51
335.1573439831
  0
ARC
  5
26B
100
AcDbEntity
  8
0
100
AcDbCircle
 62
7
  6
CONTINUOUS
 10
17.7844182857
 20
11.7979338168
 40
0.15
100
AcDbArc
 50
230.654170234
 51
310.7138348857
  0
ARC
  5
26C
100
AcDbEntity
  8
0
100
AcDbCircle
 62
7
  6
CONTINUOUS
 10
17.9383567072
 20
11.6190512788
 40
0.086
100
AcDbArc
 50
30.6812875936
 51
130.7138348857
  0
ARC
  5
26D
100
AcDbEntity
  8
0
100
AcDbCircle
 62
7
  6
CONTINUOUS
 10
19.1494392336
 20
11.9024183196
 40
3.7221468506
100
AcDbArc
 50
180.0305478655
 51
180.2054842836
  0
ARC
  5
26E
100
AcDbEntity
  8
0
100
AcDbCircle
 62
7
  6
CONTINUOUS
 10
17.3002258929
 20
11.902258127
 40
1.8729323453
100
AcDbArc
 50
179.708150578
 51
180.0558083133
  0
ARC
  5
26F
100
AcDbEntity
  8
0
100
AcDbCircle
 62
7
  6
CONTINUOUS
 10
16.0045089282
 20
13.5620845191
 40
1.5
100
AcDbArc
 50
250.2371945424
 51
281.0
  0
ARC
  5
270
100
AcDbEntity
  8
0
100
AcDbCircle
 62
7
  6
CONTINUOUS
 10
17.4052818089
 20
11.9874338168
 40
0.313
100
AcDbArc
 50
24.8426560169
 51
101.0
  0
ARC
  5
271
100
AcDbEntity
  8
0
100
AcDbCircle
 62
7
  6
CONTINUOUS
 10
17.9343466813
 20
11.9004338168
 40
0.249971657
100
AcDbArc
 50
288.1750968409
 51
71.8249031591
  0
ARC
  5
272
100
AcDbEntity
  8
0
100
AcDbCircle
 62
7
  6
CONTINUOUS
 10
17.7844182857
 20
12.0029338168
 40
0.15
100
AcDbArc
 50
49.2861651143
 51
129.345829766
  0
ARC
  5
273
100
AcDbEntity
  8
0
100
AcDbCircle
 62
7
  6
CONTINUOUS
 10
17.9383567072
 20
12.1818163547
 40
0.086
100
AcDbArc
 50
229.2861651143
 51
329.3187124064
  0
SPLINE
  5
274
100
AcDbEntity
  8
0
100
AcDbSpline
 62
7
  6
CONTINUOUS
 70
0
 71
3
 72
37
 73
33
 74
0
 42
0.0000001
 43
0.0000001
 44
0.0000000001
 40
0.0
 40
0.0
 40
0.0
 40
0.0
 40
0.0621428395
 40
0.093274396
 40
0.1244113568
 40
0.1555699215
 40
0.1867559572
 40
0.2179681743
 40
0.2492083377
 40
0.2804770482
 40
0.3117748188
 40
0.3430990896
 40
0.3744477771
 40
0.4058167846
 40
0.4372021964
 40
0.468598624
 40
0.5000007723
 40
0.5314029135
 40
0.5627992898
 40
0.5941846371
 40
0.6255535433
 40
0.6569021166
 40
0.688226251
 40
0.7195238789
 40
0.7507924415
 40
0.782032451
 40
0.81324452
 40
0.8444304242
 40
0.8755888828
 40
0.9067257373
 40
0.9378572058
 40
1.0
 40
1.0
 40
1.0
 40
1.0
 10
11.8998183383
 20
2.4874991276
 30
0.0
 10
11.8998183383
 20
2.4323845267
 30
0.0
 10
11.8915217973
 20
2.3493516859
 30
0.0
 10
11.8643262205
 20
2.2422892333
 30
0.0
 10
11.8360323904
 20
2.1642514495
 30
0.0
 10
11.8001242004
 20
2.0893750693
 30
0.0
 10
11.7569799508
 20
2.0183394212
 30
0.0
 10
11.7069959274
 20
1.9518490937
 30
0.0
 10
11.6506731973
 20
1.8905368912
 30
0.0
 10
11.5885556826
 20
1.8349901073
 30
0.0
 10
11.5212444396
 20
1.7857407275
 30
0.0
 10
11.44939522
 20
1.7432458334
 30
0.0
 10
11.3736906171
 20
1.7079280006
 30
0.0
 10
11.2948692246
 20
1.6800932699
 30
0.0
 10
11.2136757029
 20
1.6600388188
 30
0.0
 10
11.1308962945
 20
1.6479124144
 30
0.0
 10
11.0473162773
 20
1.6438736902
 30
0.0
 10
10.9637363384
 20
1.6479128731
 30
0.0
 10
10.8809570619
 20
1.6600394835
 30
0.0
 10
10.7997638865
 20
1.6800945017
 30
0.0
 10
10.7209427384
 20
1.707929187
 30
0.0
 10
10.645238702
 20
1.743247489
 30
0.0
 10
10.5733897602
 20
1.7857421622
 30
0.0
 10
10.5060791608
 20
1.8349917831
 30
0.0
 10
10.4439619201
 20
1.890538272
 30
0.0
 10
10.3876397407
 20
1.9518504425
 30
0.0
 10
10.3376559401
 20
2.0183404478
 30
0.0
 10
10.2945120463
 20
2.0893759165
 30
0.0
 10
10.258604044
 20
2.164252042
 30
0.0
 10
10.2303103454
 20
2.2422895905
 30
0.0
 10
10.2031148564
 20
2.3493518449
 30
0.0
 10
10.1948183383
 20
2.432384567
 30
0.0
 10
10.1948183383
 20
2.4874991276
 30
0.0
  0
SPLINE
  5
275
100
AcDbEntity
  8
0
100
AcDbSpline
 62
7
  6
CONTINUOUS
 70
0
 71
3
 72
26
 73
22
 74
0
 42
0.0000001
 43
0.0000001
 44
0.0000000001
 40
0.0
 40
0.0
 40
0.0
 40
0.0
 40
0.062099765
 40
0.1241692702
 40
0.1862422948
 40
0.2483486351
 40
0.3104986111
 40
0.3416071333
 40
0.3727354339
 40
0.4350396839
 40
0.4974430287
 40
0.5599424479
 40
0.6225502193
 40
0.68526907
 40
0.7480782285
 40
0.7795228041
 40
0.810985905
 40
0.842467585
 40
0.873965675
 40
0.9369725782
 40
1.0
 40
1.0
 40
1.0
 40
1.0
 10
10.260667185
 20
2.6807588411
 30
0.0
 10
10.2543310275
 20
2.6519793329
 30
0.0
 10
10.2448827538
 20
2.5936700951
 30
0.0
 10
10.2406641774
 20
2.5052086735
 30
0.0
 10
10.2465892352
 20
2.4168300251
 30
0.0
 10
10.2624138474
 20
2.3296539605
 30
0.0
 10
10.2836773626
 20
2.2588825239
 30
0.0
 10
10.305408449
 20
2.203972252
 30
0.0
 10
10.3302654408
 20
2.1503237416
 30
0.0
 10
10.3669957259
 20
2.0859464315
 30
0.0
 10
10.4194324699
 20
2.0140147555
 30
0.0
 10
10.4796521182
 20
1.9482512298
 30
0.0
 10
10.5470068076
 20
1.8895905981
 30
0.0
 10
10.6205348696
 20
1.8386446035
 30
0.0
 10
10.6861948008
 20
1.8031189793
 30
0.0
 10
10.7408623957
 20
1.7791707906
 30
0.0
 10
10.782851484
 20
1.7635075801
 30
0.0
 10
10.8256650556
 20
1.7501800718
 30
0.0
 10
10.8836619618
 20
1.7355606345
 30
0.0
 10
10.9575536173
 20
1.7232543324
 30
0.0
 10
11.0174093847
 20
1.7199270201
 30
0.0
 10
11.0473183397
 20
1.7199270207
 30
0.0
  0
SPLINE
  5
276
100
AcDbEntity
  8
0
100
AcDbSpline
 62
7
  6
CONTINUOUS
 70
0
 71
3
 72
26
 73
22
 74
0
 42
0.0000001
 43
0.0000001
 44
0.0000000001
 40
0.0
 40
0.0
 40
0.0
 40
0.0
 40
0.0630274218
 40
0.1260343251
 40
0.157532415
 40
0.189014095
 40
0.2204771959
 40
0.2519217716
 40
0.3147309301
 40
0.3774497808
 40
0.4400575522
 40
0.5025569714
 40
0.5649603162
 40
0.6272645662
 40
0.6583928668
 40
0.6895013889
 40
0.751651365
 40
0.8137577052
 40
0.8758307299
 40
0.937900235
 40
1.0
 40
1.0
 40
1.0
 40
1.0
 10
11.0473183397
 20
1.7199270292
 30
0.0
 10
11.0772272945
 20
1.7199270288
 30
0.0
 10
11.1370830615
 20
1.7232543413
 30
0.0
 10
11.2109747165
 20
1.7355606435
 30
0.0
 10
11.2689716223
 20
1.7501800808
 30
0.0
 10
11.3117851935
 20
1.7635075891
 30
0.0
 10
11.3537742815
 20
1.7791707996
 30
0.0
 10
11.408441876
 20
1.8031189882
 30
0.0
 10
11.4741018067
 20
1.8386446122
 30
0.0
 10
11.5476298681
 20
1.8895906065
 30
0.0
 10
11.6149845571
 20
1.9482512378
 30
0.0
 10
11.675204205
 20
2.0140147629
 30
0.0
 10
11.7276409487
 20
2.0859464383
 30
0.0
 10
11.7643712337
 20
2.1503237479
 30
0.0
 10
11.7892282254
 20
2.2039722579
 30
0.0
 10
11.8109593119
 20
2.2588825293
 30
0.0
 10
11.8322228271
 20
2.3296539654
 30
0.0
 10
11.8480474395
 20
2.4168300293
 30
0.0
 10
11.8539724976
 20
2.505208677
 30
0.0
 10
11.8497539217
 20
2.593670098
 30
0.0
 10
11.8403056484
 20
2.6519793354
 30
0.0
 10
11.833969491
 20
2.6807588434
 30
0.0
  0
LINE
  5
277
100
AcDbEntity
  8
0
100
AcDbLine
 62
7
  6
CONTINUOUS
 10
11.0473171623
 20
6.5371290588
 11
11.0473168277
 21
1.7199274749
  0
LINE
  5
278
100
AcDbEntity
  8
0
100
AcDbLine
 62
7
  6
CONTINUOUS
 10
11.0473176363
 20
6.5371290588
 11
11.0473175525
 21
8.4591420251
  0
SPLINE
  5
279
100
AcDbEntity
  8
0
100
AcDbSpline
 62
9
  6
CONTINUOUS
 70
0
 71
3
 72
25
 73
21
 74
0
 42
0.0000001
 43
0.0000001
 44
0.0000000001
 40
0.0
 40
0.0
 40
0.0
 40
0.0
 40
0.0804434618
 40
0.1603877203
 40
0.239238672
 40
0.3164144545
 40
0.3913742136
 40
0.4636545861
 40
0.5328298946
 40
0.598520876
 40
0.6604569988
 40
0.7185386852
 40
0.7727748222
 40
0.8233153617
 40
0.8705465048
 40
0.915125648
 40
0.9367008605
 40
0.9579474082
 40
0.9789994276
 40
1.0
 40
1.0
 40
1.0
 40
1.0
 10
11.0473175525
 20
8.4591420251
 30
0.0
 10
11.0707343889
 20
8.458528344
 30
0.0
 10
11.1174003827
 20
8.4561340099
 30
0.0
 10
11.1867375793
 20
8.4490969928
 30
0.0
 10
11.2546897684
 20
8.4386858017
 30
0.0
 10
11.3205730958
 20
8.4249665898
 30
0.0
 10
11.3837223622
 20
8.4080082755
 30
0.0
 10
11.4435294672
 20
8.3880151282
 30
0.0
 10
11.4994122577
 20
8.3651819923
 30
0.0
 10
11.5508027475
 20
8.3396906905
 30
0.0
 10
11.5971651707
 20
8.3117209354
 30
0.0
 10
11.6380842436
 20
8.2815773332
 30
0.0
 10
11.6731785912
 20
8.2495318643
 30
0.0
 10
11.7020623427
 20
8.2158172548
 30
0.0
 10
11.7243598278
 20
8.1806912226
 30
0.0
 10
11.7374316082
 20
8.1501807599
 30
0.0
 10
11.7442285733
 20
8.1256224349
 30
0.0
 10
11.7475223508
 20
8.107287724
 30
0.0
 10
11.7490449125
 20
8.088891115
 30
0.0
 10
11.7488648955
 20
8.0766240193
 30
0.0
 10
11.7484799302
 20
8.0705208494
 30
0.0
  0
LINE
  5
27A
100
AcDbEntity
  8
0
100
AcDbLine
 62
7
  6
CONTINUOUS
 10
11.0473173585
 20
8.4591420302
 11
11.0473167692
 21
13.0254338184
  0
SPLINE
  5
27B
100
AcDbEntity
  8
0
100
AcDbSpline
 62
9
  6
CONTINUOUS
 70
0
 71
3
 72
25
 73
21
 74
0
 42
0.0000001
 43
0.0000001
 44
0.0000000001
 40
0.0
 40
0.0
 40
0.0
 40
0.0
 40
0.0804434584
 40
0.1603877149
 40
0.2392386659
 40
0.3164144487
 40
0.391374209
 40
0.4636545831
 40
0.5328298936
 40
0.5985208771
 40
0.6604570018
 40
0.7185386896
 40
0.7727748275
 40
0.8233153673
 40
0.8705465099
 40
0.9151256518
 40
0.9367008635
 40
0.9579474103
 40
0.9789994287
 40
1.0
 40
1.0
 40
1.0
 40
1.0
 10
11.047319318
 20
8.4591420302
 30
0.0
 10
11.0239024773
 20
8.4585283523
 30
0.0
 10
10.9772364745
 20
8.4561340239
 30
0.0
 10
10.9078992633
 20
8.4490970141
 30
0.0
 10
10.8399470585
 20
8.438685829
 30
0.0
 10
10.7740637147
 20
8.4249666218
 30
0.0
 10
10.7109144314
 20
8.4080083109
 30
0.0
 10
10.6511073095
 20
8.3880151655
 30
0.0
 10
10.5952245025
 20
8.3651820302
 30
0.0
 10
10.5438339968
 20
8.3396907278
 30
0.0
 10
10.4974715588
 20
8.3117209709
 30
0.0
 10
10.4565524724
 20
8.2815773659
 30
0.0
 10
10.4214581131
 20
8.2495318932
 30
0.0
 10
10.3925743515
 20
8.2158172791
 30
0.0
 10
10.3702768584
 20
8.1806912415
 30
0.0
 10
10.3572050731
 20
8.1501807736
 30
0.0
 10
10.3504081053
 20
8.1256224445
 30
0.0
 10
10.3471143265
 20
8.1072877303
 30
0.0
 10
10.3455917641
 20
8.0888911182
 30
0.0
 10
10.345771781
 20
8.0766240203
 30
0.0
 10
10.3461567464
 20
8.0705208494
 30
0.0
  0
ENDSEC
  0
SECTION
  2
OBJECTS
  0
DICTIONARY
  5
C
100
AcDbDictionary
280
0
281
1
  3
ACAD_GROUP
350
D
  3
ACAD_MLINESTYLE
350
17
  3
ACAD_LAYOUT
350
1A
  3
ACAD_PLOTSETTINGS
350
19
  3
ACAD_PLOTSTYLENAME
350
E
  0
DICTIONARY
  5
D
102
{ACAD_REACTORS
330
C
102
}
100
AcDbDictionary
280
0
281
1
  0
ACDBDICTIONARYWDFLT
  5
E
102
{ACAD_REACTORS
330
C
102
}
100
AcDbDictionary
281
1
  3
Normal
350
F
100
AcDbDictionaryWithDefault
340
F
  0
DICTIONARY
  5
17
102
{ACAD_REACTORS
330
C
102
}
100
AcDbDictionary
280
0
281
1
  3
Standard
350
18
  0
DICTIONARY
  5
19
102
{ACAD_REACTORS
330
C
102
}
100
AcDbDictionary
281
1
  0
DICTIONARY
  5
1A
102
{ACAD_REACTORS
330
C
102
}
100
AcDbDictionary
281
1
  3
Model
350
27C
  3
Layout1
350
27D
  0
ACDBPLACEHOLDER
  5
F
102
{ACAD_REACTORS
330
E
102
}
  0
MLINESTYLE
  5
18
102
{ACAD_REACTORS
330
17
102
}
100
AcDbMlineStyle
  2
STANDARD
 70
0
  3

 62
256
 51
90.0
 52
90.0
 71
2
 49
0.5
 62
256
  6
BYLAYER
 49
-0.5
 62
256
  6
BYLAYER
  0
LAYOUT
  5
27C
102
{ACAD_REACTORS
330
1A
102
}
100
AcDbPlotSettings
  1

  2
none_device
  4
ANSI_C_(22.00_x_17.00_Inches)
  6

 40
0.0
 41
0.0
 42
0.0
 43
0.0
 44
558.8
 45
431.8
 46
0.0
 47
0.0
 48
0.0
 49
0.0
140
0.0
141
0.0
142
1.0
143
1.0
 70
1024
 72
0
 73
0
 74
0
  7

 75
0
147
1.0
148
0.0
149
0.0
100
AcDbLayout
  1
Model
 70
0
 71
0
 10
0.0
 20
0.0
 11
22.0
 21
17.0
 12
0.0
 22
0.0
 32
0.0
 14
0.0
 24
0.0
 34
0.0
 15
0.0
 25
0.0
 35
0.0
146
0.0
 13
0.0
 23
0.0
 33
0.0
 16
1.0
 26
0.0
 36
0.0
 17
0.0
 27
1.0
 37
0.0
 76
0
330
202
345
0
346
0
  0
LAYOUT
  5
27D
102
{ACAD_REACTORS
330
1A
102
}
100
AcDbPlotSettings
  1

  2
none_device
  4
ANSI_C_(22.00_x_17.00_Inches)
  6

 40
0.0
 41
0.0
 42
0.0
 43
0.0
 44
558.8
 45
431.8
 46
0.0
 47
0.0
 48
0.0
 49
0.0
140
0.0
141
0.0
142
1.0
143
1.0
 70
0
 72
0
 73
0
 74
0
  7

 75
0
147
1.0
148
0.0
149
0.0
100
AcDbLayout
  1
Layout1
 70
0
 71
1
 10
0.0
 20
0.0
 11
22.0
 21
17.0
 12
0.0
 22
0.0
 32
0.0
 14
0.0
 24
0.0
 34
0.0
 15
0.0
 25
0.0
 35
0.0
146
0.0
 13
0.0
 23
0.0
 33
0.0
 16
1.0
 26
0.0
 36
0.0
 17
0.0
 27
1.0
 37
0.0
 76
0
330
203
345
0
346
0
  0
ENDSEC
  0
EOF
