999
DXF file: 3-902bp_top.dxf
999
Pro/ENGINEER 2013150 by Parametric Technology Corporation
  0
SECTION
  2
HEADER
  9
$ACADVER
  1
AC1021
  9
$DWGCODEPAGE
  3
ANSI_1252
  9
$EXTMAX
 10
11.0
 20
8.5
 30
0.0
  9
$EXTMIN
 10
0.0
 20
0.0
 30
0.0
  9
$LIMMIN
 10
0.0
 20
0.0
  9
$LIMMAX
 10
11.0
 20
8.5
  9
$VIEWCTR
 10
5.5
 20
4.25
  9
$VIEWSIZE
 40
8.5
  9
$CLAYER
  8
0
  9
$LTSCALE
 40
0.605
  9
$CELTYPE
  6
BYLAYER
  9
$DIMSCALE
 40
1.0
  9
$DIMASZ
 40
0.1
  9
$DIMEXO
 40
0.0625
  9
$DIMDLI
 40
0.418
  9
$DIMEXE
 40
0.125
  9
$DIMCEN
 40
0.099
  9
$DIMLFAC
 40
1.0
  9
$DIMBLK
  1
_FILLED
  9
$DIMTXT
 40
0.08
  9
$DIMTOL
 70
1
  9
$DIMLIM
 70
0
  9
$DIMTFAC
 40
1.0
  9
$DIMTP
 40
0.001
  9
$DIMTM
 40
0.001
  9
$DIMGAP
 40
0.09
  9
$DIMDSEP
 70
46
  9
$PDMODE
 70
3
  9
$PDSIZE
 40
0.3125
  9
$HANDSEED
  5
4DA
  9
$TILEMODE
 70
1
  9
$MEASUREMENT
 70
0
  9
$INSUNITS
 70
1
  0
ENDSEC
  0
SECTION
  2
CLASSES
  0
CLASS
  1
ACDBDICTIONARYWDFLT
  2
AcDbDictionaryWithDefault
  3
AutoCAD 2000
 90
0
 91
1
280
0
281
0
  0
CLASS
  1
ACDBPLACEHOLDER
  2
AcDbPlaceHolder
  3
AutoCAD 2000
 90
0
 91
1
280
0
281
0
  0
CLASS
  1
LAYOUT
  2
AcDbLayout
  3
AutoCAD 2000
 90
0
 91
0
280
0
281
0
  0
ENDSEC
  0
SECTION
  2
TABLES
  0
TABLE
  2
VPORT
  5
8
100
AcDbSymbolTable
 70
2
  0
VPORT
  5
1F4
100
AcDbSymbolTableRecord
100
AcDbViewportTableRecord
  2
*ACTIVE
 70
0
 10
0.0
 20
0.0
 11
1.0
 21
1.0
 12
5.5
 22
4.25
 13
0.0
 23
0.0
 14
1.0
 24
1.0
 15
0.0
 25
0.0
 16
0.0
 26
0.0
 36
1.0
 17
0.0
 27
0.0
 37
0.0
 40
8.5
 41
1.2941176471
 42
50.0
 43
0.0
 44
0.0
 50
0.0
 51
0.0
 71
0
 72
100
 73
1
 74
1
 75
0
 76
0
 77
0
 78
0
  0
ENDTAB
  0
TABLE
  2
LTYPE
  5
5
100
AcDbSymbolTable
 70
6
  0
LTYPE
  5
14
100
AcDbSymbolTableRecord
100
AcDbLinetypeTableRecord
  2
BYBLOCK
 70
0
  3

 72
65
 73
0
 40
0.0
  0
LTYPE
  5
15
100
AcDbSymbolTableRecord
100
AcDbLinetypeTableRecord
  2
BYLAYER
 70
0
  3

 72
65
 73
0
 40
0.0
  0
LTYPE
  5
16
100
AcDbSymbolTableRecord
100
AcDbLinetypeTableRecord
  2
CONTINUOUS
 70
64
  3
Solid line
 72
65
 73
0
 40
0.0
  0
LTYPE
  5
1F5
100
AcDbSymbolTableRecord
100
AcDbLinetypeTableRecord
  2
CENTER
 70
64
  3
____ _ ____ _ ____ _ ____ _ ____ _ ____ _ ____
 72
65
 73
4
 40
0.6
 49
0.375
 74
0
 49
-0.075
 74
0
 49
0.075
 74
0
 49
-0.075
 74
0
  0
LTYPE
  5
1F6
100
AcDbSymbolTableRecord
100
AcDbLinetypeTableRecord
  2
HIDDEN
 70
64
  3
- - - - - - - - - - - - - - - - - - - -
 72
65
 73
2
 40
0.2
 49
0.1
 74
0
 49
-0.1
 74
0
  0
LTYPE
  5
1F7
100
AcDbSymbolTableRecord
100
AcDbLinetypeTableRecord
  2
PHANTOM
 70
64
  3
_____ _ _ _____ _ _ _____ _ _ _____
 72
65
 73
6
 40
0.8
 49
0.45
 74
0
 49
-0.05
 74
0
 49
0.1
 74
0
 49
-0.05
 74
0
 49
0.1
 74
0
 49
-0.05
 74
0
  0
LTYPE
  5
1F8
100
AcDbSymbolTableRecord
100
AcDbLinetypeTableRecord
  2
DOT
 70
64
  3
. . . . . . . . . . . . . . . . . . . .
 72
65
 73
2
 40
0.2
 49
0.1
 74
0
 49
-0.1
 74
0
  0
LTYPE
  5
1F9
100
AcDbSymbolTableRecord
100
AcDbLinetypeTableRecord
  2
DASHED
 70
64
  3
- - - - - - - - - - - - - - - - - - - -
 72
65
 73
2
 40
0.2
 49
0.1
 74
0
 49
-0.1
 74
0
  0
ENDTAB
  0
TABLE
  2
LAYER
  5
2
100
AcDbSymbolTable
 70
36
  0
LAYER
  5
10
100
AcDbSymbolTableRecord
100
AcDbLayerTableRecord
  2
0
 70
0
 62
7
  6
CONTINUOUS
370
-3
390
F
  0
LAYER
  5
1FA
100
AcDbSymbolTableRecord
100
AcDbLayerTableRecord
  2
DEFAULT_1
 70
0
 62
7
  6
CENTER
370
-3
390
F
  0
LAYER
  5
1FB
100
AcDbSymbolTableRecord
100
AcDbLayerTableRecord
  2
DEFAULT_2
 70
0
 62
8
  6
HIDDEN
370
-3
390
F
  0
LAYER
  5
1FC
100
AcDbSymbolTableRecord
100
AcDbLayerTableRecord
  2
DEFAULT_3
 70
0
 62
7
  6
PHANTOM
370
-3
390
F
  0
LAYER
  5
1FD
100
AcDbSymbolTableRecord
100
AcDbLayerTableRecord
  2
_  SHELL
 70
0
 62
7
  6
CONTINUOUS
370
-3
390
F
  0
LAYER
  5
1FE
100
AcDbSymbolTableRecord
100
AcDbLayerTableRecord
  2
06___PRT_ALL_SURFS_15
 70
0
 62
7
  6
CONTINUOUS
370
-3
390
F
  0
LAYER
  5
1FF
100
AcDbSymbolTableRecord
100
AcDbLayerTableRecord
  2
11_9
 70
0
 62
7
  6
CONTINUOUS
370
-3
390
F
  0
LAYER
  5
200
100
AcDbSymbolTableRecord
100
AcDbLayerTableRecord
  2
1451A0A-0Z1-01
 70
0
 62
7
  6
CONTINUOUS
370
-3
390
F
  0
LAYER
  5
201
100
AcDbSymbolTableRecord
100
AcDbLayerTableRecord
  2
1451A0A-0Z1-02
 70
0
 62
7
  6
CONTINUOUS
370
-3
390
F
  0
LAYER
  5
202
100
AcDbSymbolTableRecord
100
AcDbLayerTableRecord
  2
1451A0A-0Z1-02_1
 70
0
 62
7
  6
CONTINUOUS
370
-3
390
F
  0
LAYER
  5
203
100
AcDbSymbolTableRecord
100
AcDbLayerTableRecord
  2
1451A0A-0Z1-03
 70
0
 62
7
  6
CONTINUOUS
370
-3
390
F
  0
LAYER
  5
204
100
AcDbSymbolTableRecord
100
AcDbLayerTableRecord
  2
1451A0A-0Z1-04
 70
0
 62
7
  6
CONTINUOUS
370
-3
390
F
  0
LAYER
  5
205
100
AcDbSymbolTableRecord
100
AcDbLayerTableRecord
  2
1451A0A-0Z1-05
 70
0
 62
7
  6
CONTINUOUS
370
-3
390
F
  0
LAYER
  5
206
100
AcDbSymbolTableRecord
100
AcDbLayerTableRecord
  2
1451A0A-0Z1-06
 70
0
 62
7
  6
CONTINUOUS
370
-3
390
F
  0
LAYER
  5
207
100
AcDbSymbolTableRecord
100
AcDbLayerTableRecord
  2
1451A0A-0Z1-07
 70
0
 62
7
  6
CONTINUOUS
370
-3
390
F
  0
LAYER
  5
208
100
AcDbSymbolTableRecord
100
AcDbLayerTableRecord
  2
2-103H_ASSY_DATUMS
 70
0
 62
7
  6
CONTINUOUS
370
-3
390
F
  0
LAYER
  5
209
100
AcDbSymbolTableRecord
100
AcDbLayerTableRecord
  2
2-217_ASSY_DATUMS
 70
0
 62
7
  6
CONTINUOUS
370
-3
390
F
  0
LAYER
  5
20A
100
AcDbSymbolTableRecord
100
AcDbLayerTableRecord
  2
2-224_ASSY_DATUMS
 70
0
 62
7
  6
CONTINUOUS
370
-3
390
F
  0
LAYER
  5
20B
100
AcDbSymbolTableRecord
100
AcDbLayerTableRecord
  2
22_4
 70
0
 62
7
  6
CONTINUOUS
370
-3
390
F
  0
LAYER
  5
20C
100
AcDbSymbolTableRecord
100
AcDbLayerTableRecord
  2
22_5
 70
0
 62
7
  6
CONTINUOUS
370
-3
390
F
  0
LAYER
  5
20D
100
AcDbSymbolTableRecord
100
AcDbLayerTableRecord
  2
264X18
 70
0
 62
7
  6
CONTINUOUS
370
-3
390
F
  0
LAYER
  5
20E
100
AcDbSymbolTableRecord
100
AcDbLayerTableRecord
  2
3-187H_ASSY_PLANES
 70
0
 62
7
  6
CONTINUOUS
370
-3
390
F
  0
LAYER
  5
20F
100
AcDbSymbolTableRecord
100
AcDbLayerTableRecord
  2
30X15
 70
0
 62
7
  6
CONTINUOUS
370
-3
390
F
  0
LAYER
  5
210
100
AcDbSymbolTableRecord
100
AcDbLayerTableRecord
  2
315X18
 70
0
 62
7
  6
CONTINUOUS
370
-3
390
F
  0
LAYER
  5
211
100
AcDbSymbolTableRecord
100
AcDbLayerTableRecord
  2
59X178
 70
0
 62
7
  6
CONTINUOUS
370
-3
390
F
  0
LAYER
  5
212
100
AcDbSymbolTableRecord
100
AcDbLayerTableRecord
  2
6X15
 70
0
 62
7
  6
CONTINUOUS
370
-3
390
F
  0
LAYER
  5
213
100
AcDbSymbolTableRecord
100
AcDbLayerTableRecord
  2
925X178
 70
0
 62
7
  6
CONTINUOUS
370
-3
390
F
  0
LAYER
  5
214
100
AcDbSymbolTableRecord
100
AcDbLayerTableRecord
  2
ADATUM
 70
0
 62
7
  6
CONTINUOUS
370
-3
390
F
  0
LAYER
  5
215
100
AcDbSymbolTableRecord
100
AcDbLayerTableRecord
  2
ALL_ASSEMBLY_MEMBERS
 70
0
 62
7
  6
CONTINUOUS
370
-3
390
F
  0
LAYER
  5
216
100
AcDbSymbolTableRecord
100
AcDbLayerTableRecord
  2
ALL_FEATURES
 70
0
 62
7
  6
CONTINUOUS
370
-3
390
F
  0
LAYER
  5
217
100
AcDbSymbolTableRecord
100
AcDbLayerTableRecord
  2
AXES_FEATURES
 70
0
 62
7
  6
CONTINUOUS
370
-3
390
F
  0
LAYER
  5
218
100
AcDbSymbolTableRecord
100
AcDbLayerTableRecord
  2
BLANK_ME
 70
0
 62
7
  6
CONTINUOUS
370
-3
390
F
  0
LAYER
  5
219
100
AcDbSymbolTableRecord
100
AcDbLayerTableRecord
  2
CHAMFER_FEATURES
 70
0
 62
7
  6
CONTINUOUS
370
-3
390
F
  0
LAYER
  5
21A
100
AcDbSymbolTableRecord
100
AcDbLayerTableRecord
  2
COLOR14
 70
0
 62
7
  6
CONTINUOUS
370
-3
390
F
  0
LAYER
  5
21B
100
AcDbSymbolTableRecord
100
AcDbLayerTableRecord
  2
COLOR33
 70
0
 62
7
  6
CONTINUOUS
370
-3
390
F
  0
LAYER
  5
21C
100
AcDbSymbolTableRecord
100
AcDbLayerTableRecord
  2
COLOR9
 70
0
 62
7
  6
CONTINUOUS
370
-3
390
F
  0
LAYER
  5
21D
100
AcDbSymbolTableRecord
100
AcDbLayerTableRecord
  2
CONSTR_CURVES
 70
0
 62
7
  6
CONTINUOUS
370
-3
390
F
  0
LAYER
  5
21E
100
AcDbSymbolTableRecord
100
AcDbLayerTableRecord
  2
COORDINATE_SYSTEMS
 70
0
 62
7
  6
CONTINUOUS
370
-3
390
F
  0
LAYER
  5
21F
100
AcDbSymbolTableRecord
100
AcDbLayerTableRecord
  2
COSMETIC_SKETCHES
 70
0
 62
7
  6
CONTINUOUS
370
-3
390
F
  0
LAYER
  5
220
100
AcDbSymbolTableRecord
100
AcDbLayerTableRecord
  2
CROSS_CUT
 70
0
 62
7
  6
CONTINUOUS
370
-3
390
F
  0
LAYER
  5
221
100
AcDbSymbolTableRecord
100
AcDbLayerTableRecord
  2
CURVE
 70
0
 62
7
  6
CONTINUOUS
370
-3
390
F
  0
LAYER
  5
222
100
AcDbSymbolTableRecord
100
AcDbLayerTableRecord
  2
CUT_FEATURES
 70
0
 62
7
  6
CONTINUOUS
370
-3
390
F
  0
LAYER
  5
223
100
AcDbSymbolTableRecord
100
AcDbLayerTableRecord
  2
DATUM_CURVE
 70
0
 62
7
  6
CONTINUOUS
370
-3
390
F
  0
LAYER
  5
224
100
AcDbSymbolTableRecord
100
AcDbLayerTableRecord
  2
DATUM_CURVES
 70
0
 62
7
  6
CONTINUOUS
370
-3
390
F
  0
LAYER
  5
225
100
AcDbSymbolTableRecord
100
AcDbLayerTableRecord
  2
DATUM_PLANE
 70
0
 62
7
  6
CONTINUOUS
370
-3
390
F
  0
LAYER
  5
226
100
AcDbSymbolTableRecord
100
AcDbLayerTableRecord
  2
DATUM_PLANES
 70
0
 62
7
  6
CONTINUOUS
370
-3
390
F
  0
LAYER
  5
227
100
AcDbSymbolTableRecord
100
AcDbLayerTableRecord
  2
DATUM_POINTS
 70
0
 62
7
  6
CONTINUOUS
370
-3
390
F
  0
LAYER
  5
228
100
AcDbSymbolTableRecord
100
AcDbLayerTableRecord
  2
DEFAULT_COORDINATE_SYSTEM
 70
0
 62
7
  6
CONTINUOUS
370
-3
390
F
  0
LAYER
  5
229
100
AcDbSymbolTableRecord
100
AcDbLayerTableRecord
  2
DEFAULT_DATUM_AXES
 70
0
 62
7
  6
CONTINUOUS
370
-3
390
F
  0
LAYER
  5
22A
100
AcDbSymbolTableRecord
100
AcDbLayerTableRecord
  2
DEFAULT_DATUM_CURVES
 70
0
 62
7
  6
CONTINUOUS
370
-3
390
F
  0
LAYER
  5
22B
100
AcDbSymbolTableRecord
100
AcDbLayerTableRecord
  2
DEFAULT_DATUM_PLANES
 70
0
 62
7
  6
CONTINUOUS
370
-3
390
F
  0
LAYER
  5
22C
100
AcDbSymbolTableRecord
100
AcDbLayerTableRecord
  2
DEFAULT_SURFACES
 70
0
 62
7
  6
CONTINUOUS
370
-3
390
F
  0
LAYER
  5
22D
100
AcDbSymbolTableRecord
100
AcDbLayerTableRecord
  2
DEF_DTM0
 70
0
 62
7
  6
CONTINUOUS
370
-3
390
F
  0
LAYER
  5
22E
100
AcDbSymbolTableRecord
100
AcDbLayerTableRecord
  2
DETAIL_ITEMS
 70
0
 62
7
  6
CONTINUOUS
370
-3
390
F
  0
LAYER
  5
22F
100
AcDbSymbolTableRecord
100
AcDbLayerTableRecord
  2
DIMENSIONS
 70
0
 62
7
  6
CONTINUOUS
370
-3
390
F
  0
LAYER
  5
230
100
AcDbSymbolTableRecord
100
AcDbLayerTableRecord
  2
DRAFT_FEATURES
 70
0
 62
7
  6
CONTINUOUS
370
-3
390
F
  0
LAYER
  5
231
100
AcDbSymbolTableRecord
100
AcDbLayerTableRecord
  2
DRW_DTM
 70
0
 62
7
  6
CONTINUOUS
370
-3
390
F
  0
LAYER
  5
232
100
AcDbSymbolTableRecord
100
AcDbLayerTableRecord
  2
HIDE
 70
0
 62
7
  6
CONTINUOUS
370
-3
390
F
  0
LAYER
  5
233
100
AcDbSymbolTableRecord
100
AcDbLayerTableRecord
  2
HIDE_10
 70
0
 62
7
  6
CONTINUOUS
370
-3
390
F
  0
LAYER
  5
234
100
AcDbSymbolTableRecord
100
AcDbLayerTableRecord
  2
HIDE_7
 70
0
 62
7
  6
CONTINUOUS
370
-3
390
F
  0
LAYER
  5
235
100
AcDbSymbolTableRecord
100
AcDbLayerTableRecord
  2
HIDE_8
 70
0
 62
7
  6
CONTINUOUS
370
-3
390
F
  0
LAYER
  5
236
100
AcDbSymbolTableRecord
100
AcDbLayerTableRecord
  2
HIDE_9
 70
0
 62
7
  6
CONTINUOUS
370
-3
390
F
  0
LAYER
  5
237
100
AcDbSymbolTableRecord
100
AcDbLayerTableRecord
  2
HOLE_FEATURES
 70
0
 62
7
  6
CONTINUOUS
370
-3
390
F
  0
LAYER
  5
238
100
AcDbSymbolTableRecord
100
AcDbLayerTableRecord
  2
INTFCLR_33883
 70
0
 62
7
  6
CONTINUOUS
370
-3
390
F
  0
LAYER
  5
239
100
AcDbSymbolTableRecord
100
AcDbLayerTableRecord
  2
INTFCLR_33883_1
 70
0
 62
7
  6
CONTINUOUS
370
-3
390
F
  0
LAYER
  5
23A
100
AcDbSymbolTableRecord
100
AcDbLayerTableRecord
  2
INTFCLR_33883_2
 70
0
 62
7
  6
CONTINUOUS
370
-3
390
F
  0
LAYER
  5
23B
100
AcDbSymbolTableRecord
100
AcDbLayerTableRecord
  2
INTFCLR_33883_3
 70
0
 62
7
  6
CONTINUOUS
370
-3
390
F
  0
LAYER
  5
23C
100
AcDbSymbolTableRecord
100
AcDbLayerTableRecord
  2
INTFCLR_33883_4
 70
0
 62
7
  6
CONTINUOUS
370
-3
390
F
  0
LAYER
  5
23D
100
AcDbSymbolTableRecord
100
AcDbLayerTableRecord
  2
INTFCLR_33883_5
 70
0
 62
7
  6
CONTINUOUS
370
-3
390
F
  0
LAYER
  5
23E
100
AcDbSymbolTableRecord
100
AcDbLayerTableRecord
  2
INTF_BLANK
 70
0
 62
7
  6
CONTINUOUS
370
-3
390
F
  0
LAYER
  5
23F
100
AcDbSymbolTableRecord
100
AcDbLayerTableRecord
  2
MIXEDCOLOR
 70
0
 62
7
  6
CONTINUOUS
370
-3
390
F
  0
LAYER
  5
240
100
AcDbSymbolTableRecord
100
AcDbLayerTableRecord
  2
NOTES
 70
0
 62
7
  6
CONTINUOUS
370
-3
390
F
  0
LAYER
  5
241
100
AcDbSymbolTableRecord
100
AcDbLayerTableRecord
  2
PART_REFERENCE_DIMENSIONS
 70
0
 62
7
  6
CONTINUOUS
370
-3
390
F
  0
LAYER
  5
242
100
AcDbSymbolTableRecord
100
AcDbLayerTableRecord
  2
PLATED_AREA
 70
0
 62
7
  6
CONTINUOUS
370
-3
390
F
  0
LAYER
  5
243
100
AcDbSymbolTableRecord
100
AcDbLayerTableRecord
  2
PLATED_SURFACE_AREA
 70
0
 62
7
  6
CONTINUOUS
370
-3
390
F
  0
LAYER
  5
244
100
AcDbSymbolTableRecord
100
AcDbLayerTableRecord
  2
POINTS
 70
0
 62
7
  6
CONTINUOUS
370
-3
390
F
  0
LAYER
  5
245
100
AcDbSymbolTableRecord
100
AcDbLayerTableRecord
  2
PROTRUSION
 70
0
 62
7
  6
CONTINUOUS
370
-3
390
F
  0
LAYER
  5
246
100
AcDbSymbolTableRecord
100
AcDbLayerTableRecord
  2
PROTRUSION_FEATURES
 70
0
 62
7
  6
CONTINUOUS
370
-3
390
F
  0
LAYER
  5
247
100
AcDbSymbolTableRecord
100
AcDbLayerTableRecord
  2
QUILT
 70
0
 62
7
  6
CONTINUOUS
370
-3
390
F
  0
LAYER
  5
248
100
AcDbSymbolTableRecord
100
AcDbLayerTableRecord
  2
QUILTED_AREA
 70
0
 62
7
  6
CONTINUOUS
370
-3
390
F
  0
LAYER
  5
249
100
AcDbSymbolTableRecord
100
AcDbLayerTableRecord
  2
QUILTS
 70
0
 62
7
  6
CONTINUOUS
370
-3
390
F
  0
LAYER
  5
24A
100
AcDbSymbolTableRecord
100
AcDbLayerTableRecord
  2
REFERENCE_DIMENSIONS
 70
0
 62
7
  6
CONTINUOUS
370
-3
390
F
  0
LAYER
  5
24B
100
AcDbSymbolTableRecord
100
AcDbLayerTableRecord
  2
ROUND_FEATURES
 70
0
 62
7
  6
CONTINUOUS
370
-3
390
F
  0
LAYER
  5
24C
100
AcDbSymbolTableRecord
100
AcDbLayerTableRecord
  2
S01012-09A
 70
0
 62
7
  6
CONTINUOUS
370
-3
390
F
  0
LAYER
  5
24D
100
AcDbSymbolTableRecord
100
AcDbLayerTableRecord
  2
S01012-10A
 70
0
 62
7
  6
CONTINUOUS
370
-3
390
F
  0
LAYER
  5
24E
100
AcDbSymbolTableRecord
100
AcDbLayerTableRecord
  2
S02015-05
 70
0
 62
7
  6
CONTINUOUS
370
-3
390
F
  0
LAYER
  5
24F
100
AcDbSymbolTableRecord
100
AcDbLayerTableRecord
  2
S02015-16B
 70
0
 62
7
  6
CONTINUOUS
370
-3
390
F
  0
LAYER
  5
250
100
AcDbSymbolTableRecord
100
AcDbLayerTableRecord
  2
S02015-17
 70
0
 62
7
  6
CONTINUOUS
370
-3
390
F
  0
LAYER
  5
251
100
AcDbSymbolTableRecord
100
AcDbLayerTableRecord
  2
S02015-18
 70
0
 62
7
  6
CONTINUOUS
370
-3
390
F
  0
LAYER
  5
252
100
AcDbSymbolTableRecord
100
AcDbLayerTableRecord
  2
S02015-20A
 70
0
 62
7
  6
CONTINUOUS
370
-3
390
F
  0
LAYER
  5
253
100
AcDbSymbolTableRecord
100
AcDbLayerTableRecord
  2
S02015-31A
 70
0
 62
7
  6
CONTINUOUS
370
-3
390
F
  0
LAYER
  5
254
100
AcDbSymbolTableRecord
100
AcDbLayerTableRecord
  2
S02015-32A
 70
0
 62
7
  6
CONTINUOUS
370
-3
390
F
  0
LAYER
  5
255
100
AcDbSymbolTableRecord
100
AcDbLayerTableRecord
  2
S02015-32A_1
 70
0
 62
7
  6
CONTINUOUS
370
-3
390
F
  0
LAYER
  5
256
100
AcDbSymbolTableRecord
100
AcDbLayerTableRecord
  2
S02015-35
 70
0
 62
7
  6
CONTINUOUS
370
-3
390
F
  0
LAYER
  5
257
100
AcDbSymbolTableRecord
100
AcDbLayerTableRecord
  2
S15025-04A
 70
0
 62
7
  6
CONTINUOUS
370
-3
390
F
  0
LAYER
  5
258
100
AcDbSymbolTableRecord
100
AcDbLayerTableRecord
  2
SHELL_FEATURES
 70
0
 62
7
  6
CONTINUOUS
370
-3
390
F
  0
LAYER
  5
259
100
AcDbSymbolTableRecord
100
AcDbLayerTableRecord
  2
SURFACE
 70
0
 62
7
  6
CONTINUOUS
370
-3
390
F
  0
LAYER
  5
25A
100
AcDbSymbolTableRecord
100
AcDbLayerTableRecord
  2
SURFACE_FEATURES
 70
0
 62
7
  6
CONTINUOUS
370
-3
390
F
  0
LAYER
  5
25B
100
AcDbSymbolTableRecord
100
AcDbLayerTableRecord
  2
WETTED_SURFACES
 70
0
 62
7
  6
CONTINUOUS
370
-3
390
F
  0
LAYER
  5
25C
100
AcDbSymbolTableRecord
100
AcDbLayerTableRecord
  2
WETTED_SURFACE_AREA
 70
0
 62
7
  6
CONTINUOUS
370
-3
390
F
  0
LAYER
  5
25D
100
AcDbSymbolTableRecord
100
AcDbLayerTableRecord
  2
XSEC_DATUMS
 70
0
 62
7
  6
CONTINUOUS
370
-3
390
F
  0
LAYER
  5
25E
100
AcDbSymbolTableRecord
100
AcDbLayerTableRecord
  2
___SHELL
 70
0
 62
7
  6
CONTINUOUS
370
-3
390
F
  0
ENDTAB
  0
TABLE
  2
STYLE
  5
3
100
AcDbSymbolTable
 70
1
  0
STYLE
  5
11
100
AcDbSymbolTableRecord
100
AcDbTextStyleTableRecord
  2
STANDARD
 70
0
 40
0.0
 41
0.8
 50
0.0
 71
0
 42
0.2
  3
txt
  4

  0
STYLE
  5
25F
100
AcDbSymbolTableRecord
100
AcDbTextStyleTableRecord
  2
TEXTSTYLE_1
 70
0
 40
0.0
 41
0.8
 50
0.0
 71
0
 42
0.2
  3
gdt
  4

  0
ENDTAB
  0
TABLE
  2
VIEW
  5
6
100
AcDbSymbolTable
 70
0
  0
ENDTAB
  0
TABLE
  2
UCS
  5
7
100
AcDbSymbolTable
 70
0
  0
ENDTAB
  0
TABLE
  2
APPID
  5
9
100
AcDbSymbolTable
 70
1
  0
APPID
  5
260
100
AcDbSymbolTableRecord
100
AcDbRegAppTableRecord
  2
ACAD
 70
0
  0
ENDTAB
  0
TABLE
  2
BLOCK_RECORD
  5
1
100
AcDbSymbolTable
 70
0
  0
BLOCK_RECORD
  5
261
100
AcDbSymbolTableRecord
100
AcDbBlockTableRecord
  2
*Model_Space
  0
BLOCK_RECORD
  5
262
100
AcDbSymbolTableRecord
100
AcDbBlockTableRecord
  2
*Paper_Space
  0
ENDTAB
  0
TABLE
  2
DIMSTYLE
  5
A
100
AcDbSymbolTable
 70
1
100
AcDbDimStyleTable
 71
0
  0
DIMSTYLE
105
263
100
AcDbSymbolTableRecord
100
AcDbDimStyleTableRecord
  2
STANDARD
 70
0
  3

  4

 40
1.0
 41
0.1
 42
0.0625
 43
0.38
 44
0.125
 45
0.0
 46
0.0
 47
0.001
 48
0.001
140
0.08
141
0.09
142
0.0
143
25.4
144
1.0
145
0.0
146
1.0
147
0.09
 71
1.0
 72
0.0
 73
1
 74
1
 75
0
 76
0
 77
0
 78
4
170
0
171
2
172
0
173
0
174
0
175
0
176
0
177
0
178
0
270
2
271
3
272
3
273
2
274
2
275
0
280
0
281
0
282
0
283
1
284
4
285
0
286
0
287
3
288
0
340
11
278
46
  0
ENDTAB
  0
ENDSEC
  0
SECTION
  2
BLOCKS
  0
BLOCK
  5
20
100
AcDbEntity
  8
0
100
AcDbBlockBegin
  2
*Model_Space
 70
0
 10
0.0
 20
0.0
 30
0.0
  3
*Model_Space
  1

  0
ENDBLK
  5
21
100
AcDbEntity
  8
0
100
AcDbBlockEnd
  0
BLOCK
  5
1C
100
AcDbEntity
  8
0
100
AcDbBlockBegin
  2
*Paper_Space
 70
0
 10
0.0
 20
0.0
 30
0.0
  3
*Paper_Space
  1

  0
ENDBLK
  5
1D
100
AcDbEntity
  8
0
100
AcDbBlockEnd
  0
ENDSEC
  0
SECTION
  2
ENTITIES
  0
LINE
  5
264
100
AcDbEntity
  8
0
100
AcDbLine
 62
7
  6
CONTINUOUS
 10
0.0
 20
0.0
 11
0.0
 21
8.5
  0
LINE
  5
265
100
AcDbEntity
  8
0
100
AcDbLine
 62
7
  6
CONTINUOUS
 10
0.0
 20
0.0
 11
11.0
 21
0.0
  0
LINE
  5
266
100
AcDbEntity
  8
0
100
AcDbLine
 62
7
  6
CONTINUOUS
 10
0.0
 20
8.5
 11
11.0
 21
8.5
  0
LINE
  5
267
100
AcDbEntity
  8
0
100
AcDbLine
 62
7
  6
CONTINUOUS
 10
11.0
 20
0.0
 11
11.0
 21
8.5
  0
LINE
  5
268
100
AcDbEntity
  8
ALL_ASSEMBLY_MEMBERS
100
AcDbLine
 62
7
  6
CONTINUOUS
 10
3.982129549
 20
5.4914455948
 11
3.9794663121
 21
5.4899075484
  0
LINE
  5
269
100
AcDbEntity
  8
ALL_ASSEMBLY_MEMBERS
100
AcDbLine
 62
7
  6
CONTINUOUS
 10
3.9821295489
 20
5.4865230926
 11
3.979466312
 21
5.4849850462
  0
LINE
  5
26A
100
AcDbEntity
  8
ALL_ASSEMBLY_MEMBERS
100
AcDbLine
 62
7
  6
CONTINUOUS
 10
3.9821295486
 20
5.4816005969
 11
3.979466312
 21
5.4800625507
  0
LINE
  5
26B
100
AcDbEntity
  8
ALL_ASSEMBLY_MEMBERS
100
AcDbLine
 62
7
  6
CONTINUOUS
 10
3.9821295489
 20
5.4766780962
 11
3.9794663121
 21
5.4751400499
  0
LINE
  5
26C
100
AcDbEntity
  8
ALL_ASSEMBLY_MEMBERS
100
AcDbLine
 62
7
  6
CONTINUOUS
 10
3.982129549
 20
5.4717555929
 11
3.979466312
 21
5.4702175465
  0
LINE
  5
26D
100
AcDbEntity
  8
ALL_ASSEMBLY_MEMBERS
100
AcDbLine
 62
7
  6
CONTINUOUS
 10
3.9821295486
 20
5.4668330948
 11
3.979466312
 21
5.4652950486
  0
LINE
  5
26E
100
AcDbEntity
  8
ALL_ASSEMBLY_MEMBERS
100
AcDbLine
 62
7
  6
CONTINUOUS
 10
3.9821295488
 20
5.4619105972
 11
3.979466312
 21
5.4603725509
  0
LINE
  5
26F
100
AcDbEntity
  8
ALL_ASSEMBLY_MEMBERS
100
AcDbLine
 62
7
  6
CONTINUOUS
 10
3.982129549
 20
5.456988094
 11
3.9794663121
 21
5.4554500476
  0
LINE
  5
270
100
AcDbEntity
  8
ALL_ASSEMBLY_MEMBERS
100
AcDbLine
 62
7
  6
CONTINUOUS
 10
3.9821295488
 20
5.452065593
 11
3.9816798043
 21
5.4518058582
  0
LINE
  5
271
100
AcDbEntity
  8
ALL_ASSEMBLY_MEMBERS
100
AcDbLine
 62
7
  6
CONTINUOUS
 10
3.9821132137
 20
5.4500411035
 11
3.9794507137
 21
5.4485039085
  0
LINE
  5
272
100
AcDbEntity
  8
ALL_ASSEMBLY_MEMBERS
100
AcDbLine
 62
7
  6
CONTINUOUS
 10
4.0947718783
 20
5.4901766102
 11
4.0974351153
 21
5.4917146566
  0
LINE
  5
273
100
AcDbEntity
  8
ALL_ASSEMBLY_MEMBERS
100
AcDbLine
 62
7
  6
CONTINUOUS
 10
4.0947718787
 20
5.4852541112
 11
4.0974351154
 21
5.4867921575
  0
LINE
  5
274
100
AcDbEntity
  8
ALL_ASSEMBLY_MEMBERS
100
AcDbLine
 62
7
  6
CONTINUOUS
 10
4.0947718786
 20
5.4803316144
 11
4.0974351153
 21
5.4818696607
  0
LINE
  5
275
100
AcDbEntity
  8
ALL_ASSEMBLY_MEMBERS
100
AcDbLine
 62
7
  6
CONTINUOUS
 10
4.0947718784
 20
5.4754091114
 11
4.0974351153
 21
5.4769471578
  0
LINE
  5
276
100
AcDbEntity
  8
ALL_ASSEMBLY_MEMBERS
100
AcDbLine
 62
7
  6
CONTINUOUS
 10
4.0947718785
 20
5.4704866098
 11
4.0974351153
 21
5.4720246562
  0
LINE
  5
277
100
AcDbEntity
  8
ALL_ASSEMBLY_MEMBERS
100
AcDbLine
 62
7
  6
CONTINUOUS
 10
4.0947718788
 20
5.4655641143
 11
4.0974351154
 21
5.4671021605
  0
LINE
  5
278
100
AcDbEntity
  8
ALL_ASSEMBLY_MEMBERS
100
AcDbLine
 62
7
  6
CONTINUOUS
 10
4.0947718785
 20
5.4606416128
 11
4.0974351153
 21
5.4621796592
  0
LINE
  5
279
100
AcDbEntity
  8
ALL_ASSEMBLY_MEMBERS
100
AcDbLine
 62
7
  6
CONTINUOUS
 10
4.0947718784
 20
5.4557191098
 11
4.0974351153
 21
5.4572571562
  0
LINE
  5
27A
100
AcDbEntity
  8
ALL_ASSEMBLY_MEMBERS
100
AcDbLine
 62
7
  6
CONTINUOUS
 10
4.0974507137
 20
5.4528082986
 11
4.0947882137
 21
5.4512711035
  0
LINE
  5
27B
100
AcDbEntity
  8
ALL_ASSEMBLY_MEMBERS
100
AcDbLine
 62
7
  6
CONTINUOUS
 10
3.9844507137
 20
5.4985039085
 11
3.9798881658
 21
5.4939413606
  0
LINE
  5
27C
100
AcDbEntity
  8
ALL_ASSEMBLY_MEMBERS
100
AcDbLine
 62
7
  6
CONTINUOUS
 10
3.9794507137
 20
5.489889533
 11
3.9794663121
 21
5.4899075484
  0
LINE
  5
27D
100
AcDbEntity
  8
ALL_ASSEMBLY_MEMBERS
100
AcDbLine
 62
7
  6
CONTINUOUS
 10
3.979466312
 20
5.4849850462
 11
3.9794507137
 21
5.4849670308
  0
LINE
  5
27E
100
AcDbEntity
  8
ALL_ASSEMBLY_MEMBERS
100
AcDbLine
 62
7
  6
CONTINUOUS
 10
3.979466312
 20
5.4800625507
 11
3.9794507137
 21
5.4800445353
  0
LINE
  5
27F
100
AcDbEntity
  8
ALL_ASSEMBLY_MEMBERS
100
AcDbLine
 62
7
  6
CONTINUOUS
 10
3.9794663121
 20
5.4751400499
 11
3.9794507137
 21
5.4751220345
  0
LINE
  5
280
100
AcDbEntity
  8
ALL_ASSEMBLY_MEMBERS
100
AcDbLine
 62
7
  6
CONTINUOUS
 10
3.979466312
 20
5.4702175465
 11
3.9794507137
 21
5.4701995311
  0
LINE
  5
281
100
AcDbEntity
  8
ALL_ASSEMBLY_MEMBERS
100
AcDbLine
 62
7
  6
CONTINUOUS
 10
3.979466312
 20
5.4652950486
 11
3.9794507137
 21
5.4652770333
  0
LINE
  5
282
100
AcDbEntity
  8
ALL_ASSEMBLY_MEMBERS
100
AcDbLine
 62
7
  6
CONTINUOUS
 10
3.979466312
 20
5.4603725509
 11
3.9794507137
 21
5.4603545355
  0
LINE
  5
283
100
AcDbEntity
  8
ALL_ASSEMBLY_MEMBERS
100
AcDbLine
 62
7
  6
CONTINUOUS
 10
3.9794663121
 20
5.4554500476
 11
3.9794507137
 21
5.4554320322
  0
LINE
  5
284
100
AcDbEntity
  8
ALL_ASSEMBLY_MEMBERS
100
AcDbLine
 62
7
  6
CONTINUOUS
 10
4.0974351154
 20
5.4867921575
 11
4.0974507137
 21
5.4868101728
  0
LINE
  5
285
100
AcDbEntity
  8
ALL_ASSEMBLY_MEMBERS
100
AcDbLine
 62
7
  6
CONTINUOUS
 10
4.0974351153
 20
5.4818696607
 11
4.0974507137
 21
5.4818876761
  0
LINE
  5
286
100
AcDbEntity
  8
ALL_ASSEMBLY_MEMBERS
100
AcDbLine
 62
7
  6
CONTINUOUS
 10
4.0974351153
 20
5.4769471578
 11
4.0974507137
 21
5.4769651732
  0
LINE
  5
287
100
AcDbEntity
  8
ALL_ASSEMBLY_MEMBERS
100
AcDbLine
 62
7
  6
CONTINUOUS
 10
4.0974351153
 20
5.4720246562
 11
4.0974507137
 21
5.4720426716
  0
LINE
  5
288
100
AcDbEntity
  8
ALL_ASSEMBLY_MEMBERS
100
AcDbLine
 62
7
  6
CONTINUOUS
 10
4.0974351154
 20
5.4671021605
 11
4.0974507137
 21
5.4671201759
  0
LINE
  5
289
100
AcDbEntity
  8
ALL_ASSEMBLY_MEMBERS
100
AcDbLine
 62
7
  6
CONTINUOUS
 10
4.0974351153
 20
5.4621796592
 11
4.0974507137
 21
5.4621976746
  0
LINE
  5
28A
100
AcDbEntity
  8
ALL_ASSEMBLY_MEMBERS
100
AcDbLine
 62
7
  6
CONTINUOUS
 10
4.0974351153
 20
5.4572571562
 11
4.0974507137
 21
5.4572751716
  0
LINE
  5
28B
100
AcDbEntity
  8
ALL_ASSEMBLY_MEMBERS
100
AcDbLine
 62
7
  6
CONTINUOUS
 10
3.9460919393
 20
4.9191612235
 11
3.9370041219
 21
4.9139077869
  0
LINE
  5
28C
100
AcDbEntity
  8
ALL_ASSEMBLY_MEMBERS
100
AcDbLine
 62
7
  6
CONTINUOUS
 10
3.9456384988
 20
4.9013026833
 11
3.9370036356
 21
4.8963111446
  0
LINE
  5
28D
100
AcDbEntity
  8
ALL_ASSEMBLY_MEMBERS
100
AcDbLine
 62
7
  6
CONTINUOUS
 10
3.9452135866
 20
4.8834442259
 11
3.9370031724
 21
4.8786980977
  0
LINE
  5
28E
100
AcDbEntity
  8
ALL_ASSEMBLY_MEMBERS
100
AcDbLine
 62
7
  6
CONTINUOUS
 10
4.1305765172
 20
4.9322516795
 11
4.1323543361
 21
4.9332795877
  0
LINE
  5
28F
100
AcDbEntity
  8
ALL_ASSEMBLY_MEMBERS
100
AcDbLine
 62
7
  6
CONTINUOUS
 10
3.9370041219
 20
4.9139077872
 11
3.9368882174
 21
4.9137745744
  0
LINE
  5
290
100
AcDbEntity
  8
ALL_ASSEMBLY_MEMBERS
100
AcDbLine
 62
7
  6
CONTINUOUS
 10
3.9370031724
 20
4.8786980957
 11
3.9368882189
 21
4.8785661357
  0
LINE
  5
291
100
AcDbEntity
  8
ALL_ASSEMBLY_MEMBERS
100
AcDbLine
 62
7
  6
CONTINUOUS
 10
3.9468882137
 20
4.9357539085
 11
3.9387657428
 21
4.9276314375
  0
LINE
  5
292
100
AcDbEntity
  8
ALL_ASSEMBLY_MEMBERS
100
AcDbLine
 62
7
  6
CONTINUOUS
 10
4.1310269067
 20
4.9143953787
 11
4.1398905802
 21
4.9195196
  0
LINE
  5
293
100
AcDbEntity
  8
ALL_ASSEMBLY_MEMBERS
100
AcDbLine
 62
7
  6
CONTINUOUS
 10
4.1315037214
 20
4.8965385723
 11
4.139890441
 21
4.9013870339
  0
LINE
  5
294
100
AcDbEntity
  8
ALL_ASSEMBLY_MEMBERS
100
AcDbLine
 62
7
  6
CONTINUOUS
 10
4.131986931
 20
4.878681684
 11
4.1398901568
 21
4.8832506149
  0
LINE
  5
295
100
AcDbEntity
  8
ALL_ASSEMBLY_MEMBERS
100
AcDbLine
 62
40
  6
CONTINUOUS
 10
3.8003257137
 20
3.4742197843
 11
3.8265689202
 21
3.4586025459
  0
LINE
  5
296
100
AcDbEntity
  8
ALL_ASSEMBLY_MEMBERS
100
AcDbLine
 62
40
  6
CONTINUOUS
 10
3.8359507137
 20
3.4641758204
 11
3.8371282521
 21
3.4630912231
  0
LINE
  5
297
100
AcDbEntity
  8
ALL_ASSEMBLY_MEMBERS
100
AcDbLine
 62
7
  6
CONTINUOUS
 10
3.5622007137
 20
3.1739674022
 11
3.5622007137
 21
3.1416086354
  0
LINE
  5
298
100
AcDbEntity
  8
ALL_ASSEMBLY_MEMBERS
100
AcDbLine
 62
7
  6
CONTINUOUS
 10
4.1400132137
 20
4.9196613474
 11
4.1398905802
 21
4.9195196
  0
LINE
  5
299
100
AcDbEntity
  8
ALL_ASSEMBLY_MEMBERS
100
AcDbLine
 62
7
  6
CONTINUOUS
 10
4.139890441
 20
4.9013870339
 11
4.1400132128
 21
4.9015285553
  0
LINE
  5
29A
100
AcDbEntity
  8
ALL_ASSEMBLY_MEMBERS
100
AcDbLine
 62
7
  6
CONTINUOUS
 10
3.6334507137
 20
3.2133130031
 11
3.6334507137
 21
3.2073046403
  0
LINE
  5
29B
100
AcDbEntity
  8
ALL_ASSEMBLY_MEMBERS
100
AcDbLine
 62
7
  6
CONTINUOUS
 10
4.0954485683
 20
5.4954899126
 11
4.0954528906
 21
5.4955017316
  0
LINE
  5
29C
100
AcDbEntity
  8
ALL_FEATURES
100
AcDbLine
 62
9
  6
CONTINUOUS
 10
3.8290757145
 20
3.6732539085
 11
3.8336482968
 21
3.6734440296
  0
LINE
  5
29D
100
AcDbEntity
  8
ALL_FEATURES
100
AcDbLine
 62
9
  6
CONTINUOUS
 10
3.8336482968
 20
3.6734440296
 11
3.8446877244
 21
3.6738958633
  0
LINE
  5
29E
100
AcDbEntity
  8
ALL_FEATURES
100
AcDbLine
 62
9
  6
CONTINUOUS
 10
3.8291017084
 20
3.672616807
 11
3.8447137143
 21
3.6732539085
  0
LINE
  5
29F
100
AcDbEntity
  8
ALL_FEATURES
100
AcDbLine
 62
9
  6
CONTINUOUS
 10
4.2321877131
 20
3.6732539085
 11
4.1396943127
 21
3.6732539085
  0
LINE
  5
2A0
100
AcDbEntity
  8
ALL_FEATURES
100
AcDbLine
 62
9
  6
CONTINUOUS
 10
3.9368882751
 20
3.6732539085
 11
3.8447137143
 21
3.6732539085
  0
LINE
  5
2A1
100
AcDbEntity
  8
ALL_FEATURES
100
AcDbLine
 62
9
  6
CONTINUOUS
 10
4.2321877131
 20
3.6732539085
 11
4.247799719
 21
3.672616807
  0
LINE
  5
2A2
100
AcDbEntity
  8
ALL_FEATURES
100
AcDbLine
 62
9
  6
CONTINUOUS
 10
4.232213703
 20
3.6738958633
 11
4.2432531298
 21
3.6734440297
  0
LINE
  5
2A3
100
AcDbEntity
  8
ALL_FEATURES
100
AcDbLine
 62
9
  6
CONTINUOUS
 10
4.2432531298
 20
3.6734440297
 11
4.2478257128
 21
3.6732539085
  0
LINE
  5
2A4
100
AcDbEntity
  8
ALL_FEATURES
100
AcDbLine
 62
7
  6
CONTINUOUS
 10
3.8254803677
 20
3.7276167808
 11
3.8290757137
 21
3.6732539085
  0
LWPOLYLINE
  5
2A5
100
AcDbEntity
  8
ALL_FEATURES
100
AcDbPolyline
 62
7
  6
CONTINUOUS
 90
5
 70
0
 10
3.82910171
 20
3.6726168071
 10
3.8311293373
 20
3.6235577244
 10
3.833374946
 20
3.5705538846
 10
3.8357063913
 20
3.5167997569
 10
3.8371506569
 20
3.4841996454
  0
LINE
  5
2A6
100
AcDbEntity
  8
ALL_ASSEMBLY_MEMBERS
100
AcDbLine
 62
7
  6
CONTINUOUS
 10
3.7409507137
 20
4.8152105966
 11
3.7409507137
 21
4.8732539085
  0
LINE
  5
2A7
100
AcDbEntity
  8
ALL_ASSEMBLY_MEMBERS
100
AcDbLine
 62
40
  6
CONTINUOUS
 10
3.8003257137
 20
3.4742197843
 11
3.8003257137
 21
3.4705042572
  0
LWPOLYLINE
  5
2A8
100
AcDbEntity
  8
ALL_FEATURES
100
AcDbPolyline
 62
7
  6
CONTINUOUS
 90
17
 70
0
 10
3.7281113428
 20
4.6847539085
 10
3.7306152639
 20
4.6666152598
 10
3.7400876102
 20
4.5951683522
 10
3.7489785158
 20
4.525315278
 10
3.7573240934
 20
4.4569891913
 10
3.765177519
 20
4.389953394
 10
3.7725611867
 20
4.3242010848
 10
3.7794925167
 20
4.2597644543
 10
3.786010375
 20
4.1964615806
 10
3.7921322786
 20
4.1342917714
 10
3.7978732823
 20
4.0732752883
 10
3.8032634851
 20
4.0132591201
 10
3.8083179803
 20
3.9542339153
 10
3.81304866
 20
3.8962242594
 10
3.8174771979
 20
3.8391263428
 10
3.8216181353
 20
3.7829095252
 10
3.8254803677
 20
3.7276167808
  0
LINE
  5
2A9
100
AcDbEntity
  8
ALL_ASSEMBLY_MEMBERS
100
AcDbLine
 62
7
  6
CONTINUOUS
 10
3.8353257137
 20
4.5692539085
 11
3.8353257137
 21
4.5910039085
  0
LINE
  5
2AA
100
AcDbEntity
  8
ALL_ASSEMBLY_MEMBERS
100
AcDbLine
 62
40
  6
CONTINUOUS
 10
3.8359507137
 20
3.4641758204
 11
3.8359507137
 21
3.4626291909
  0
LINE
  5
2AB
100
AcDbEntity
  8
ALL_ASSEMBLY_MEMBERS
100
AcDbLine
 62
7
  6
CONTINUOUS
 10
3.8947007137
 20
3.4972399295
 11
3.8947007137
 21
3.3310698359
  0
LINE
  5
2AC
100
AcDbEntity
  8
ALL_ASSEMBLY_MEMBERS
100
AcDbLine
 62
7
  6
CONTINUOUS
 10
3.9253257137
 20
3.626286917
 11
3.9253257137
 21
3.5693422202
  0
LINE
  5
2AD
100
AcDbEntity
  8
ALL_ASSEMBLY_MEMBERS
100
AcDbLine
 62
7
  6
CONTINUOUS
 10
3.9368882137
 20
4.9137738169
 11
3.9368882137
 21
4.9105964965
  0
LINE
  5
2AE
100
AcDbEntity
  8
ALL_ASSEMBLY_MEMBERS
100
AcDbLine
 62
7
  6
CONTINUOUS
 10
3.9368882137
 20
4.8961777422
 11
3.9368882137
 21
4.892493937
  0
LINE
  5
2AF
100
AcDbEntity
  8
ALL_ASSEMBLY_MEMBERS
100
AcDbLine
 62
7
  6
CONTINUOUS
 10
3.9368882137
 20
4.8785653148
 11
3.9368882137
 21
4.8743354639
  0
LINE
  5
2B0
100
AcDbEntity
  8
ALL_ASSEMBLY_MEMBERS
100
AcDbLine
 62
7
  6
CONTINUOUS
 10
3.9368882137
 20
4.7690396329
 11
3.9368882137
 21
3.6820689746
  0
LINE
  5
2B1
100
AcDbEntity
  8
ALL_ASSEMBLY_MEMBERS
100
AcDbLine
 62
7
  6
CONTINUOUS
 10
3.9368882751
 20
3.6744400039
 11
3.9368882137
 21
3.6743610402
  0
LINE
  5
2B2
100
AcDbEntity
  8
ALL_ASSEMBLY_MEMBERS
100
AcDbLine
 62
7
  6
CONTINUOUS
 10
3.9814415038
 20
5.4516589154
 11
3.9814415008
 21
5.4516682344
  0
LINE
  5
2B3
100
AcDbEntity
  8
ALL_ASSEMBLY_MEMBERS
100
AcDbLine
 62
7
  6
CONTINUOUS
 10
3.9450840313
 20
4.887759465
 11
3.9450840313
 21
4.883294465
  0
LINE
  5
2B4
100
AcDbEntity
  8
ALL_ASSEMBLY_MEMBERS
100
AcDbLine
 62
7
  6
CONTINUOUS
 10
3.9455083888
 20
4.9056172784
 11
3.9455083888
 21
4.9011522784
  0
LINE
  5
2B5
100
AcDbEntity
  8
ALL_ASSEMBLY_MEMBERS
100
AcDbLine
 62
7
  6
CONTINUOUS
 10
3.9459611994
 20
4.9234750874
 11
3.9459611994
 21
4.9190100874
  0
LINE
  5
2B6
100
AcDbEntity
  8
ALL_ASSEMBLY_MEMBERS
100
AcDbLine
 62
7
  6
CONTINUOUS
 10
3.9794507137
 20
5.489889533
 11
3.9794507137
 21
5.4892714215
  0
LINE
  5
2B7
100
AcDbEntity
  8
ALL_ASSEMBLY_MEMBERS
100
AcDbLine
 62
7
  6
CONTINUOUS
 10
3.9794507137
 20
5.4849670308
 11
3.9794507137
 21
5.4843489255
  0
LINE
  5
2B8
100
AcDbEntity
  8
ALL_ASSEMBLY_MEMBERS
100
AcDbLine
 62
7
  6
CONTINUOUS
 10
3.9794507137
 20
5.4800445353
 11
3.9794507137
 21
5.479426425
  0
LINE
  5
2B9
100
AcDbEntity
  8
ALL_ASSEMBLY_MEMBERS
100
AcDbLine
 62
7
  6
CONTINUOUS
 10
3.9794507137
 20
5.4751220345
 11
3.9794507137
 21
5.4745039218
  0
LINE
  5
2BA
100
AcDbEntity
  8
ALL_ASSEMBLY_MEMBERS
100
AcDbLine
 62
7
  6
CONTINUOUS
 10
3.9794507137
 20
5.4701995311
 11
3.9794507137
 21
5.4695814235
  0
LINE
  5
2BB
100
AcDbEntity
  8
ALL_ASSEMBLY_MEMBERS
100
AcDbLine
 62
7
  6
CONTINUOUS
 10
3.9794507137
 20
5.4652770333
 11
3.9794507137
 21
5.4646589259
  0
LINE
  5
2BC
100
AcDbEntity
  8
ALL_ASSEMBLY_MEMBERS
100
AcDbLine
 62
7
  6
CONTINUOUS
 10
3.9794507137
 20
5.4603545355
 11
3.9794507137
 21
5.4597364229
  0
LINE
  5
2BD
100
AcDbEntity
  8
ALL_ASSEMBLY_MEMBERS
100
AcDbLine
 62
7
  6
CONTINUOUS
 10
3.9794507137
 20
5.4554320322
 11
3.9794507137
 21
5.4548139218
  0
LINE
  5
2BE
100
AcDbEntity
  8
ALL_ASSEMBLY_MEMBERS
100
AcDbLine
 62
7
  6
CONTINUOUS
 10
3.9794507137
 20
5.4485039085
 11
3.9794507137
 21
4.9357539085
  0
LINE
  5
2BF
100
AcDbEntity
  8
ALL_ASSEMBLY_MEMBERS
100
AcDbLine
 62
7
  6
CONTINUOUS
 10
3.982113214
 20
5.4877342261
 11
3.982113214
 21
5.4865042261
  0
LINE
  5
2C0
100
AcDbEntity
  8
ALL_ASSEMBLY_MEMBERS
100
AcDbLine
 62
7
  6
CONTINUOUS
 10
3.9821132141
 20
5.4926567283
 11
3.9821132141
 21
5.4914267283
  0
LINE
  5
2C1
100
AcDbEntity
  8
ALL_ASSEMBLY_MEMBERS
100
AcDbLine
 62
7
  6
CONTINUOUS
 10
3.9821132141
 20
5.4729667264
 11
3.9821132141
 21
5.4717367264
  0
LINE
  5
2C2
100
AcDbEntity
  8
ALL_ASSEMBLY_MEMBERS
100
AcDbLine
 62
7
  6
CONTINUOUS
 10
3.982113214
 20
5.4778892297
 11
3.982113214
 21
5.4766592297
  0
LINE
  5
2C3
100
AcDbEntity
  8
ALL_ASSEMBLY_MEMBERS
100
AcDbLine
 62
7
  6
CONTINUOUS
 10
3.9821132137
 20
5.4828117304
 11
3.9821132137
 21
5.4815817304
  0
LINE
  5
2C4
100
AcDbEntity
  8
ALL_ASSEMBLY_MEMBERS
100
AcDbLine
 62
7
  6
CONTINUOUS
 10
3.9821132139
 20
5.4631217307
 11
3.9821132139
 21
5.4618917307
  0
LINE
  5
2C5
100
AcDbEntity
  8
ALL_ASSEMBLY_MEMBERS
100
AcDbLine
 62
7
  6
CONTINUOUS
 10
3.9821132137
 20
5.4680442284
 11
3.9821132137
 21
5.4668142284
  0
LINE
  5
2C6
100
AcDbEntity
  8
ALL_ASSEMBLY_MEMBERS
100
AcDbLine
 62
7
  6
CONTINUOUS
 10
3.9821132137
 20
5.4512711035
 11
3.9821132137
 21
5.4500411035
  0
LINE
  5
2C7
100
AcDbEntity
  8
ALL_ASSEMBLY_MEMBERS
100
AcDbLine
 62
7
  6
CONTINUOUS
 10
3.982113214
 20
5.4532767265
 11
3.982113214
 21
5.4520467265
  0
LINE
  5
2C8
100
AcDbEntity
  8
ALL_ASSEMBLY_MEMBERS
100
AcDbLine
 62
7
  6
CONTINUOUS
 10
3.9821132141
 20
5.4581992275
 11
3.9821132141
 21
5.4569692275
  0
LINE
  5
2C9
100
AcDbEntity
  8
ALL_ASSEMBLY_MEMBERS
100
AcDbLine
 62
7
  6
CONTINUOUS
 10
4.1400132137
 20
4.2451914085
 11
4.1408257137
 21
4.2460039085
  0
LINE
  5
2CA
100
AcDbEntity
  8
ALL_ASSEMBLY_MEMBERS
100
AcDbLine
 62
7
  6
CONTINUOUS
 10
4.0658437319
 20
3.5265789798
 11
4.0658437319
 21
3.4917313699
  0
LINE
  5
2CB
100
AcDbEntity
  8
ALL_ASSEMBLY_MEMBERS
100
AcDbLine
 62
7
  6
CONTINUOUS
 10
4.0708914948
 20
3.398215543
 11
4.0708914948
 21
3.3363436997
  0
LINE
  5
2CC
100
AcDbEntity
  8
ALL_ASSEMBLY_MEMBERS
100
AcDbLine
 62
7
  6
CONTINUOUS
 10
4.0947882137
 20
5.4512711035
 11
4.0947882137
 21
5.4500411035
  0
LINE
  5
2CD
100
AcDbEntity
  8
ALL_ASSEMBLY_MEMBERS
100
AcDbLine
 62
7
  6
CONTINUOUS
 10
4.0947882133
 20
5.4545079763
 11
4.0947882133
 21
5.4557379763
  0
LINE
  5
2CE
100
AcDbEntity
  8
ALL_ASSEMBLY_MEMBERS
100
AcDbLine
 62
7
  6
CONTINUOUS
 10
4.0947882134
 20
5.4594304793
 11
4.0947882134
 21
5.4606604793
  0
LINE
  5
2CF
100
AcDbEntity
  8
ALL_ASSEMBLY_MEMBERS
100
AcDbLine
 62
7
  6
CONTINUOUS
 10
4.0947882136
 20
5.4643529807
 11
4.0947882136
 21
5.4655829807
  0
LINE
  5
2D0
100
AcDbEntity
  8
ALL_ASSEMBLY_MEMBERS
100
AcDbLine
 62
7
  6
CONTINUOUS
 10
4.0947882134
 20
5.4692754763
 11
4.0947882134
 21
5.4705054763
  0
LINE
  5
2D1
100
AcDbEntity
  8
ALL_ASSEMBLY_MEMBERS
100
AcDbLine
 62
7
  6
CONTINUOUS
 10
4.0947882133
 20
5.4741979779
 11
4.0947882133
 21
5.4754279779
  0
LINE
  5
2D2
100
AcDbEntity
  8
ALL_ASSEMBLY_MEMBERS
100
AcDbLine
 62
7
  6
CONTINUOUS
 10
4.0947882135
 20
5.4791204809
 11
4.0947882135
 21
5.4803504809
  0
LINE
  5
2D3
100
AcDbEntity
  8
ALL_ASSEMBLY_MEMBERS
100
AcDbLine
 62
7
  6
CONTINUOUS
 10
4.0947882136
 20
5.4840429777
 11
4.0947882136
 21
5.4852729777
  0
LINE
  5
2D4
100
AcDbEntity
  8
ALL_ASSEMBLY_MEMBERS
100
AcDbLine
 62
7
  6
CONTINUOUS
 10
4.0947882133
 20
5.4889654767
 11
4.0947882133
 21
5.4901954767
  0
LINE
  5
2D5
100
AcDbEntity
  8
ALL_ASSEMBLY_MEMBERS
100
AcDbLine
 62
7
  6
CONTINUOUS
 10
4.0947882134
 20
5.4938879801
 11
4.0947882134
 21
5.4951179801
  0
LINE
  5
2D6
100
AcDbEntity
  8
ALL_ASSEMBLY_MEMBERS
100
AcDbLine
 62
7
  6
CONTINUOUS
 10
4.0974507137
 20
5.4874282813
 11
4.0974507137
 21
5.4868101728
  0
LINE
  5
2D7
100
AcDbEntity
  8
ALL_ASSEMBLY_MEMBERS
100
AcDbLine
 62
7
  6
CONTINUOUS
 10
4.0974507137
 20
5.4923507848
 11
4.0974507137
 21
5.491732672
  0
LINE
  5
2D8
100
AcDbEntity
  8
ALL_ASSEMBLY_MEMBERS
100
AcDbLine
 62
7
  6
CONTINUOUS
 10
4.0974507137
 20
5.4825057825
 11
4.0974507137
 21
5.4818876761
  0
LINE
  5
2D9
100
AcDbEntity
  8
ALL_ASSEMBLY_MEMBERS
100
AcDbLine
 62
7
  6
CONTINUOUS
 10
4.0974507137
 20
5.4775832857
 11
4.0974507137
 21
5.4769651732
  0
LINE
  5
2DA
100
AcDbEntity
  8
ALL_ASSEMBLY_MEMBERS
100
AcDbLine
 62
7
  6
CONTINUOUS
 10
4.0974507137
 20
5.4726607826
 11
4.0974507137
 21
5.4720426716
  0
LINE
  5
2DB
100
AcDbEntity
  8
ALL_ASSEMBLY_MEMBERS
100
AcDbLine
 62
7
  6
CONTINUOUS
 10
4.0974507137
 20
5.467738281
 11
4.0974507137
 21
5.4671201759
  0
LINE
  5
2DC
100
AcDbEntity
  8
ALL_ASSEMBLY_MEMBERS
100
AcDbLine
 62
7
  6
CONTINUOUS
 10
4.0974507137
 20
5.4628157856
 11
4.0974507137
 21
5.4621976746
  0
LINE
  5
2DD
100
AcDbEntity
  8
ALL_ASSEMBLY_MEMBERS
100
AcDbLine
 62
7
  6
CONTINUOUS
 10
4.0974507137
 20
5.457893284
 11
4.0974507137
 21
5.4572751716
  0
LINE
  5
2DE
100
AcDbEntity
  8
ALL_ASSEMBLY_MEMBERS
100
AcDbLine
 62
7
  6
CONTINUOUS
 10
4.0974507137
 20
5.4529707809
 11
4.0974507137
 21
5.4528082986
  0
LINE
  5
2DF
100
AcDbEntity
  8
ALL_ASSEMBLY_MEMBERS
100
AcDbLine
 62
7
  6
CONTINUOUS
 10
4.0974507137
 20
5.4485039085
 11
4.0974507137
 21
4.9357539085
  0
LINE
  5
2E0
100
AcDbEntity
  8
ALL_ASSEMBLY_MEMBERS
100
AcDbLine
 62
7
  6
CONTINUOUS
 10
4.1198076955
 20
3.5486096757
 11
4.1198076955
 21
3.5137620658
  0
LINE
  5
2E1
100
AcDbEntity
  8
ALL_ASSEMBLY_MEMBERS
100
AcDbLine
 62
7
  6
CONTINUOUS
 10
4.1307075291
 20
4.9279381488
 11
4.1307075291
 21
4.9324031488
  0
LINE
  5
2E2
100
AcDbEntity
  8
ALL_ASSEMBLY_MEMBERS
100
AcDbLine
 62
7
  6
CONTINUOUS
 10
4.1311573112
 20
4.9100811422
 11
4.1311573112
 21
4.9145461422
  0
LINE
  5
2E3
100
AcDbEntity
  8
ALL_ASSEMBLY_MEMBERS
100
AcDbLine
 62
7
  6
CONTINUOUS
 10
4.1316334575
 20
4.8922235614
 11
4.1316334575
 21
4.8966885614
  0
LINE
  5
2E4
100
AcDbEntity
  8
ALL_ASSEMBLY_MEMBERS
100
AcDbLine
 62
7
  6
CONTINUOUS
 10
4.1321159865
 20
4.874365885
 11
4.1321159865
 21
4.878830885
  0
LINE
  5
2E5
100
AcDbEntity
  8
ALL_ASSEMBLY_MEMBERS
100
AcDbLine
 62
7
  6
CONTINUOUS
 10
4.1400132137
 20
4.9225681693
 11
4.1400132137
 21
4.9196613412
  0
LINE
  5
2E6
100
AcDbEntity
  8
ALL_ASSEMBLY_MEMBERS
100
AcDbLine
 62
7
  6
CONTINUOUS
 10
4.1400132137
 20
4.9049704041
 11
4.1400132137
 21
4.9015289454
  0
LINE
  5
2E7
100
AcDbEntity
  8
ALL_ASSEMBLY_MEMBERS
100
AcDbLine
 62
7
  6
CONTINUOUS
 10
4.1400132137
 20
4.8873877969
 11
4.1400132137
 21
4.8833928955
  0
LINE
  5
2E8
100
AcDbEntity
  8
ALL_ASSEMBLY_MEMBERS
100
AcDbLine
 62
7
  6
CONTINUOUS
 10
4.1435099326
 20
3.4278618961
 11
4.1435099326
 21
3.3659900527
  0
LINE
  5
2E9
100
AcDbEntity
  8
ALL_ASSEMBLY_MEMBERS
100
AcDbLine
 62
7
  6
CONTINUOUS
 10
4.1515757137
 20
3.626286917
 11
4.1515757137
 21
3.5693422202
  0
LINE
  5
2EA
100
AcDbEntity
  8
ALL_ASSEMBLY_MEMBERS
100
AcDbLine
 62
7
  6
CONTINUOUS
 10
4.1400132137
 20
4.7690396329
 11
4.1400131523
 21
3.6819900109
  0
LINE
  5
2EB
100
AcDbEntity
  8
ALL_ASSEMBLY_MEMBERS
100
AcDbLine
 62
9
  6
CONTINUOUS
 10
4.1400132137
 20
4.1857539085
 11
3.9368882137
 21
4.1857539085
  0
LINE
  5
2EC
100
AcDbEntity
  8
ALL_ASSEMBLY_MEMBERS
100
AcDbLine
 62
7
  6
CONTINUOUS
 10
3.9368882137
 20
4.2451914085
 11
3.9360757137
 21
4.2460039085
  0
LINE
  5
2ED
100
AcDbEntity
  8
ALL_ASSEMBLY_MEMBERS
100
AcDbLine
 62
7
  6
CONTINUOUS
 10
4.1822007137
 20
3.4972399295
 11
4.1822007137
 21
3.3310698359
  0
LINE
  5
2EE
100
AcDbEntity
  8
ALL_ASSEMBLY_MEMBERS
100
AcDbLine
 62
7
  6
CONTINUOUS
 10
4.2415757137
 20
4.5692539085
 11
4.2415757137
 21
4.5910039085
  0
LWPOLYLINE
  5
2EF
100
AcDbEntity
  8
ALL_FEATURES
100
AcDbPolyline
 62
7
  6
CONTINUOUS
 90
5
 70
0
 10
4.2397496646
 20
3.484174738
 10
4.2411945082
 20
3.5167877197
 10
4.2435261541
 20
3.570546271
 10
4.2457719386
 20
3.6235541304
 10
4.2477997171
 20
3.6726168071
  0
LWPOLYLINE
  5
2F0
100
AcDbEntity
  8
ALL_FEATURES
100
AcDbPolyline
 62
7
  6
CONTINUOUS
 90
17
 70
0
 10
4.2478257137
 20
3.6732539085
 10
4.2514210597
 20
3.7276167799
 10
4.255283292
 20
3.7829095239
 10
4.2594242294
 20
3.8391263415
 10
4.2638527673
 20
3.8962242587
 10
4.2685834472
 20
3.9542339158
 10
4.2736379424
 20
4.0132591215
 10
4.2790281452
 20
4.0732752899
 10
4.2847691489
 20
4.1342917729
 10
4.2908910525
 20
4.1964615819
 10
4.2974089108
 20
4.2597644554
 10
4.3043402408
 20
4.3242010858
 10
4.3117239085
 20
4.3899533949
 10
4.3195773341
 20
4.456989192
 10
4.3279229117
 20
4.5253152786
 10
4.3368138172
 20
4.5951683527
 10
4.3462861635
 20
4.6666152601
  0
LINE
  5
2F1
100
AcDbEntity
  8
ALL_FEATURES
100
AcDbLine
 62
7
  6
CONTINUOUS
 10
4.3462861635
 20
4.6666152601
 11
4.3487900846
 21
4.6847539085
  0
LINE
  5
2F2
100
AcDbEntity
  8
ALL_ASSEMBLY_MEMBERS
100
AcDbLine
 62
7
  6
CONTINUOUS
 10
3.9368882137
 20
4.2460039085
 11
3.9360757137
 21
4.2460039085
  0
LINE
  5
2F3
100
AcDbEntity
  8
ALL_ASSEMBLY_MEMBERS
100
AcDbLine
 62
7
  6
CONTINUOUS
 10
4.1400132137
 20
4.2460039085
 11
4.1408257137
 21
4.2460039085
  0
LINE
  5
2F4
100
AcDbEntity
  8
ALL_ASSEMBLY_MEMBERS
100
AcDbLine
 62
7
  6
CONTINUOUS
 10
4.3359507137
 20
4.8152105966
 11
4.3359507137
 21
4.8732539085
  0
LINE
  5
2F5
100
AcDbEntity
  8
ALL_ASSEMBLY_MEMBERS
100
AcDbLine
 62
9
  6
CONTINUOUS
 10
3.9368882751
 20
3.6744400039
 11
3.9374799811
 21
3.6746811069
  0
LINE
  5
2F6
100
AcDbEntity
  8
ALL_ASSEMBLY_MEMBERS
100
AcDbLine
 62
7
  6
CONTINUOUS
 10
4.4434507137
 20
3.2133130031
 11
4.4434507137
 21
3.2073046403
  0
LINE
  5
2F7
100
AcDbEntity
  8
ALL_ASSEMBLY_MEMBERS
100
AcDbLine
 62
7
  6
CONTINUOUS
 10
3.9370105359
 20
4.8741940818
 11
3.9368882169
 21
4.8743347399
  0
LINE
  5
2F8
100
AcDbEntity
  8
ALL_ASSEMBLY_MEMBERS
100
AcDbLine
 62
7
  6
CONTINUOUS
 10
3.9370110306
 20
4.9104545384
 11
3.9368882155
 21
4.9105959543
  0
LINE
  5
2F9
100
AcDbEntity
  8
ALL_ASSEMBLY_MEMBERS
100
AcDbLine
 62
7
  6
CONTINUOUS
 10
4.5147007137
 20
3.1739674022
 11
4.5147007137
 21
3.1416086354
  0
LINE
  5
2FA
100
AcDbEntity
  8
ALL_ASSEMBLY_MEMBERS
100
AcDbLine
 62
7
  6
CONTINUOUS
 10
3.9368882137
 20
4.5692539085
 11
3.8353257137
 21
4.5692539085
  0
LINE
  5
2FB
100
AcDbEntity
  8
ALL_ASSEMBLY_MEMBERS
100
AcDbLine
 62
7
  6
CONTINUOUS
 10
4.1400132137
 20
4.5692539085
 11
4.2415757137
 21
4.5692539085
  0
LINE
  5
2FC
100
AcDbEntity
  8
ALL_ASSEMBLY_MEMBERS
100
AcDbLine
 62
7
  6
CONTINUOUS
 10
3.9368882137
 20
4.5910039085
 11
3.8352007007
 21
4.5910039085
  0
LINE
  5
2FD
100
AcDbEntity
  8
ALL_ASSEMBLY_MEMBERS
100
AcDbLine
 62
7
  6
CONTINUOUS
 10
4.1400132137
 20
4.5910039085
 11
4.2417013821
 21
4.5910039085
  0
LINE
  5
2FE
100
AcDbEntity
  8
ALL_ASSEMBLY_MEMBERS
100
AcDbLine
 62
7
  6
CONTINUOUS
 10
3.9368882137
 20
4.6380039085
 11
3.7884507137
 21
4.6380039085
  0
LINE
  5
2FF
100
AcDbEntity
  8
ALL_ASSEMBLY_MEMBERS
100
AcDbLine
 62
7
  6
CONTINUOUS
 10
4.1400132137
 20
4.6380039085
 11
4.2884507137
 21
4.6380039085
  0
LINE
  5
300
100
AcDbEntity
  8
ALL_ASSEMBLY_MEMBERS
100
AcDbLine
 62
7
  6
CONTINUOUS
 10
4.1435099326
 20
3.4278618961
 11
4.0708914948
 21
3.398215543
  0
LINE
  5
301
100
AcDbEntity
  8
ALL_ASSEMBLY_MEMBERS
100
AcDbLine
 62
7
  6
CONTINUOUS
 10
4.1502544555
 20
4.7690396329
 11
4.1510923563
 21
4.769086585
  0
LINE
  5
302
100
AcDbEntity
  8
ALL_ASSEMBLY_MEMBERS
100
AcDbLine
 62
7
  6
CONTINUOUS
 10
4.7268452601
 20
4.6847539085
 11
4.1400132137
 21
4.6847539085
  0
LINE
  5
303
100
AcDbEntity
  8
ALL_ASSEMBLY_MEMBERS
100
AcDbLine
 62
7
  6
CONTINUOUS
 10
3.9368882137
 20
4.6847539085
 11
3.3500561673
 21
4.6847539085
  0
LINE
  5
304
100
AcDbEntity
  8
ALL_ASSEMBLY_MEMBERS
100
AcDbLine
 62
9
  6
CONTINUOUS
 10
4.7813979869
 20
4.7167539085
 11
4.1400132137
 21
4.7167539085
  0
LINE
  5
305
100
AcDbEntity
  8
ALL_ASSEMBLY_MEMBERS
100
AcDbLine
 62
9
  6
CONTINUOUS
 10
3.9368882137
 20
4.7167539085
 11
3.2955034405
 21
4.7167539085
  0
LINE
  5
306
100
AcDbEntity
  8
ALL_ASSEMBLY_MEMBERS
100
AcDbLine
 62
7
  6
CONTINUOUS
 10
3.2401666811
 20
4.7487514497
 11
3.9368882137
 21
4.7487514497
  0
LINE
  5
307
100
AcDbEntity
  8
ALL_ASSEMBLY_MEMBERS
100
AcDbLine
 62
7
  6
CONTINUOUS
 10
4.1400132137
 20
4.7487514497
 11
4.8367347463
 21
4.7487514497
  0
LINE
  5
308
100
AcDbEntity
  8
ALL_ASSEMBLY_MEMBERS
100
AcDbLine
 62
7
  6
CONTINUOUS
 10
3.9266469719
 20
4.7690396329
 11
4.1502544555
 21
4.7690396329
  0
LINE
  5
309
100
AcDbEntity
  8
ALL_ASSEMBLY_MEMBERS
100
AcDbLine
 62
9
  6
CONTINUOUS
 10
4.1510923563
 20
4.769086585
 11
3.9258090711
 21
4.769086585
  0
LINE
  5
30A
100
AcDbEntity
  8
ALL_ASSEMBLY_MEMBERS
100
AcDbLine
 62
9
  6
CONTINUOUS
 10
4.8907189152
 20
4.7797533597
 11
4.2240281651
 21
4.7797533597
  0
LINE
  5
30B
100
AcDbEntity
  8
ALL_ASSEMBLY_MEMBERS
100
AcDbLine
 62
9
  6
CONTINUOUS
 10
3.8528732623
 20
4.7797533597
 11
3.1861825122
 21
4.7797533597
  0
LINE
  5
30C
100
AcDbEntity
  8
ALL_ASSEMBLY_MEMBERS
100
AcDbLine
 62
7
  6
CONTINUOUS
 10
3.9266469719
 20
4.7690396329
 11
3.9258090711
 21
4.769086585
  0
LINE
  5
30D
100
AcDbEntity
  8
ALL_ASSEMBLY_MEMBERS
100
AcDbLine
 62
7
  6
CONTINUOUS
 10
3.9370105359
 20
4.8741940816
 11
3.9386369686
 21
4.8732539085
  0
LINE
  5
30E
100
AcDbEntity
  8
ALL_ASSEMBLY_MEMBERS
100
AcDbLine
 62
7
  6
CONTINUOUS
 10
3.9370116161
 20
4.8923513853
 11
3.9450515973
 21
4.8877033678
  0
LINE
  5
30F
100
AcDbEntity
  8
ALL_ASSEMBLY_MEMBERS
100
AcDbLine
 62
7
  6
CONTINUOUS
 10
3.9370110306
 20
4.9104545384
 11
3.9454758143
 21
4.9055609384
  0
LINE
  5
310
100
AcDbEntity
  8
ALL_ASSEMBLY_MEMBERS
100
AcDbLine
 62
7
  6
CONTINUOUS
 10
3.9387990043
 20
4.9275402071
 11
3.9459284657
 21
4.9234184727
  0
LINE
  5
311
100
AcDbEntity
  8
ALL_ASSEMBLY_MEMBERS
100
AcDbLine
 62
7
  6
CONTINUOUS
 10
4.1300132137
 20
4.9357539085
 11
4.1323898777
 21
4.9333772445
  0
LINE
  5
312
100
AcDbEntity
  8
ALL_ASSEMBLY_MEMBERS
100
AcDbLine
 62
7
  6
CONTINUOUS
 10
4.139897607
 20
4.9051040147
 11
4.1400132123
 21
4.9049708614
  0
LINE
  5
313
100
AcDbEntity
  8
ALL_ASSEMBLY_MEMBERS
100
AcDbLine
 62
7
  6
CONTINUOUS
 10
4.1435099326
 20
3.3659900527
 11
4.0708914948
 21
3.3363436997
  0
LINE
  5
314
100
AcDbEntity
  8
ALL_ASSEMBLY_MEMBERS
100
AcDbLine
 62
9
  6
CONTINUOUS
 10
4.3267995168
 20
4.8031675274
 11
3.7501019106
 21
4.8031675274
  0
LINE
  5
315
100
AcDbEntity
  8
ALL_ASSEMBLY_MEMBERS
100
AcDbLine
 62
7
  6
CONTINUOUS
 10
4.9447007137
 20
4.8107539085
 11
4.3351208909
 21
4.8107539085
  0
LINE
  5
316
100
AcDbEntity
  8
ALL_ASSEMBLY_MEMBERS
100
AcDbLine
 62
7
  6
CONTINUOUS
 10
3.7417805365
 20
4.8107539085
 11
3.1322007137
 21
4.8107539085
  0
LINE
  5
317
100
AcDbEntity
  8
ALL_ASSEMBLY_MEMBERS
100
AcDbLine
 62
9
  6
CONTINUOUS
 10
4.3359507137
 20
4.8152105966
 11
3.7409507137
 21
4.8152105966
  0
LINE
  5
318
100
AcDbEntity
  8
ALL_ASSEMBLY_MEMBERS
100
AcDbLine
 62
7
  6
CONTINUOUS
 10
5.0072007137
 20
4.8732539085
 11
3.0697007137
 21
4.8732539085
  0
LINE
  5
319
100
AcDbEntity
  8
ALL_ASSEMBLY_MEMBERS
100
AcDbLine
 62
7
  6
CONTINUOUS
 10
4.1341685226
 20
4.8732539085
 11
4.1321483091
 21
4.8744217951
  0
LINE
  5
31A
100
AcDbEntity
  8
ALL_ASSEMBLY_MEMBERS
100
AcDbLine
 62
7
  6
CONTINUOUS
 10
4.1398977561
 20
4.887521245
 11
4.1316659507
 21
4.8922797659
  0
LINE
  5
31B
100
AcDbEntity
  8
ALL_ASSEMBLY_MEMBERS
100
AcDbLine
 62
7
  6
CONTINUOUS
 10
4.1392805355
 20
4.9054606897
 11
4.1311899722
 21
4.9101376361
  0
LINE
  5
31C
100
AcDbEntity
  8
ALL_ASSEMBLY_MEMBERS
100
AcDbLine
 62
7
  6
CONTINUOUS
 10
4.139897607
 20
4.9051040148
 11
4.1392805355
 21
4.9054606897
  0
LINE
  5
31D
100
AcDbEntity
  8
ALL_ASSEMBLY_MEMBERS
100
AcDbLine
 62
7
  6
CONTINUOUS
 10
4.1388295058
 20
4.9233187578
 11
4.1307403441
 21
4.9279949087
  0
LINE
  5
31E
100
AcDbEntity
  8
ALL_ASSEMBLY_MEMBERS
100
AcDbLine
 62
7
  6
CONTINUOUS
 10
4.1398983887
 20
4.922700932
 11
4.1388295058
 21
4.9233187578
  0
LINE
  5
31F
100
AcDbEntity
  8
ALL_ASSEMBLY_MEMBERS
100
AcDbLine
 62
7
  6
CONTINUOUS
 10
4.1300132137
 20
4.9357539085
 11
3.9468882137
 21
4.9357539085
  0
LINE
  5
320
100
AcDbEntity
  8
ALL_ASSEMBLY_MEMBERS
100
AcDbLine
 62
7
  6
CONTINUOUS
 10
4.0924507137
 20
5.4985039085
 11
4.0954528906
 21
5.4955017316
  0
LINE
  5
321
100
AcDbEntity
  8
ALL_ASSEMBLY_MEMBERS
100
AcDbLine
 62
7
  6
CONTINUOUS
 10
4.0974507137
 20
5.4923507865
 11
4.0974351153
 21
5.4923688002
  0
LINE
  5
322
100
AcDbEntity
  8
ALL_ASSEMBLY_MEMBERS
100
AcDbLine
 62
7
  6
CONTINUOUS
 10
4.0974507137
 20
5.4529707767
 11
4.0974351153
 21
5.4529887963
  0
LINE
  5
323
100
AcDbEntity
  8
ALL_ASSEMBLY_MEMBERS
100
AcDbLine
 62
7
  6
CONTINUOUS
 10
3.9814415046
 20
5.451658915
 11
3.9821132137
 21
5.4512711035
  0
LINE
  5
324
100
AcDbEntity
  8
ALL_ASSEMBLY_MEMBERS
100
AcDbLine
 62
7
  6
CONTINUOUS
 10
3.979466312
 20
5.4547959064
 11
3.9821295488
 21
5.4532578601
  0
LINE
  5
325
100
AcDbEntity
  8
ALL_ASSEMBLY_MEMBERS
100
AcDbLine
 62
7
  6
CONTINUOUS
 10
4.0947882137
 20
5.4500411035
 11
4.0974507137
 21
5.4485039085
  0
LINE
  5
326
100
AcDbEntity
  8
ALL_ASSEMBLY_MEMBERS
100
AcDbLine
 62
7
  6
CONTINUOUS
 10
3.9794663121
 20
5.4597184074
 11
3.982129549
 21
5.458180361
  0
LINE
  5
327
100
AcDbEntity
  8
ALL_ASSEMBLY_MEMBERS
100
AcDbLine
 62
7
  6
CONTINUOUS
 10
3.979466312
 20
5.4646409105
 11
3.9821295488
 21
5.4631028642
  0
LINE
  5
328
100
AcDbEntity
  8
ALL_ASSEMBLY_MEMBERS
100
AcDbLine
 62
7
  6
CONTINUOUS
 10
3.979466312
 20
5.4695634081
 11
3.9821295486
 21
5.468025362
  0
LINE
  5
329
100
AcDbEntity
  8
ALL_ASSEMBLY_MEMBERS
100
AcDbLine
 62
7
  6
CONTINUOUS
 10
3.979466312
 20
5.4744859064
 11
3.982129549
 21
5.47294786
  0
LINE
  5
32A
100
AcDbEntity
  8
ALL_ASSEMBLY_MEMBERS
100
AcDbLine
 62
7
  6
CONTINUOUS
 10
3.9794663121
 20
5.4794084096
 11
3.9821295489
 21
5.4778703632
  0
LINE
  5
32B
100
AcDbEntity
  8
ALL_ASSEMBLY_MEMBERS
100
AcDbLine
 62
7
  6
CONTINUOUS
 10
3.979466312
 20
5.4843309102
 11
3.9821295486
 21
5.482792864
  0
LINE
  5
32C
100
AcDbEntity
  8
ALL_ASSEMBLY_MEMBERS
100
AcDbLine
 62
7
  6
CONTINUOUS
 10
3.979466312
 20
5.4892534061
 11
3.9821295489
 21
5.4877153597
  0
LINE
  5
32D
100
AcDbEntity
  8
ALL_ASSEMBLY_MEMBERS
100
AcDbLine
 62
7
  6
CONTINUOUS
 10
3.9798923732
 20
5.4939298562
 11
3.982129549
 21
5.4926378618
  0
LINE
  5
32E
100
AcDbEntity
  8
ALL_ASSEMBLY_MEMBERS
100
AcDbLine
 62
7
  6
CONTINUOUS
 10
4.0974351153
 20
5.4529887963
 11
4.0947718784
 21
5.4545268427
  0
LINE
  5
32F
100
AcDbEntity
  8
ALL_ASSEMBLY_MEMBERS
100
AcDbLine
 62
7
  6
CONTINUOUS
 10
4.0974351153
 20
5.4579112995
 11
4.0947718785
 21
5.4594493458
  0
LINE
  5
330
100
AcDbEntity
  8
ALL_ASSEMBLY_MEMBERS
100
AcDbLine
 62
7
  6
CONTINUOUS
 10
4.0974351154
 20
5.462833801
 11
4.0947718788
 21
5.4643718472
  0
LINE
  5
331
100
AcDbEntity
  8
ALL_ASSEMBLY_MEMBERS
100
AcDbLine
 62
7
  6
CONTINUOUS
 10
4.0974351154
 20
5.4677562964
 11
4.0947718785
 21
5.4692943427
  0
LINE
  5
332
100
AcDbEntity
  8
ALL_ASSEMBLY_MEMBERS
100
AcDbLine
 62
7
  6
CONTINUOUS
 10
4.0974351153
 20
5.472678798
 11
4.0947718784
 21
5.4742168444
  0
LINE
  5
333
100
AcDbEntity
  8
ALL_ASSEMBLY_MEMBERS
100
AcDbLine
 62
7
  6
CONTINUOUS
 10
4.0974351153
 20
5.4776013011
 11
4.0947718786
 21
5.4791393474
  0
LINE
  5
334
100
AcDbEntity
  8
ALL_ASSEMBLY_MEMBERS
100
AcDbLine
 62
7
  6
CONTINUOUS
 10
4.0974351154
 20
5.4825237978
 11
4.0947718787
 21
5.4840618441
  0
LINE
  5
335
100
AcDbEntity
  8
ALL_ASSEMBLY_MEMBERS
100
AcDbLine
 62
7
  6
CONTINUOUS
 10
4.0974351153
 20
5.4874462968
 11
4.0947718783
 21
5.4889843432
  0
LINE
  5
336
100
AcDbEntity
  8
ALL_ASSEMBLY_MEMBERS
100
AcDbLine
 62
7
  6
CONTINUOUS
 10
4.0974351153
 20
5.4923688002
 11
4.0947718785
 21
5.4939068466
  0
LINE
  5
337
100
AcDbEntity
  8
ALL_ASSEMBLY_MEMBERS
100
AcDbLine
 62
7
  6
CONTINUOUS
 10
4.0974507137
 20
5.4485039085
 11
3.9794507137
 21
5.4485039085
  0
LINE
  5
338
100
AcDbEntity
  8
ALL_ASSEMBLY_MEMBERS
100
AcDbLine
 62
7
  6
CONTINUOUS
 10
3.9821132137
 20
5.4500411035
 11
4.0947882137
 21
5.4500411035
  0
LINE
  5
339
100
AcDbEntity
  8
ALL_ASSEMBLY_MEMBERS
100
AcDbLine
 62
7
  6
CONTINUOUS
 10
3.9821132137
 20
5.4512711035
 11
4.0947882137
 21
5.4512711035
  0
LINE
  5
33A
100
AcDbEntity
  8
ALL_ASSEMBLY_MEMBERS
100
AcDbLine
 62
7
  6
CONTINUOUS
 10
4.0974507137
 20
5.4528082986
 11
4.0961863709
 21
5.4528082986
  0
LINE
  5
33B
100
AcDbEntity
  8
ALL_ASSEMBLY_MEMBERS
100
AcDbLine
 62
7
  6
CONTINUOUS
 10
4.0924507137
 20
5.4985039085
 11
3.9844507137
 21
5.4985039085
  0
ARC
  5
33C
100
AcDbEntity
  8
ALL_FEATURES
100
AcDbCircle
 62
9
  6
CONTINUOUS
 10
-49.8598635534
 20
5.8648240119
 40
54.1364294144
100
AcDbArc
 50
357.4847917718
 51
357.6798979674
  0
ARC
  5
33D
100
AcDbEntity
  8
ALL_FEATURES
100
AcDbCircle
 62
7
  6
CONTINUOUS
 10
-49.4911759172
 20
5.8750599496
 40
53.7840892644
100
AcDbArc
 50
357.4521457616
 51
357.6530979179
  0
ARC
  5
33E
100
AcDbEntity
  8
ALL_ASSEMBLY_MEMBERS
100
AcDbCircle
 62
7
  6
CONTINUOUS
 10
3.1881532636
 20
4.1902185277
 40
0.75
100
AcDbArc
 50
4.2656285905
 51
30.3566145709
  0
ARC
  5
33F
100
AcDbEntity
  8
ALL_ASSEMBLY_MEMBERS
100
AcDbCircle
 62
7
  6
CONTINUOUS
 10
4.0097565458
 20
2.9640897469
 40
0.5480510686
100
AcDbArc
 50
111.9114203465
 51
112.2075224861
  0
ARC
  5
340
100
AcDbEntity
  8
ALL_ASSEMBLY_MEMBERS
100
AcDbCircle
 62
9
  6
CONTINUOUS
 10
4.008287441
 20
2.9751310642
 40
0.5355020236
100
AcDbArc
 50
112.2075552832
 51
112.5062899717
  0
ARC
  5
341
100
AcDbEntity
  8
ALL_ASSEMBLY_MEMBERS
100
AcDbCircle
 62
7
  6
CONTINUOUS
 10
4.0230397006
 20
3.0044932703
 40
0.4948778998
100
AcDbArc
 50
105.0338463393
 51
112.013050256
  0
ARC
  5
342
100
AcDbEntity
  8
ALL_ASSEMBLY_MEMBERS
100
AcDbCircle
 62
9
  6
CONTINUOUS
 10
4.0227340456
 20
3.0081763128
 40
0.4903627692
100
AcDbArc
 50
105.1380279915
 51
112.1424117478
  0
ARC
  5
343
100
AcDbEntity
  8
ALL_ASSEMBLY_MEMBERS
100
AcDbCircle
 62
7
  6
CONTINUOUS
 10
4.013015218
 20
3.0306674349
 40
0.4668548028
100
AcDbArc
 50
112.0764829311
 51
112.2076274088
  0
ARC
  5
344
100
AcDbEntity
  8
ALL_ASSEMBLY_MEMBERS
100
AcDbCircle
 62
7
  6
CONTINUOUS
 10
3.7703829352
 20
3.0664588715
 40
0.2694155439
100
AcDbArc
 50
176.7909905725
 51
188.3573732818
  0
ARC
  5
345
100
AcDbEntity
  8
ALL_ASSEMBLY_MEMBERS
100
AcDbCircle
 62
9
  6
CONTINUOUS
 10
3.8013591438
 20
3.1739976492
 40
0.2391580234
100
AcDbArc
 50
180.0072463522
 51
187.6993715491
  0
ARC
  5
346
100
AcDbEntity
  8
ALL_ASSEMBLY_MEMBERS
100
AcDbCircle
 62
9
  6
CONTINUOUS
 10
3.8361577219
 20
3.2133188184
 40
0.2027066608
100
AcDbArc
 50
180.0016437407
 51
181.6987277914
  0
ARC
  5
347
100
AcDbEntity
  8
ALL_ASSEMBLY_MEMBERS
100
AcDbCircle
 62
7
  6
CONTINUOUS
 10
3.9812139266
 20
3.484825329
 40
0.0583895878
100
AcDbArc
 50
171.5437847128
 51
175.5966886349
  0
ARC
  5
348
100
AcDbEntity
  8
ALL_ASSEMBLY_MEMBERS
100
AcDbCircle
 62
7
  6
CONTINUOUS
 10
3.9961590315
 20
3.6203747386
 40
0.0721505885
100
AcDbArc
 50
145.275726377
 51
147.7997210204
  0
ARC
  5
349
100
AcDbEntity
  8
ALL_ASSEMBLY_MEMBERS
100
AcDbCircle
 62
7
  6
CONTINUOUS
 10
4.0041486895
 20
3.659214437
 40
0.0702327395
100
AcDbArc
 50
220.5488126579
 51
222.5213826251
  0
ARC
  5
34A
100
AcDbEntity
  8
ALL_ASSEMBLY_MEMBERS
100
AcDbCircle
 62
7
  6
CONTINUOUS
 10
4.0029666859
 20
3.6417077777
 40
0.0686385209
100
AcDbArc
 50
220.0808074847
 51
220.5989351671
  0
ARC
  5
34B
100
AcDbEntity
  8
ALL_ASSEMBLY_MEMBERS
100
AcDbCircle
 62
7
  6
CONTINUOUS
 10
4.00164695
 20
3.640613606
 40
0.0669242417
100
AcDbArc
 50
217.6612681655
 51
220.0915463475
  0
ARC
  5
34C
100
AcDbEntity
  8
ALL_ASSEMBLY_MEMBERS
100
AcDbCircle
 62
7
  6
CONTINUOUS
 10
4.0007448548
 20
3.652324363
 40
0.0657694704
100
AcDbArc
 50
215.8262580877
 51
219.9925341526
  0
ARC
  5
34D
100
AcDbEntity
  8
ALL_ASSEMBLY_MEMBERS
100
AcDbCircle
 62
7
  6
CONTINUOUS
 10
4.0000248227
 20
3.6393650231
 40
0.0648772321
100
AcDbArc
 50
215.8521474023
 51
217.6636373759
  0
ARC
  5
34E
100
AcDbEntity
  8
ALL_ASSEMBLY_MEMBERS
100
AcDbCircle
 62
7
  6
CONTINUOUS
 10
3.9991786656
 20
3.638751539
 40
0.0638320805
100
AcDbArc
 50
215.1781009799
 51
215.8506596647
  0
ARC
  5
34F
100
AcDbEntity
  8
ALL_ASSEMBLY_MEMBERS
100
AcDbCircle
 62
7
  6
CONTINUOUS
 10
3.9990504269
 20
3.6510886118
 40
0.0636723151
100
AcDbArc
 50
214.7822244
 51
215.8171305192
  0
ARC
  5
350
100
AcDbEntity
  8
ALL_ASSEMBLY_MEMBERS
100
AcDbCircle
 62
7
  6
CONTINUOUS
 10
3.9987590212
 20
3.6633154661
 40
0.0633176376
100
AcDbArc
 50
214.4177492102
 51
215.7480520409
  0
ARC
  5
351
100
AcDbEntity
  8
ALL_ASSEMBLY_MEMBERS
100
AcDbCircle
 62
7
  6
CONTINUOUS
 10
3.9915688914
 20
3.6342839405
 40
0.0549950503
100
AcDbArc
 50
203.7481354411
 51
205.6398350016
  0
ARC
  5
352
100
AcDbEntity
  8
ALL_ASSEMBLY_MEMBERS
100
AcDbCircle
 62
7
  6
CONTINUOUS
 10
3.9913190994
 20
3.6590317672
 40
0.0547206512
100
AcDbArc
 50
203.0195452387
 51
205.4853256678
  0
ARC
  5
353
100
AcDbEntity
  8
ALL_ASSEMBLY_MEMBERS
100
AcDbCircle
 62
7
  6
CONTINUOUS
 10
3.9899869265
 20
3.6709212545
 40
0.0532764976
100
AcDbArc
 50
199.1654012205
 51
202.7356496118
  0
ARC
  5
354
100
AcDbEntity
  8
ALL_ASSEMBLY_MEMBERS
100
AcDbCircle
 62
7
  6
CONTINUOUS
 10
3.989238588
 20
3.6457587261
 40
0.0524762832
100
AcDbArc
 50
196.7772676467
 51
203.3429046854
  0
ARC
  5
355
100
AcDbEntity
  8
ALL_ASSEMBLY_MEMBERS
100
AcDbCircle
 62
7
  6
CONTINUOUS
 10
3.9890987026
 20
3.6625312369
 40
0.0523368113
100
AcDbArc
 50
198.8820720596
 51
199.7990317769
  0
ARC
  5
356
100
AcDbEntity
  8
ALL_ASSEMBLY_MEMBERS
100
AcDbCircle
 62
7
  6
CONTINUOUS
 10
3.9890764784
 20
3.6497161115
 40
0.052313154
100
AcDbArc
 50
198.4872763133
 51
200.055229801
  0
ARC
  5
357
100
AcDbEntity
  8
ALL_ASSEMBLY_MEMBERS
100
AcDbCircle
 62
7
  6
CONTINUOUS
 10
3.9886776784
 20
3.6579842117
 40
0.0518799667
100
AcDbArc
 50
194.4005410117
 51
203.0954992827
  0
ARC
  5
358
100
AcDbEntity
  8
ALL_ASSEMBLY_MEMBERS
100
AcDbCircle
 62
7
  6
CONTINUOUS
 10
3.9882003992
 20
3.6702964357
 40
0.0513838634
100
AcDbArc
 50
193.6395607587
 51
199.1613002339
  0
ARC
  5
359
100
AcDbEntity
  8
ALL_ASSEMBLY_MEMBERS
100
AcDbCircle
 62
7
  6
CONTINUOUS
 10
3.9873360847
 20
3.6327558788
 40
0.0504893364
100
AcDbArc
 50
194.3820612658
 51
194.6799075764
  0
ARC
  5
35A
100
AcDbEntity
  8
ALL_ASSEMBLY_MEMBERS
100
AcDbCircle
 62
7
  6
CONTINUOUS
 10
3.9872721251
 20
3.6491378732
 40
0.0504185656
100
AcDbArc
 50
188.8197613031
 51
198.5142680901
  0
ARC
  5
35B
100
AcDbEntity
  8
ALL_ASSEMBLY_MEMBERS
100
AcDbCircle
 62
7
  6
CONTINUOUS
 10
3.9870014057
 20
3.6450920167
 40
0.0501418821
100
AcDbArc
 50
191.6086200039
 51
196.7857653858
  0
ARC
  5
35C
100
AcDbEntity
  8
ALL_ASSEMBLY_MEMBERS
100
AcDbCircle
 62
7
  6
CONTINUOUS
 10
3.9863282325
 20
3.6698240617
 40
0.0494531059
100
AcDbArc
 50
187.9493762471
 51
193.6192034852
  0
ARC
  5
35D
100
AcDbEntity
  8
ALL_ASSEMBLY_MEMBERS
100
AcDbCircle
 62
7
  6
CONTINUOUS
 10
3.9862525161
 20
3.6573617115
 40
0.0493761858
100
AcDbArc
 50
188.7402256362
 51
194.4007658681
  0
ARC
  5
35E
100
AcDbEntity
  8
ALL_ASSEMBLY_MEMBERS
100
AcDbCircle
 62
7
  6
CONTINUOUS
 10
3.9855484861
 20
3.6323616055
 40
0.0486598669
100
AcDbArc
 50
180.0491953977
 51
194.4551806461
  0
ARC
  5
35F
100
AcDbEntity
  8
ALL_ASSEMBLY_MEMBERS
100
AcDbCircle
 62
7
  6
CONTINUOUS
 10
3.9854093885
 20
3.6447861909
 40
0.0485208942
100
AcDbArc
 50
180.0244344871
 51
191.6331626993
  0
ARC
  5
360
100
AcDbEntity
  8
ALL_ASSEMBLY_MEMBERS
100
AcDbCircle
 62
7
  6
CONTINUOUS
 10
3.9852357728
 20
3.6487565678
 40
0.0483478708
100
AcDbArc
 50
183.011305218
 51
188.7432416031
  0
ARC
  5
361
100
AcDbEntity
  8
ALL_ASSEMBLY_MEMBERS
100
AcDbCircle
 62
7
  6
CONTINUOUS
 10
3.9851578549
 20
3.6696445126
 40
0.0482691462
100
AcDbArc
 50
180.0065263872
 51
187.9304284637
  0
ARC
  5
362
100
AcDbEntity
  8
ALL_ASSEMBLY_MEMBERS
100
AcDbCircle
 62
7
  6
CONTINUOUS
 10
3.9851236693
 20
3.6571944573
 40
0.0482350332
100
AcDbArc
 50
180.0073625033
 51
188.7476160308
  0
ARC
  5
363
100
AcDbEntity
  8
ALL_ASSEMBLY_MEMBERS
100
AcDbCircle
 62
7
  6
CONTINUOUS
 10
3.985117894
 20
3.6615497649
 40
0.0482292246
100
AcDbArc
 50
180.0067638719
 51
188.4963805494
  0
ARC
  5
364
100
AcDbEntity
  8
ALL_ASSEMBLY_MEMBERS
100
AcDbCircle
 62
7
  6
CONTINUOUS
 10
3.9850826582
 20
3.6359202317
 40
0.0481941601
100
AcDbArc
 50
180.0097244417
 51
186.3902668233
  0
ARC
  5
365
100
AcDbEntity
  8
ALL_ASSEMBLY_MEMBERS
100
AcDbCircle
 62
7
  6
CONTINUOUS
 10
3.9849828644
 20
3.6615391105
 40
0.0480941949
100
AcDbArc
 50
175.1147496412
 51
179.9940899608
  0
ARC
  5
366
100
AcDbEntity
  8
ALL_ASSEMBLY_MEMBERS
100
AcDbCircle
 62
7
  6
CONTINUOUS
 10
3.9849761094
 20
3.6487323785
 40
0.0480874729
100
AcDbArc
 50
174.9702256664
 51
180.0023263039
  0
ARC
  5
367
100
AcDbEntity
  8
ALL_ASSEMBLY_MEMBERS
100
AcDbCircle
 62
7
  6
CONTINUOUS
 10
3.984937238
 20
3.6487347332
 40
0.0480486017
100
AcDbArc
 50
180.0051360895
 51
183.0040055636
  0
ARC
  5
368
100
AcDbEntity
  8
ALL_ASSEMBLY_MEMBERS
100
AcDbCircle
 62
7
  6
CONTINUOUS
 10
3.9848519497
 20
3.6359131702
 40
0.047963451
100
AcDbArc
 50
174.7166264328
 51
180.0013356549
  0
ARC
  5
369
100
AcDbEntity
  8
ALL_ASSEMBLY_MEMBERS
100
AcDbCircle
 62
7
  6
CONTINUOUS
 10
3.9991095258
 20
3.6865177158
 40
0.063156994
100
AcDbArc
 50
210.3128024158
 51
212.2409263034
  0
ARC
  5
36A
100
AcDbEntity
  8
ALL_ASSEMBLY_MEMBERS
100
AcDbCircle
 62
7
  6
CONTINUOUS
 10
3.9982835084
 20
3.6754327496
 40
0.0627390079
100
AcDbArc
 50
214.0939746399
 51
214.6527843943
  0
ARC
  5
36B
100
AcDbEntity
  8
ALL_ASSEMBLY_MEMBERS
100
AcDbCircle
 62
7
  6
CONTINUOUS
 10
3.9917852978
 20
3.6829783185
 40
0.055007581
100
AcDbArc
 50
195.6643104309
 51
201.1933749042
  0
ARC
  5
36C
100
AcDbEntity
  8
ALL_ASSEMBLY_MEMBERS
100
AcDbCircle
 62
7
  6
CONTINUOUS
 10
3.9911432089
 20
3.671404845
 40
0.0545298325
100
AcDbArc
 50
202.7347401245
 51
204.5338229947
  0
ARC
  5
36D
100
AcDbEntity
  8
ALL_ASSEMBLY_MEMBERS
100
AcDbCircle
 62
7
  6
CONTINUOUS
 10
3.9897796467
 20
3.6823880004
 40
0.05291704
100
AcDbArc
 50
190.4753653523
 51
195.6352207354
  0
ARC
  5
36E
100
AcDbEntity
  8
ALL_ASSEMBLY_MEMBERS
100
AcDbCircle
 62
7
  6
CONTINUOUS
 10
3.9882599255
 20
3.6821079235
 40
0.0513717262
100
AcDbArc
 50
180.0434403184
 51
190.4763644324
  0
ARC
  5
36F
100
AcDbEntity
  8
ALL_ASSEMBLY_MEMBERS
100
AcDbCircle
 62
7
  6
CONTINUOUS
 10
3.9847426539
 20
3.6743617179
 40
0.0478544429
100
AcDbArc
 50
175.4846319732
 51
179.9062687361
  0
ARC
  5
370
100
AcDbEntity
  8
ALL_ASSEMBLY_MEMBERS
100
AcDbCircle
 62
7
  6
CONTINUOUS
 10
4.0356672072
 20
3.7220855644
 40
0.1348769544
100
AcDbArc
 50
270.5725154659
 51
271.2007027694
  0
ARC
  5
371
100
AcDbEntity
  8
ALL_ASSEMBLY_MEMBERS
100
AcDbCircle
 62
7
  6
CONTINUOUS
 10
4.0356729666
 20
3.7085812992
 40
0.1336274128
100
AcDbArc
 50
271.1947911316
 51
271.9020530289
  0
ARC
  5
372
100
AcDbEntity
  8
ALL_ASSEMBLY_MEMBERS
100
AcDbCircle
 62
7
  6
CONTINUOUS
 10
4.0356766552
 20
3.6961555398
 40
0.1335253489
100
AcDbArc
 50
270.3444314065
 51
271.20281826
  0
ARC
  5
373
100
AcDbEntity
  8
ALL_ASSEMBLY_MEMBERS
100
AcDbCircle
 62
7
  6
CONTINUOUS
 10
4.0254072356
 20
5.8870437624
 40
1.125
100
AcDbArc
 50
276.4144817261
 51
285.5395954904
  0
ARC
  5
374
100
AcDbEntity
  8
ALL_ASSEMBLY_MEMBERS
100
AcDbCircle
 62
7
  6
CONTINUOUS
 10
3.9864527133
 20
5.3873432264
 40
0.0973388583
100
AcDbArc
 50
92.3887957465
 51
93.0179098232
  0
ARC
  5
375
100
AcDbEntity
  8
ALL_ASSEMBLY_MEMBERS
100
AcDbCircle
 62
7
  6
CONTINUOUS
 10
3.2401666811
 20
4.811254194
 40
0.0625027444
100
AcDbArc
 50
210.2644101313
 51
270.0
  0
ARC
  5
376
100
AcDbEntity
  8
ALL_ASSEMBLY_MEMBERS
100
AcDbCircle
 62
7
  6
CONTINUOUS
 10
3.3500561673
 20
4.7472539085
 40
0.0625
100
AcDbArc
 50
209.2092119338
 51
270.0
  0
ARC
  5
377
100
AcDbEntity
  8
ALL_ASSEMBLY_MEMBERS
100
AcDbCircle
 62
7
  6
CONTINUOUS
 10
3.2409507137
 20
4.6862539085
 40
0.0625
100
AcDbArc
 50
29.2092119338
 51
90.0
  0
ARC
  5
378
100
AcDbEntity
  8
ALL_ASSEMBLY_MEMBERS
100
AcDbCircle
 62
7
  6
CONTINUOUS
 10
3.1322007137
 20
4.7482539085
 40
0.0625
100
AcDbArc
 50
30.2644101313
 51
90.0
  0
ARC
  5
379
100
AcDbEntity
  8
ALL_ASSEMBLY_MEMBERS
100
AcDbCircle
 62
7
  6
CONTINUOUS
 10
3.1322007137
 20
4.8732539085
 40
0.0625
100
AcDbArc
 50
180.0
 51
270.0
  0
ARC
  5
37A
100
AcDbEntity
  8
ALL_ASSEMBLY_MEMBERS
100
AcDbCircle
 62
7
  6
CONTINUOUS
 10
3.7902347415
 20
4.6847539085
 40
0.0467840278
100
AcDbArc
 50
180.0
 51
267.8145949287
  0
ARC
  5
37B
100
AcDbEntity
  8
ALL_ASSEMBLY_MEMBERS
100
AcDbCircle
 62
7
  6
CONTINUOUS
 10
3.8352000452
 20
4.6377539085
 40
0.04675
100
AcDbArc
 50
179.6936039968
 51
270.0
  0
ARC
  5
37C
100
AcDbEntity
  8
ALL_ASSEMBLY_MEMBERS
100
AcDbCircle
 62
7
  6
CONTINUOUS
 10
3.7534507137
 20
4.8152105966
 40
0.0125
100
AcDbArc
 50
180.0
 51
254.4604045096
  0
ARC
  5
37D
100
AcDbEntity
  8
ALL_ASSEMBLY_MEMBERS
100
AcDbCircle
 62
7
  6
CONTINUOUS
 10
3.6886966653
 20
17.6600614933
 40
12.7678382399
100
AcDbArc
 50
271.5697205404
 51
271.7978451176
  0
ARC
  5
37E
100
AcDbEntity
  8
ALL_ASSEMBLY_MEMBERS
100
AcDbCircle
 62
7
  6
CONTINUOUS
 10
3.7189775795
 20
16.6878051398
 40
11.8091539077
100
AcDbArc
 50
271.5502123072
 51
271.7968551047
  0
ARC
  5
37F
100
AcDbEntity
  8
ALL_ASSEMBLY_MEMBERS
100
AcDbCircle
 62
7
  6
CONTINUOUS
 10
4.0718934988
 20
3.3136933149
 40
0.6225484091
100
AcDbArc
 50
291.723962656
 51
292.2074729952
  0
ARC
  5
380
100
AcDbEntity
  8
ALL_ASSEMBLY_MEMBERS
100
AcDbCircle
 62
7
  6
CONTINUOUS
 10
4.0708725154
 20
3.3020294859
 40
0.6159829328
100
AcDbArc
 50
292.2080541089
 51
292.7131537394
  0
ARC
  5
381
100
AcDbEntity
  8
ALL_ASSEMBLY_MEMBERS
100
AcDbCircle
 62
7
  6
CONTINUOUS
 10
4.3063573138
 20
3.066466153
 40
0.2695764794
100
AcDbArc
 50
351.6476774765
 51
3.2055441313
  0
ARC
  5
382
100
AcDbEntity
  8
ALL_ASSEMBLY_MEMBERS
100
AcDbCircle
 62
7
  6
CONTINUOUS
 10
4.2389093543
 20
3.2133117983
 40
0.2045413594
100
AcDbArc
 50
0.000337481
 51
1.4373162256
  0
ARC
  5
383
100
AcDbEntity
  8
ALL_ASSEMBLY_MEMBERS
100
AcDbCircle
 62
7
  6
CONTINUOUS
 10
4.0384508492
 20
3.5826514306
 40
0.170706164
100
AcDbArc
 50
269.014111116
 51
270.986921649
  0
ARC
  5
384
100
AcDbEntity
  8
ALL_ASSEMBLY_MEMBERS
100
AcDbCircle
 62
7
  6
CONTINUOUS
 10
4.0457676937
 20
3.5531897276
 40
0.1402178183
100
AcDbArc
 50
291.1873474425
 51
292.2068449397
  0
ARC
  5
385
100
AcDbEntity
  8
ALL_ASSEMBLY_MEMBERS
100
AcDbCircle
 62
7
  6
CONTINUOUS
 10
4.0462940417
 20
3.5453098625
 40
0.1322171637
100
AcDbArc
 50
292.2056797053
 51
293.2853448655
  0
ARC
  5
386
100
AcDbEntity
  8
ALL_ASSEMBLY_MEMBERS
100
AcDbCircle
 62
7
  6
CONTINUOUS
 10
4.0384493717
 20
3.4555202791
 40
0.1222513
100
AcDbArc
 50
22.3316374299
 51
34.8899615237
  0
ARC
  5
387
100
AcDbEntity
  8
ALL_ASSEMBLY_MEMBERS
100
AcDbCircle
 62
7
  6
CONTINUOUS
 10
4.0384269695
 20
3.455533286
 40
0.1222230813
100
AcDbArc
 50
145.1035572105
 51
157.7286208033
  0
ARC
  5
388
100
AcDbEntity
  8
ALL_ASSEMBLY_MEMBERS
100
AcDbCircle
 62
7
  6
CONTINUOUS
 10
4.0956560353
 20
3.4848177159
 40
0.058421686
100
AcDbArc
 50
4.412963923
 51
8.4552073894
  0
ARC
  5
389
100
AcDbEntity
  8
ALL_ASSEMBLY_MEMBERS
100
AcDbCircle
 62
7
  6
CONTINUOUS
 10
4.0384507137
 20
3.9806914085
 40
0.10375
100
AcDbArc
 50
168.278685863
 51
191.721314137
  0
ARC
  5
38A
100
AcDbEntity
  8
ALL_ASSEMBLY_MEMBERS
100
AcDbCircle
 62
7
  6
CONTINUOUS
 10
4.0384507137
 20
3.9806914085
 40
0.10375
100
AcDbArc
 50
348.2585726293
 51
11.721314137
  0
ARC
  5
38B
100
AcDbEntity
  8
ALL_ASSEMBLY_MEMBERS
100
AcDbCircle
 62
7
  6
CONTINUOUS
 10
4.0782533022
 20
3.6339239016
 40
0.0751789873
100
AcDbArc
 50
323.8597262889
 51
324.2259649404
  0
ARC
  5
38C
100
AcDbEntity
  8
ALL_ASSEMBLY_MEMBERS
100
AcDbCircle
 62
7
  6
CONTINUOUS
 10
4.0735329417
 20
3.6562404597
 40
0.0676298863
100
AcDbArc
 50
326.7591452072
 51
328.249881903
  0
ARC
  5
38D
100
AcDbEntity
  8
ALL_ASSEMBLY_MEMBERS
100
AcDbCircle
 62
7
  6
CONTINUOUS
 10
4.0773579709
 20
3.6766009778
 40
0.0614536484
100
AcDbArc
 50
330.5584439141
 51
333.1488207941
  0
ARC
  5
38E
100
AcDbEntity
  8
ALL_ASSEMBLY_MEMBERS
100
AcDbCircle
 62
7
  6
CONTINUOUS
 10
4.0803089069
 20
3.6850721046
 40
0.0602545547
100
AcDbArc
 50
329.5452903327
 51
334.2823466411
  0
ARC
  5
38F
100
AcDbEntity
  8
ALL_ASSEMBLY_MEMBERS
100
AcDbCircle
 62
7
  6
CONTINUOUS
 10
4.0804772804
 20
3.652570129
 40
0.0597656575
100
AcDbArc
 50
336.6896662439
 51
338.7732021491
  0
ARC
  5
390
100
AcDbEntity
  8
ALL_ASSEMBLY_MEMBERS
100
AcDbCircle
 62
7
  6
CONTINUOUS
 10
4.0821543751
 20
3.6394719942
 40
0.0579685346
100
AcDbArc
 50
338.579762139
 51
345.5307122266
  0
ARC
  5
391
100
AcDbEntity
  8
ALL_ASSEMBLY_MEMBERS
100
AcDbCircle
 62
7
  6
CONTINUOUS
 10
4.0806572907
 20
3.6750082986
 40
0.0577907209
100
AcDbArc
 50
333.0801555869
 51
340.7005936466
  0
ARC
  5
392
100
AcDbEntity
  8
ALL_ASSEMBLY_MEMBERS
100
AcDbCircle
 62
7
  6
CONTINUOUS
 10
4.0823281849
 20
3.6642861198
 40
0.0577863683
100
AcDbArc
 50
339.2530671944
 51
345.5697088707
  0
ARC
  5
393
100
AcDbEntity
  8
ALL_ASSEMBLY_MEMBERS
100
AcDbCircle
 62
7
  6
CONTINUOUS
 10
4.0824677003
 20
3.6687598708
 40
0.0576392036
100
AcDbArc
 50
341.9233442004
 51
342.7930337964
  0
ARC
  5
394
100
AcDbEntity
  8
ALL_ASSEMBLY_MEMBERS
100
AcDbCircle
 62
7
  6
CONTINUOUS
 10
4.0824898191
 20
3.651806923
 40
0.0576133361
100
AcDbArc
 50
338.7560621569
 51
347.057796552
  0
ARC
  5
395
100
AcDbEntity
  8
ALL_ASSEMBLY_MEMBERS
100
AcDbCircle
 62
7
  6
CONTINUOUS
 10
4.0826068601
 20
3.6430612927
 40
0.0574926601
100
AcDbArc
 50
341.9411492006
 51
343.5265548109
  0
ARC
  5
396
100
AcDbEntity
  8
ALL_ASSEMBLY_MEMBERS
100
AcDbCircle
 62
7
  6
CONTINUOUS
 10
4.0830910126
 20
3.683754703
 40
0.0571763697
100
AcDbArc
 50
334.2619505849
 51
339.1648439988
  0
ARC
  5
397
100
AcDbEntity
  8
ALL_ASSEMBLY_MEMBERS
100
AcDbCircle
 62
7
  6
CONTINUOUS
 10
4.0840970306
 20
3.6389249421
 40
0.0559508273
100
AcDbArc
 50
345.5760839273
 51
347.0830770838
  0
ARC
  5
398
100
AcDbEntity
  8
ALL_ASSEMBLY_MEMBERS
100
AcDbCircle
 62
7
  6
CONTINUOUS
 10
4.0841010586
 20
3.6637928069
 40
0.0559465031
100
AcDbArc
 50
345.6065218738
 51
347.1073828158
  0
ARC
  5
399
100
AcDbEntity
  8
ALL_ASSEMBLY_MEMBERS
100
AcDbCircle
 62
7
  6
CONTINUOUS
 10
4.0824911721
 20
3.6743446515
 40
0.0558405609
100
AcDbArc
 50
340.7213681185
 51
342.1062815882
  0
ARC
  5
39A
100
AcDbEntity
  8
ALL_ASSEMBLY_MEMBERS
100
AcDbCircle
 62
7
  6
CONTINUOUS
 10
4.0844578656
 20
3.6832249109
 40
0.0557104626
100
AcDbArc
 50
339.1740844582
 51
340.2828499275
  0
ARC
  5
39B
100
AcDbEntity
  8
ALL_ASSEMBLY_MEMBERS
100
AcDbCircle
 62
7
  6
CONTINUOUS
 10
4.0846550753
 20
3.6681582904
 40
0.0553718156
100
AcDbArc
 50
342.718094017
 51
352.6991173284
  0
ARC
  5
39C
100
AcDbEntity
  8
ALL_ASSEMBLY_MEMBERS
100
AcDbCircle
 62
7
  6
CONTINUOUS
 10
4.0847499902
 20
3.6424900852
 40
0.0552755574
100
AcDbArc
 50
343.4643938121
 51
352.7232189066
  0
ARC
  5
39D
100
AcDbEntity
  8
ALL_ASSEMBLY_MEMBERS
100
AcDbCircle
 62
7
  6
CONTINUOUS
 10
4.0848431585
 20
3.6387554734
 40
0.0551856974
100
AcDbArc
 50
347.0814080293
 51
350.4833994815
  0
ARC
  5
39E
100
AcDbEntity
  8
ALL_ASSEMBLY_MEMBERS
100
AcDbCircle
 62
7
  6
CONTINUOUS
 10
4.0848991041
 20
3.6636125181
 40
0.0551283495
100
AcDbArc
 50
347.1049718236
 51
350.9183603735
  0
ARC
  5
39F
100
AcDbEntity
  8
ALL_ASSEMBLY_MEMBERS
100
AcDbCircle
 62
7
  6
CONTINUOUS
 10
4.0835525595
 20
3.6740103011
 40
0.0547277854
100
AcDbArc
 50
342.0979726012
 51
345.2640652338
  0
ARC
  5
3A0
100
AcDbEntity
  8
ALL_ASSEMBLY_MEMBERS
100
AcDbCircle
 62
7
  6
CONTINUOUS
 10
4.0855277437
 20
3.6386324927
 40
0.0544902014
100
AcDbArc
 50
350.491920121
 51
350.901735934
  0
ARC
  5
3A1
100
AcDbEntity
  8
ALL_ASSEMBLY_MEMBERS
100
AcDbCircle
 62
7
  6
CONTINUOUS
 10
4.0856095406
 20
3.663488721
 40
0.0544072793
100
AcDbArc
 50
350.9290057997
 51
351.2198138532
  0
ARC
  5
3A2
100
AcDbEntity
  8
ALL_ASSEMBLY_MEMBERS
100
AcDbCircle
 62
7
  6
CONTINUOUS
 10
4.0858048294
 20
3.6827584476
 40
0.0542850999
100
AcDbArc
 50
340.2666800182
 51
344.2142734438
  0
ARC
  5
3A3
100
AcDbEntity
  8
ALL_ASSEMBLY_MEMBERS
100
AcDbCircle
 62
7
  6
CONTINUOUS
 10
4.085903668
 20
3.6510167221
 40
0.0541090803
100
AcDbArc
 50
347.2343077014
 51
0.002860843
  0
ARC
  5
3A4
100
AcDbEntity
  8
ALL_ASSEMBLY_MEMBERS
100
AcDbCircle
 62
7
  6
CONTINUOUS
 10
4.0860020415
 20
3.6679430064
 40
0.0540107147
100
AcDbArc
 50
0.0326378837
 51
7.6632246791
  0
ARC
  5
3A5
100
AcDbEntity
  8
ALL_ASSEMBLY_MEMBERS
100
AcDbCircle
 62
7
  6
CONTINUOUS
 10
4.0860115196
 20
3.638561364
 40
0.054001265
100
AcDbArc
 50
350.8950889908
 51
359.9599587023
  0
ARC
  5
3A6
100
AcDbEntity
  8
ALL_ASSEMBLY_MEMBERS
100
AcDbCircle
 62
7
  6
CONTINUOUS
 10
4.0860249759
 20
3.6634302871
 40
0.0539877931
100
AcDbArc
 50
351.2138021864
 51
359.9611247252
  0
ARC
  5
3A7
100
AcDbEntity
  8
ALL_ASSEMBLY_MEMBERS
100
AcDbCircle
 62
7
  6
CONTINUOUS
 10
4.0860597424
 20
3.6551446029
 40
0.0539532021
100
AcDbArc
 50
355.6356830555
 51
356.3264742137
  0
ARC
  5
3A8
100
AcDbEntity
  8
ALL_ASSEMBLY_MEMBERS
100
AcDbCircle
 62
7
  6
CONTINUOUS
 10
4.0861098884
 20
3.6422977651
 40
0.0539028659
100
AcDbArc
 50
0.0273605746
 51
4.7710883826
  0
ARC
  5
3A9
100
AcDbEntity
  8
ALL_ASSEMBLY_MEMBERS
100
AcDbCircle
 62
7
  6
CONTINUOUS
 10
4.0861381059
 20
3.642300795
 40
0.0538746471
100
AcDbArc
 50
352.735920489
 51
0.024152552
  0
ARC
  5
3AA
100
AcDbEntity
  8
ALL_ASSEMBLY_MEMBERS
100
AcDbCircle
 62
7
  6
CONTINUOUS
 10
4.0861483981
 20
3.6679517413
 40
0.0538643538
100
AcDbArc
 50
352.715182725
 51
0.0234352305
  0
ARC
  5
3AB
100
AcDbEntity
  8
ALL_ASSEMBLY_MEMBERS
100
AcDbCircle
 62
7
  6
CONTINUOUS
 10
4.0861498989
 20
3.6295004471
 40
0.0538628788
100
AcDbArc
 50
356.2914189562
 51
359.9722651049
  0
ARC
  5
3AC
100
AcDbEntity
  8
ALL_ASSEMBLY_MEMBERS
100
AcDbCircle
 62
7
  6
CONTINUOUS
 10
4.0861552301
 20
3.6551387078
 40
0.0538575329
100
AcDbArc
 50
356.3262241917
 51
359.9720796517
  0
ARC
  5
3AD
100
AcDbEntity
  8
ALL_ASSEMBLY_MEMBERS
100
AcDbCircle
 62
7
  6
CONTINUOUS
 10
4.0861741404
 20
3.65513623
 40
0.0538386214
100
AcDbArc
 50
359.9747066987
 51
4.2314234852
  0
ARC
  5
3AE
100
AcDbEntity
  8
ALL_ASSEMBLY_MEMBERS
100
AcDbCircle
 62
7
  6
CONTINUOUS
 10
4.0861757908
 20
3.6294981385
 40
0.0538369858
100
AcDbArc
 50
359.9747087359
 51
4.7119717813
  0
ARC
  5
3AF
100
AcDbEntity
  8
ALL_ASSEMBLY_MEMBERS
100
AcDbCircle
 62
7
  6
CONTINUOUS
 10
4.0865938744
 20
3.6825300471
 40
0.0534636792
100
AcDbArc
 50
344.2197757324
 51
344.6872690481
  0
ARC
  5
3B0
100
AcDbEntity
  8
ALL_ASSEMBLY_MEMBERS
100
AcDbCircle
 62
7
  6
CONTINUOUS
 10
4.0856289512
 20
3.6735072337
 40
0.0525917435
100
AcDbArc
 50
345.2187011528
 51
353.1557955662
  0
ARC
  5
3B1
100
AcDbEntity
  8
ALL_ASSEMBLY_MEMBERS
100
AcDbCircle
 62
7
  6
CONTINUOUS
 10
4.0883213239
 20
3.682130233
 40
0.0516920186
100
AcDbArc
 50
344.6090406416
 51
359.8445767244
  0
ARC
  5
3B2
100
AcDbEntity
  8
ALL_ASSEMBLY_MEMBERS
100
AcDbCircle
 62
7
  6
CONTINUOUS
 10
4.8887481637
 20
4.1902185277
 40
0.75
100
AcDbArc
 50
149.6433854291
 51
175.7343714095
  0
ARC
  5
3B3
100
AcDbEntity
  8
ALL_ASSEMBLY_MEMBERS
100
AcDbCircle
 62
7
  6
CONTINUOUS
 10
4.0514941917
 20
5.8870437624
 40
1.125
100
AcDbArc
 50
254.4604045096
 51
263.5855182739
  0
ARC
  5
3B4
100
AcDbEntity
  8
ALL_ASSEMBLY_MEMBERS
100
AcDbCircle
 62
7
  6
CONTINUOUS
 10
4.8367347463
 20
4.811254194
 40
0.0625027444
100
AcDbArc
 50
270.0
 51
329.7355898687
  0
ARC
  5
3B5
100
AcDbEntity
  8
ALL_ASSEMBLY_MEMBERS
100
AcDbCircle
 62
7
  6
CONTINUOUS
 10
4.7268452601
 20
4.7472539085
 40
0.0625
100
AcDbArc
 50
270.0
 51
330.7907880662
  0
ARC
  5
3B6
100
AcDbEntity
  8
ALL_ASSEMBLY_MEMBERS
100
AcDbCircle
 62
7
  6
CONTINUOUS
 10
4.8359507137
 20
4.6862539085
 40
0.0625
100
AcDbArc
 50
90.0
 51
150.7907880662
  0
ARC
  5
3B7
100
AcDbEntity
  8
ALL_ASSEMBLY_MEMBERS
100
AcDbCircle
 62
7
  6
CONTINUOUS
 10
4.9447007137
 20
4.7482539085
 40
0.0625
100
AcDbArc
 50
90.0
 51
149.7355898687
  0
ARC
  5
3B8
100
AcDbEntity
  8
ALL_ASSEMBLY_MEMBERS
100
AcDbCircle
 62
7
  6
CONTINUOUS
 10
4.9447007137
 20
4.8732539085
 40
0.0625
100
AcDbArc
 50
270.0
 51
360.0
  0
ARC
  5
3B9
100
AcDbEntity
  8
ALL_ASSEMBLY_MEMBERS
100
AcDbCircle
 62
7
  6
CONTINUOUS
 10
4.2866666859
 20
4.6847539085
 40
0.0467840278
100
AcDbArc
 50
272.1854050713
 51
359.8695104847
  0
ARC
  5
3BA
100
AcDbEntity
  8
ALL_ASSEMBLY_MEMBERS
100
AcDbCircle
 62
7
  6
CONTINUOUS
 10
4.2417013821
 20
4.6377539085
 40
0.04675
100
AcDbArc
 50
270.0
 51
0.3063960032
  0
ARC
  5
3BB
100
AcDbEntity
  8
ALL_ASSEMBLY_MEMBERS
100
AcDbCircle
 62
7
  6
CONTINUOUS
 10
4.3234507137
 20
4.8152105966
 40
0.0125
100
AcDbArc
 50
285.5395954903
 51
360.0
  0
ARC
  5
3BC
100
AcDbEntity
  8
ALL_FEATURES
100
AcDbCircle
 62
9
  6
CONTINUOUS
 10
57.9356913519
 20
5.8647788786
 40
54.1353548385
100
AcDbArc
 50
182.3201003039
 51
182.5152421343
  0
ARC
  5
3BD
100
AcDbEntity
  8
ALL_FEATURES
100
AcDbCircle
 62
7
  6
CONTINUOUS
 10
57.5679104283
 20
5.8750528211
 40
53.7839221964
100
AcDbArc
 50
182.346901776
 51
182.5478278882
  0
SPLINE
  5
3BE
100
AcDbEntity
  8
ALL_ASSEMBLY_MEMBERS
100
AcDbSpline
 62
7
  6
CONTINUOUS
 70
0
 71
3
 72
8
 73
4
 74
0
 42
0.0000001
 43
0.0000001
 44
0.0000000001
 40
0.0
 40
0.0
 40
0.0
 40
0.0
 40
1.0
 40
1.0
 40
1.0
 40
1.0
 10
4.0974505383
 20
5.4917326727
 30
0.0
 10
4.0974505307
 20
5.4917308647
 30
0.0
 10
4.0974500106
 20
5.4917290301
 30
0.0
 10
4.0974491908
 20
5.4917274187
 30
0.0
  0
SPLINE
  5
3BF
100
AcDbEntity
  8
ALL_ASSEMBLY_MEMBERS
100
AcDbSpline
 62
7
  6
CONTINUOUS
 70
0
 71
3
 72
9
 73
5
 74
0
 42
0.0000001
 43
0.0000001
 44
0.0000000001
 40
0.0
 40
0.0
 40
0.0
 40
0.0
 40
0.1979234569
 40
1.0
 40
1.0
 40
1.0
 40
1.0
 10
4.0974491908
 20
5.4917274187
 30
0.0
 10
4.0974486125
 20
5.4917262819
 30
0.0
 10
4.0974449244
 20
5.491720929
 30
0.0
 10
4.0974393579
 20
5.4917172389
 30
0.0
 10
4.0974348808
 20
5.4917146565
 30
0.0
  0
LINE
  5
3C0
100
AcDbEntity
  8
ALL_ASSEMBLY_MEMBERS
100
AcDbLine
 62
7
  6
CONTINUOUS
 10
4.0947717818
 20
5.4655641145
 11
4.0943067536
 21
5.4654805051
  0
SPLINE
  5
3C1
100
AcDbEntity
  8
ALL_ASSEMBLY_MEMBERS
100
AcDbSpline
 62
7
  6
CONTINUOUS
 70
0
 71
3
 72
45
 73
41
 74
0
 42
0.0000001
 43
0.0000001
 44
0.0000000001
 40
0.0
 40
0.0
 40
0.0
 40
0.0
 40
0.0036444827
 40
0.0083770262
 40
0.0210740655
 40
0.0379830022
 40
0.0589549451
 40
0.0838084544
 40
0.1123196065
 40
0.1442422575
 40
0.1792881573
 40
0.2574981474
 40
0.3441893005
 40
0.4363016006
 40
0.5305836276
 40
0.623707427
 40
0.6688035883
 40
0.7123860412
 40
0.7540722923
 40
0.7934895886
 40
0.8302943656
 40
0.8641558582
 40
0.8947799717
 40
0.9218916336
 40
0.9340548331
 40
0.9452546978
 40
0.9554652094
 40
0.9646616588
 40
0.9728258325
 40
0.9799416196
 40
0.9859930389
 40
0.9909646835
 40
0.9948471313
 40
0.9963787367
 40
0.997636966
 40
0.9986221679
 40
0.9993359487
 40
0.9995927213
 40
0.9997849551
 40
1.0
 40
1.0
 40
1.0
 40
1.0
 10
4.0943067536
 20
5.4654805051
 30
0.0
 10
4.0941711683
 20
5.465466055
 30
0.0
 10
4.0938588718
 20
5.4654390349
 30
0.0
 10
4.0930722057
 20
5.4653857445
 30
0.0
 10
4.0917889111
 20
5.4653232004
 30
0.0
 10
4.089897966
 20
5.4652516031
 30
0.0
 10
4.0875519329
 20
5.4651795492
 30
0.0
 10
4.0847716787
 20
5.4651069569
 30
0.0
 10
4.0815816014
 20
5.465034119
 30
0.0
 10
4.0780101079
 20
5.4649611123
 30
0.0
 10
4.0725794006
 20
5.4648598635
 30
0.0
 10
4.0650996851
 20
5.4647360001
 30
0.0
 10
4.0554849757
 20
5.4645915724
 30
0.0
 10
4.0452688947
 20
5.4644468586
 30
0.0
 10
4.0348121246
 20
5.4643020095
 30
0.0
 10
4.0261142472
 20
5.4641800971
 30
0.0
 10
4.0193130865
 20
5.4640812364
 30
0.0
 10
4.0144362214
 20
5.4640079004
 30
0.0
 10
4.0097718472
 20
5.4639346109
 30
0.0
 10
4.0053610823
 20
5.4638613558
 30
0.0
 10
4.001243111
 20
5.4637881835
 30
0.0
 10
3.9974541782
 20
5.4637150911
 30
0.0
 10
3.9940279706
 20
5.4636421391
 30
0.0
 10
3.9914135458
 20
5.463579459
 30
0.0
 10
3.9895257877
 20
5.4635286592
 30
0.0
 10
3.9882702143
 20
5.4634919823
 30
0.0
 10
3.9871256877
 20
5.4634553478
 30
0.0
 10
3.9860947997
 20
5.463418751
 30
0.0
 10
3.9851797745
 20
5.4633822263
 30
0.0
 10
3.9843825174
 20
5.4633457973
 30
0.0
 10
3.9837048365
 20
5.4633095668
 30
0.0
 10
3.9831483174
 20
5.4632735126
 30
0.0
 10
3.9827610088
 20
5.4632419778
 30
0.0
 10
3.9825127241
 20
5.4632156274
 30
0.0
 10
3.9823726832
 20
5.4631976773
 30
0.0
 10
3.9822632992
 20
5.4631796905
 30
0.0
 10
3.9821921141
 20
5.4631642854
 30
0.0
 10
3.982150124
 20
5.4631504766
 30
0.0
 10
3.9821285365
 20
5.4631410637
 30
0.0
 10
3.9821132056
 20
5.4631297762
 30
0.0
 10
3.982113224
 20
5.4631217306
 30
0.0
  0
LINE
  5
3C2
100
AcDbEntity
  8
ALL_ASSEMBLY_MEMBERS
100
AcDbLine
 62
7
  6
CONTINUOUS
 10
4.0961863709
 20
5.4528082986
 11
4.0974473946
 21
5.4529624708
  0
SPLINE
  5
3C3
100
AcDbEntity
  8
ALL_ASSEMBLY_MEMBERS
100
AcDbSpline
 62
7
  6
CONTINUOUS
 70
0
 71
3
 72
8
 73
4
 74
0
 42
0.0000001
 43
0.0000001
 44
0.0000000001
 40
0.0
 40
0.0
 40
0.0
 40
0.0
 40
1.0
 40
1.0
 40
1.0
 40
1.0
 10
4.0974473946
 20
5.4529624708
 30
0.0
 10
4.0974492675
 20
5.4529647971
 30
0.0
 10
4.0974507423
 20
5.4529677903
 30
0.0
 10
4.0974507541
 20
5.4529707768
 30
0.0
  0
SPLINE
  5
3C4
100
AcDbEntity
  8
ALL_ASSEMBLY_MEMBERS
100
AcDbSpline
 62
7
  6
CONTINUOUS
 70
0
 71
3
 72
48
 73
44
 74
0
 42
0.0000001
 43
0.0000001
 44
0.0000000001
 40
0.0
 40
0.0
 40
0.0
 40
0.0
 40
0.0002208306
 40
0.0004197722
 40
0.0006858836
 40
0.0014262477
 40
0.0024485702
 40
0.0037544508
 40
0.0053442338
 40
0.0093746005
 40
0.0145358698
 40
0.0208165109
 40
0.0282002084
 40
0.0366703202
 40
0.0462099789
 40
0.0567980559
 40
0.0684076969
 40
0.0810116118
 40
0.1090908147
 40
0.1407767057
 40
0.1757768769
 40
0.2137709711
 40
0.254406279
 40
0.2973118137
 40
0.3420889176
 40
0.388328289
 40
0.4834743366
 40
0.5792519558
 40
0.6721399004
 40
0.7587232433
 40
0.7986441126
 40
0.8358190257
 40
0.8699067736
 40
0.9005936251
 40
0.9275956024
 40
0.9506672376
 40
0.9695922297
 40
0.9774474606
 40
0.9842045624
 40
0.9898471566
 40
0.9943655703
 40
0.9977516876
 40
1.0
 40
1.0
 40
1.0
 40
1.0
 10
4.0947882114
 20
5.4692754763
 30
0.0
 10
4.0947882204
 20
5.4692671883
 30
0.0
 10
4.0947721254
 20
5.4692557138
 30
0.0
 10
4.0947497403
 20
5.4692461318
 30
0.0
 10
4.0947059626
 20
5.4692320369
 30
0.0
 10
4.0946318452
 20
5.4692163182
 30
0.0
 10
4.0945179172
 20
5.4691979605
 30
0.0
 10
4.0943720756
 20
5.4691796411
 30
0.0
 10
4.0941134816
 20
5.4691527459
 30
0.0
 10
4.0937101048
 20
5.4691205616
 30
0.0
 10
4.0931305642
 20
5.4690837695
 30
0.0
 10
4.0924249809
 20
5.4690467896
 30
0.0
 10
4.0915950808
 20
5.4690096083
 30
0.0
 10
4.0906427657
 20
5.4689723291
 30
0.0
 10
4.0895701091
 20
5.4689349813
 30
0.0
 10
4.0883795607
 20
5.4688975911
 30
0.0
 10
4.0870739579
 20
5.4688601568
 30
0.0
 10
4.085112045
 20
5.4688083181
 30
0.0
 10
4.0823967158
 20
5.4687443671
 30
0.0
 10
4.0788408634
 20
5.4686699076
 30
0.0
 10
4.0749128249
 20
5.4685953194
 30
0.0
 10
4.0706488531
 20
5.4685206388
 30
0.0
 10
4.0660881446
 20
5.4684458821
 30
0.0
 10
4.061272832
 20
5.4683710864
 30
0.0
 10
4.0562471701
 20
5.4682962456
 30
0.0
 10
4.0492610422
 20
5.4681954795
 30
0.0
 10
4.0403609571
 20
5.4680712643
 30
0.0
 10
4.029710265
 20
5.4679235506
 30
0.0
 10
4.0193809685
 20
5.467775985
 30
0.0
 10
4.0111479321
 20
5.4676502189
 30
0.0
 10
4.0050057537
 20
5.4675477854
 30
0.0
 10
4.0008335981
 20
5.46747312
 30
0.0
 10
3.9970080613
 20
5.4673985671
 30
0.0
 10
3.9935644008
 20
5.4673241663
 30
0.0
 10
3.990534285
 20
5.4672500105
 30
0.0
 10
3.9879457494
 20
5.4671761811
 30
0.0
 10
3.9860758425
 20
5.4671118763
 30
0.0
 10
3.9848182676
 20
5.4670588968
 30
0.0
 10
3.9840589695
 20
5.4670218341
 30
0.0
 10
3.983425102
 20
5.4669848983
 30
0.0
 10
3.9829178829
 20
5.4669485748
 30
0.0
 10
3.9825386375
 20
5.4669124403
 30
0.0
 10
3.982328686
 20
5.4668848097
 30
0.0
 10
3.9822459906
 20
5.4668680266
 30
0.0
  0
LINE
  5
3C5
100
AcDbEntity
  8
ALL_ASSEMBLY_MEMBERS
100
AcDbLine
 62
7
  6
CONTINUOUS
 10
3.9822459906
 20
5.4668680266
 11
3.9821299005
 21
5.4668330942
  0
LINE
  5
3C6
100
AcDbEntity
  8
ALL_ASSEMBLY_MEMBERS
100
AcDbLine
 62
7
  6
CONTINUOUS
 10
3.9794507137
 20
5.479426425
 11
3.9799529378
 21
5.4795286737
  0
LINE
  5
3C7
100
AcDbEntity
  8
ALL_ASSEMBLY_MEMBERS
100
AcDbLine
 62
7
  6
CONTINUOUS
 10
3.9799529378
 20
5.4795286737
 11
3.9805839314
 21
5.4795802225
  0
LINE
  5
3C8
100
AcDbEntity
  8
ALL_ASSEMBLY_MEMBERS
100
AcDbLine
 62
7
  6
CONTINUOUS
 10
3.9805839314
 20
5.4795802225
 11
3.9826205257
 21
5.4796843985
  0
SPLINE
  5
3C9
100
AcDbEntity
  8
ALL_ASSEMBLY_MEMBERS
100
AcDbSpline
 62
7
  6
CONTINUOUS
 70
0
 71
3
 72
39
 73
35
 74
0
 42
0.0000001
 43
0.0000001
 44
0.0000000001
 40
0.0
 40
0.0
 40
0.0
 40
0.0
 40
0.0163174453
 40
0.0362036949
 40
0.0860394462
 40
0.1480001145
 40
0.2202135814
 40
0.3004934475
 40
0.3864025323
 40
0.4753314883
 40
0.5645865937
 40
0.6514654891
 40
0.6931875758
 40
0.7333381808
 40
0.7716146591
 40
0.8077218819
 40
0.8413903397
 40
0.8723609665
 40
0.9004022592
 40
0.9252997806
 40
0.9468645432
 40
0.9563466942
 40
0.964935518
 40
0.9726144507
 40
0.9793712079
 40
0.9851938768
 40
0.9900707052
 40
0.9939912772
 40
0.99559148
 40
0.9969513249
 40
0.9980708336
 40
0.9989504669
 40
0.9995917835
 40
1.0
 40
1.0
 40
1.0
 40
1.0
 10
3.9826205257
 20
5.4796843985
 30
0.0
 10
3.9832446678
 20
5.4797100292
 30
0.0
 10
3.98462977
 20
5.4797592611
 30
0.0
 10
3.9879221375
 20
5.4798560779
 30
0.0
 10
3.9929619589
 20
5.4799716904
 30
0.0
 10
4.0000050213
 20
5.4801043465
 30
0.0
 10
4.0082137217
 20
5.4802377732
 30
0.0
 10
4.0173393132
 20
5.4803718505
 30
0.0
 10
4.0271048713
 20
5.4805062071
 30
0.0
 10
4.0372140501
 20
5.4806407088
 30
0.0
 10
4.0473603584
 20
5.480775224
 30
0.0
 10
4.055699603
 20
5.4808886973
 30
0.0
 10
4.0621591361
 20
5.4809805872
 30
0.0
 10
4.0667582118
 20
5.4810485597
 30
0.0
 10
4.0711423142
 20
5.4811164892
 30
0.0
 10
4.0752782348
 20
5.4811843884
 30
0.0
 10
4.0791344324
 20
5.4812522149
 30
0.0
 10
4.0826817981
 20
5.4813199731
 30
0.0
 10
4.0858933292
 20
5.4813876038
 30
0.0
 10
4.0887446971
 20
5.4814550875
 30
0.0
 10
4.0908855904
 20
5.4815133279
 30
0.0
 10
4.092402198
 20
5.4815606673
 30
0.0
 10
4.0933873799
 20
5.4815945927
 30
0.0
 10
4.0942681616
 20
5.4816284653
 30
0.0
 10
4.0950429635
 20
5.4816622647
 30
0.0
 10
4.095710388
 20
5.4816959352
 30
0.0
 10
4.096269078
 20
5.4817294573
 30
0.0
 10
4.0966660742
 20
5.4817587408
 30
0.0
 10
4.0969283671
 20
5.4817829379
 30
0.0
 10
4.0970836576
 20
5.4817997535
 30
0.0
 10
4.097211127
 20
5.481816491
 30
0.0
 10
4.0973109999
 20
5.4818329191
 30
0.0
 10
4.0973828606
 20
5.4818492195
 30
0.0
 10
4.0974214915
 20
5.4818618705
 30
0.0
 10
4.0974350388
 20
5.4818696607
 30
0.0
  0
SPLINE
  5
3CA
100
AcDbEntity
  8
ALL_ASSEMBLY_MEMBERS
100
AcDbSpline
 62
7
  6
CONTINUOUS
 70
0
 71
3
 72
50
 73
46
 74
0
 42
0.0000001
 43
0.0000001
 44
0.0000000001
 40
0.0
 40
0.0
 40
0.0
 40
0.0
 40
0.0002220771
 40
0.0004220135
 40
0.0006893973
 40
0.0014333274
 40
0.00246091
 40
0.0037741452
 40
0.0053737771
 40
0.0094317149
 40
0.0146260703
 40
0.0209439157
 40
0.0283718033
 40
0.0368956276
 40
0.0464952876
 40
0.0571462782
 40
0.0688239465
 40
0.081503527
 40
0.1097485826
 40
0.1416131618
 40
0.1768086756
 40
0.2150026935
 40
0.2558465137
 40
0.2989570768
 40
0.3439377989
 40
0.3903695917
 40
0.4858572436
 40
0.581886144
 40
0.6749024048
 40
0.7191975389
 40
0.7614637702
 40
0.8013112219
 40
0.8383671317
 40
0.8722925809
 40
0.9027673251
 40
0.9295158577
 40
0.9522830731
 40
0.9708664708
 40
0.9785313833
 40
0.9850876602
 40
0.9905230474
 40
0.9948257898
 40
0.9979853313
 40
0.9991352054
 40
1.0
 40
1.0
 40
1.0
 40
1.0
 10
4.0947880588
 20
5.4741979777
 30
0.0
 10
4.094788019
 20
5.4741896403
 30
0.0
 10
4.0947718234
 20
5.4741781638
 30
0.0
 10
4.0947493057
 20
5.474168533
 30
0.0
 10
4.0947052955
 20
5.4741543973
 30
0.0
 10
4.094630778
 20
5.4741386186
 30
0.0
 10
4.0945162055
 20
5.4741202014
 30
0.0
 10
4.0943694732
 20
5.4741018197
 30
0.0
 10
4.094109113
 20
5.4740748307
 30
0.0
 10
4.0937029543
 20
5.4740425626
 30
0.0
 10
4.0931195496
 20
5.4740056441
 30
0.0
 10
4.0924094373
 20
5.473968532
 30
0.0
 10
4.0915741928
 20
5.4739312218
 30
0.0
 10
4.0906156365
 20
5.4738938285
 30
0.0
 10
4.0895359965
 20
5.4738563626
 30
0.0
 10
4.0883378892
 20
5.4738188425
 30
0.0
 10
4.0870241017
 20
5.4737812798
 30
0.0
 10
4.0850499237
 20
5.4737292768
 30
0.0
 10
4.0823179279
 20
5.4736651212
 30
0.0
 10
4.0787406405
 20
5.4735904036
 30
0.0
 10
4.0747897655
 20
5.4735155835
 30
0.0
 10
4.0705017278
 20
5.4734406431
 30
0.0
 10
4.0659164923
 20
5.4733656522
 30
0.0
 10
4.0610764308
 20
5.4732906002
 30
0.0
 10
4.056026555
 20
5.4732155204
 30
0.0
 10
4.0490104432
 20
5.473114437
 30
0.0
 10
4.0400779574
 20
5.4729898534
 30
0.0
 10
4.0293966989
 20
5.4728416571
 30
0.0
 10
4.0206372407
 20
5.4727163694
 30
0.0
 10
4.0138960804
 20
5.4726146184
 30
0.0
 10
4.0091508752
 20
5.4725395834
 30
0.0
 10
4.0046774886
 20
5.4724646156
 30
0.0
 10
4.0005172878
 20
5.4723897098
 30
0.0
 10
3.9967090275
 20
5.4723149375
 30
0.0
 10
3.9932878191
 20
5.4722402915
 30
0.0
 10
3.9902856293
 20
5.4721659504
 30
0.0
 10
3.9877300313
 20
5.4720918946
 30
0.0
 10
3.985890936
 20
5.4720274052
 30
0.0
 10
3.9846604862
 20
5.4719741767
 30
0.0
 10
3.9839234496
 20
5.4719369684
 30
0.0
 10
3.9833127889
 20
5.4719000944
 30
0.0
 10
3.9828299629
 20
5.4718634585
 30
0.0
 10
3.9825081045
 20
5.4718314525
 30
0.0
 10
3.982315787
 20
5.4718039888
 30
0.0
 10
3.9822413713
 20
5.4717900757
 30
0.0
 10
3.9822097868
 20
5.4717825563
 30
0.0
  0
SPLINE
  5
3CB
100
AcDbEntity
  8
ALL_ASSEMBLY_MEMBERS
100
AcDbSpline
 62
7
  6
CONTINUOUS
 70
0
 71
3
 72
9
 73
5
 74
0
 42
0.0000001
 43
0.0000001
 44
0.0000000001
 40
0.0
 40
0.0
 40
0.0
 40
0.0
 40
0.5930396395
 40
1.0
 40
1.0
 40
1.0
 40
1.0
 10
3.9822097868
 20
5.4717825563
 30
0.0
 10
3.9821935227
 20
5.4717786843
 30
0.0
 10
3.9821663164
 20
5.47177142
 30
0.0
 10
3.9821397436
 20
5.4717613305
 30
0.0
 10
3.9821298085
 20
5.4717555929
 30
0.0
  0
SPLINE
  5
3CC
100
AcDbEntity
  8
ALL_ASSEMBLY_MEMBERS
100
AcDbSpline
 62
7
  6
CONTINUOUS
 70
0
 71
3
 72
34
 73
30
 74
0
 42
0.0000001
 43
0.0000001
 44
0.0000000001
 40
0.0
 40
0.0
 40
0.0
 40
0.0
 40
0.1428137051
 40
0.222578344
 40
0.3058335796
 40
0.3909012627
 40
0.476082003
 40
0.5596749094
 40
0.6400061822
 40
0.7154692777
 40
0.7845545783
 40
0.8162689713
 40
0.8458815897
 40
0.8732446364
 40
0.8982242693
 40
0.9206902351
 40
0.9405339788
 40
0.9576567938
 40
0.9719680887
 40
0.9780489443
 40
0.9834034802
 40
0.9880244731
 40
0.9919051493
 40
0.995042013
 40
0.9974341029
 40
0.9983511615
 40
0.9990829229
 40
0.9996310178
 40
1.0
 40
1.0
 40
1.0
 40
1.0
 10
4.0772414097
 20
5.4818372418
 30
0.0
 10
4.0725863101
 20
5.4817552048
 30
0.0
 10
4.0653309548
 20
5.4816433474
 30
0.0
 10
4.0553615777
 20
5.4815021105
 30
0.0
 10
4.0472745008
 20
5.4813923858
 30
0.0
 10
4.0390108417
 20
5.4812825707
 30
0.0
 10
4.0307361729
 20
5.4811727667
 30
0.0
 10
4.0226159275
 20
5.4810630012
 30
0.0
 10
4.0148125121
 20
5.4809533336
 30
0.0
 10
4.0074821013
 20
5.4808438119
 30
0.0
 10
4.0017365742
 20
5.4807503001
 30
0.0
 10
3.9974857202
 20
5.4806745146
 30
0.0
 10
3.9945948905
 20
5.4806193428
 30
0.0
 10
3.9919236604
 20
5.4805642148
 30
0.0
 10
3.9894854679
 20
5.480509165
 30
0.0
 10
3.9872924767
 20
5.4804541875
 30
0.0
 10
3.9853557076
 20
5.4803993561
 30
0.0
 10
3.9836849028
 20
5.4803447218
 30
0.0
 10
3.9824627958
 20
5.4802972684
 30
0.0
 10
3.9816243318
 20
5.480258433
 30
0.0
 10
3.9811015986
 20
5.4802309715
 30
0.0
 10
3.9806507035
 20
5.4802035924
 30
0.0
 10
3.9802722389
 20
5.480176371
 30
0.0
 10
3.9799666749
 20
5.4801493003
 30
0.0
 10
3.9797577967
 20
5.4801255965
 30
0.0
 10
3.9796275844
 20
5.4801056453
 30
0.0
 10
3.9795571655
 20
5.4800922001
 30
0.0
 10
3.9795051405
 20
5.4800789089
 30
0.0
 10
3.9794768111
 20
5.4800685484
 30
0.0
 10
3.9794663839
 20
5.4800625507
 30
0.0
  0
LINE
  5
3CD
100
AcDbEntity
  8
ALL_ASSEMBLY_MEMBERS
100
AcDbLine
 62
7
  6
CONTINUOUS
 10
3.9794507137
 20
5.4745039218
 11
3.9799446605
 21
5.4746053233
  0
LINE
  5
3CE
100
AcDbEntity
  8
ALL_ASSEMBLY_MEMBERS
100
AcDbLine
 62
7
  6
CONTINUOUS
 10
3.9799446605
 20
5.4746053233
 11
3.9805592564
 21
5.4746560303
  0
LINE
  5
3CF
100
AcDbEntity
  8
ALL_ASSEMBLY_MEMBERS
100
AcDbLine
 62
7
  6
CONTINUOUS
 10
3.9805592564
 20
5.4746560303
 11
3.9825107942
 21
5.4747573516
  0
SPLINE
  5
3D0
100
AcDbEntity
  8
ALL_ASSEMBLY_MEMBERS
100
AcDbSpline
 62
7
  6
CONTINUOUS
 70
0
 71
3
 72
39
 73
35
 74
0
 42
0.0000001
 43
0.0000001
 44
0.0000000001
 40
0.0
 40
0.0
 40
0.0
 40
0.0
 40
0.0160960617
 40
0.0357805338
 40
0.085278618
 40
0.1469905384
 40
0.2190417728
 40
0.2992411355
 40
0.3851436512
 40
0.4741331695
 40
0.5635080887
 40
0.6505505282
 40
0.6923635979
 40
0.7326075656
 40
0.7709778546
 40
0.8071774924
 40
0.8409353244
 40
0.8719902439
 40
0.9001095976
 40
0.9250780476
 40
0.9467062324
 40
0.9562166295
 40
0.9648310654
 40
0.972533254
 40
0.9793107354
 40
0.9851513042
 40
0.9900429158
 40
0.9939750789
 40
0.9955799328
 40
0.9969436564
 40
0.9980662643
 40
0.9989482107
 40
0.9995910489
 40
1.0
 40
1.0
 40
1.0
 40
1.0
 10
3.9825107942
 20
5.4747573516
 30
0.0
 10
3.983127039
 20
5.4747830949
 30
0.0
 10
3.9844972379
 20
5.4748324719
 30
0.0
 10
3.9877635817
 20
5.4749295662
 30
0.0
 10
3.9927780112
 20
5.4750453916
 30
0.0
 10
3.9997991139
 20
5.4751782773
 30
0.0
 10
4.0079968268
 20
5.4753119415
 30
0.0
 10
4.0171215887
 20
5.4754462723
 30
0.0
 10
4.0268954674
 20
5.475580887
 30
0.0
 10
4.0370209718
 20
5.4757156544
 30
0.0
 10
4.0471901604
 20
5.475850444
 30
0.0
 10
4.0555517233
 20
5.4759641449
 30
0.0
 10
4.0620307639
 20
5.4760562247
 30
0.0
 10
4.0666448961
 20
5.4761243431
 30
0.0
 10
4.0710439043
 20
5.4761924172
 30
0.0
 10
4.0751943406
 20
5.4762604604
 30
0.0
 10
4.0790644219
 20
5.4763284284
 30
0.0
 10
4.082624826
 20
5.4763963265
 30
0.0
 10
4.0858483676
 20
5.4764640949
 30
0.0
 10
4.0887106019
 20
5.4765317175
 30
0.0
 10
4.0908597736
 20
5.476590075
 30
0.0
 10
4.0923823262
 20
5.4766375109
 30
0.0
 10
4.0933714054
 20
5.4766715076
 30
0.0
 10
4.0942556966
 20
5.4767054512
 30
0.0
 10
4.0950336111
 20
5.4767393217
 30
0.0
 10
4.095703721
 20
5.4767730631
 30
0.0
 10
4.0962646424
 20
5.4768066565
 30
0.0
 10
4.0966632077
 20
5.4768360035
 30
0.0
 10
4.0969265231
 20
5.4768602523
 30
0.0
 10
4.0970824083
 20
5.4768771032
 30
0.0
 10
4.0972103558
 20
5.476893876
 30
0.0
 10
4.0973105914
 20
5.4769103371
 30
0.0
 10
4.0973826947
 20
5.4769266714
 30
0.0
 10
4.0974214518
 20
5.4769393468
 30
0.0
 10
4.0974350369
 20
5.4769471578
 30
0.0
  0
SPLINE
  5
3D1
100
AcDbEntity
  8
ALL_ASSEMBLY_MEMBERS
100
AcDbSpline
 62
7
  6
CONTINUOUS
 70
0
 71
3
 72
51
 73
47
 74
0
 42
0.0000001
 43
0.0000001
 44
0.0000000001
 40
0.0
 40
0.0
 40
0.0
 40
0.0
 40
0.0002223428
 40
0.0004229302
 40
0.0006914637
 40
0.0014394431
 40
0.0024737742
 40
0.0037965185
 40
0.0054075472
 40
0.0094910335
 40
0.0147158694
 40
0.0210721775
 40
0.0285484778
 40
0.0371259542
 40
0.0467828256
 40
0.0574972277
 40
0.0692468706
 40
0.0820039352
 40
0.1104122874
 40
0.1424617819
 40
0.1778506044
 40
0.2162500836
 40
0.2573015617
 40
0.3006211975
 40
0.3458060776
 40
0.3924325776
 40
0.488264168
 40
0.5845459704
 40
0.6776911464
 40
0.7219939407
 40
0.7642297763
 40
0.803999991
 40
0.8409383478
 40
0.8746950685
 40
0.9049601411
 40
0.9314469761
 40
0.9539123372
 40
0.9635702612
 40
0.9721450316
 40
0.9796193624
 40
0.9859776031
 40
0.9912043444
 40
0.9952857436
 40
0.9982165086
 40
0.9992509653
 40
1.0
 40
1.0
 40
1.0
 40
1.0
 10
4.0947879581
 20
5.4791204809
 30
0.0
 10
4.0947879677
 20
5.4791121311
 30
0.0
 10
4.0947717194
 20
5.4791005794
 30
0.0
 10
4.0947491329
 20
5.4790909391
 30
0.0
 10
4.094704887
 20
5.4790767433
 30
0.0
 10
4.094629905
 20
5.4790609192
 30
0.0
 10
4.0945145336
 20
5.4790424408
 30
0.0
 10
4.0943667206
 20
5.4790240079
 30
0.0
 10
4.0941045404
 20
5.4789969415
 30
0.0
 10
4.0936957369
 20
5.4789645584
 30
0.0
 10
4.0931086207
 20
5.4789275079
 30
0.0
 10
4.0923939024
 20
5.4788902687
 30
0.0
 10
4.0915531456
 20
5.4788528506
 30
0.0
 10
4.0905883392
 20
5.4788153343
 30
0.0
 10
4.0895018523
 20
5.478777738
 30
0.0
 10
4.0882961767
 20
5.4787400898
 30
0.0
 10
4.0869740268
 20
5.4787024091
 30
0.0
 10
4.0849875503
 20
5.4786502446
 30
0.0
 10
4.0822388032
 20
5.4785858604
 30
0.0
 10
4.0786401773
 20
5.478510917
 30
0.0
 10
4.0746662764
 20
5.4784358359
 30
0.0
 10
4.070354264
 20
5.4783606597
 30
0.0
 10
4.0657443789
 20
5.478285416
 30
0.0
 10
4.0608796453
 20
5.4782101207
 30
0.0
 10
4.0558055252
 20
5.4781347938
 30
0.0
 10
4.0487595538
 20
5.4780333987
 30
0.0
 10
4.0397948417
 20
5.4779084413
 30
0.0
 10
4.0290833391
 20
5.4777597743
 30
0.0
 10
4.0203068046
 20
5.4776340564
 30
0.0
 10
4.013559773
 20
5.4775319273
 30
0.0
 10
4.0088169965
 20
5.477456661
 30
0.0
 10
4.0043508182
 20
5.4773814399
 30
0.0
 10
4.0002031089
 20
5.4773063168
 30
0.0
 10
3.9964124151
 20
5.4772312877
 30
0.0
 10
3.9930142946
 20
5.4771564559
 30
0.0
 10
3.9900403186
 20
5.4770818358
 30
0.0
 10
3.9878402244
 20
5.4770171978
 30
0.0
 10
3.9863127679
 20
5.4769643818
 30
0.0
 10
3.9853480994
 20
5.4769268463
 30
0.0
 10
3.9845074426
 20
5.4768894354
 30
0.0
 10
3.9837926644
 20
5.4768521513
 30
0.0
 10
3.983205451
 20
5.4768152685
 30
0.0
 10
3.9827473235
 20
5.4767785785
 30
0.0
 10
3.9824466693
 20
5.476746627
 30
0.0
 10
3.9822718173
 20
5.476718887
 30
0.0
 10
3.9822062114
 20
5.4767048609
 30
0.0
 10
3.982179178
 20
5.4766970866
 30
0.0
  0
SPLINE
  5
3D2
100
AcDbEntity
  8
ALL_ASSEMBLY_MEMBERS
100
AcDbSpline
 62
7
  6
CONTINUOUS
 70
0
 71
3
 72
9
 73
5
 74
0
 42
0.0000001
 43
0.0000001
 44
0.0000000001
 40
0.0
 40
0.0
 40
0.0
 40
0.0
 40
0.3049607718
 40
1.0
 40
1.0
 40
1.0
 40
1.0
 10
3.982179178
 20
5.4766970866
 30
0.0
 10
3.9821739921
 20
5.4766955953
 30
0.0
 10
3.9821571036
 20
5.4766904067
 30
0.0
 10
3.9821403243
 20
5.4766842337
 30
0.0
 10
3.9821296669
 20
5.4766780964
 30
0.0
  0
SPLINE
  5
3D3
100
AcDbEntity
  8
ALL_ASSEMBLY_MEMBERS
100
AcDbSpline
 62
7
  6
CONTINUOUS
 70
0
 71
3
 72
50
 73
46
 74
0
 42
0.0000001
 43
0.0000001
 44
0.0000000001
 40
0.0
 40
0.0
 40
0.0
 40
0.0
 40
0.0001005471
 40
0.0002667272
 40
0.0005018942
 40
0.0008070785
 40
0.0016288486
 40
0.0027332675
 40
0.0041203403
 40
0.0057897325
 40
0.0077409666
 40
0.009973495
 40
0.01527887
 40
0.021692898
 40
0.0291999582
 40
0.0377843449
 40
0.0474297618
 40
0.0581139121
 40
0.0698108045
 40
0.0824943828
 40
0.1107122374
 40
0.1425097244
 40
0.1776029945
 40
0.2156730838
 40
0.2563779925
 40
0.2993457986
 40
0.3441850117
 40
0.3904840705
 40
0.4857491935
 40
0.5816411125
 40
0.6746219706
 40
0.7612384854
 40
0.8011384353
 40
0.8382607032
 40
0.8722551963
 40
0.9028015933
 40
0.9296101107
 40
0.9524256749
 40
0.9710301558
 40
0.9786942173
 40
0.9852431292
 40
0.9906604317
 40
0.9949304906
 40
0.9980447463
 40
1.0
 40
1.0
 40
1.0
 40
1.0
 10
3.9798881658
 20
5.4939413606
 30
0.0
 10
3.9798909029
 20
5.4939440977
 30
0.0
 10
3.979900528
 20
5.4939485541
 30
0.0
 10
3.979918886
 20
5.4939541002
 30
0.0
 10
3.9799455912
 20
5.493959753
 30
0.0
 10
3.9799972976
 20
5.4939682872
 30
0.0
 10
3.980082677
 20
5.493978323
 30
0.0
 10
3.9802097021
 20
5.4939897945
 30
0.0
 10
3.9803694853
 20
5.4940013435
 30
0.0
 10
3.9805619205
 20
5.494012985
 30
0.0
 10
3.980786956
 20
5.4940246675
 30
0.0
 10
3.9811518947
 20
5.4940412546
 30
0.0
 10
3.9816886441
 20
5.4940614829
 30
0.0
 10
3.9824284636
 20
5.4940847493
 30
0.0
 10
3.9832945697
 20
5.4941081049
 30
0.0
 10
3.9842851149
 20
5.4941315375
 30
0.0
 10
3.9853980014
 20
5.4941550152
 30
0.0
 10
3.9866307365
 20
5.4941785338
 30
0.0
 10
3.9879804537
 20
5.4942020886
 30
0.0
 10
3.9900051286
 20
5.4942347027
 30
0.0
 10
3.9928036131
 20
5.4942749693
 30
0.0
 10
3.9964648167
 20
5.4943219088
 30
0.0
 10
4.0005053396
 20
5.494368955
 30
0.0
 10
4.0048888016
 20
5.494416106
 30
0.0
 10
4.009575434
 20
5.4944633329
 30
0.0
 10
4.0145226766
 20
5.4945106323
 30
0.0
 10
4.0196852924
 20
5.4945579914
 30
0.0
 10
4.0268611904
 20
5.4946218128
 30
0.0
 10
4.0360024665
 20
5.4947005766
 30
0.0
 10
4.0469408414
 20
5.4947943861
 30
0.0
 10
4.0575462483
 20
5.4948882442
 30
0.0
 10
4.0659961057
 20
5.4949683729
 30
0.0
 10
4.0722955519
 20
5.4950337405
 30
0.0
 10
4.0765692221
 20
5.4950814077
 30
0.0
 10
4.0804827745
 20
5.4951290398
 30
0.0
 10
4.083999235
 20
5.4951766134
 30
0.0
 10
4.087085287
 20
5.4952240517
 30
0.0
 10
4.0897115352
 20
5.4952713314
 30
0.0
 10
4.0916007444
 20
5.4953125298
 30
0.0
 10
4.0928636952
 20
5.4953466026
 30
0.0
 10
4.0936190616
 20
5.4953703534
 30
0.0
 10
4.0942436636
 20
5.4953940574
 30
0.0
 10
4.0947360215
 20
5.4954171857
 30
0.0
 10
4.095094738
 20
5.495440451
 30
0.0
 10
4.0952893335
 20
5.4954578964
 30
0.0
 10
4.0953637307
 20
5.4954693492
 30
0.0
  0
SPLINE
  5
3D4
100
AcDbEntity
  8
ALL_ASSEMBLY_MEMBERS
100
AcDbSpline
 62
7
  6
CONTINUOUS
 70
0
 71
3
 72
9
 73
5
 74
0
 42
0.0000001
 43
0.0000001
 44
0.0000000001
 40
0.0
 40
0.0
 40
0.0
 40
0.0
 40
0.6355336374
 40
1.0
 40
1.0
 40
1.0
 40
1.0
 10
4.0953637307
 20
5.4954693492
 30
0.0
 10
4.0953820347
 20
5.495472167
 30
0.0
 10
4.0954104756
 20
5.4954774166
 30
0.0
 10
4.0954392747
 20
5.4954846284
 30
0.0
 10
4.0954484875
 20
5.4954899126
 30
0.0
  0
SPLINE
  5
3D5
100
AcDbEntity
  8
ALL_ASSEMBLY_MEMBERS
100
AcDbSpline
 62
7
  6
CONTINUOUS
 70
0
 71
3
 72
43
 73
39
 74
0
 42
0.0000001
 43
0.0000001
 44
0.0000000001
 40
0.0
 40
0.0
 40
0.0
 40
0.0
 40
0.000211984
 40
0.0004005383
 40
0.0006523182
 40
0.0013526731
 40
0.0023204457
 40
0.0035571149
 40
0.0050626959
 40
0.0088783431
 40
0.013761374
 40
0.0197042528
 40
0.0266963961
 40
0.0347205818
 40
0.0437584643
 40
0.0537916224
 40
0.0648008208
 40
0.0767610241
 40
0.1034236902
 40
0.1335540062
 40
0.1668877774
 40
0.2031377144
 40
0.2419899223
 40
0.2831062163
 40
0.3261326741
 40
0.3706936178
 40
0.4628700203
 40
0.5564464656
 40
0.6481854972
 40
0.7349134262
 40
0.8136302127
 40
0.8816133663
 40
0.9108301791
 40
0.936512505
 40
0.9584453079
 40
0.9764315877
 40
0.9903243927
 40
1.0
 40
1.0
 40
1.0
 40
1.0
 10
4.0947880102
 20
5.4545079764
 30
0.0
 10
4.0947880391
 20
5.454500063
 30
0.0
 10
4.0947731567
 20
5.4544888557
 30
0.0
 10
4.0947520102
 20
5.4544795199
 30
0.0
 10
4.0947109783
 20
5.4544658432
 30
0.0
 10
4.0946412728
 20
5.454450589
 30
0.0
 10
4.0945341004
 20
5.4544327886
 30
0.0
 10
4.0943967949
 20
5.454415022
 30
0.0
 10
4.0941533348
 20
5.4543889414
 30
0.0
 10
4.0937736596
 20
5.454357732
 30
0.0
 10
4.0932282328
 20
5.4543220285
 30
0.0
 10
4.0925640339
 20
5.454286149
 30
0.0
 10
4.0917824405
 20
5.454250095
 30
0.0
 10
4.0908852078
 20
5.4542139424
 30
0.0
 10
4.0898743744
 20
5.4541777144
 30
0.0
 10
4.0887520468
 20
5.4541414372
 30
0.0
 10
4.0875205768
 20
5.4541051303
 30
0.0
 10
4.0856684655
 20
5.4540548448
 30
0.0
 10
4.0831026164
 20
5.4539927791
 30
0.0
 10
4.0797389075
 20
5.4539205577
 30
0.0
 10
4.0760172292
 20
5.4538482021
 30
0.0
 10
4.0719699038
 20
5.4537757536
 30
0.0
 10
4.0676320106
 20
5.453703241
 30
0.0
 10
4.0630411138
 20
5.453630675
 30
0.0
 10
4.058237082
 20
5.4535580798
 30
0.0
 10
4.0515271144
 20
5.4534601442
 30
0.0
 10
4.0429302214
 20
5.4533393615
 30
0.0
 10
4.0325722896
 20
5.4531959191
 30
0.0
 10
4.0224177706
 20
5.4530525723
 30
0.0
 10
4.0128180223
 20
5.4529095443
 30
0.0
 10
4.0041051942
 20
5.4527670117
 30
0.0
 10
3.9975392646
 20
5.4526438215
 30
0.0
 10
3.9929531188
 20
5.4525424027
 30
0.0
 10
3.9900858333
 20
5.4524704496
 30
0.0
 10
3.9876379451
 20
5.4523988216
 30
0.0
 10
3.985630319
 20
5.45232802
 30
0.0
 10
3.9840806788
 20
5.4522578247
 30
0.0
 10
3.9832023184
 20
5.4522041173
 30
0.0
 10
3.982842474
 20
5.4521729018
 30
0.0
  0
LINE
  5
3D6
100
AcDbEntity
  8
ALL_ASSEMBLY_MEMBERS
100
AcDbLine
 62
7
  6
CONTINUOUS
 10
3.982842474
 20
5.4521729018
 11
3.9823586611
 21
5.4521198552
  0
LINE
  5
3D7
100
AcDbEntity
  8
ALL_ASSEMBLY_MEMBERS
100
AcDbLine
 62
7
  6
CONTINUOUS
 10
3.9823586611
 20
5.4521198552
 11
3.9821295492
 21
5.452065593
  0
LINE
  5
3D8
100
AcDbEntity
  8
ALL_ASSEMBLY_MEMBERS
100
AcDbLine
 62
7
  6
CONTINUOUS
 10
4.0974507137
 20
5.4874282813
 11
4.0969542019
 21
5.4873266162
  0
LINE
  5
3D9
100
AcDbEntity
  8
ALL_ASSEMBLY_MEMBERS
100
AcDbLine
 62
7
  6
CONTINUOUS
 10
4.0969542019
 20
5.4873266162
 11
4.0963356119
 21
5.487275722
  0
LINE
  5
3DA
100
AcDbEntity
  8
ALL_ASSEMBLY_MEMBERS
100
AcDbLine
 62
7
  6
CONTINUOUS
 10
4.0963356119
 20
5.487275722
 11
4.0943631524
 21
5.4871737068
  0
SPLINE
  5
3DB
100
AcDbEntity
  8
ALL_ASSEMBLY_MEMBERS
100
AcDbSpline
 62
7
  6
CONTINUOUS
 70
0
 71
3
 72
39
 73
35
 74
0
 42
0.0000001
 43
0.0000001
 44
0.0000000001
 40
0.0
 40
0.0
 40
0.0
 40
0.0
 40
0.0161513462
 40
0.0358853866
 40
0.0854665375
 40
0.1472402775
 40
0.2193327104
 40
0.2995543713
 40
0.3854621457
 40
0.474439008
 40
0.563784431
 40
0.650787031
 40
0.6925781049
 40
0.7327988505
 40
0.7711455513
 40
0.8073216223
 40
0.8410563072
 40
0.8720897163
 40
0.9001886247
 40
0.9251384438
 40
0.9467489046
 40
0.9562513509
 40
0.9648587923
 40
0.9725546889
 40
0.9793265877
 40
0.9851623759
 40
0.9900501013
 40
0.9939792617
 40
0.995582913
 40
0.9969456349
 40
0.9980674432
 40
0.9989487931
 40
0.999591239
 40
1.0
 40
1.0
 40
1.0
 40
1.0
 10
4.0943631524
 20
5.4871737068
 30
0.0
 10
4.0937449343
 20
5.4871479929
 30
0.0
 10
4.092371043
 20
5.4870986543
 30
0.0
 10
4.089098277
 20
5.4870016324
 30
0.0
 10
4.0840775955
 20
5.4868858652
 30
0.0
 10
4.0770510419
 20
5.4867530364
 30
0.0
 10
4.0688504885
 20
5.4866194308
 30
0.0
 10
4.0597252751
 20
5.4864851597
 30
0.0
 10
4.0499531635
 20
5.4863506058
 30
0.0
 10
4.0398314946
 20
5.486215902
 30
0.0
 10
4.02966788
 20
5.4860811792
 30
0.0
 10
4.0213118164
 20
5.4859675334
 30
0.0
 10
4.0148375844
 20
5.4858755001
 30
0.0
 10
4.0102271921
 20
5.4858074168
 30
0.0
 10
4.0058319325
 20
5.4857393785
 30
0.0
 10
4.0016851824
 20
5.4856713718
 30
0.0
 10
3.9978186408
 20
5.4856034384
 30
0.0
 10
3.9942615827
 20
5.4855355764
 30
0.0
 10
3.9910411335
 20
5.4854678409
 30
0.0
 10
3.98818176
 20
5.4854002573
 30
0.0
 10
3.9860348001
 20
5.4853419305
 30
0.0
 10
3.9845138635
 20
5.4852945205
 30
0.0
 10
3.9835258345
 20
5.4852605436
 30
0.0
 10
3.9826424779
 20
5.4852266194
 30
0.0
 10
3.9818653877
 20
5.485192768
 30
0.0
 10
3.9811959842
 20
5.4851590454
 30
0.0
 10
3.9806356442
 20
5.4851254709
 30
0.0
 10
3.9802374843
 20
5.4850961408
 30
0.0
 10
3.9799744316
 20
5.4850719053
 30
0.0
 10
3.9798186989
 20
5.4850550635
 30
0.0
 10
3.9796908739
 20
5.4850382996
 30
0.0
 10
3.9795907312
 20
5.4850218469
 30
0.0
 10
3.97951869
 20
5.4850055212
 30
0.0
 10
3.9794799652
 20
5.484992852
 30
0.0
 10
3.9794663898
 20
5.4849850462
 30
0.0
  0
LINE
  5
3DC
100
AcDbEntity
  8
ALL_ASSEMBLY_MEMBERS
100
AcDbLine
 62
7
  6
CONTINUOUS
 10
3.9794663957
 20
5.4899075484
 11
3.9799779555
 21
5.4899942985
  0
SPLINE
  5
3DD
100
AcDbEntity
  8
ALL_ASSEMBLY_MEMBERS
100
AcDbSpline
 62
7
  6
CONTINUOUS
 70
0
 71
3
 72
28
 73
24
 74
0
 42
0.0000001
 43
0.0000001
 44
0.0000000001
 40
0.0
 40
0.0
 40
0.0
 40
0.0
 40
0.003335181
 40
0.0075567024
 40
0.0186301926
 40
0.0331397361
 40
0.0509924695
 40
0.0720597177
 40
0.0961962359
 40
0.1529855372
 40
0.2197792306
 40
0.2947151435
 40
0.3757044252
 40
0.4604901098
 40
0.5467095561
 40
0.6319596899
 40
0.713863666
 40
0.7901384604
 40
0.8586588927
 40
0.9175162516
 40
0.9650711808
 40
0.9841814875
 40
1.0
 40
1.0
 40
1.0
 40
1.0
 10
3.9799779555
 20
5.4899942985
 30
0.0
 10
3.9801043442
 20
5.4900068943
 30
0.0
 10
3.9803911663
 20
5.4900307946
 30
0.0
 10
3.9810991124
 20
5.4900779095
 30
0.0
 10
3.9822328663
 20
5.4901336552
 30
0.0
 10
3.983885819
 20
5.4901974225
 30
0.0
 10
3.985919599
 20
5.4902615441
 30
0.0
 10
3.9883201355
 20
5.4903261334
 30
0.0
 10
3.9922033022
 20
5.4904175068
 30
0.0
 10
3.9978278748
 20
5.4905284475
 30
0.0
 10
4.0053870547
 20
5.4906565218
 30
0.0
 10
4.0138679601
 20
5.4907850873
 30
0.0
 10
4.0230341258
 20
5.4909140094
 30
0.0
 10
4.0326300439
 20
5.4910430963
 30
0.0
 10
4.0423882427
 20
5.4911722441
 30
0.0
 10
4.0520366873
 20
5.4913013527
 30
0.0
 10
4.0613063744
 20
5.4914303059
 30
0.0
 10
4.0699388769
 20
5.4915589915
 30
0.0
 10
4.0776935951
 20
5.4916870791
 30
0.0
 10
4.0843544012
 20
5.4918144751
 30
0.0
 10
4.0891334691
 20
5.4919254423
 30
0.0
 10
4.0922733641
 20
5.4920181776
 30
0.0
 10
4.0936027524
 20
5.4920652651
 30
0.0
 10
4.0942046783
 20
5.492089699
 30
0.0
  0
LINE
  5
3DE
100
AcDbEntity
  8
ALL_ASSEMBLY_MEMBERS
100
AcDbLine
 62
7
  6
CONTINUOUS
 10
4.0942046783
 20
5.492089699
 11
4.0962801191
 21
5.4921944761
  0
LINE
  5
3DF
100
AcDbEntity
  8
ALL_ASSEMBLY_MEMBERS
100
AcDbLine
 62
7
  6
CONTINUOUS
 10
4.0962801191
 20
5.4921944761
 11
4.0973229098
 21
5.4922992492
  0
LINE
  5
3E0
100
AcDbEntity
  8
ALL_ASSEMBLY_MEMBERS
100
AcDbLine
 62
7
  6
CONTINUOUS
 10
4.0973229098
 20
5.4922992492
 11
4.0974505123
 21
5.4923507864
  0
LINE
  5
3E1
100
AcDbEntity
  8
ALL_ASSEMBLY_MEMBERS
100
AcDbLine
 62
7
  6
CONTINUOUS
 10
4.0974507137
 20
5.4825057825
 11
4.0970769864
 21
5.4824175855
  0
LINE
  5
3E2
100
AcDbEntity
  8
ALL_ASSEMBLY_MEMBERS
100
AcDbLine
 62
7
  6
CONTINUOUS
 10
4.0970769864
 20
5.4824175855
 11
4.0959419508
 21
5.4823282252
  0
LINE
  5
3E3
100
AcDbEntity
  8
ALL_ASSEMBLY_MEMBERS
100
AcDbLine
 62
7
  6
CONTINUOUS
 10
4.0959419508
 20
5.4823282252
 11
4.0772414097
 21
5.4818372418
  0
LINE
  5
3E4
100
AcDbEntity
  8
ALL_ASSEMBLY_MEMBERS
100
AcDbLine
 62
7
  6
CONTINUOUS
 10
3.9794507137
 20
5.4695814235
 11
3.9799529308
 21
5.4696836714
  0
LINE
  5
3E5
100
AcDbEntity
  8
ALL_ASSEMBLY_MEMBERS
100
AcDbLine
 62
7
  6
CONTINUOUS
 10
3.9799529308
 20
5.4696836714
 11
3.980584711
 21
5.4697352738
  0
LINE
  5
3E6
100
AcDbEntity
  8
ALL_ASSEMBLY_MEMBERS
100
AcDbLine
 62
7
  6
CONTINUOUS
 10
3.980584711
 20
5.4697352738
 11
3.982627098
 21
5.4698396661
  0
SPLINE
  5
3E7
100
AcDbEntity
  8
ALL_ASSEMBLY_MEMBERS
100
AcDbSpline
 62
7
  6
CONTINUOUS
 70
0
 71
3
 72
39
 73
35
 74
0
 42
0.0000001
 43
0.0000001
 44
0.0000000001
 40
0.0
 40
0.0
 40
0.0
 40
0.0
 40
0.0163306152
 40
0.0362289999
 40
0.0860861542
 40
0.1480611258
 40
0.2202792095
 40
0.3005572393
 40
0.38646176
 40
0.4753850253
 40
0.5646341209
 40
0.6515073931
 40
0.6932250951
 40
0.7333697599
 40
0.7716395399
 40
0.8077411114
 40
0.8414050209
 40
0.8723713836
 40
0.9004098397
 40
0.9253043341
 40
0.9468677738
 40
0.956349291
 40
0.9649371907
 40
0.9726156088
 40
0.9793721919
 40
0.9851947814
 40
0.9900713795
 40
0.9939916076
 40
0.9955916889
 40
0.9969514426
 40
0.9980708877
 40
0.9989504824
 40
0.9995917823
 40
1.0
 40
1.0
 40
1.0
 40
1.0
 10
3.982627098
 20
5.4698396661
 30
0.0
 10
3.9832517091
 20
5.4698652903
 30
0.0
 10
3.9846377015
 20
5.4699145139
 30
0.0
 10
3.9879316694
 20
5.4700113158
 30
0.0
 10
3.9929730339
 20
5.4701269151
 30
0.0
 10
4.0000172367
 20
5.4702595554
 30
0.0
 10
4.008226121
 20
5.4703929597
 30
0.0
 10
4.0173511216
 20
5.4705270137
 30
0.0
 10
4.0271156575
 20
5.4706613489
 30
0.0
 10
4.0372236346
 20
5.4707958321
 30
0.0
 10
4.0473686985
 20
5.4709303318
 30
0.0
 10
4.0557068521
 20
5.4710437939
 30
0.0
 10
4.0621654046
 20
5.4711356745
 30
0.0
 10
4.0667635651
 20
5.4712036363
 30
0.0
 10
4.0711467163
 20
5.4712715556
 30
0.0
 10
4.075281753
 20
5.4713394446
 30
0.0
 10
4.0791371761
 20
5.4714072603
 30
0.0
 10
4.0826838926
 20
5.4714750123
 30
0.0
 10
4.085894852
 20
5.4715426321
 30
0.0
 10
4.0887457812
 20
5.4716101133
 30
0.0
 10
4.0908863612
 20
5.4716683458
 30
0.0
 10
4.0924027717
 20
5.4717156802
 30
0.0
 10
4.0933878177
 20
5.4717496046
 30
0.0
 10
4.0942684872
 20
5.4717834752
 30
0.0
 10
4.0950432152
 20
5.4718172728
 30
0.0
 10
4.0957105829
 20
5.4718509415
 30
0.0
 10
4.0962692158
 20
5.4718844625
 30
0.0
 10
4.0966661624
 20
5.4719137461
 30
0.0
 10
4.0969284189
 20
5.4719379416
 30
0.0
 10
4.0970836899
 20
5.471954756
 30
0.0
 10
4.0972111446
 20
5.4719714922
 30
0.0
 10
4.0973110072
 20
5.4719879187
 30
0.0
 10
4.0973828619
 20
5.4720042175
 30
0.0
 10
4.09742149
 20
5.4720168671
 30
0.0
 10
4.097435037
 20
5.4720246562
 30
0.0
  0
SPLINE
  5
3E8
100
AcDbEntity
  8
ALL_ASSEMBLY_MEMBERS
100
AcDbSpline
 62
7
  6
CONTINUOUS
 70
0
 71
3
 72
54
 73
50
 74
0
 42
0.0000001
 43
0.0000001
 44
0.0000000001
 40
0.0
 40
0.0
 40
0.0
 40
0.0
 40
0.0002229556
 40
0.0004245566
 40
0.0006946726
 40
0.0014475897
 40
0.0024885347
 40
0.0038187558
 40
0.005438228
 40
0.0073464287
 40
0.0095426004
 40
0.0147952235
 40
0.0211878055
 40
0.028705036
 40
0.037327262
 40
0.0470346351
 40
0.0578070406
 40
0.0696194824
 40
0.0824418514
 40
0.110994823
 40
0.1432047314
 40
0.1787630803
 40
0.2173421878
 40
0.2585745906
 40
0.302077814
 40
0.3474398858
 40
0.394237511
 40
0.4903687384
 40
0.5868700281
 40
0.6801260213
 40
0.7244371231
 40
0.7666430341
 40
0.8063481821
 40
0.8431800893
 40
0.8767919248
 40
0.9068706358
 40
0.9331306628
 40
0.9447529469
 40
0.9553307115
 40
0.9648386966
 40
0.9732574157
 40
0.9805678749
 40
0.9867512375
 40
0.9917920484
 40
0.9956825562
 40
0.9971947912
 40
0.9984178529
 40
0.9993521503
 40
1.0
 40
1.0
 40
1.0
 40
1.0
 10
4.0947880556
 20
5.4594304795
 30
0.0
 10
4.094788094
 20
5.4594221051
 30
0.0
 10
4.0947717404
 20
5.4594105034
 30
0.0
 10
4.0947490451
 20
5.4594008528
 30
0.0
 10
4.0947044949
 20
5.4593866088
 30
0.0
 10
4.0946290077
 20
5.4593707536
 30
0.0
 10
4.0945128929
 20
5.4593522226
 30
0.0
 10
4.0943642044
 20
5.4593337394
 30
0.0
 10
4.0941826604
 20
5.4593150187
 30
0.0
 10
4.0939684879
 20
5.4592962535
 30
0.0
 10
4.0936180332
 20
5.4592695295
 30
0.0
 10
4.0930991326
 20
5.4592369812
 30
0.0
 10
4.092380326
 20
5.4591996058
 30
0.0
 10
4.0915348142
 20
5.4591620945
 30
0.0
 10
4.0905646947
 20
5.4591244611
 30
0.0
 10
4.0894722277
 20
5.4590867556
 30
0.0
 10
4.0882598693
 20
5.4590490053
 30
0.0
 10
4.0869304567
 20
5.4590112204
 30
0.0
 10
4.0849333278
 20
5.4589589018
 30
0.0
 10
4.0821701045
 20
5.458894338
 30
0.0
 10
4.0785529129
 20
5.4588191866
 30
0.0
 10
4.0745590544
 20
5.4587438851
 30
0.0
 10
4.0702262443
 20
5.4586685036
 30
0.0
 10
4.0655949722
 20
5.4585930383
 30
0.0
 10
4.0607088906
 20
5.4585175369
 30
0.0
 10
4.0556137479
 20
5.4584419904
 30
0.0
 10
4.0485419891
 20
5.4583403311
 30
0.0
 10
4.0395495067
 20
5.4582150461
 30
0.0
 10
4.0288121409
 20
5.4580659748
 30
0.0
 10
4.0200210849
 20
5.457939875
 30
0.0
 10
4.0132693181
 20
5.4578374315
 30
0.0
 10
4.008528825
 20
5.4577619489
 30
0.0
 10
4.004069298
 20
5.4576865285
 30
0.0
 10
3.9999326251
 20
5.4576111929
 30
0.0
 10
3.9961575979
 20
5.4575359744
 30
0.0
 10
3.9927797498
 20
5.4574609284
 30
0.0
 10
3.9902278442
 20
5.4573962518
 30
0.0
 10
3.9884083676
 20
5.4573437158
 30
0.0
 10
3.9872179625
 20
5.4573059731
 30
0.0
 10
3.9861479532
 20
5.4572682774
 30
0.0
 10
3.9852007493
 20
5.457230665
 30
0.0
 10
3.984378532
 20
5.4571931608
 30
0.0
 10
3.9836833267
 20
5.4571558758
 30
0.0
 10
3.9831168058
 20
5.4571187806
 30
0.0
 10
3.9827258134
 20
5.457086317
 30
0.0
 10
3.9824784295
 20
5.4570590951
 30
0.0
 10
3.9823417854
 20
5.4570406342
 30
0.0
 10
3.9822380458
 20
5.4570223456
 30
0.0
 10
3.982180118
 20
5.457008258
 30
0.0
 10
3.9821571652
 20
5.4570001757
 30
0.0
  0
SPLINE
  5
3E9
100
AcDbEntity
  8
ALL_ASSEMBLY_MEMBERS
100
AcDbSpline
 62
7
  6
CONTINUOUS
 70
0
 71
3
 72
9
 73
5
 74
0
 42
0.0000001
 43
0.0000001
 44
0.0000000001
 40
0.0
 40
0.0
 40
0.0
 40
0.0
 40
0.288571184
 40
1.0
 40
1.0
 40
1.0
 40
1.0
 10
3.9821571652
 20
5.4570001757
 30
0.0
 10
3.98215443
 20
5.4569992126
 30
0.0
 10
3.9821450098
 20
5.4569957309
 30
0.0
 10
3.9821357568
 20
5.4569916738
 30
0.0
 10
3.9821295688
 20
5.4569880939
 30
0.0
  0
LINE
  5
3EA
100
AcDbEntity
  8
ALL_ASSEMBLY_MEMBERS
100
AcDbLine
 62
7
  6
CONTINUOUS
 10
4.0974507137
 20
5.4775832857
 11
4.0969622547
 21
5.4774824491
  0
LINE
  5
3EB
100
AcDbEntity
  8
ALL_ASSEMBLY_MEMBERS
100
AcDbLine
 62
7
  6
CONTINUOUS
 10
4.0969622547
 20
5.4774824491
 11
4.0963503219
 21
5.4774317392
  0
LINE
  5
3EC
100
AcDbEntity
  8
ALL_ASSEMBLY_MEMBERS
100
AcDbLine
 62
7
  6
CONTINUOUS
 10
4.0963503219
 20
5.4774317392
 11
4.0943869876
 21
5.4773297042
  0
SPLINE
  5
3ED
100
AcDbEntity
  8
ALL_ASSEMBLY_MEMBERS
100
AcDbSpline
 62
7
  6
CONTINUOUS
 70
0
 71
3
 72
39
 73
35
 74
0
 42
0.0000001
 43
0.0000001
 44
0.0000000001
 40
0.0
 40
0.0
 40
0.0
 40
0.0
 40
0.016103838
 40
0.0357956934
 40
0.0853059625
 40
0.1470262047
 40
0.2190814948
 40
0.2992802241
 40
0.3851789314
 40
0.4741662991
 40
0.5635369333
 40
0.6505738774
 40
0.6923839319
 40
0.7326250267
 40
0.7709922278
 40
0.8071889046
 40
0.8409441637
 40
0.871996777
 40
0.9001148164
 40
0.9250819619
 40
0.9467095025
 40
0.9562195746
 40
0.9648335366
 40
0.9725352628
 40
0.9793123193
 40
0.9851524936
 40
0.9900437338
 40
0.9939755682
 40
0.995580286
 40
0.9969438938
 40
0.9980664074
 40
0.9989482821
 40
0.9995910724
 40
1.0
 40
1.0
 40
1.0
 40
1.0
 10
4.0943869876
 20
5.4773297042
 30
0.0
 10
4.093770464
 20
5.4773039638
 30
0.0
 10
4.0923997273
 20
5.4772545901
 30
0.0
 10
4.0891324387
 20
5.4771575046
 30
0.0
 10
4.0841170995
 20
5.477041685
 30
0.0
 10
4.0770952782
 20
5.4769088083
 30
0.0
 10
4.0688973753
 20
5.4767751552
 30
0.0
 10
4.0597729178
 20
5.4766408376
 30
0.0
 10
4.0499996018
 20
5.4765062351
 30
0.0
 10
4.0398748112
 20
5.4763714787
 30
0.0
 10
4.0297064025
 20
5.4762366985
 30
0.0
 10
4.0213455953
 20
5.4761230061
 30
0.0
 10
4.0148671965
 20
5.4760309326
 30
0.0
 10
4.0102535547
 20
5.4759628197
 30
0.0
 10
4.005855028
 20
5.4758947506
 30
0.0
 10
4.0017050537
 20
5.4758267126
 30
0.0
 10
3.9978353957
 20
5.4757587503
 30
0.0
 10
3.994275342
 20
5.4756908553
 30
0.0
 10
3.9910520914
 20
5.475623092
 30
0.0
 10
3.988190073
 20
5.47555547
 30
0.0
 10
3.9860410567
 20
5.475497115
 30
0.0
 10
3.9845186077
 20
5.4754496809
 30
0.0
 10
3.9835296082
 20
5.475415685
 30
0.0
 10
3.9826453973
 20
5.4753817428
 30
0.0
 10
3.9818675566
 20
5.4753478737
 30
0.0
 10
3.9811975137
 20
5.4753141339
 30
0.0
 10
3.9806366521
 20
5.4752805422
 30
0.0
 10
3.9802381315
 20
5.4752511968
 30
0.0
 10
3.9799748468
 20
5.4752269495
 30
0.0
 10
3.9798189798
 20
5.4752100997
 30
0.0
 10
3.9796910471
 20
5.475193328
 30
0.0
 10
3.979590823
 20
5.4751768679
 30
0.0
 10
3.9795187273
 20
5.4751605348
 30
0.0
 10
3.9794799743
 20
5.4751478602
 30
0.0
 10
3.9794663905
 20
5.4751400499
 30
0.0
  0
LINE
  5
3EE
100
AcDbEntity
  8
ALL_ASSEMBLY_MEMBERS
100
AcDbLine
 62
7
  6
CONTINUOUS
 10
4.0947718477
 20
5.4704866097
 11
4.0942291564
 21
5.4703950354
  0
SPLINE
  5
3EF
100
AcDbEntity
  8
ALL_ASSEMBLY_MEMBERS
100
AcDbSpline
 62
7
  6
CONTINUOUS
 70
0
 71
3
 72
45
 73
41
 74
0
 42
0.0000001
 43
0.0000001
 44
0.0000000001
 40
0.0
 40
0.0
 40
0.0
 40
0.0
 40
0.0038663831
 40
0.0088157447
 40
0.0219183129
 40
0.0391902927
 40
0.0604894043
 40
0.0856214833
 40
0.1143736501
 40
0.1464873745
 40
0.1816854466
 40
0.2600663775
 40
0.3467691696
 40
0.4387543193
 40
0.5327968123
 40
0.625599287
 40
0.6705130911
 40
0.7139079172
 40
0.7553998178
 40
0.7946267504
 40
0.8312427227
 40
0.8649263211
 40
0.8953834692
 40
0.9223433651
 40
0.9344392944
 40
0.9455747088
 40
0.9557238891
 40
0.9648671795
 40
0.9729858132
 40
0.9800610987
 40
0.9860753936
 40
0.991017534
 40
0.9948794593
 40
0.9964032048
 40
0.9976546363
 40
0.9986337066
 40
0.9993418483
 40
0.9995962378
 40
0.999786585
 40
1.0
 40
1.0
 40
1.0
 40
1.0
 10
4.0942291564
 20
5.4703950354
 30
0.0
 10
4.0940853056
 20
5.4703807925
 30
0.0
 10
4.0937567642
 20
5.4703539329
 30
0.0
 10
4.0929389921
 20
5.4703010092
 30
0.0
 10
4.0916197205
 20
5.4702385659
 30
0.0
 10
4.0896890944
 20
5.4701671103
 30
0.0
 10
4.0873084613
 20
5.4700952536
 30
0.0
 10
4.0844984771
 20
5.4700228451
 30
0.0
 10
4.0812840478
 20
5.4699502552
 30
0.0
 10
4.0776931978
 20
5.4698774588
 30
0.0
 10
4.0722470506
 20
5.4697766292
 30
0.0
 10
4.0647600379
 20
5.4696531952
 30
0.0
 10
4.0551499675
 20
5.469509226
 30
0.0
 10
4.044954294
 20
5.469364977
 30
0.0
 10
4.0345305493
 20
5.4692206008
 30
0.0
 10
4.0258665338
 20
5.4690990725
 30
0.0
 10
4.01909597
 20
5.4690005195
 30
0.0
 10
4.0142436102
 20
5.4689274387
 30
0.0
 10
4.0096038927
 20
5.4688543873
 30
0.0
 10
4.0052176511
 20
5.4687813892
 30
0.0
 10
4.0011233838
 20
5.4687084554
 30
0.0
 10
3.9973570502
 20
5.4686356146
 30
0.0
 10
3.9939518037
 20
5.4685629101
 30
0.0
 10
3.9913536373
 20
5.4685004329
 30
0.0
 10
3.9894777968
 20
5.468449813
 30
0.0
 10
3.9882303184
 20
5.4684132614
 30
0.0
 10
3.9870932823
 20
5.4683767385
 30
0.0
 10
3.9860690979
 20
5.4683402653
 30
0.0
 10
3.9851599163
 20
5.4683038692
 30
0.0
 10
3.9843678208
 20
5.4682675745
 30
0.0
 10
3.9836946195
 20
5.4682314601
 30
0.0
 10
3.9831417487
 20
5.4681955238
 30
0.0
 10
3.9827568736
 20
5.4681641095
 30
0.0
 10
3.9825100781
 20
5.4681378517
 30
0.0
 10
3.9823709102
 20
5.4681199642
 30
0.0
 10
3.9822623031
 20
5.4681020379
 30
0.0
 10
3.9821916894
 20
5.4680866786
 30
0.0
 10
3.9821501278
 20
5.4680728944
 30
0.0
 10
3.9821287572
 20
5.4680635071
 30
0.0
 10
3.9821136777
 20
5.4680522066
 30
0.0
 10
3.9821137297
 20
5.4680442277
 30
0.0
  0
LINE
  5
3F0
100
AcDbEntity
  8
ALL_ASSEMBLY_MEMBERS
100
AcDbLine
 62
7
  6
CONTINUOUS
 10
4.0974507137
 20
5.4726607826
 11
4.0969488487
 21
5.4725585704
  0
LINE
  5
3F1
100
AcDbEntity
  8
ALL_ASSEMBLY_MEMBERS
100
AcDbLine
 62
7
  6
CONTINUOUS
 10
4.0969488487
 20
5.4725585704
 11
4.0963205456
 21
5.4725071928
  0
LINE
  5
3F2
100
AcDbEntity
  8
ALL_ASSEMBLY_MEMBERS
100
AcDbLine
 62
7
  6
CONTINUOUS
 10
4.0963205456
 20
5.4725071928
 11
4.0943019185
 21
5.4724036734
  0
SPLINE
  5
3F3
100
AcDbEntity
  8
ALL_ASSEMBLY_MEMBERS
100
AcDbSpline
 62
7
  6
CONTINUOUS
 70
0
 71
3
 72
39
 73
35
 74
0
 42
0.0000001
 43
0.0000001
 44
0.0000000001
 40
0.0
 40
0.0
 40
0.0
 40
0.0
 40
0.0162750325
 40
0.0361221074
 40
0.0858917909
 40
0.1478042395
 40
0.2199872751
 40
0.3002527013
 40
0.3861620107
 40
0.4751039752
 40
0.5643809612
 40
0.6512919096
 40
0.6930324874
 40
0.733201639
 40
0.7714964967
 40
0.8076215402
 40
0.8413069876
 40
0.8722936501
 40
0.9003494387
 40
0.9252601368
 40
0.9468361455
 40
0.9563232645
 40
0.9649166866
 40
0.9725997598
 40
0.9793601591
 40
0.9851859582
 40
0.9900653919
 40
0.9939880747
 40
0.9955891572
 40
0.996949754
 40
0.9980698786
 40
0.998949984
 40
0.9995916211
 40
1.0
 40
1.0
 40
1.0
 40
1.0
 10
4.0943019185
 20
5.4724036734
 30
0.0
 10
4.0936792881
 20
5.4723780221
 30
0.0
 10
4.0922970585
 20
5.4723287639
 30
0.0
 10
4.089009745
 20
5.4722318965
 30
0.0
 10
4.0839748782
 20
5.4721162464
 30
0.0
 10
4.0769360686
 20
5.4719835469
 30
0.0
 10
4.06872943
 20
5.471850074
 30
0.0
 10
4.0596038773
 20
5.4717159464
 30
0.0
 10
4.0498365774
 20
5.4715815385
 30
0.0
 10
4.039724203
 20
5.4714469851
 30
0.0
 10
4.0295734735
 20
5.471312417
 30
0.0
 10
4.0212299287
 20
5.4711988996
 30
0.0
 10
4.0147665673
 20
5.471106972
 30
0.0
 10
4.0101645275
 20
5.47103897
 30
0.0
 10
4.0057775259
 20
5.4709710119
 30
0.0
 10
4.0016388113
 20
5.4709030845
 30
0.0
 10
3.9977799606
 20
5.47083523
 30
0.0
 10
3.9942301256
 20
5.4707674453
 30
0.0
 10
3.9910163328
 20
5.4706997873
 30
0.0
 10
3.9881629525
 20
5.4706322788
 30
0.0
 10
3.9860205417
 20
5.4705740161
 30
0.0
 10
3.9845028593
 20
5.4705266589
 30
0.0
 10
3.9835169721
 20
5.4704927212
 30
0.0
 10
3.9826355548
 20
5.4704588364
 30
0.0
 10
3.9818601931
 20
5.4704250247
 30
0.0
 10
3.9811922872
 20
5.4703913418
 30
0.0
 10
3.9806331943
 20
5.4703578067
 30
0.0
 10
3.980235911
 20
5.4703285113
 30
0.0
 10
3.9799734267
 20
5.4703043046
 30
0.0
 10
3.9798180216
 20
5.4702874822
 30
0.0
 10
3.9796904583
 20
5.4702707378
 30
0.0
 10
3.9795905129
 20
5.4702543033
 30
0.0
 10
3.9795186027
 20
5.4702379963
 30
0.0
 10
3.9794799456
 20
5.4702253407
 30
0.0
 10
3.9794663901
 20
5.4702175465
 30
0.0
  0
LINE
  5
3F4
100
AcDbEntity
  8
ALL_ASSEMBLY_MEMBERS
100
AcDbLine
 62
7
  6
CONTINUOUS
 10
4.0974507137
 20
5.467738281
 11
4.0969482833
 21
5.4676360113
  0
LINE
  5
3F5
100
AcDbEntity
  8
ALL_ASSEMBLY_MEMBERS
100
AcDbLine
 62
7
  6
CONTINUOUS
 10
4.0969482833
 20
5.4676360113
 11
4.0963162838
 21
5.4675844011
  0
LINE
  5
3F6
100
AcDbEntity
  8
ALL_ASSEMBLY_MEMBERS
100
AcDbLine
 62
7
  6
CONTINUOUS
 10
4.0963162838
 20
5.4675844011
 11
4.0942733662
 21
5.4674799986
  0
SPLINE
  5
3F7
100
AcDbEntity
  8
ALL_ASSEMBLY_MEMBERS
100
AcDbSpline
 62
7
  6
CONTINUOUS
 70
0
 71
3
 72
39
 73
35
 74
0
 42
0.0000001
 43
0.0000001
 44
0.0000000001
 40
0.0
 40
0.0
 40
0.0
 40
0.0
 40
0.0163325425
 40
0.0362326844
 40
0.0860925832
 40
0.1480701604
 40
0.2202895103
 40
0.3005653658
 40
0.386467492
 40
0.4753892756
 40
0.5646379394
 40
0.6515119236
 40
0.6932303116
 40
0.7333756956
 40
0.7716456742
 40
0.8077464171
 40
0.8414090441
 40
0.8723744602
 40
0.9004123259
 40
0.9253062919
 40
0.9468691764
 40
0.9563504343
 40
0.9649381014
 40
0.9726163135
 40
0.9793727171
 40
0.9851951541
 40
0.9900716274
 40
0.9939917559
 40
0.9955917961
 40
0.9969515149
 40
0.9980709316
 40
0.9989505046
 40
0.9995917898
 40
1.0
 40
1.0
 40
1.0
 40
1.0
 10
4.0942733662
 20
5.4674799986
 30
0.0
 10
4.0936486864
 20
5.4674543754
 30
0.0
 10
4.0922625646
 20
5.467405153
 30
0.0
 10
4.0889683781
 20
5.4673083537
 30
0.0
 10
4.0839267838
 20
5.4671927556
 30
0.0
 10
4.0768823867
 20
5.4670601177
 30
0.0
 10
4.0686735063
 20
5.4669267165
 30
0.0
 10
4.0595487086
 20
5.4667926679
 30
0.0
 10
4.0497844863
 20
5.4666583377
 30
0.0
 10
4.039676759
 20
5.4665238582
 30
0.0
 10
4.0295318262
 20
5.4663893601
 30
0.0
 10
4.0211937056
 20
5.4662758982
 30
0.0
 10
4.0147351263
 20
5.4661840165
 30
0.0
 10
4.0101369429
 20
5.4661160537
 30
0.0
 10
4.0057538252
 20
5.4660481344
 30
0.0
 10
4.0016188964
 20
5.4659802466
 30
0.0
 10
3.9977636227
 20
5.4659124324
 30
0.0
 10
3.9942170439
 20
5.465844682
 30
0.0
 10
3.9910061905
 20
5.4657770636
 30
0.0
 10
3.9881553493
 20
5.4657095836
 30
0.0
 10
3.9860148387
 20
5.4656513521
 30
0.0
 10
3.984498481
 20
5.4656040185
 30
0.0
 10
3.98351347
 20
5.4655700948
 30
0.0
 10
3.9826328316
 20
5.4655362248
 30
0.0
 10
3.9818581306
 20
5.4655024279
 30
0.0
 10
3.981190786
 20
5.4654687599
 30
0.0
 10
3.9806321723
 20
5.4654352395
 30
0.0
 10
3.9802352391
 20
5.4654059565
 30
0.0
 10
3.9799729915
 20
5.4653817614
 30
0.0
 10
3.9798177259
 20
5.4653649474
 30
0.0
 10
3.9796902755
 20
5.4653482115
 30
0.0
 10
3.9795904162
 20
5.4653317853
 30
0.0
 10
3.9795185638
 20
5.4653154869
 30
0.0
 10
3.9794799369
 20
5.4653028375
 30
0.0
 10
3.9794663903
 20
5.4652950486
 30
0.0
  0
SPLINE
  5
3F8
100
AcDbEntity
  8
ALL_ASSEMBLY_MEMBERS
100
AcDbSpline
 62
7
  6
CONTINUOUS
 70
0
 71
3
 72
26
 73
22
 74
0
 42
0.0000001
 43
0.0000001
 44
0.0000000001
 40
0.0
 40
0.0
 40
0.0
 40
0.0
 40
0.0014945332
 40
0.0028975663
 40
0.0047904567
 40
0.0100847323
 40
0.0174141276
 40
0.0267849022
 40
0.0381958844
 40
0.0516429912
 40
0.0671207692
 40
0.1041412772
 40
0.1491588621
 40
0.2020258293
 40
0.2625908835
 40
0.3306991498
 40
0.4061607945
 40
0.4887626465
 40
0.5782909325
 40
0.7771199583
 40
1.0
 40
1.0
 40
1.0
 40
1.0
 10
4.0947881134
 20
5.4840429778
 30
0.0
 10
4.0947881624
 20
5.4840333506
 30
0.0
 10
4.0947676982
 20
5.4840208418
 30
0.0
 10
4.0947408183
 20
5.4840103483
 30
0.0
 10
4.094686621
 20
5.4839946789
 30
0.0
 10
4.0945953781
 20
5.4839772524
 30
0.0
 10
4.0944548195
 20
5.4839568634
 30
0.0
 10
4.0942749854
 20
5.48393653
 30
0.0
 10
4.0940554052
 20
5.4839159311
 30
0.0
 10
4.0937964036
 20
5.4838952836
 30
0.0
 10
4.0933726103
 20
5.483865877
 30
0.0
 10
4.0927454465
 20
5.4838300825
 30
0.0
 10
4.0918773933
 20
5.4837889632
 30
0.0
 10
4.090857537
 20
5.4837476834
 30
0.0
 10
4.0896888382
 20
5.4837062744
 30
0.0
 10
4.088374513
 20
5.4836648021
 30
0.0
 10
4.0869181719
 20
5.4836232749
 30
0.0
 10
4.0853238
 20
5.4835816946
 30
0.0
 10
4.0829348824
 20
5.4835241726
 30
0.0
 10
4.0796424021
 20
5.4834532516
 30
0.0
 10
4.0769263799
 20
5.48340093
 30
0.0
 10
4.0754908973
 20
5.4833744369
 30
0.0
  0
LINE
  5
3F9
100
AcDbEntity
  8
ALL_ASSEMBLY_MEMBERS
100
AcDbLine
 62
7
  6
CONTINUOUS
 10
4.0974507137
 20
5.4628157856
 11
4.096955134
 21
5.4627142165
  0
LINE
  5
3FA
100
AcDbEntity
  8
ALL_ASSEMBLY_MEMBERS
100
AcDbLine
 62
7
  6
CONTINUOUS
 10
4.096955134
 20
5.4627142165
 11
4.0963388539
 21
5.4626634491
  0
LINE
  5
3FB
100
AcDbEntity
  8
ALL_ASSEMBLY_MEMBERS
100
AcDbLine
 62
7
  6
CONTINUOUS
 10
4.0963388539
 20
5.4626634491
 11
4.0943822212
 21
5.462562005
  0
SPLINE
  5
3FC
100
AcDbEntity
  8
ALL_ASSEMBLY_MEMBERS
100
AcDbSpline
 62
7
  6
CONTINUOUS
 70
0
 71
3
 72
39
 73
35
 74
0
 42
0.0000001
 43
0.0000001
 44
0.0000000001
 40
0.0
 40
0.0
 40
0.0
 40
0.0
 40
0.0161129485
 40
0.0358124967
 40
0.0853359151
 40
0.1470668335
 40
0.219130894
 40
0.2993375631
 40
0.3852422918
 40
0.4742276239
 40
0.5635935563
 40
0.6506239255
 40
0.6924302862
 40
0.7326671306
 40
0.771030192
 40
0.8072225723
 40
0.840973259
 40
0.87202159
 40
0.9001345991
 40
0.9250972084
 40
0.9467196442
 40
0.9562274562
 40
0.9648396531
 40
0.9725398587
 40
0.9793156041
 40
0.985154702
 40
0.9900451259
 40
0.9939763702
 40
0.9955808547
 40
0.9969442698
 40
0.9980666307
 40
0.9989483922
 40
0.9995911084
 40
1.0
 40
1.0
 40
1.0
 40
1.0
 10
4.0943822212
 20
5.462562005
 30
0.0
 10
4.0937653736
 20
5.4625362709
 30
0.0
 10
4.0923940493
 20
5.462486906
 30
0.0
 10
4.0891257479
 20
5.4623898341
 30
0.0
 10
4.0841094087
 20
5.4622740268
 30
0.0
 10
4.0770866296
 20
5.4621411584
 30
0.0
 10
4.0688880174
 20
5.4620075118
 30
0.0
 10
4.0597630674
 20
5.4618731986
 30
0.0
 10
4.0499897
 20
5.4617386023
 30
0.0
 10
4.0398653569
 20
5.4616038544
 30
0.0
 10
4.0296978803
 20
5.4614690853
 30
0.0
 10
4.0213379936
 20
5.4613554011
 30
0.0
 10
4.01486042
 20
5.4612633356
 30
0.0
 10
4.0102474327
 20
5.4611952277
 30
0.0
 10
4.0058495745
 20
5.4611271646
 30
0.0
 10
4.001700271
 20
5.4610591326
 30
0.0
 10
3.9978312775
 20
5.4609911751
 30
0.0
 10
3.9942719035
 20
5.460923288
 30
0.0
 10
3.9910493174
 20
5.4608555294
 30
0.0
 10
3.9881879798
 20
5.4607879195
 30
0.0
 10
3.9860395087
 20
5.4607295718
 30
0.0
 10
3.9845174728
 20
5.4606821442
 30
0.0
 10
3.9835287268
 20
5.4606481538
 30
0.0
 10
3.9826447287
 20
5.4606142163
 30
0.0
 10
3.9818670701
 20
5.4605803518
 30
0.0
 10
3.9811971777
 20
5.4605466163
 30
0.0
 10
3.9806364345
 20
5.4605130287
 30
0.0
 10
3.9802379932
 20
5.4604836869
 30
0.0
 10
3.9799747584
 20
5.4604594422
 30
0.0
 10
3.9798189201
 20
5.4604425941
 30
0.0
 10
3.9796910103
 20
5.460425824
 30
0.0
 10
3.9795908034
 20
5.4604093655
 30
0.0
 10
3.9795187193
 20
5.4603930338
 30
0.0
 10
3.9794799723
 20
5.4603803603
 30
0.0
 10
3.9794663902
 20
5.4603725509
 30
0.0
  0
LINE
  5
3FD
100
AcDbEntity
  8
ALL_ASSEMBLY_MEMBERS
100
AcDbLine
 62
7
  6
CONTINUOUS
 10
4.0974507137
 20
5.457893284
 11
4.0969484947
 21
5.4577910358
  0
LINE
  5
3FE
100
AcDbEntity
  8
ALL_ASSEMBLY_MEMBERS
100
AcDbLine
 62
7
  6
CONTINUOUS
 10
4.0969484947
 20
5.4577910358
 11
4.0963167599
 21
5.4577394364
  0
LINE
  5
3FF
100
AcDbEntity
  8
ALL_ASSEMBLY_MEMBERS
100
AcDbLine
 62
7
  6
CONTINUOUS
 10
4.0963167599
 20
5.4577394364
 11
4.0942746871
 21
5.4576350555
  0
SPLINE
  5
400
100
AcDbEntity
  8
ALL_ASSEMBLY_MEMBERS
100
AcDbSpline
 62
7
  6
CONTINUOUS
 70
0
 71
3
 72
39
 73
35
 74
0
 42
0.0000001
 43
0.0000001
 44
0.0000000001
 40
0.0
 40
0.0
 40
0.0
 40
0.0
 40
0.0163299205
 40
0.0362276782
 40
0.0860834473
 40
0.1480585061
 40
0.220280036
 40
0.3005634342
 40
0.386471786
 40
0.4753965269
 40
0.5646451667
 40
0.6515152876
 40
0.6932321074
 40
0.7333770722
 40
0.7716478119
 40
0.8077496633
 40
0.8414131958
 40
0.8723791816
 40
0.9004164346
 40
0.9253102103
 40
0.9468719832
 40
0.9563528165
 40
0.9649403698
 40
0.9726182148
 40
0.9793740706
 40
0.9851959847
 40
0.9900721655
 40
0.9939921757
 40
0.995592138
 40
0.9969517741
 40
0.998071109
 40
0.9989506074
 40
0.9995918312
 40
1.0
 40
1.0
 40
1.0
 40
1.0
 10
4.0942746871
 20
5.4576350555
 30
0.0
 10
4.0936501007
 20
5.4576094309
 30
0.0
 10
4.0922641546
 20
5.4575602067
 30
0.0
 10
4.08897028
 20
5.4574634042
 30
0.0
 10
4.0839289734
 20
5.4573478029
 30
0.0
 10
4.0768846662
 20
5.4572151591
 30
0.0
 10
4.0686754154
 20
5.4570817476
 30
0.0
 10
4.0595499021
 20
5.456947686
 30
0.0
 10
4.0497849269
 20
5.4568133454
 30
0.0
 10
4.0396767324
 20
5.4566788593
 30
0.0
 10
4.0295317182
 20
5.4565443596
 30
0.0
 10
4.0211937102
 20
5.4564308989
 30
0.0
 10
4.0147352803
 20
5.4563390198
 30
0.0
 10
4.0101370908
 20
5.4562710564
 30
0.0
 10
4.005753867
 20
5.4562031357
 30
0.0
 10
4.0016187842
 20
5.4561352451
 30
0.0
 10
3.9977633673
 20
5.4560674273
 30
0.0
 10
3.9942167145
 20
5.4559996765
 30
0.0
 10
3.991005833
 20
5.4559320543
 30
0.0
 10
3.9881550321
 20
5.4558645772
 30
0.0
 10
3.986014563
 20
5.4558063436
 30
0.0
 10
3.984498251
 20
5.4557590093
 30
0.0
 10
3.9835132633
 20
5.455725087
 30
0.0
 10
3.982632654
 20
5.4556912175
 30
0.0
 10
3.9818579992
 20
5.4556574212
 30
0.0
 10
3.9811906991
 20
5.4556237539
 30
0.0
 10
3.9806321146
 20
5.4555902352
 30
0.0
 10
3.9802351954
 20
5.4555609546
 30
0.0
 10
3.9799729555
 20
5.4555367602
 30
0.0
 10
3.9798176973
 20
5.4555199466
 30
0.0
 10
3.9796902546
 20
5.4555032109
 30
0.0
 10
3.9795904026
 20
5.4554867847
 30
0.0
 10
3.9795185563
 20
5.4554704862
 30
0.0
 10
3.979479933
 20
5.4554578366
 30
0.0
 10
3.9794663881
 20
5.4554500476
 30
0.0
  0
SPLINE
  5
401
100
AcDbEntity
  8
ALL_ASSEMBLY_MEMBERS
100
AcDbSpline
 62
7
  6
CONTINUOUS
 70
0
 71
3
 72
48
 73
44
 74
0
 42
0.0000001
 43
0.0000001
 44
0.0000000001
 40
0.0
 40
0.0
 40
0.0
 40
0.0
 40
0.00021931
 40
0.0004162809
 40
0.0006795679
 40
0.0014117489
 40
0.00242258
 40
0.0037137535
 40
0.0052857064
 40
0.0092714162
 40
0.014375954
 40
0.0205869761
 40
0.0278890148
 40
0.0362663556
 40
0.045702801
 40
0.0561766141
 40
0.0676617236
 40
0.0801319126
 40
0.1079190804
 40
0.1392829605
 40
0.1739393357
 40
0.2115732827
 40
0.2518407903
 40
0.2943777585
 40
0.3387942037
 40
0.3846887185
 40
0.4792255366
 40
0.5745539621
 40
0.6672109664
 40
0.7538306325
 40
0.7938819891
 40
0.8312665588
 40
0.8656457562
 40
0.8967063612
 40
0.9241649092
 40
0.9477744221
 40
0.9673164571
 40
0.9755084431
 40
0.9826202185
 40
0.9886348593
 40
0.9935421012
 40
0.9973329445
 40
1.0
 40
1.0
 40
1.0
 40
1.0
 10
4.0947882088
 20
5.4889654766
 30
0.0
 10
4.0947881959
 20
5.4889572517
 30
0.0
 10
4.0947723186
 20
5.4889458509
 30
0.0
 10
4.0947501573
 20
5.4889363083
 30
0.0
 10
4.0947069161
 20
5.4889223024
 30
0.0
 10
4.0946336858
 20
5.4889066723
 30
0.0
 10
4.0945211371
 20
5.4888884252
 30
0.0
 10
4.0943770515
 20
5.4888702141
 30
0.0
 10
4.0941215427
 20
5.4888434784
 30
0.0
 10
4.09372293
 20
5.4888114872
 30
0.0
 10
4.0931502247
 20
5.4887749192
 30
0.0
 10
4.092452956
 20
5.4887381572
 30
0.0
 10
4.0916328123
 20
5.4887011974
 30
0.0
 10
4.0906916022
 20
5.4886641403
 30
0.0
 10
4.0896313607
 20
5.4886270186
 30
0.0
 10
4.0884545043
 20
5.488589851
 30
0.0
 10
4.0871638214
 20
5.4885526397
 30
0.0
 10
4.0852239724
 20
5.4885011067
 30
0.0
 10
4.0825386606
 20
5.4884375367
 30
0.0
 10
4.0790213147
 20
5.4883635175
 30
0.0
 10
4.0751346073
 20
5.4882893766
 30
0.0
 10
4.0709139279
 20
5.4882151386
 30
0.0
 10
4.0663976563
 20
5.4881408286
 30
0.0
 10
4.0616269844
 20
5.4880664772
 30
0.0
 10
4.0566452555
 20
5.4879920821
 30
0.0
 10
4.0497135104
 20
5.4878918788
 30
0.0
 10
4.0408725183
 20
5.4877683427
 30
0.0
 10
4.0302779166
 20
5.487621477
 30
0.0
 10
4.0199802642
 20
5.4874747466
 30
0.0
 10
4.0117556058
 20
5.4873497736
 30
0.0
 10
4.0056037601
 20
5.4872480349
 30
0.0
 10
4.0014109392
 20
5.4871737972
 30
0.0
 10
3.997555359
 20
5.4870996656
 30
0.0
 10
3.9940721135
 20
5.4870256724
 30
0.0
 10
3.990992865
 20
5.4869519008
 30
0.0
 10
3.9883457411
 20
5.4868784315
 30
0.0
 10
3.9864212108
 20
5.4868145206
 30
0.0
 10
3.9851154172
 20
5.4867619987
 30
0.0
 10
3.9843167424
 20
5.4867250824
 30
0.0
 10
3.9836414137
 20
5.4866882969
 30
0.0
 10
3.9830907918
 20
5.486651915
 30
0.0
 10
3.982666106
 20
5.4866158395
 30
0.0
 10
3.9824253352
 20
5.486588227
 30
0.0
 10
3.9823265661
 20
5.4865724298
 30
0.0
  0
LINE
  5
402
100
AcDbEntity
  8
ALL_ASSEMBLY_MEMBERS
100
AcDbLine
 62
7
  6
CONTINUOUS
 10
3.9823265661
 20
5.4865724298
 11
3.9821297361
 21
5.4865230924
  0
SPLINE
  5
403
100
AcDbEntity
  8
ALL_ASSEMBLY_MEMBERS
100
AcDbSpline
 62
7
  6
CONTINUOUS
 70
0
 71
3
 72
36
 73
32
 74
0
 42
0.0000001
 43
0.0000001
 44
0.0000000001
 40
0.0
 40
0.0
 40
0.0
 40
0.0
 40
0.0688108289
 40
0.1443508566
 40
0.225006797
 40
0.3091746437
 40
0.3951268464
 40
0.4811064463
 40
0.5653613811
 40
0.646168985
 40
0.7218817127
 40
0.7573393161
 40
0.7909548198
 40
0.8225520663
 40
0.8519746085
 40
0.879071327
 40
0.9036993922
 40
0.9257394816
 40
0.9450766144
 40
0.9616089049
 40
0.9687990593
 40
0.9752595997
 40
0.9809813813
 40
0.9859557955
 40
0.9901778128
 40
0.9936442756
 40
0.9963526443
 40
0.9983019478
 40
0.999496807
 40
0.999822133
 40
1.0
 40
1.0
 40
1.0
 40
1.0
 10
4.0754908973
 20
5.4846044369
 30
0.0
 10
4.0733486166
 20
5.4845648992
 30
0.0
 10
4.0688544573
 20
5.4844872902
 30
0.0
 10
4.0618490218
 20
5.4843766981
 30
0.0
 10
4.0543653434
 20
5.4842659488
 30
0.0
 10
4.0465574166
 20
5.4841550987
 30
0.0
 10
4.0385837051
 20
5.4840441973
 30
0.0
 10
4.0306072817
 20
5.4839332953
 30
0.0
 10
4.0227910666
 20
5.4838224441
 30
0.0
 10
4.0152945753
 20
5.4837116816
 30
0.0
 10
4.0093174663
 20
5.483617596
 30
0.0
 10
4.0048097374
 20
5.4835415059
 30
0.0
 10
4.0016755394
 20
5.4834857222
 30
0.0
 10
3.9987292935
 20
5.4834299596
 30
0.0
 10
3.9959860686
 20
5.483374242
 30
0.0
 10
3.9934598982
 20
5.483318586
 30
0.0
 10
3.9911636635
 20
5.4832629853
 30
0.0
 10
3.9891091228
 20
5.4832075071
 30
0.0
 10
3.9873067692
 20
5.4831521728
 30
0.0
 10
3.9859668168
 20
5.4831042959
 30
0.0
 10
3.9850277782
 20
5.483065319
 30
0.0
 10
3.9844251948
 20
5.4830375038
 30
0.0
 10
3.9838916772
 20
5.4830097432
 30
0.0
 10
3.983427987
 20
5.4829820646
 30
0.0
 10
3.9830345957
 20
5.4829544663
 30
0.0
 10
3.9827121301
 20
5.4829271695
 30
0.0
 10
3.9824602346
 20
5.4828999754
 30
0.0
 10
3.9822805988
 20
5.4828741747
 30
0.0
 10
3.9821735979
 20
5.4828499901
 30
0.0
 10
3.9821256375
 20
5.4828305821
 30
0.0
 10
3.9821132819
 20
5.4828172686
 30
0.0
 10
3.9821133092
 20
5.4828117302
 30
0.0
  0
SPLINE
  5
404
100
AcDbEntity
  8
ALL_ASSEMBLY_MEMBERS
100
AcDbSpline
 62
7
  6
CONTINUOUS
 70
0
 71
3
 72
29
 73
25
 74
0
 42
0.0000001
 43
0.0000001
 44
0.0000000001
 40
0.0
 40
0.0
 40
0.0
 40
0.0
 40
0.1418204855
 40
0.3036571386
 40
0.388154302
 40
0.4728199645
 40
0.555985462
 40
0.6360071549
 40
0.71130772
 40
0.7803996362
 40
0.8419171024
 40
0.8694529925
 40
0.8946507444
 40
0.9173893809
 40
0.9375592518
 40
0.9550544712
 40
0.9697939829
 40
0.9817076217
 40
0.986583576
 40
0.9907315466
 40
0.9941485349
 40
0.9968321154
 40
0.9987812954
 40
1.0
 40
1.0
 40
1.0
 40
1.0
 10
4.0754908973
 20
5.4833744369
 30
0.0
 10
4.071078087
 20
5.4832929945
 30
0.0
 10
4.0616292597
 20
5.4831402973
 30
0.0
 10
4.0495508487
 20
5.4829668452
 30
0.0
 10
4.03925089
 20
5.4828234432
 30
0.0
 10
4.0313989979
 20
5.4827143551
 30
0.0
 10
4.0236863986
 20
5.482605304
 30
0.0
 10
4.0162652771
 20
5.4824963356
 30
0.0
 10
4.0092821828
 20
5.4823875284
 30
0.0
 10
4.0028750257
 20
5.4822789488
 30
0.0
 10
3.9979543016
 20
5.482185689
 30
0.0
 10
3.9943995272
 20
5.4821098404
 30
0.0
 10
3.9920514079
 20
5.4820551257
 30
0.0
 10
3.9899325902
 20
5.4820004998
 30
0.0
 10
3.9880535667
 20
5.4819460066
 30
0.0
 10
3.9864235907
 20
5.4818917028
 30
0.0
 10
3.985050719
 20
5.4818376317
 30
0.0
 10
3.9840706087
 20
5.4817904999
 30
0.0
 10
3.9834201832
 20
5.4817515265
 30
0.0
 10
3.9830339328
 20
5.4817244276
 30
0.0
 10
3.9827161765
 20
5.4816974058
 30
0.0
 10
3.9824668857
 20
5.4816710356
 30
0.0
 10
3.9822869446
 20
5.4816446196
 30
0.0
 10
3.982189832
 20
5.481624609
 30
0.0
 10
3.9821541999
 20
5.4816116164
 30
0.0
  0
SPLINE
  5
405
100
AcDbEntity
  8
ALL_ASSEMBLY_MEMBERS
100
AcDbSpline
 62
7
  6
CONTINUOUS
 70
0
 71
3
 72
9
 73
5
 74
0
 42
0.0000001
 43
0.0000001
 44
0.0000000001
 40
0.0
 40
0.0
 40
0.0
 40
0.0
 40
0.2856932882
 40
1.0
 40
1.0
 40
1.0
 40
1.0
 10
3.9821541999
 20
5.4816116164
 30
0.0
 10
3.9821517839
 20
5.4816107354
 30
0.0
 10
3.982143378
 20
5.4816075277
 30
0.0
 10
3.982135131
 20
5.4816038163
 30
0.0
 10
3.9821295656
 20
5.4816005968
 30
0.0
  0
LINE
  5
406
100
AcDbEntity
  8
ALL_ASSEMBLY_MEMBERS
100
AcDbLine
 62
7
  6
CONTINUOUS
 10
4.0947716485
 20
5.4754091113
 11
4.0941459312
 21
5.4753095651
  0
SPLINE
  5
407
100
AcDbEntity
  8
ALL_ASSEMBLY_MEMBERS
100
AcDbSpline
 62
7
  6
CONTINUOUS
 70
0
 71
3
 72
44
 73
40
 74
0
 42
0.0000001
 43
0.0000001
 44
0.0000000001
 40
0.0
 40
0.0
 40
0.0
 40
0.0
 40
0.0040916917
 40
0.0092565154
 40
0.0227573369
 40
0.040396305
 40
0.0620149751
 40
0.08742964
 40
0.1164170281
 40
0.1840720485
 40
0.2626253124
 40
0.3493418917
 40
0.4412023102
 40
0.5350078158
 40
0.6274918202
 40
0.6722268418
 40
0.7154336906
 40
0.7567343211
 40
0.7957709653
 40
0.8321990322
 40
0.8657061576
 40
0.8959938772
 40
0.9228047371
 40
0.9348301157
 40
0.9458990783
 40
0.9559899026
 40
0.9650811247
 40
0.9731513292
 40
0.9801813056
 40
0.9861585046
 40
0.9910718657
 40
0.9949108439
 40
0.9964245437
 40
0.9976670477
 40
0.998639249
 40
0.9993433423
 40
0.9995966979
 40
0.999786558
 40
1.0
 40
1.0
 40
1.0
 40
1.0
 10
4.0941459312
 20
5.4753095651
 30
0.0
 10
4.0939937149
 20
5.4752955067
 30
0.0
 10
4.0936488925
 20
5.475268835
 30
0.0
 10
4.0928003027
 20
5.4752162357
 30
0.0
 10
4.0914453413
 20
5.4751538812
 30
0.0
 10
4.0894755879
 20
5.4750826367
 30
0.0
 10
4.0870605021
 20
5.4750109149
 30
0.0
 10
4.0842213083
 20
5.4749387378
 30
0.0
 10
4.0796624309
 20
5.4748369013
 30
0.0
 10
4.0731183353
 20
5.4747132923
 30
0.0
 10
4.0644175165
 20
5.4745703348
 30
0.0
 10
4.0548122905
 20
5.4744268663
 30
0.0
 10
4.0446371931
 20
5.4742830653
 30
0.0
 10
4.0342466074
 20
5.4741391632
 30
0.0
 10
4.0256164632
 20
5.4740180092
 30
0.0
 10
4.0188765325
 20
5.4739197711
 30
0.0
 10
4.0140486278
 20
5.4738469341
 30
0.0
 10
4.0094336372
 20
5.4737741271
 30
0.0
 10
4.0050719315
 20
5.4737013793
 30
0.0
 10
4.0010014305
 20
5.4736286812
 30
0.0
 10
3.9972578397
 20
5.473556101
 30
0.0
 10
3.9938736164
 20
5.4734836205
 30
0.0
 10
3.9912919151
 20
5.4734213684
 30
0.0
 10
3.989428156
 20
5.4733709131
 30
0.0
 10
3.9881889042
 20
5.4733344777
 30
0.0
 10
3.9870593216
 20
5.4732980836
 30
0.0
 10
3.9860418336
 20
5.4732617405
 30
0.0
 10
3.9851387755
 20
5.4732254733
 30
0.0
 10
3.9843521584
 20
5.4731892844
 30
0.0
 10
3.9836836126
 20
5.4731532843
 30
0.0
 10
3.9831344723
 20
5.4731174699
 30
0.0
 10
3.9827521911
 20
5.4730861677
 30
0.0
 10
3.9825071473
 20
5.4730599968
 30
0.0
 10
3.9823690496
 20
5.4730421657
 30
0.0
 10
3.9822612699
 20
5.4730243011
 30
0.0
 10
3.9821911518
 20
5.4730089886
 30
0.0
 10
3.9821498307
 20
5.4729952789
 30
0.0
 10
3.9821285168
 20
5.4729858977
 30
0.0
 10
3.9821134682
 20
5.4729747007
 30
0.0
 10
3.9821134449
 20
5.4729667266
 30
0.0
  0
SPLINE
  5
408
100
AcDbEntity
  8
ALL_ASSEMBLY_MEMBERS
100
AcDbSpline
 62
7
  6
CONTINUOUS
 70
0
 71
3
 72
48
 73
44
 74
0
 42
0.0000001
 43
0.0000001
 44
0.0000000001
 40
0.0
 40
0.0
 40
0.0
 40
0.0
 40
0.0002216695
 40
0.0004211307
 40
0.0006878465
 40
0.0014298523
 40
0.0024547121
 40
0.0037644109
 40
0.0053596778
 40
0.0094065387
 40
0.0145869248
 40
0.0208878733
 40
0.0282958931
 40
0.0367969231
 40
0.0463712179
 40
0.0569943432
 40
0.0686416777
 40
0.0812885127
 40
0.1094620767
 40
0.1412480554
 40
0.1763594474
 40
0.214465594
 40
0.2552195029
 40
0.2982401759
 40
0.3431328556
 40
0.3894805947
 40
0.4848198728
 40
0.58073969
 40
0.6737003297
 40
0.7602714061
 40
0.8001511083
 40
0.8372585989
 40
0.8712554756
 40
0.9018217501
 40
0.9286818203
 40
0.9515803277
 40
0.9703140431
 40
0.978061011
 40
0.9847037235
 40
0.9902297321
 40
0.9946270591
 40
0.9978848291
 40
1.0
 40
1.0
 40
1.0
 40
1.0
 10
4.0947880695
 20
5.4938879798
 30
0.0
 10
4.0947880293
 20
5.4938796589
 30
0.0
 10
4.0947718851
 20
5.4938681968
 30
0.0
 10
4.0947494222
 20
5.4938585778
 30
0.0
 10
4.0947055367
 20
5.4938444627
 30
0.0
 10
4.0946312266
 20
5.4938287062
 30
0.0
 10
4.0945169784
 20
5.4938103154
 30
0.0
 10
4.0943706648
 20
5.49379196
 30
0.0
 10
4.0941110534
 20
5.4937650092
 30
0.0
 10
4.0937060547
 20
5.4937327866
 30
0.0
 10
4.0931243051
 20
5.4936959217
 30
0.0
 10
4.0924161952
 20
5.4936588629
 30
0.0
 10
4.0915833016
 20
5.4936216062
 30
0.0
 10
4.0906274312
 20
5.4935842657
 30
0.0
 10
4.0895507939
 20
5.4935468537
 30
0.0
 10
4.0883559885
 20
5.4935093875
 30
0.0
 10
4.087045796
 20
5.4934718787
 30
0.0
 10
4.0850769416
 20
5.4934199488
 30
0.0
 10
4.0823521857
 20
5.4933558845
 30
0.0
 10
4.0787841833
 20
5.4932812734
 30
0.0
 10
4.0748432595
 20
5.49320656
 30
0.0
 10
4.0705656441
 20
5.4931317267
 30
0.0
 10
4.0659910883
 20
5.4930568424
 30
0.0
 10
4.061161748
 20
5.4929818977
 30
0.0
 10
4.0561224024
 20
5.4929069245
 30
0.0
 10
4.049119287
 20
5.4928059767
 30
0.0
 10
4.0402008514
 20
5.4926815528
 30
0.0
 10
4.0295328158
 20
5.4925335724
 30
0.0
 10
4.0191939516
 20
5.4923857469
 30
0.0
 10
4.01095863
 20
5.4922597293
 30
0.0
 10
4.0048198243
 20
5.492157082
 30
0.0
 10
4.0006543663
 20
5.4920822756
 30
0.0
 10
3.9968385742
 20
5.4920076046
 30
0.0
 10
3.9934075293
 20
5.4919330558
 30
0.0
 10
3.9903931958
 20
5.4918588073
 30
0.0
 10
3.9878231859
 20
5.491784831
 30
0.0
 10
3.9859706775
 20
5.4917204465
 30
0.0
 10
3.9847284228
 20
5.491667308
 30
0.0
 10
3.9839817291
 20
5.4916301854
 30
0.0
 10
3.9833609902
 20
5.491593196
 30
0.0
 10
3.9828674228
 20
5.4915569267
 30
0.0
 10
3.9825025756
 20
5.4915207653
 30
0.0
 10
3.9823024051
 20
5.4914931794
 30
0.0
 10
3.9822248823
 20
5.4914760188
 30
0.0
  0
SPLINE
  5
409
100
AcDbEntity
  8
ALL_ASSEMBLY_MEMBERS
100
AcDbSpline
 62
7
  6
CONTINUOUS
 70
0
 71
3
 72
9
 73
5
 74
0
 42
0.0000001
 43
0.0000001
 44
0.0000000001
 40
0.0
 40
0.0
 40
0.0
 40
0.0
 40
0.6006230654
 40
1.0
 40
1.0
 40
1.0
 40
1.0
 10
3.9822248823
 20
5.4914760188
 30
0.0
 10
3.9822053262
 20
5.4914716898
 30
0.0
 10
3.9821730345
 20
5.49146362
 30
0.0
 10
3.9821413393
 20
5.4914522537
 30
0.0
 10
3.982129805
 20
5.4914455949
 30
0.0
  0
SPLINE
  5
40A
100
AcDbEntity
  8
ALL_ASSEMBLY_MEMBERS
100
AcDbSpline
 62
7
  6
CONTINUOUS
 70
0
 71
3
 72
51
 73
47
 74
0
 42
0.0000001
 43
0.0000001
 44
0.0000000001
 40
0.0
 40
0.0
 40
0.0
 40
0.0
 40
0.0002216557
 40
0.0004218161
 40
0.0006899496
 40
0.001436939
 40
0.002469153
 40
0.0037879389
 40
0.0053933812
 40
0.0094622825
 40
0.0146704538
 40
0.0210094787
 40
0.0284631
 40
0.0370125925
 40
0.0466391014
 40
0.057323043
 40
0.0690385985
 40
0.081756512
 40
0.1100819312
 40
0.1420411811
 40
0.1773317414
 40
0.2156308777
 40
0.2565771088
 40
0.2997942342
 40
0.3448762142
 40
0.3914066394
 40
0.4870665925
 40
0.5832221674
 40
0.6763030057
 40
0.7206027326
 40
0.7628530005
 40
0.8026619285
 40
0.8396587609
 40
0.8734988524
 40
0.9038692076
 40
0.9304846112
 40
0.9531021252
 40
0.9628416638
 40
0.9715066924
 40
0.979077707
 40
0.9855353422
 40
0.9908636457
 40
0.9950540512
 40
0.9981000752
 40
0.9991930093
 40
1.0
 40
1.0
 40
1.0
 40
1.0
 10
4.094788108
 20
5.4643529809
 30
0.0
 10
4.0947881486
 20
5.4643446581
 30
0.0
 10
4.0947719496
 20
5.4643330989
 30
0.0
 10
4.0947494189
 20
5.4643234874
 30
0.0
 10
4.0947052428
 20
5.4643093115
 30
0.0
 10
4.0946303986
 20
5.4642935258
 30
0.0
 10
4.0945153068
 20
5.4642750765
 30
0.0
 10
4.0943679514
 20
5.4642566695
 30
0.0
 10
4.0941067123
 20
5.4642296441
 30
0.0
 10
4.0936993461
 20
5.4641973047
 30
0.0
 10
4.0931141284
 20
5.4641603134
 30
0.0
 10
4.0924016282
 20
5.4641231531
 30
0.0
 10
4.0915635321
 20
5.4640857913
 30
0.0
 10
4.0906018937
 20
5.4640483301
 30
0.0
 10
4.0895188825
 20
5.4640107911
 30
0.0
 10
4.0883169268
 20
5.4639732128
 30
0.0
 10
4.0869988421
 20
5.4639355953
 30
0.0
 10
4.0850184877
 20
5.4638835061
 30
0.0
 10
4.0822780698
 20
5.4638192303
 30
0.0
 10
4.0786901029
 20
5.4637444114
 30
0.0
 10
4.0747275636
 20
5.4636694464
 30
0.0
 10
4.0704275197
 20
5.4635944001
 30
0.0
 10
4.0658298013
 20
5.4635192704
 30
0.0
 10
4.0609773633
 20
5.4634441053
 30
0.0
 10
4.0559152217
 20
5.463368894
 30
0.0
 10
4.04888408
 20
5.4632676591
 30
0.0
 10
4.0399353221
 20
5.4631428836
 30
0.0
 10
4.0292388081
 20
5.4629944516
 30
0.0
 10
4.020470681
 20
5.4628689447
 30
0.0
 10
4.0137265114
 20
5.462767007
 30
0.0
 10
4.0089824681
 20
5.4626918525
 30
0.0
 10
4.0045126756
 20
5.4626167582
 30
0.0
 10
4.0003587217
 20
5.462541745
 30
0.0
 10
3.9965592364
 20
5.4624668356
 30
0.0
 10
3.9931496405
 20
5.4623921139
 30
0.0
 10
3.9901615498
 20
5.4623175921
 30
0.0
 10
3.9879481267
 20
5.4622530853
 30
0.0
 10
3.9864086916
 20
5.4622003628
 30
0.0
 10
3.9854340546
 20
5.4621628843
 30
0.0
 10
3.9845827436
 20
5.4621255278
 30
0.0
 10
3.9838568631
 20
5.4620882963
 30
0.0
 10
3.9832580719
 20
5.4620513999
 30
0.0
 10
3.9827877207
 20
5.4620147264
 30
0.0
 10
3.9824764631
 20
5.4619827419
 30
0.0
 10
3.9822928007
 20
5.461955156
 30
0.0
 10
3.9822227529
 20
5.4619411871
 30
0.0
 10
3.9821934312
 20
5.4619335434
 30
0.0
  0
SPLINE
  5
40B
100
AcDbEntity
  8
ALL_ASSEMBLY_MEMBERS
100
AcDbSpline
 62
7
  6
CONTINUOUS
 70
0
 71
3
 72
9
 73
5
 74
0
 42
0.0000001
 43
0.0000001
 44
0.0000000001
 40
0.0
 40
0.0
 40
0.0
 40
0.0
 40
0.3134010857
 40
1.0
 40
1.0
 40
1.0
 40
1.0
 10
3.9821934312
 20
5.4619335434
 30
0.0
 10
3.9821865672
 20
5.461931754
 30
0.0
 10
3.9821648293
 20
5.4619256336
 30
0.0
 10
3.9821430588
 20
5.461918384
 30
0.0
 10
3.9821296101
 20
5.461910597
 30
0.0
  0
LINE
  5
40C
100
AcDbEntity
  8
ALL_ASSEMBLY_MEMBERS
100
AcDbLine
 62
7
  6
CONTINUOUS
 10
4.0947718394
 20
5.4852541113
 11
4.0944346076
 21
5.4851851752
  0
SPLINE
  5
40D
100
AcDbEntity
  8
ALL_ASSEMBLY_MEMBERS
100
AcDbSpline
 62
7
  6
CONTINUOUS
 70
0
 71
3
 72
16
 73
12
 74
0
 42
0.0000001
 43
0.0000001
 44
0.0000000001
 40
0.0
 40
0.0
 40
0.0
 40
0.0
 40
0.0186637718
 40
0.0435931544
 40
0.1121008688
 40
0.2049589341
 40
0.3213538211
 40
0.4603327304
 40
0.6207605276
 40
0.8012725876
 40
1.0
 40
1.0
 40
1.0
 40
1.0
 10
4.0944346076
 20
5.4851851752
 30
0.0
 10
4.0943175839
 20
5.4851706301
 30
0.0
 10
4.0940433759
 20
5.4851438988
 30
0.0
 10
4.0933370425
 20
5.48509113
 30
0.0
 10
4.0921614482
 20
5.485029754
 30
0.0
 10
4.0904078812
 20
5.4849593701
 30
0.0
 10
4.0882087454
 20
5.4848885417
 30
0.0
 10
4.0855825372
 20
5.4848170939
 30
0.0
 10
4.082551087
 20
5.4847453878
 30
0.0
 10
4.0791420388
 20
5.4846735181
 30
0.0
 10
4.0767463117
 20
5.4846276067
 30
0.0
 10
4.0754908973
 20
5.4846044369
 30
0.0
  0
SPLINE
  5
40E
100
AcDbEntity
  8
ALL_ASSEMBLY_MEMBERS
100
AcDbSpline
 62
7
  6
CONTINUOUS
 70
0
 71
3
 72
23
 73
19
 74
0
 42
0.0000001
 43
0.0000001
 44
0.0000000001
 40
0.0
 40
0.0
 40
0.0
 40
0.0
 40
0.2175091944
 40
0.4121642811
 40
0.5816588221
 40
0.6564155673
 40
0.7242442796
 40
0.7849708205
 40
0.8384224347
 40
0.8844446933
 40
0.922930568
 40
0.9537824416
 40
0.9663168216
 40
0.9769140883
 40
0.9855732299
 40
0.9922962141
 40
0.9970926411
 40
1.0
 40
1.0
 40
1.0
 40
1.0
 10
4.0772414097
 20
5.486141632
 30
0.0
 10
4.0787066398
 20
5.4861674538
 30
0.0
 10
4.0814831102
 20
5.486218454
 30
0.0
 10
4.085401189
 20
5.4862987368
 30
0.0
 10
4.0883574967
 20
5.4863679596
 30
0.0
 10
4.0904593688
 20
5.4864242565
 30
0.0
 10
4.0918285797
 20
5.4864646536
 30
0.0
 10
4.0930541823
 20
5.4865049747
 30
0.0
 10
4.0941327784
 20
5.4865452021
 30
0.0
 10
4.0950614213
 20
5.4865852764
 30
0.0
 10
4.0958376332
 20
5.48662517
 30
0.0
 10
4.09638818
 20
5.4866599911
 30
0.0
 10
4.0967507416
 20
5.4866888285
 30
0.0
 10
4.0969640351
 20
5.4867088171
 30
0.0
 10
4.0971378681
 20
5.4867287454
 30
0.0
 10
4.0972726624
 20
5.4867481477
 30
0.0
 10
4.0973675442
 20
5.4867675757
 30
0.0
 10
4.0974180828
 20
5.4867823842
 30
0.0
 10
4.0974350587
 20
5.4867921575
 30
0.0
  0
LINE
  5
40F
100
AcDbEntity
  8
ALL_ASSEMBLY_MEMBERS
100
AcDbLine
 62
7
  6
CONTINUOUS
 10
3.9794507137
 20
5.4646589259
 11
3.9799511187
 21
5.4647609893
  0
LINE
  5
410
100
AcDbEntity
  8
ALL_ASSEMBLY_MEMBERS
100
AcDbLine
 62
7
  6
CONTINUOUS
 10
3.9799511187
 20
5.4647609893
 11
3.9805765299
 21
5.4648122187
  0
LINE
  5
411
100
AcDbEntity
  8
ALL_ASSEMBLY_MEMBERS
100
AcDbLine
 62
7
  6
CONTINUOUS
 10
3.9805765299
 20
5.4648122187
 11
3.9825813252
 21
5.4649152847
  0
SPLINE
  5
412
100
AcDbEntity
  8
ALL_ASSEMBLY_MEMBERS
100
AcDbSpline
 62
7
  6
CONTINUOUS
 70
0
 71
3
 72
39
 73
35
 74
0
 42
0.0000001
 43
0.0000001
 44
0.0000000001
 40
0.0
 40
0.0
 40
0.0
 40
0.0
 40
0.0162383151
 40
0.0360516532
 40
0.0857652503
 40
0.1476366394
 40
0.2197928785
 40
0.3000454824
 40
0.3859546139
 40
0.4749073104
 40
0.5642040885
 40
0.6511423538
 40
0.6928981903
 40
0.7330827922
 40
0.7713930959
 40
0.8075333028
 40
0.8412333514
 40
0.8722338681
 40
0.9003023602
 40
0.9252245701
 40
0.9468106114
 40
0.9563021834
 40
0.9648996957
 40
0.9725865145
 40
0.9793502732
 40
0.9851789922
 40
0.9900608526
 40
0.9939854406
 40
0.995587284
 40
0.9969485134
 40
0.9980691418
 40
0.9989496218
 40
0.9995915039
 40
1.0
 40
1.0
 40
1.0
 40
1.0
 10
3.9825813252
 20
5.4649152847
 30
0.0
 10
3.9832026464
 20
5.4649409543
 30
0.0
 10
3.9845823949
 20
5.4649902359
 30
0.0
 10
3.9878653803
 20
5.4650871486
 30
0.0
 10
3.9928960312
 20
5.4652028324
 30
0.0
 10
3.9999312084
 20
5.4653355706
 30
0.0
 10
4.0081360568
 20
5.4654690828
 30
0.0
 10
4.0172615308
 20
5.4656032532
 30
0.0
 10
4.027030291
 20
5.4657377046
 30
0.0
 10
4.0371454294
 20
5.4658723026
 30
0.0
 10
4.047299982
 20
5.4660069165
 30
0.0
 10
4.055647237
 20
5.466120472
 30
0.0
 10
4.0621138446
 20
5.4662124311
 30
0.0
 10
4.066718381
 20
5.4662804576
 30
0.0
 10
4.0711078415
 20
5.4663484396
 30
0.0
 10
4.0752489432
 20
5.4664163906
 30
0.0
 10
4.0791100756
 20
5.4664842686
 30
0.0
 10
4.0826620493
 20
5.4665520762
 30
0.0
 10
4.0858778092
 20
5.4666197573
 30
0.0
 10
4.0887329532
 20
5.4666872877
 30
0.0
 10
4.0908766992
 20
5.4667455693
 30
0.0
 10
4.0923953335
 20
5.4667929419
 30
0.0
 10
4.0933818475
 20
5.466826891
 30
0.0
 10
4.0942638332
 20
5.4668607872
 30
0.0
 10
4.0950397018
 20
5.4668946104
 30
0.0
 10
4.0957080471
 20
5.4669283049
 30
0.0
 10
4.0962675063
 20
5.4669618515
 30
0.0
 10
4.0966650477
 20
5.4669911572
 30
0.0
 10
4.0969277001
 20
5.4670153725
 30
0.0
 10
4.0970832026
 20
5.4670322006
 30
0.0
 10
4.0972108439
 20
5.4670489508
 30
0.0
 10
4.0973108484
 20
5.4670653907
 30
0.0
 10
4.0973827981
 20
5.4670817032
 30
0.0
 10
4.0974214756
 20
5.4670943629
 30
0.0
 10
4.0974350372
 20
5.4671021605
 30
0.0
  0
LINE
  5
413
100
AcDbEntity
  8
ALL_ASSEMBLY_MEMBERS
100
AcDbLine
 62
7
  6
CONTINUOUS
 10
4.0974348808
 20
5.4917146565
 11
4.0968726118
 21
5.4916229099
  0
SPLINE
  5
414
100
AcDbEntity
  8
ALL_ASSEMBLY_MEMBERS
100
AcDbSpline
 62
7
  6
CONTINUOUS
 70
0
 71
3
 72
27
 73
23
 74
0
 42
0.0000001
 43
0.0000001
 44
0.0000000001
 40
0.0
 40
0.0
 40
0.0
 40
0.0
 40
0.0078086424
 40
0.0191077085
 40
0.0338269424
 40
0.0518638631
 40
0.0730918591
 40
0.0973689029
 40
0.154363575
 40
0.2212689447
 40
0.2962306049
 40
0.3771696506
 40
0.4618403376
 40
0.5478941106
 40
0.6329446293
 40
0.7146333271
 40
0.7906942509
 40
0.8590170009
 40
0.9177072424
 40
0.9651390346
 40
0.9842113139
 40
1.0
 40
1.0
 40
1.0
 40
1.0
 10
4.0968726118
 20
5.4916229099
 30
0.0
 10
4.096576712
 20
5.4915947729
 30
0.0
 10
4.0958507841
 20
5.4915467175
 30
0.0
 10
4.0945647388
 20
5.4914838442
 30
0.0
 10
4.0928889311
 20
5.491420538
 30
0.0
 10
4.0908350378
 20
5.4913563926
 30
0.0
 10
4.0884171728
 20
5.4912919844
 30
0.0
 10
4.0845166009
 20
5.4912008825
 30
0.0
 10
4.0788773367
 20
5.4910902181
 30
0.0
 10
4.0713087787
 20
5.4909624239
 30
0.0
 10
4.0628286737
 20
5.4908341514
 30
0.0
 10
4.0536722712
 20
5.4907055316
 30
0.0
 10
4.0440936123
 20
5.4905767506
 30
0.0
 10
4.0343584381
 20
5.4904479102
 30
0.0
 10
4.0247367822
 20
5.4903191098
 30
0.0
 10
4.0154955346
 20
5.4901904652
 30
0.0
 10
4.0068910882
 20
5.490062091
 30
0.0
 10
3.9991621663
 20
5.4899343045
 30
0.0
 10
3.9925231702
 20
5.4898072243
 30
0.0
 10
3.9877589214
 20
5.4896964876
 30
0.0
 10
3.9846278195
 20
5.4896040226
 30
0.0
 10
3.983301659
 20
5.4895570466
 30
0.0
 10
3.9827011595
 20
5.4895326863
 30
0.0
  0
LINE
  5
415
100
AcDbEntity
  8
ALL_ASSEMBLY_MEMBERS
100
AcDbLine
 62
7
  6
CONTINUOUS
 10
3.9827011595
 20
5.4895326863
 11
3.9806278217
 21
5.4894281787
  0
LINE
  5
416
100
AcDbEntity
  8
ALL_ASSEMBLY_MEMBERS
100
AcDbLine
 62
7
  6
CONTINUOUS
 10
3.9806278217
 20
5.4894281787
 11
3.9795823052
 21
5.4893236733
  0
LINE
  5
417
100
AcDbEntity
  8
ALL_ASSEMBLY_MEMBERS
100
AcDbLine
 62
7
  6
CONTINUOUS
 10
3.9795823052
 20
5.4893236733
 11
3.9794507137
 21
5.4892714215
  0
LINE
  5
418
100
AcDbEntity
  8
ALL_ASSEMBLY_MEMBERS
100
AcDbLine
 62
7
  6
CONTINUOUS
 10
4.0947716711
 20
5.4803316146
 11
4.0940565172
 21
5.4802240948
  0
SPLINE
  5
419
100
AcDbEntity
  8
ALL_ASSEMBLY_MEMBERS
100
AcDbSpline
 62
7
  6
CONTINUOUS
 70
0
 71
3
 72
43
 73
39
 74
0
 42
0.0000001
 43
0.0000001
 44
0.0000000001
 40
0.0
 40
0.0
 40
0.0
 40
0.0
 40
0.0096876456
 40
0.0235894108
 40
0.0415875615
 40
0.0635257896
 40
0.0892185269
 40
0.1184382802
 40
0.1864307576
 40
0.2651526515
 40
0.3518813133
 40
0.4436169709
 40
0.5371866794
 40
0.6293541326
 40
0.6739117542
 40
0.7169316287
 40
0.7580445963
 40
0.7968903539
 40
0.833136305
 40
0.8664652413
 40
0.8965904195
 40
0.9232508965
 40
0.9352069844
 40
0.946214096
 40
0.9562482993
 40
0.9652857673
 40
0.9733064429
 40
0.9802957329
 40
0.9862395944
 40
0.9911242274
 40
0.9949378867
 40
0.9964418147
 40
0.9976771313
 40
0.998644401
 40
0.9993454449
 40
0.999597861
 40
0.9997871029
 40
1.0
 40
1.0
 40
1.0
 40
1.0
 10
4.0940565172
 20
5.4802240948
 30
0.0
 10
4.0936962265
 20
5.4801929123
 30
0.0
 10
4.092817102
 20
5.4801391869
 30
0.0
 10
4.0912662651
 20
5.4800689894
 30
0.0
 10
4.0892576999
 20
5.4799982145
 30
0.0
 10
4.0868088289
 20
5.4799265617
 30
0.0
 10
4.0839409014
 20
5.4798546432
 30
0.0
 10
4.0793540054
 20
5.4797532076
 30
0.0
 10
4.0727875641
 20
5.4796300479
 30
0.0
 10
4.0640743523
 20
5.4794875208
 30
0.0
 10
4.0544747127
 20
5.4793445069
 30
0.0
 10
4.0443207564
 20
5.4792011714
 30
0.0
 10
4.0339637528
 20
5.4790577426
 30
0.0
 10
4.0253677495
 20
5.4789369648
 30
0.0
 10
4.0186586261
 20
5.4788390453
 30
0.0
 10
4.0138551889
 20
5.478766448
 30
0.0
 10
4.0092649988
 20
5.4786938977
 30
0.0
 10
4.0049277103
 20
5.4786213837
 30
0.0
 10
4.0008810396
 20
5.4785489461
 30
0.0
 10
3.9971599603
 20
5.4784765982
 30
0.0
 10
3.9937967761
 20
5.478404374
 30
0.0
 10
3.9912314074
 20
5.4783423308
 30
0.0
 10
3.9893796485
 20
5.478292037
 30
0.0
 10
3.9881483969
 20
5.4782557297
 30
0.0
 10
3.9870261468
 20
5.4782194648
 30
0.0
 10
3.9860154419
 20
5.4781832454
 30
0.0
 10
3.9851184813
 20
5.4781470886
 30
0.0
 10
3.9843371058
 20
5.4781110263
 30
0.0
 10
3.9836729305
 20
5.4780751554
 30
0.0
 10
3.9831274912
 20
5.4780394768
 30
0.0
 10
3.9827479004
 20
5.4780082637
 30
0.0
 10
3.9825046334
 20
5.4779821766
 30
0.0
 10
3.9823674637
 20
5.4779644057
 30
0.0
 10
3.9822603378
 20
5.4779466029
 30
0.0
 10
3.9821906056
 20
5.4779313423
 30
0.0
 10
3.9821494895
 20
5.4779176838
 30
0.0
 10
3.9821282627
 20
5.4779083302
 30
0.0
 10
3.9821132749
 20
5.4778971772
 30
0.0
 10
3.9821132458
 20
5.4778892299
 30
0.0
  0
LINE
  5
41A
100
AcDbEntity
  8
ALL_ASSEMBLY_MEMBERS
100
AcDbLine
 62
7
  6
CONTINUOUS
 10
4.094771791
 20
5.4901766104
 11
4.0943258215
 21
5.4900950534
  0
SPLINE
  5
41B
100
AcDbEntity
  8
ALL_ASSEMBLY_MEMBERS
100
AcDbSpline
 62
7
  6
CONTINUOUS
 70
0
 71
3
 72
45
 73
41
 74
0
 42
0.0000001
 43
0.0000001
 44
0.0000000001
 40
0.0
 40
0.0
 40
0.0
 40
0.0
 40
0.0035865602
 40
0.0082633409
 40
0.0208558497
 40
0.0376699199
 40
0.0585580327
 40
0.0833381598
 40
0.1117878165
 40
0.1436598157
 40
0.1786668292
 40
0.2568317416
 40
0.3435192382
 40
0.435664152
 40
0.5300082247
 40
0.6232154561
 40
0.6683581127
 40
0.7119901499
 40
0.753725866
 40
0.7931935295
 40
0.830046865
 40
0.8639548618
 40
0.8946229979
 40
0.9217732712
 40
0.9339555259
 40
0.9451724768
 40
0.9553969818
 40
0.9646071317
 40
0.9727849223
 40
0.9799125151
 40
0.985972258
 40
0.9909504505
 40
0.994839852
 40
0.9963745387
 40
0.9976352675
 40
0.9986221513
 40
0.999336569
 40
0.9995932457
 40
0.9997852398
 40
1.0
 40
1.0
 40
1.0
 40
1.0
 10
4.0943258215
 20
5.4900950534
 30
0.0
 10
4.0941923991
 20
5.4900805448
 30
0.0
 10
4.0938843203
 20
5.4900534805
 30
0.0
 10
4.0931057105
 20
5.4900001009
 30
0.0
 10
4.0918317541
 20
5.4899375346
 30
0.0
 10
4.0899510954
 20
5.4898658934
 30
0.0
 10
4.0876141004
 20
5.4897938005
 30
0.0
 10
4.0848415614
 20
5.4897211505
 30
0.0
 10
4.0816578865
 20
5.4896482587
 30
0.0
 10
4.0780914393
 20
5.4895751906
 30
0.0
 10
4.0726648478
 20
5.4894738403
 30
0.0
 10
4.0651871405
 20
5.4893498623
 30
0.0
 10
4.0555714002
 20
5.4892053182
 30
0.0
 10
4.045350177
 20
5.489060485
 30
0.0
 10
4.0348849645
 20
5.4889155141
 30
0.0
 10
4.0261784241
 20
5.4887935059
 30
0.0
 10
4.0193693894
 20
5.4886945621
 30
0.0
 10
4.0144862485
 20
5.4886211653
 30
0.0
 10
4.0098154898
 20
5.4885478096
 30
0.0
 10
4.0053984218
 20
5.4884744932
 30
0.0
 10
4.0012743081
 20
5.4884012568
 30
0.0
 10
3.9974795262
 20
5.4883280993
 30
0.0
 10
3.9940479032
 20
5.4882550893
 30
0.0
 10
3.9914292286
 20
5.4881923474
 30
0.0
 10
3.9895383519
 20
5.4881415089
 30
0.0
 10
3.9882806887
 20
5.4881048034
 30
0.0
 10
3.987134292
 20
5.4880681308
 30
0.0
 10
3.9861016827
 20
5.4880315011
 30
0.0
 10
3.9851850376
 20
5.4879949477
 30
0.0
 10
3.9843863816
 20
5.487958493
 30
0.0
 10
3.9837075872
 20
5.4879222282
 30
0.0
 10
3.9831501575
 20
5.4878861302
 30
0.0
 10
3.9827621618
 20
5.4878545741
 30
0.0
 10
3.982513365
 20
5.4878282041
 30
0.0
 10
3.9823730273
 20
5.4878102416
 30
0.0
 10
3.9822634444
 20
5.4877922402
 30
0.0
 10
3.9821921609
 20
5.4877768298
 30
0.0
 10
3.982150159
 20
5.4877629991
 30
0.0
 10
3.9821285897
 20
5.4877535827
 30
0.0
 10
3.9821133069
 20
5.4877422622
 30
0.0
 10
3.9821133451
 20
5.4877342259
 30
0.0
  0
LINE
  5
41C
100
AcDbEntity
  8
ALL_ASSEMBLY_MEMBERS
100
AcDbLine
 62
7
  6
CONTINUOUS
 10
3.9794507137
 20
5.4597364229
 11
3.9799386872
 21
5.4598372096
  0
LINE
  5
41D
100
AcDbEntity
  8
ALL_ASSEMBLY_MEMBERS
100
AcDbLine
 62
7
  6
CONTINUOUS
 10
3.9799386872
 20
5.4598372096
 11
3.980552273
 21
5.4598880501
  0
LINE
  5
41E
100
AcDbEntity
  8
ALL_ASSEMBLY_MEMBERS
100
AcDbLine
 62
7
  6
CONTINUOUS
 10
3.980552273
 20
5.4598880501
 11
3.982532666
 21
5.459990764
  0
SPLINE
  5
41F
100
AcDbEntity
  8
ALL_ASSEMBLY_MEMBERS
100
AcDbSpline
 62
7
  6
CONTINUOUS
 70
0
 71
3
 72
39
 73
35
 74
0
 42
0.0000001
 43
0.0000001
 44
0.0000000001
 40
0.0
 40
0.0
 40
0.0
 40
0.0
 40
0.0161409636
 40
0.0358666891
 40
0.0854337259
 40
0.1471955896
 40
0.2192769538
 40
0.299487128
 40
0.3853854459
 40
0.4743621038
 40
0.5637127775
 40
0.6507232622
 40
0.6925185394
 40
0.7327443468
 40
0.7710958693
 40
0.8072769456
 40
0.8410172152
 40
0.8720559833
 40
0.9001617082
 40
0.9251174778
 40
0.9467349214
 40
0.9562404539
 40
0.9648502322
 40
0.9725482194
 40
0.9793219958
 40
0.9851593508
 40
0.9900482343
 40
0.9939781889
 40
0.9955821527
 40
0.9969451321
 40
0.998067144
 40
0.9989486449
 40
0.9995911899
 40
1.0
 40
1.0
 40
1.0
 40
1.0
 10
3.982532666
 20
5.459990764
 30
0.0
 10
3.9831505159
 20
5.4600164855
 30
0.0
 10
3.9845237572
 20
5.4600658354
 30
0.0
 10
3.9877954251
 20
5.4601628746
 30
0.0
 10
3.992815037
 20
5.4602786588
 30
0.0
 10
3.9998405136
 20
5.4604114965
 30
0.0
 10
4.0080401482
 20
5.460545108
 30
0.0
 10
4.0171645809
 20
5.4606793808
 30
0.0
 10
4.0269363595
 20
5.4608139385
 30
0.0
 10
4.0370583537
 20
5.4609486496
 30
0.0
 10
4.0472229601
 20
5.4610833841
 30
0.0
 10
4.0555800961
 20
5.4611970389
 30
0.0
 10
4.0620553013
 20
5.4612890816
 30
0.0
 10
4.0666664585
 20
5.4613571702
 30
0.0
 10
4.0710625032
 20
5.4614252151
 30
0.0
 10
4.0752100463
 20
5.4614932285
 30
0.0
 10
4.0790773878
 20
5.4615611665
 30
0.0
 10
4.0826353001
 20
5.461629039
 30
0.0
 10
4.0858566011
 20
5.4616967792
 30
0.0
 10
4.0887168708
 20
5.4617643796
 30
0.0
 10
4.0908645494
 20
5.4618227152
 30
0.0
 10
4.0923860356
 20
5.4618701335
 30
0.0
 10
4.0933744006
 20
5.4619041181
 30
0.0
 10
4.0942580419
 20
5.4619380489
 30
0.0
 10
4.0950353821
 20
5.4619719066
 30
0.0
 10
4.0957049947
 20
5.462005635
 30
0.0
 10
4.0962654969
 20
5.4620392153
 30
0.0
 10
4.0966637629
 20
5.4620685508
 30
0.0
 10
4.0969268808
 20
5.4620927897
 30
0.0
 10
4.0970826507
 20
5.4621096338
 30
0.0
 10
4.0972105054
 20
5.4621263997
 30
0.0
 10
4.0973106705
 20
5.4621428543
 30
0.0
 10
4.0973827267
 20
5.4621591818
 30
0.0
 10
4.0974214592
 20
5.4621718523
 30
0.0
 10
4.097435037
 20
5.4621796592
 30
0.0
  0
LINE
  5
420
100
AcDbEntity
  8
ALL_ASSEMBLY_MEMBERS
100
AcDbLine
 62
7
  6
CONTINUOUS
 10
3.9794507137
 20
5.4843489255
 11
3.9799158043
 21
5.4844473196
  0
LINE
  5
421
100
AcDbEntity
  8
ALL_ASSEMBLY_MEMBERS
100
AcDbLine
 62
7
  6
CONTINUOUS
 10
3.9799158043
 20
5.4844473196
 11
3.9813280063
 21
5.484547088
  0
SPLINE
  5
422
100
AcDbEntity
  8
ALL_ASSEMBLY_MEMBERS
100
AcDbSpline
 62
7
  6
CONTINUOUS
 70
0
 71
3
 72
17
 73
13
 74
0
 42
0.0000001
 43
0.0000001
 44
0.0000000001
 40
0.0
 40
0.0
 40
0.0
 40
0.0
 40
0.0283402468
 40
0.0652024963
 40
0.1100323821
 40
0.1621456546
 40
0.2849793649
 40
0.4262895171
 40
0.5775473801
 40
0.7296239615
 40
0.8733313664
 40
1.0
 40
1.0
 40
1.0
 40
1.0
 10
3.9823956031
 20
5.4845974972
 30
0.0
 10
3.9832909054
 20
5.484635604
 30
0.0
 10
3.9853514472
 20
5.4847060134
 30
0.0
 10
3.988829391
 20
5.4847997343
 30
0.0
 10
3.9930592524
 20
5.4848941436
 30
0.0
 10
4.000007264
 20
5.485028245
 30
0.0
 10
4.0100059725
 20
5.4851894252
 30
0.0
 10
4.0231395682
 20
5.4853759467
 30
0.0
 10
4.0371978979
 20
5.4855630679
 30
0.0
 10
4.051332033
 20
5.4857502814
 30
0.0
 10
4.064688597
 20
5.4859369308
 30
0.0
 10
4.0732367944
 20
5.4860710585
 30
0.0
 10
4.0772414097
 20
5.486141632
 30
0.0
  0
LINE
  5
423
100
AcDbEntity
  8
ALL_ASSEMBLY_MEMBERS
100
AcDbLine
 62
7
  6
CONTINUOUS
 10
4.0947717305
 20
5.4950991138
 11
4.094202519
 21
5.4950049318
  0
SPLINE
  5
424
100
AcDbEntity
  8
ALL_ASSEMBLY_MEMBERS
100
AcDbSpline
 62
7
  6
CONTINUOUS
 70
0
 71
3
 72
44
 73
40
 74
0
 42
0.0000001
 43
0.0000001
 44
0.0000000001
 40
0.0
 40
0.0
 40
0.0
 40
0.0
 40
0.0039412898
 40
0.0089597453
 40
0.0221927944
 40
0.0395863539
 40
0.0609888645
 40
0.0862160452
 40
0.1150433848
 40
0.1824688068
 40
0.2609077754
 40
0.3476166555
 40
0.4395620988
 40
0.5335274879
 40
0.6262255783
 40
0.6710814313
 40
0.7144135728
 40
0.755844038
 40
0.7950066355
 40
0.8315624899
 40
0.8651859397
 40
0.8955884414
 40
0.9224975807
 40
0.9345692568
 40
0.9456837627
 40
0.9558147635
 40
0.964939382
 40
0.9730402664
 40
0.9801006313
 40
0.9861038205
 40
0.9910351375
 40
0.994887156
 40
0.9964070055
 40
0.9976556235
 40
0.9986332396
 40
0.9993413449
 40
0.9995959664
 40
0.9997865109
 40
1.0
 40
1.0
 40
1.0
 40
1.0
 10
4.094202519
 20
5.4950049318
 30
0.0
 10
4.0940558825
 20
5.494990756
 30
0.0
 10
4.093722016
 20
5.494963964
 30
0.0
 10
4.0928941511
 20
5.4949111206
 30
0.0
 10
4.0915631739
 20
5.4948487213
 30
0.0
 10
4.0896197036
 20
5.494777337
 30
0.0
 10
4.0872276611
 20
5.49470551
 30
0.0
 10
4.0844081028
 20
5.4946331883
 30
0.0
 10
4.079868489
 20
5.4945310586
 30
0.0
 10
4.0733399081
 20
5.4944071623
 30
0.0
 10
4.0646478103
 20
5.4942639114
 30
0.0
 10
4.0550390832
 20
5.4941201397
 30
0.0
 10
4.0448499453
 20
5.4939760253
 30
0.0
 10
4.0344369187
 20
5.4938318062
 30
0.0
 10
4.02578389
 20
5.4937103955
 30
0.0
 10
4.019023329
 20
5.4936119488
 30
0.0
 10
4.0141789158
 20
5.4935389411
 30
0.0
 10
4.0095473332
 20
5.4934659772
 30
0.0
 10
4.0051690714
 20
5.4933930497
 30
0.0
 10
4.0010826669
 20
5.4933202043
 30
0.0
 10
3.997323757
 20
5.4932474362
 30
0.0
 10
3.9939254995
 20
5.493174814
 30
0.0
 10
3.9913327904
 20
5.4931124063
 30
0.0
 10
3.9894609767
 20
5.4930618346
 30
0.0
 10
3.9882161594
 20
5.4930253239
 30
0.0
 10
3.9870815493
 20
5.4929888506
 30
0.0
 10
3.9860596469
 20
5.492952416
 30
0.0
 10
3.9851525986
 20
5.4929160568
 30
0.0
 10
3.9843623263
 20
5.4928797937
 30
0.0
 10
3.9836906606
 20
5.4928437265
 30
0.0
 10
3.9831391105
 20
5.4928078242
 30
0.0
 10
3.9827552481
 20
5.4927764338
 30
0.0
 10
3.9825091329
 20
5.4927502035
 30
0.0
 10
3.9823703038
 20
5.4927323352
 30
0.0
 10
3.9822618822
 20
5.4927144292
 30
0.0
 10
3.982191331
 20
5.4926990966
 30
0.0
 10
3.982149752
 20
5.4926853459
 30
0.0
 10
3.9821283647
 20
5.4926759741
 30
0.0
 10
3.9821132487
 20
5.492664708
 30
0.0
 10
3.9821132851
 20
5.4926567281
 30
0.0
  0
LINE
  5
425
100
AcDbEntity
  8
ALL_ASSEMBLY_MEMBERS
100
AcDbLine
 62
7
  6
CONTINUOUS
 10
4.0947717369
 20
5.4557191095
 11
4.0944447237
 21
5.4556514456
  0
SPLINE
  5
426
100
AcDbEntity
  8
ALL_ASSEMBLY_MEMBERS
100
AcDbSpline
 62
7
  6
CONTINUOUS
 70
0
 71
3
 72
45
 73
41
 74
0
 42
0.0000001
 43
0.0000001
 44
0.0000000001
 40
0.0
 40
0.0
 40
0.0
 40
0.0
 40
0.003190456
 40
0.0074884387
 40
0.0193688551
 40
0.0355348229
 40
0.0558512412
 40
0.0801291166
 40
0.1081591051
 40
0.1396834079
 40
0.1744253034
 40
0.2522808189
 40
0.3389411456
 40
0.4313063033
 40
0.5260719436
 40
0.6198476577
 40
0.665310329
 40
0.7092783822
 40
0.7513542382
 40
0.7911646995
 40
0.8283490545
 40
0.8625775377
 40
0.8935409939
 40
0.920963255
 40
0.9332696389
 40
0.9445994426
 40
0.9549285388
 40
0.9642359389
 40
0.972500731
 40
0.9797022014
 40
0.9858241647
 40
0.9908561916
 40
0.9947887138
 40
0.9963400502
 40
0.9976136835
 40
0.99860975
 40
0.9993305034
 40
0.9995895472
 40
0.9997833757
 40
1.0
 40
1.0
 40
1.0
 40
1.0
 10
4.0944447237
 20
5.4556514456
 30
0.0
 10
4.0943261507
 20
5.4556364791
 30
0.0
 10
4.0940468936
 20
5.4556091146
 30
0.0
 10
4.0933233429
 20
5.4555551341
 30
0.0
 10
4.0921132256
 20
5.4554924541
 30
0.0
 10
4.090303005
 20
5.455420514
 30
0.0
 10
4.0880280589
 20
5.4553481806
 30
0.0
 10
4.0853085473
 20
5.4552751329
 30
0.0
 10
4.0821690596
 20
5.455201888
 30
0.0
 10
4.0786375065
 20
5.455128397
 30
0.0
 10
4.0732396986
 20
5.4550263661
 30
0.0
 10
4.0657765807
 20
5.4549016086
 30
0.0
 10
4.0561549678
 20
5.4547562805
 30
0.0
 10
4.0458998426
 20
5.4546106391
 30
0.0
 10
4.0353781532
 20
5.4544648467
 30
0.0
 10
4.026613269
 20
5.4543421832
 30
0.0
 10
4.0197511149
 20
5.4542426899
 30
0.0
 10
4.0148254586
 20
5.4541688699
 30
0.0
 10
4.0101115572
 20
5.4540950756
 30
0.0
 10
4.0056518033
 20
5.4540213414
 30
0.0
 10
4.001486052
 20
5.4539476623
 30
0.0
 10
3.997651761
 20
5.4538740904
 30
0.0
 10
3.9941832274
 20
5.4538006393
 30
0.0
 10
3.9915358627
 20
5.453737537
 30
0.0
 10
3.989623906
 20
5.4536864093
 30
0.0
 10
3.9883521082
 20
5.4536494813
 30
0.0
 10
3.987192702
 20
5.4536125896
 30
0.0
 10
3.9861481724
 20
5.4535757489
 30
0.0
 10
3.9852208808
 20
5.4535389877
 30
0.0
 10
3.9844130164
 20
5.4535023167
 30
0.0
 10
3.9837263844
 20
5.4534658241
 30
0.0
 10
3.9831623969
 20
5.4534295185
 30
0.0
 10
3.9827697306
 20
5.4533977856
 30
0.0
 10
3.9825179437
 20
5.4533712629
 30
0.0
 10
3.9823760057
 20
5.4533531976
 30
0.0
 10
3.9822652377
 20
5.4533350889
 30
0.0
 10
3.9821932188
 20
5.4533195758
 30
0.0
 10
3.9821507671
 20
5.4533056701
 30
0.0
 10
3.982128969
 20
5.4532961915
 30
0.0
 10
3.9821134699
 20
5.4532848412
 30
0.0
 10
3.982113473
 20
5.4532767265
 30
0.0
  0
LINE
  5
427
100
AcDbEntity
  8
ALL_ASSEMBLY_MEMBERS
100
AcDbLine
 62
7
  6
CONTINUOUS
 10
3.9794507137
 20
5.4548139218
 11
3.9799524783
 21
5.4549161236
  0
LINE
  5
428
100
AcDbEntity
  8
ALL_ASSEMBLY_MEMBERS
100
AcDbLine
 62
7
  6
CONTINUOUS
 10
3.9799524783
 20
5.4549161236
 11
3.9805836816
 21
5.4549677021
  0
LINE
  5
429
100
AcDbEntity
  8
ALL_ASSEMBLY_MEMBERS
100
AcDbLine
 62
7
  6
CONTINUOUS
 10
3.9805836816
 20
5.4549677021
 11
3.9826241792
 21
5.4550720449
  0
SPLINE
  5
42A
100
AcDbEntity
  8
ALL_ASSEMBLY_MEMBERS
100
AcDbSpline
 62
7
  6
CONTINUOUS
 70
0
 71
3
 72
39
 73
35
 74
0
 42
0.0000001
 43
0.0000001
 44
0.0000000001
 40
0.0
 40
0.0
 40
0.0
 40
0.0
 40
0.0163248353
 40
0.0362179753
 40
0.0860658693
 40
0.1480354539
 40
0.2202540546
 40
0.3005362952
 40
0.3864451085
 40
0.4753714996
 40
0.5646226561
 40
0.6514960566
 40
0.6932148372
 40
0.7333619197
 40
0.7716348509
 40
0.8077387714
 40
0.8414041927
 40
0.8723719962
 40
0.9004108185
 40
0.9253060819
 40
0.946869029
 40
0.9563503853
 40
0.9649384535
 40
0.9726167358
 40
0.9793729502
 40
0.9851951652
 40
0.9900716097
 40
0.9939918479
 40
0.9955919033
 40
0.9969516176
 40
0.9980710156
 40
0.9989505614
 40
0.9995918164
 40
1.0
 40
1.0
 40
1.0
 40
1.0
 10
3.9826241792
 20
5.4550720449
 30
0.0
 10
3.9832485847
 20
5.4550976721
 30
0.0
 10
3.9846341899
 20
5.4551468997
 30
0.0
 10
3.9879274647
 20
5.4552437084
 30
0.0
 10
3.9929681959
 20
5.4553593149
 30
0.0
 10
4.0000120369
 20
5.4554919642
 30
0.0
 10
4.0082211049
 20
5.4556253823
 30
0.0
 10
4.0173466831
 20
5.4557594504
 30
0.0
 10
4.0271119127
 20
5.4558937976
 30
0.0
 10
4.03722051
 20
5.45602829
 30
0.0
 10
4.0473660356
 20
5.4561627957
 30
0.0
 10
4.0557045267
 20
5.4562762612
 30
0.0
 10
4.0621633824
 20
5.4563681444
 30
0.0
 10
4.0667619145
 20
5.4564361112
 30
0.0
 10
4.0711454803
 20
5.4565040353
 30
0.0
 10
4.0752808908
 20
5.4565719292
 30
0.0
 10
4.0791366149
 20
5.4566397504
 30
0.0
 10
4.0826835488
 20
5.456707504
 30
0.0
 10
4.0858946885
 20
5.4567751297
 30
0.0
 10
4.0887457151
 20
5.4568426092
 30
0.0
 10
4.0908863539
 20
5.4569008455
 30
0.0
 10
4.0924027844
 20
5.4569481819
 30
0.0
 10
4.0933878506
 20
5.4569821055
 30
0.0
 10
4.0942685297
 20
5.4570159763
 30
0.0
 10
4.0950432439
 20
5.4570497738
 30
0.0
 10
4.0957105942
 20
5.4570834424
 30
0.0
 10
4.0962692215
 20
5.4571169625
 30
0.0
 10
4.096666172
 20
5.4571462441
 30
0.0
 10
4.0969284331
 20
5.4571704396
 30
0.0
 10
4.0970837038
 20
5.457187254
 30
0.0
 10
4.0972111565
 20
5.4572039904
 30
0.0
 10
4.0973110162
 20
5.4572204173
 30
0.0
 10
4.0973828677
 20
5.4572367165
 30
0.0
 10
4.0974214936
 20
5.4572493667
 30
0.0
 10
4.0974350393
 20
5.4572571562
 30
0.0
  0
LINE
  5
42B
100
AcDbEntity
  8
ALL_ASSEMBLY_MEMBERS
100
AcDbLine
 62
7
  6
CONTINUOUS
 10
4.0947716206
 20
5.4606416129
 11
4.0943788313
 21
5.4605659753
  0
SPLINE
  5
42C
100
AcDbEntity
  8
ALL_ASSEMBLY_MEMBERS
100
AcDbSpline
 62
7
  6
CONTINUOUS
 70
0
 71
3
 72
45
 73
41
 74
0
 42
0.0000001
 43
0.0000001
 44
0.0000000001
 40
0.0
 40
0.0
 40
0.0
 40
0.0
 40
0.0034198067
 40
0.0079374427
 40
0.0202247197
 40
0.0367661815
 40
0.0574099673
 40
0.0819781276
 40
0.1102494838
 40
0.1419737217
 40
0.176869265
 40
0.2549033143
 40
0.3415792667
 40
0.4338173052
 40
0.528339805
 40
0.6217878865
 40
0.6670669129
 40
0.7108408361
 40
0.7527208368
 40
0.7923341831
 40
0.8293267486
 40
0.8633723019
 40
0.8941632131
 40
0.9214316505
 40
0.9336646651
 40
0.9449280226
 40
0.9551981548
 40
0.9644515242
 40
0.9726651328
 40
0.9798218343
 40
0.9859083638
 40
0.9909117609
 40
0.9948196472
 40
0.9963601638
 40
0.9976250891
 40
0.9986151477
 40
0.9993323206
 40
0.9995903547
 40
0.9997836143
 40
1.0
 40
1.0
 40
1.0
 40
1.0
 10
4.0943788313
 20
5.4605659753
 30
0.0
 10
4.094251648
 20
5.4605512775
 30
0.0
 10
4.0939556722
 20
5.4605240957
 30
0.0
 10
4.0932003948
 20
5.4604704803
 30
0.0
 10
4.0919534508
 20
5.4604078081
 30
0.0
 10
4.0901027073
 20
5.4603360838
 30
0.0
 10
4.0877919059
 20
5.4602638559
 30
0.0
 10
4.0850418207
 20
5.4601910524
 30
0.0
 10
4.0818767855
 20
5.4601180029
 30
0.0
 10
4.0783250327
 20
5.4600447544
 30
0.0
 10
4.0729104775
 20
5.4599431177
 30
0.0
 10
4.0654387324
 20
5.4598188053
 30
0.0
 10
4.0558202786
 20
5.4596739273
 30
0.0
 10
4.0455844743
 20
5.4595287489
 30
0.0
 10
4.035095115
 20
5.4593834282
 30
0.0
 10
4.0263636424
 20
5.4592611387
 30
0.0
 10
4.0195319433
 20
5.4591619636
 30
0.0
 10
4.0146306669
 20
5.4590883845
 30
0.0
 10
4.0099415248
 20
5.4590148417
 30
0.0
 10
4.0055062929
 20
5.4589413508
 30
0.0
 10
4.0013644064
 20
5.4588679175
 30
0.0
 10
3.997552865
 20
5.4587945973
 30
0.0
 10
3.9941054442
 20
5.4587213792
 30
0.0
 10
3.9914746058
 20
5.4586585047
 30
0.0
 10
3.9895747705
 20
5.4586075333
 30
0.0
 10
3.9883111648
 20
5.4585707282
 30
0.0
 10
3.9871591603
 20
5.4585339647
 30
0.0
 10
3.9861213932
 20
5.4584972546
 30
0.0
 10
3.9852002641
 20
5.45846061
 30
0.0
 10
3.984397796
 20
5.4584240519
 30
0.0
 10
3.9837156435
 20
5.4583876878
 30
0.0
 10
3.9831553091
 20
5.4583515159
 30
0.0
 10
3.9827652734
 20
5.458319893
 30
0.0
 10
3.9825152915
 20
5.4582934467
 30
0.0
 10
3.9823743947
 20
5.4582754338
 30
0.0
 10
3.9822643804
 20
5.4582573878
 30
0.0
 10
3.9821927968
 20
5.458241921
 30
0.0
 10
3.9821505657
 20
5.458228074
 30
0.0
 10
3.9821288359
 20
5.4582186079
 30
0.0
 10
3.9821133855
 20
5.4582073286
 30
0.0
 10
3.9821133454
 20
5.4581992277
 30
0.0
  0
LINE
  5
42D
100
AcDbEntity
  8
ALL_ASSEMBLY_MEMBERS
100
AcDbLine
 62
7
  6
CONTINUOUS
 10
3.981441553
 20
5.4516682345
 11
3.9823612724
 21
5.4517341279
  0
LINE
  5
42E
100
AcDbEntity
  8
ALL_ASSEMBLY_MEMBERS
100
AcDbLine
 62
7
  6
CONTINUOUS
 10
3.9823612724
 20
5.4517341279
 11
4.0940389571
 21
5.4527573425
  0
LINE
  5
42F
100
AcDbEntity
  8
ALL_ASSEMBLY_MEMBERS
100
AcDbLine
 62
7
  6
CONTINUOUS
 10
4.0940389571
 20
5.4527573425
 11
4.0961863709
 21
5.4528082986
  0
SPLINE
  5
430
100
AcDbEntity
  8
ALL_ASSEMBLY_MEMBERS
100
AcDbSpline
 62
7
  6
CONTINUOUS
 70
0
 71
3
 72
24
 73
20
 74
0
 42
0.0000001
 43
0.0000001
 44
0.0000000001
 40
0.0
 40
0.0
 40
0.0
 40
0.0
 40
0.130670493
 40
0.1956464488
 40
0.2601759478
 40
0.3241686749
 40
0.3875750331
 40
0.4503903036
 40
0.5126449009
 40
0.5744035384
 40
0.6357573186
 40
0.6967965757
 40
0.7576124249
 40
0.8182864975
 40
0.8486028422
 40
0.8789053352
 40
0.9091927907
 40
0.9394667286
 40
1.0
 40
1.0
 40
1.0
 40
1.0
 10
4.0379483839
 20
3.4755856806
 30
0.0
 10
4.0308676746
 20
3.4756110266
 30
0.0
 10
4.0202447616
 20
3.4764512845
 30
0.0
 10
4.0064028997
 20
3.4791796672
 30
0.0
 10
3.9962955553
 20
3.4820142415
 30
0.0
 10
3.9865316705
 20
3.4856298064
 30
0.0
 10
3.977189629
 20
3.4900150083
 30
0.0
 10
3.9683489515
 20
3.4951560988
 30
0.0
 10
3.9600894034
 20
3.5010361528
 30
0.0
 10
3.9524933033
 20
3.5076333525
 30
0.0
 10
3.9456469264
 20
3.5149175421
 30
0.0
 10
3.9396393908
 20
3.5228458069
 30
0.0
 10
3.9345614536
 20
3.5313574501
 30
0.0
 10
3.9311756414
 20
3.5388768028
 30
0.0
 10
3.9290171199
 20
3.5450883054
 30
0.0
 10
3.9276807165
 20
3.5498327149
 30
0.0
 10
3.9266327068
 20
3.5546469352
 30
0.0
 10
3.9256294758
 20
3.5611344118
 30
0.0
 10
3.9253257137
 20
3.5660620517
 30
0.0
 10
3.9253257137
 20
3.5693422202
 30
0.0
  0
SPLINE
  5
431
100
AcDbEntity
  8
ALL_ASSEMBLY_MEMBERS
100
AcDbSpline
 62
7
  6
CONTINUOUS
 70
0
 71
3
 72
12
 73
8
 74
0
 42
0.0000001
 43
0.0000001
 44
0.0000000001
 40
0.0
 40
0.0
 40
0.0
 40
0.0
 40
0.2470010997
 40
0.4964996982
 40
0.621975668
 40
0.7478078161
 40
1.0
 40
1.0
 40
1.0
 40
1.0
 10
4.0892775439
 20
3.4853355482
 30
0.0
 10
4.0852709835
 20
3.4836998768
 30
0.0
 10
4.0770391909
 20
3.4808335148
 30
0.0
 10
4.0664243829
 20
3.478290436
 30
0.0
 10
4.0577627107
 20
3.4768692214
 30
0.0
 10
4.0489967783
 20
3.4758589383
 30
0.0
 10
4.0423668858
 20
3.4755698641
 30
0.0
 10
4.0379483839
 20
3.4755856806
 30
0.0
  0
SPLINE
  5
432
100
AcDbEntity
  8
ALL_ASSEMBLY_MEMBERS
100
AcDbSpline
 62
7
  6
CONTINUOUS
 70
0
 71
3
 72
16
 73
12
 74
0
 42
0.0000001
 43
0.0000001
 44
0.0000000001
 40
0.0
 40
0.0
 40
0.0
 40
0.0
 40
0.1411366819
 40
0.2778457412
 40
0.4096565616
 40
0.5364794926
 40
0.6584095838
 40
0.7758121885
 40
0.8893417216
 40
0.9449720316
 40
1.0
 40
1.0
 40
1.0
 40
1.0
 10
4.0816531182
 20
3.4637612673
 30
0.0
 10
4.0843970527
 20
3.4648814739
 30
0.0
 10
4.0897044385
 20
3.467328663
 30
0.0
 10
4.0971492359
 20
3.4716657249
 30
0.0
 10
4.103870185
 20
3.476566154
 30
0.0
 10
4.1097820828
 20
3.4819694153
 30
0.0
 10
4.1148114857
 20
3.4878119257
 30
0.0
 10
4.1188928905
 20
3.4940223573
 30
0.0
 10
4.1214762919
 20
3.4994827099
 30
0.0
 10
4.1230041507
 20
3.5039394739
 30
0.0
 10
4.1235896158
 20
3.5061911554
 30
0.0
 10
4.1238368835
 20
3.5073199453
 30
0.0
  0
SPLINE
  5
433
100
AcDbEntity
  8
ALL_ASSEMBLY_MEMBERS
100
AcDbSpline
 62
7
  6
CONTINUOUS
 70
0
 71
3
 72
20
 73
16
 74
0
 42
0.0000001
 43
0.0000001
 44
0.0000000001
 40
0.0
 40
0.0
 40
0.0
 40
0.0
 40
0.0615817219
 40
0.1231372657
 40
0.1847287821
 40
0.2463595373
 40
0.3080373558
 40
0.3697917993
 40
0.4316565847
 40
0.4936690389
 40
0.5558714204
 40
0.6183124003
 40
0.7440122275
 40
0.8711828922
 40
1.0
 40
1.0
 40
1.0
 40
1.0
 10
4.1515757137
 20
3.5693422202
 30
0.0
 10
4.1515757137
 20
3.5670633869
 30
0.0
 10
4.1513807798
 20
3.5625043048
 30
0.0
 10
4.1505075039
 20
3.5557165113
 30
0.0
 10
4.1490623355
 20
3.5490248855
 30
0.0
 10
4.1470621391
 20
3.5424733138
 30
0.0
 10
4.1445256162
 20
3.5361038763
 30
0.0
 10
4.141478882
 20
3.5299528324
 30
0.0
 10
4.1379485638
 20
3.5240519207
 30
0.0
 10
4.1339647867
 20
3.5184273613
 30
0.0
 10
4.1295566773
 20
3.5131011738
 30
0.0
 10
4.1231426543
 20
3.5064074681
 30
0.0
 10
4.1141934297
 20
3.4988577103
 30
0.0
 10
4.1022636107
 20
3.4912300975
 30
0.0
 10
4.0936908178
 20
3.4871372597
 30
0.0
 10
4.0892775439
 20
3.4853355482
 30
0.0
  0
SPLINE
  5
434
100
AcDbEntity
  8
ALL_ASSEMBLY_MEMBERS
100
AcDbSpline
 62
7
  6
CONTINUOUS
 70
0
 71
3
 72
13
 73
9
 74
0
 42
0.0000001
 43
0.0000001
 44
0.0000000001
 40
0.0
 40
0.0
 40
0.0
 40
0.0
 40
0.121177196
 40
0.2427479151
 40
0.3650954834
 40
0.4885861813
 40
0.7401609862
 40
1.0
 40
1.0
 40
1.0
 40
1.0
 10
4.1515755705
 20
3.6262907524
 30
0.0
 10
4.1515755194
 20
3.6278131115
 30
0.0
 10
4.1514521484
 20
3.6308642152
 30
0.0
 10
4.1508973486
 20
3.6354219424
 30
0.0
 10
4.1499756722
 20
3.6399499064
 30
0.0
 10
4.148251292
 20
3.6459620687
 30
0.0
 10
4.1451665468
 20
3.6533522068
 30
0.0
 10
4.1418452735
 20
3.6588800388
 30
0.0
 10
4.139982618
 20
3.6615608378
 30
0.0
  0
SPLINE
  5
435
100
AcDbEntity
  8
ALL_ASSEMBLY_MEMBERS
100
AcDbSpline
 62
7
  6
CONTINUOUS
 70
0
 71
3
 72
14
 73
10
 74
0
 42
0.0000001
 43
0.0000001
 44
0.0000000001
 40
0.0
 40
0.0
 40
0.0
 40
0.0
 40
0.1217170705
 40
0.2437655366
 40
0.3664726189
 40
0.4901514553
 40
0.6150969365
 40
0.7415848583
 40
1.0
 40
1.0
 40
1.0
 40
1.0
 10
3.9253258569
 20
3.6262830817
 30
0.0
 10
3.9253258101
 20
3.6276796744
 30
0.0
 10
3.9254293776
 20
3.6304777634
 30
0.0
 10
3.9258950564
 20
3.6346604821
 30
0.0
 10
3.9266706409
 20
3.6388200597
 30
0.0
 10
3.927752993
 20
3.6429446682
 30
0.0
 10
3.9291392616
 20
3.6470233924
 30
0.0
 10
3.9314033891
 20
3.652421155
 30
0.0
 10
3.9335260261
 20
3.656313241
 30
0.0
 10
3.9351058838
 20
3.6588223728
 30
0.0
  0
SPLINE
  5
436
100
AcDbEntity
  8
ALL_ASSEMBLY_MEMBERS
100
AcDbSpline
 62
7
  6
CONTINUOUS
 70
0
 71
3
 72
14
 73
10
 74
0
 42
0.0000001
 43
0.0000001
 44
0.0000000001
 40
0.0
 40
0.0
 40
0.0
 40
0.0
 40
0.1349587468
 40
0.2673882406
 40
0.5234952212
 40
0.6471167737
 40
0.7677091868
 40
0.8853029146
 40
1.0
 40
1.0
 40
1.0
 40
1.0
 10
4.0950132137
 20
3.5570122853
 30
0.0
 10
4.0973197649
 20
3.5579539308
 30
0.0
 10
4.1018377457
 20
3.559951111
 30
0.0
 10
4.1104313429
 20
3.5643791989
 30
0.0
 10
4.1184280967
 20
3.5694834394
 30
0.0
 10
4.12566351
 20
3.5752337907
 30
0.0
 10
4.130586092
 20
3.5797573469
 30
0.0
 10
4.1350413642
 20
3.5845181745
 30
0.0
 10
4.1377172948
 20
3.5878761248
 30
0.0
 10
4.138966013
 20
3.5895860297
 30
0.0
  0
SPLINE
  5
437
100
AcDbEntity
  8
ALL_ASSEMBLY_MEMBERS
100
AcDbSpline
 62
7
  6
CONTINUOUS
 70
0
 71
3
 72
15
 73
11
 74
0
 42
0.0000001
 43
0.0000001
 44
0.0000000001
 40
0.0
 40
0.0
 40
0.0
 40
0.0
 40
0.1314425879
 40
0.2604598297
 40
0.3872965435
 40
0.5122350593
 40
0.635601332
 40
0.7577563037
 40
0.8790862882
 40
1.0
 40
1.0
 40
1.0
 40
1.0
 10
4.1392481815
 20
3.5899750127
 30
0.0
 10
4.1402465923
 20
3.5913606753
 30
0.0
 10
4.1421318761
 20
3.594175156
 30
0.0
 10
4.1446269331
 20
3.5985503156
 30
0.0
 10
4.1467541822
 20
3.6030227476
 30
0.0
 10
4.1485051782
 20
3.6075770665
 30
0.0
 10
4.1498733853
 20
3.6121973963
 30
0.0
 10
4.1508547626
 20
3.6168674133
 30
0.0
 10
4.1514444753
 20
3.6215705281
 30
0.0
 10
4.1515756232
 20
3.6247196696
 30
0.0
 10
4.1515755705
 20
3.6262907524
 30
0.0
  0
SPLINE
  5
438
100
AcDbEntity
  8
ALL_ASSEMBLY_MEMBERS
100
AcDbSpline
 62
9
  6
CONTINUOUS
 70
0
 71
3
 72
9
 73
5
 74
0
 42
0.0000001
 43
0.0000001
 44
0.0000000001
 40
0.0
 40
0.0
 40
0.0
 40
0.0
 40
0.4948732273
 40
1.0
 40
1.0
 40
1.0
 40
1.0
 10
4.0816531182
 20
3.4637612673
 30
0.0
 10
4.0792132418
 20
3.462765192
 30
0.0
 10
4.0742016377
 20
3.4609470163
 30
0.0
 10
4.0690691891
 20
3.4595070018
 30
0.0
 10
4.0664548366
 20
3.4588736724
 30
0.0
  0
SPLINE
  5
439
100
AcDbEntity
  8
ALL_ASSEMBLY_MEMBERS
100
AcDbSpline
 62
9
  6
CONTINUOUS
 70
0
 71
3
 72
22
 73
18
 74
0
 42
0.0000001
 43
0.0000001
 44
0.0000000001
 40
0.0
 40
0.0
 40
0.0
 40
0.0
 40
0.1373444219
 40
0.2069065921
 40
0.2764766026
 40
0.3456425929
 40
0.4140048474
 40
0.4811868681
 40
0.5468501369
 40
0.6107081995
 40
0.6725377842
 40
0.7321951716
 40
0.7896305114
 40
0.8448980765
 40
0.8981690255
 40
0.9497348394
 40
1.0
 40
1.0
 40
1.0
 40
1.0
 10
4.0664548366
 20
3.4588736724
 30
0.0
 10
4.0604263009
 20
3.4574132536
 30
0.0
 10
4.0511436894
 20
3.4559573771
 30
0.0
 10
4.0386595713
 20
3.4554548655
 30
0.0
 10
4.0292482477
 20
3.4558014485
 30
0.0
 10
4.019946901
 20
3.4568694278
 30
0.0
 10
4.0108636812
 20
3.4586456732
 30
0.0
 10
4.0021063134
 20
3.4611101332
 30
0.0
 10
3.9937780447
 20
3.4642339427
 30
0.0
 10
3.9859769677
 20
3.46798045
 30
0.0
 10
3.9787954768
 20
3.4723070098
 30
0.0
 10
3.9723185897
 20
3.4771636723
 30
0.0
 10
3.9666232149
 20
3.4824945578
 30
0.0
 10
3.9617787547
 20
3.4882391112
 30
0.0
 10
3.9578449407
 20
3.4943315921
 30
0.0
 10
3.9548721032
 20
3.5006986597
 30
0.0
 10
3.9535448288
 20
3.5051229287
 30
0.0
 10
3.9530599531
 20
3.5073406756
 30
0.0
  0
SPLINE
  5
43A
100
AcDbEntity
  8
ALL_ASSEMBLY_MEMBERS
100
AcDbSpline
 62
9
  6
CONTINUOUS
 70
0
 71
3
 72
17
 73
13
 74
0
 42
0.0000001
 43
0.0000001
 44
0.0000000001
 40
0.0
 40
0.0
 40
0.0
 40
0.0
 40
0.1384175193
 40
0.2059498624
 40
0.2723333374
 40
0.4017332048
 40
0.5270216762
 40
0.6487084518
 40
0.7084433348
 40
0.7675547619
 40
0.8843030862
 40
1.0
 40
1.0
 40
1.0
 40
1.0
 10
4.1198076955
 20
3.5137620658
 30
0.0
 10
4.1222814052
 20
3.5155725462
 30
0.0
 10
4.1258440065
 20
3.5184349646
 30
0.0
 10
4.1302557311
 20
3.5225503437
 30
0.0
 10
4.134314502
 20
3.5267405451
 30
0.0
 10
4.1388592263
 20
3.5322287
 30
0.0
 10
4.1434350905
 20
3.5392169826
 30
0.0
 10
4.1464618168
 20
3.545318861
 30
0.0
 10
4.148367287
 20
3.5502968191
 30
0.0
 10
4.1499165188
 20
3.5552824382
 30
0.0
 10
4.1512242569
 20
3.5616256927
 30
0.0
 10
4.1515755783
 20
3.5667799369
 30
0.0
 10
4.1515756289
 20
3.5693422202
 30
0.0
  0
SPLINE
  5
43B
100
AcDbEntity
  8
ALL_ASSEMBLY_MEMBERS
100
AcDbSpline
 62
7
  6
CONTINUOUS
 70
0
 71
3
 72
21
 73
17
 74
0
 42
0.0000001
 43
0.0000001
 44
0.0000000001
 40
0.0
 40
0.0
 40
0.0
 40
0.0
 40
0.0239882848
 40
0.0492406124
 40
0.1032790133
 40
0.1319503086
 40
0.1615464261
 40
0.2229674827
 40
0.2865943839
 40
0.351600849
 40
0.4173768023
 40
0.4834957242
 40
0.6155489643
 40
0.7462021975
 40
0.8745930642
 40
1.0
 40
1.0
 40
1.0
 40
1.0
 10
4.1198076955
 20
3.5137620658
 30
0.0
 10
4.1198076955
 20
3.513455678
 30
0.0
 10
4.1197682402
 20
3.5128263249
 30
0.0
 10
4.119545984
 20
3.5115241712
 30
0.0
 10
4.1191167868
 20
3.5102052607
 30
0.0
 10
4.1185280951
 20
3.508896707
 30
0.0
 10
4.1178115097
 20
3.5075451511
 30
0.0
 10
4.1167356195
 20
3.5058841403
 30
0.0
 10
4.1152357538
 20
3.5039722847
 30
0.0
 10
4.1135598875
 20
3.5021373818
 30
0.0
 10
4.1117498893
 20
3.5003892876
 30
0.0
 10
4.1091996691
 20
3.4981823426
 30
0.0
 10
4.1058305397
 20
3.4956648481
 30
0.0
 10
4.1016007668
 20
3.4929992305
 30
0.0
 10
4.0972673819
 20
3.4906818315
 30
0.0
 10
4.0943086431
 20
3.4893501682
 30
0.0
 10
4.0928257137
 20
3.4887447648
 30
0.0
  0
SPLINE
  5
43C
100
AcDbEntity
  8
ALL_ASSEMBLY_MEMBERS
100
AcDbSpline
 62
7
  6
CONTINUOUS
 70
0
 71
3
 72
24
 73
20
 74
0
 42
0.0000001
 43
0.0000001
 44
0.0000000001
 40
0.0
 40
0.0
 40
0.0
 40
0.0
 40
0.1500517233
 40
0.2948130778
 40
0.3648771512
 40
0.4331527691
 40
0.4994271941
 40
0.5634661071
 40
0.6250155818
 40
0.6838341744
 40
0.7397636341
 40
0.7928712144
 40
0.8185446729
 40
0.8437815296
 40
0.868772396
 40
0.8937708014
 40
0.9190864069
 40
0.9450528864
 40
1.0
 40
1.0
 40
1.0
 40
1.0
 10
4.0928257137
 20
3.4887447648
 30
0.0
 10
4.0913842036
 20
3.4881562708
 30
0.0
 10
4.08851121
 20
3.4870969586
 30
0.0
 10
4.0848649458
 20
3.4860600425
 30
0.0
 10
4.0819901659
 20
3.4854508565
 30
0.0
 10
4.0798924558
 20
3.4851163221
 30
0.0
 10
4.077840867
 20
3.4849096934
 30
0.0
 10
4.0758493097
 20
3.4848439356
 30
0.0
 10
4.0739355131
 20
3.4849348251
 30
0.0
 10
4.0721219234
 20
3.4852015275
 30
0.0
 10
4.070438002
 20
3.4856664385
 30
0.0
 10
4.0691581955
 20
3.4862495476
 30
0.0
 10
4.0682543954
 20
3.4868431201
 30
0.0
 10
4.0676480699
 20
3.4873487518
 30
0.0
 10
4.0671142062
 20
3.4879212679
 30
0.0
 10
4.0666620144
 20
3.4885615965
 30
0.0
 10
4.0663001482
 20
3.4892687474
 30
0.0
 10
4.065942135
 20
3.4903144383
 30
0.0
 10
4.0658437319
 20
3.4911612122
 30
0.0
 10
4.0658437319
 20
3.4917313699
 30
0.0
  0
SPLINE
  5
43D
100
AcDbEntity
  8
ALL_ASSEMBLY_MEMBERS
100
AcDbSpline
 62
7
  6
CONTINUOUS
 70
0
 71
3
 72
23
 73
19
 74
0
 42
0.0000001
 43
0.0000001
 44
0.0000000001
 40
0.0
 40
0.0
 40
0.0
 40
0.0
 40
0.0636237114
 40
0.128636486
 40
0.1946881064
 40
0.2614658683
 40
0.3286114687
 40
0.3957558876
 40
0.4625340764
 40
0.528589707
 40
0.5935871938
 40
0.6572211088
 40
0.7192285719
 40
0.779399629
 40
0.8375875547
 40
0.8937229445
 40
0.9478230267
 40
1.0
 40
1.0
 40
1.0
 40
1.0
 10
4.0950132137
 20
3.5570122853
 30
0.0
 10
4.091552895
 20
3.5555996161
 30
0.0
 10
4.0844312905
 20
3.553042022
 30
0.0
 10
4.0733808472
 20
3.5500507556
 30
0.0
 10
4.0619492908
 20
3.5478911754
 30
0.0
 10
4.0502634885
 20
3.5465863618
 30
0.0
 10
4.0384490462
 20
3.5461497362
 30
0.0
 10
4.0266345831
 20
3.5465863541
 30
0.0
 10
4.014948602
 20
3.5478918548
 30
0.0
 10
4.0035179541
 20
3.5500516554
 30
0.0
 10
3.9924667601
 20
3.5530425472
 30
0.0
 10
3.9819152021
 20
3.5568330332
 30
0.0
 10
3.9719776655
 20
3.5613819904
 30
0.0
 10
3.962762004
 20
3.5666409942
 30
0.0
 10
3.954368989
 20
3.5725546997
 30
0.0
 10
3.9468898247
 20
3.579060574
 30
0.0
 10
3.9404079934
 20
3.5860881538
 30
0.0
 10
3.9367369115
 20
3.5911611644
 30
0.0
 10
3.9351038078
 20
3.5937550061
 30
0.0
  0
SPLINE
  5
43E
100
AcDbEntity
  8
ALL_ASSEMBLY_MEMBERS
100
AcDbSpline
 62
7
  6
CONTINUOUS
 70
0
 71
3
 72
15
 73
11
 74
0
 42
0.0000001
 43
0.0000001
 44
0.0000000001
 40
0.0
 40
0.0
 40
0.0
 40
0.0
 40
0.1302613371
 40
0.2585164986
 40
0.3849860266
 40
0.5099156176
 40
0.6335769455
 40
0.756267678
 40
0.8783001665
 40
1.0
 40
1.0
 40
1.0
 40
1.0
 10
3.9351038078
 20
3.5937550061
 30
0.0
 10
3.9343076299
 20
3.5950195674
 30
0.0
 10
3.9328060503
 20
3.5975797855
 30
0.0
 10
3.9308254645
 20
3.6015307527
 30
0.0
 10
3.9291396198
 20
3.6055502725
 30
0.0
 10
3.9277533566
 20
3.6096271787
 30
0.0
 10
3.9266714068
 20
3.613750494
 30
0.0
 10
3.9258960846
 20
3.6179086253
 30
0.0
 10
3.9254295902
 20
3.6220898239
 30
0.0
 10
3.9253259037
 20
3.6248869698
 30
0.0
 10
3.9253258569
 20
3.6262830817
 30
0.0
  0
SPLINE
  5
43F
100
AcDbEntity
  8
ALL_ASSEMBLY_MEMBERS
100
AcDbSpline
 62
9
  6
CONTINUOUS
 70
0
 71
3
 72
26
 73
22
 74
0
 42
0.0000001
 43
0.0000001
 44
0.0000000001
 40
0.0
 40
0.0
 40
0.0
 40
0.0
 40
0.0251821038
 40
0.050444888
 40
0.0758670659
 40
0.1015241193
 40
0.1274863212
 40
0.1538176193
 40
0.2077740373
 40
0.2637853071
 40
0.3220702951
 40
0.3827134953
 40
0.4456758983
 40
0.5108100352
 40
0.5778764527
 40
0.6465602926
 40
0.7164880961
 40
0.7872452487
 40
0.8583836286
 40
0.929458528
 40
1.0
 40
1.0
 40
1.0
 40
1.0
 10
3.9253257986
 20
3.5693421983
 30
0.0
 10
3.9253257693
 20
3.5678291404
 30
0.0
 10
3.9254474987
 20
3.5647967654
 30
0.0
 10
3.9259951353
 20
3.5602667091
 30
0.0
 10
3.9269051585
 20
3.5557659931
 30
0.0
 10
3.928175275
 20
3.5513098993
 30
0.0
 10
3.9298007588
 20
3.5469124835
 30
0.0
 10
3.932455315
 20
3.5411011208
 30
0.0
 10
3.9366651627
 20
3.5340421903
 30
0.0
 10
3.9429797955
 20
3.5261125893
 30
0.0
 10
3.9505149996
 20
3.518748044
 30
0.0
 10
3.9591713802
 20
3.5120406435
 30
0.0
 10
3.9688374871
 20
3.5060724847
 30
0.0
 10
3.979389734
 20
3.5009174348
 30
0.0
 10
3.990693746
 20
3.4966395263
 30
0.0
 10
4.0026056816
 20
3.4932922532
 30
0.0
 10
4.0149740246
 20
3.4909173987
 30
0.0
 10
4.027641095
 20
3.4895450933
 30
0.0
 10
4.0404463641
 20
3.4891920521
 30
0.0
 10
4.0532250505
 20
3.4898634399
 30
0.0
 10
4.0616697708
 20
3.4909947629
 30
0.0
 10
4.0658437319
 20
3.4917313699
 30
0.0
  0
SPLINE
  5
440
100
AcDbEntity
  8
ALL_ASSEMBLY_MEMBERS
100
AcDbSpline
 62
7
  6
CONTINUOUS
 70
0
 71
3
 72
15
 73
11
 74
0
 42
0.0000001
 43
0.0000001
 44
0.0000000001
 40
0.0
 40
0.0
 40
0.0
 40
0.0
 40
0.1361984658
 40
0.2684333681
 40
0.3969293307
 40
0.522041984
 40
0.6442556062
 40
0.7641713644
 40
0.8824938196
 40
1.0
 40
1.0
 40
1.0
 40
1.0
 10
4.1510733531
 20
3.5604071784
 30
0.0
 10
4.1535321803
 20
3.5582152586
 30
0.0
 10
4.1581990903
 20
3.5536880792
 30
0.0
 10
4.1644650556
 20
3.5463975926
 30
0.0
 10
4.1698483724
 20
3.5387563919
 30
0.0
 10
4.1743094302
 20
3.5308181859
 30
0.0
 10
4.1778155423
 20
3.5226383856
 30
0.0
 10
4.1803390453
 20
3.5142740787
 30
0.0
 10
4.1818616398
 20
3.5057871417
 30
0.0
 10
4.1822006875
 20
3.5000778315
 30
0.0
 10
4.182200608
 20
3.497235922
 30
0.0
  0
SPLINE
  5
441
100
AcDbEntity
  8
ALL_ASSEMBLY_MEMBERS
100
AcDbSpline
 62
7
  6
CONTINUOUS
 70
0
 71
3
 72
22
 73
18
 74
0
 42
0.0000001
 43
0.0000001
 44
0.0000000001
 40
0.0
 40
0.0
 40
0.0
 40
0.0
 40
0.0618406289
 40
0.1248575756
 40
0.1888067333
 40
0.2534816584
 40
0.38399113
 40
0.4493870747
 40
0.5145216474
 40
0.5791477979
 40
0.6430294709
 40
0.7059452578
 40
0.7676938055
 40
0.8280999006
 40
0.8870179744
 40
0.9443401778
 40
1.0
 40
1.0
 40
1.0
 40
1.0
 10
4.1103257137
 20
3.2430412983
 30
0.0
 10
4.1066429399
 20
3.2415378121
 30
0.0
 10
4.0990959999
 20
3.2387682507
 30
0.0
 10
4.087428653
 20
3.2353660883
 30
0.0
 10
4.0753836197
 20
3.2327002662
 30
0.0
 10
4.0589030632
 20
3.2301478228
 30
0.0
 10
4.0421186207
 20
3.229152804
 30
0.0
 10
4.0253289816
 20
3.2297166634
 30
0.0
 10
4.0128245385
 20
3.2309186846
 30
0.0
 10
4.0005174319
 20
3.2328909958
 30
0.0
 10
3.9885010119
 20
3.2356177157
 30
0.0
 10
3.9768677817
 20
3.2390787683
 30
0.0
 10
3.9657068253
 20
3.2432476918
 30
0.0
 10
3.9551036056
 20
3.2480924097
 30
0.0
 10
3.9451395779
 20
3.2535773191
 30
0.0
 10
3.9358916661
 20
3.2596593824
 30
0.0
 10
3.9301644965
 20
3.2641505513
 30
0.0
 10
3.927449039
 20
3.2664839303
 30
0.0
  0
SPLINE
  5
442
100
AcDbEntity
  8
ALL_ASSEMBLY_MEMBERS
100
AcDbSpline
 62
7
  6
CONTINUOUS
 70
0
 71
3
 72
15
 73
11
 74
0
 42
0.0000001
 43
0.0000001
 44
0.0000000001
 40
0.0
 40
0.0
 40
0.0
 40
0.0
 40
0.1366221391
 40
0.2691578319
 40
0.3978192084
 40
0.5229610085
 40
0.6450755715
 40
0.7647841707
 40
0.8828209569
 40
1.0
 40
1.0
 40
1.0
 40
1.0
 10
3.927449039
 20
3.2664839303
 30
0.0
 10
3.92486864
 20
3.2687012543
 30
0.0
 10
3.9199685735
 20
3.2732898339
 30
0.0
 10
3.9133806869
 20
3.280707616
 30
0.0
 10
3.907716139
 20
3.2885042689
 30
0.0
 10
3.9030183677
 20
3.2966218273
 30
0.0
 10
3.8993242295
 20
3.3050009842
 30
0.0
 10
3.8966639772
 20
3.3135799167
 30
0.0
 10
3.895058378
 20
3.3222918414
 30
0.0
 10
3.8947007631
 20
3.3281554709
 30
0.0
 10
3.894700837
 20
3.3310734963
 30
0.0
  0
SPLINE
  5
443
100
AcDbEntity
  8
ALL_ASSEMBLY_MEMBERS
100
AcDbSpline
 62
7
  6
CONTINUOUS
 70
0
 71
3
 72
14
 73
10
 74
0
 42
0.0000001
 43
0.0000001
 44
0.0000000001
 40
0.0
 40
0.0
 40
0.0
 40
0.0
 40
0.2608679236
 40
0.3881255511
 40
0.5134506395
 40
0.6370540139
 40
0.7591700428
 40
0.8800575348
 40
1.0
 40
1.0
 40
1.0
 40
1.0
 10
4.1387659897
 20
3.5255225759
 30
0.0
 10
4.14071251
 20
3.523121164
 30
0.0
 10
4.1434067337
 20
3.5193751514
 30
0.0
 10
4.1464766511
 20
3.5141186227
 30
0.0
 10
4.1484716662
 20
3.5101283849
 30
0.0
 10
4.1501724557
 20
3.5060703015
 30
0.0
 10
4.1515745946
 20
3.5019548252
 30
0.0
 10
4.1526732761
 20
3.4977931561
 30
0.0
 10
4.1532036577
 20
3.4949861301
 30
0.0
 10
4.153416758
 20
3.4935809021
 30
0.0
  0
LINE
  5
444
100
AcDbEntity
  8
ALL_ASSEMBLY_MEMBERS
100
AcDbLine
 62
7
  6
CONTINUOUS
 10
4.153416758
 20
3.4935809021
 11
4.1534427427
 21
3.4934078172
  0
SPLINE
  5
445
100
AcDbEntity
  8
ALL_ASSEMBLY_MEMBERS
100
AcDbSpline
 62
7
  6
CONTINUOUS
 70
0
 71
3
 72
13
 73
9
 74
0
 42
0.0000001
 43
0.0000001
 44
0.0000000001
 40
0.0
 40
0.0
 40
0.0
 40
0.0
 40
0.2609067146
 40
0.5133903236
 40
0.6370101718
 40
0.7591402233
 40
0.8800432411
 40
1.0
 40
1.0
 40
1.0
 40
1.0
 10
3.9381409879
 20
3.5255292486
 30
0.0
 10
3.9361937418
 20
3.523127386
 30
0.0
 10
3.9326298042
 20
3.5181752727
 30
0.0
 10
3.9290142603
 20
3.5115223775
 30
0.0
 10
3.9267297886
 20
3.5060732764
 30
0.0
 10
3.9253276288
 20
3.5019566172
 30
0.0
 10
3.9242283583
 20
3.4977941078
 30
0.0
 10
3.9236976274
 20
3.4949864443
 30
0.0
 10
3.9234845153
 20
3.4935808852
 30
0.0
  0
LINE
  5
446
100
AcDbEntity
  8
ALL_ASSEMBLY_MEMBERS
100
AcDbLine
 62
7
  6
CONTINUOUS
 10
3.9234845153
 20
3.4935808852
 11
3.9234591195
 21
3.4934117266
  0
SPLINE
  5
447
100
AcDbEntity
  8
ALL_ASSEMBLY_MEMBERS
100
AcDbSpline
 62
7
  6
CONTINUOUS
 70
0
 71
3
 72
32
 73
28
 74
0
 42
0.0000001
 43
0.0000001
 44
0.0000000001
 40
0.0
 40
0.0
 40
0.0
 40
0.0
 40
0.0331203839
 40
0.0667411691
 40
0.13515259
 40
0.2047244808
 40
0.2748957157
 40
0.3450659009
 40
0.4146400102
 40
0.4830471472
 40
0.5166590267
 40
0.5497910966
 40
0.5823907808
 40
0.6144134529
 40
0.6458208199
 40
0.676584413
 40
0.7360807107
 40
0.7648377993
 40
0.7929383678
 40
0.8204099582
 40
0.8472917353
 40
0.8736373043
 40
0.8995119036
 40
0.9249934166
 40
0.9501698398
 40
0.9751378003
 40
1.0
 40
1.0
 40
1.0
 40
1.0
 10
4.0962632137
 20
3.4228988327
 30
0.0
 10
4.0940625117
 20
3.4220003999
 30
0.0
 10
4.0895785991
 20
3.4203080879
 30
0.0
 10
4.080337329
 20
3.4173502075
 30
0.0
 10
4.0683375976
 20
3.4144828845
 30
0.0
 10
4.0535216733
 20
3.4124084081
 30
0.0
 10
4.0384507503
 20
3.4117127216
 30
0.0
 10
4.0233796677
 20
3.4124083276
 30
0.0
 10
4.0085639589
 20
3.4144829993
 30
0.0
 10
3.9965650816
 20
3.4173499675
 30
0.0
 10
3.9873236144
 20
3.4203075973
 30
0.0
 10
3.980650022
 20
3.4228265685
 30
0.0
 10
3.9742234287
 20
3.4256492163
 30
0.0
 10
3.968070785
 20
3.4287624599
 30
0.0
 10
3.962218304
 20
3.4321544214
 30
0.0
 10
3.9549320393
 20
3.436972887
 30
0.0
 10
3.9482449025
 20
3.4423330859
 30
0.0
 10
3.9422921
 20
3.4481973276
 30
0.0
 10
3.9382881295
 20
3.4527431628
 30
0.0
 10
3.9347120433
 20
3.4574651025
 30
0.0
 10
3.9315802468
 20
3.4623442445
 30
0.0
 10
3.9289056414
 20
3.467359097
 30
0.0
 10
3.926700762
 20
3.4724887112
 30
0.0
 10
3.9249753309
 20
3.47771081
 30
0.0
 10
3.9237368802
 20
3.4830029437
 30
0.0
 10
3.9229919669
 20
3.4883415946
 30
0.0
 10
3.9228257135
 20
3.4919200506
 30
0.0
 10
3.9228257137
 20
3.4937043956
 30
0.0
  0
SPLINE
  5
448
100
AcDbEntity
  8
ALL_ASSEMBLY_MEMBERS
100
AcDbSpline
 62
7
  6
CONTINUOUS
 70
0
 71
3
 72
16
 73
12
 74
0
 42
0.0000001
 43
0.0000001
 44
0.0000000001
 40
0.0
 40
0.0
 40
0.0
 40
0.0
 40
0.058724589
 40
0.1175521707
 40
0.23586912
 40
0.3557784549
 40
0.4779841318
 40
0.6030894167
 40
0.7315660628
 40
0.8637835962
 40
1.0
 40
1.0
 40
1.0
 40
1.0
 10
3.8947008193
 20
3.4972439369
 30
0.0
 10
3.894700859
 20
3.498663572
 30
0.0
 10
3.8947851941
 20
3.5015061428
 30
0.0
 10
3.8952917347
 20
3.5071882137
 30
0.0
 10
3.8965620902
 20
3.5142743277
 30
0.0
 10
3.8990847035
 20
3.522633549
 30
0.0
 10
3.9025877725
 20
3.5308099666
 30
0.0
 10
3.9070458183
 20
3.5387442192
 30
0.0
 10
3.9124245515
 20
3.5463822236
 30
0.0
 10
3.9186855972
 20
3.5536707451
 30
0.0
 10
3.9233498555
 20
3.5581965331
 30
0.0
 10
3.9258073935
 20
3.5603883536
 30
0.0
  0
SPLINE
  5
449
100
AcDbEntity
  8
ALL_ASSEMBLY_MEMBERS
100
AcDbSpline
 62
7
  6
CONTINUOUS
 70
0
 71
3
 72
16
 73
12
 74
0
 42
0.0000001
 43
0.0000001
 44
0.0000000001
 40
0.0
 40
0.0
 40
0.0
 40
0.0
 40
0.0585591372
 40
0.1172265174
 40
0.2352571314
 40
0.3549601651
 40
0.4770678362
 40
0.6022034379
 40
0.7308569073
 40
0.8633835293
 40
1.0
 40
1.0
 40
1.0
 40
1.0
 10
4.1822005903
 20
3.3310661755
 30
0.0
 10
4.1822005534
 20
3.3296080622
 30
0.0
 10
4.1821116057
 20
3.3266882622
 30
0.0
 10
4.181577232
 20
3.3208519926
 30
0.0
 10
4.1802366346
 20
3.3135746468
 30
0.0
 10
4.1775756929
 20
3.3049981839
 30
0.0
 10
4.1738823014
 20
3.2966199869
 30
0.0
 10
4.1691849628
 20
3.2885038778
 30
0.0
 10
4.1635211946
 20
3.2807085661
 30
0.0
 10
4.1569348595
 20
3.2732914441
 30
0.0
 10
4.152035284
 20
3.2687038358
 30
0.0
 10
4.1494553602
 20
3.2664866866
 30
0.0
  0
SPLINE
  5
44A
100
AcDbEntity
  8
ALL_ASSEMBLY_MEMBERS
100
AcDbSpline
 62
7
  6
CONTINUOUS
 70
0
 71
3
 72
10
 73
6
 74
0
 42
0.0000001
 43
0.0000001
 44
0.0000000001
 40
0.0
 40
0.0
 40
0.0
 40
0.0
 40
0.4858769762
 40
0.739742417
 40
1.0
 40
1.0
 40
1.0
 40
1.0
 10
4.1494553602
 20
3.2664866866
 30
0.0
 10
4.1438320781
 20
3.2616541194
 30
0.0
 10
4.1345689153
 20
3.2550779921
 30
0.0
 10
4.1211641244
 20
3.2477701538
 30
0.0
 10
4.1140026518
 20
3.244542402
 30
0.0
 10
4.1103257137
 20
3.2430412983
 30
0.0
  0
SPLINE
  5
44B
100
AcDbEntity
  8
ALL_ASSEMBLY_MEMBERS
100
AcDbSpline
 62
7
  6
CONTINUOUS
 70
0
 71
3
 72
21
 73
17
 74
0
 42
0.0000001
 43
0.0000001
 44
0.0000000001
 40
0.0
 40
0.0
 40
0.0
 40
0.0
 40
0.0554298969
 40
0.1110853675
 40
0.1671856673
 40
0.2239378457
 40
0.2815309625
 40
0.3401337026
 40
0.3998879111
 40
0.4609118919
 40
0.5232946376
 40
0.5871003093
 40
0.6523627066
 40
0.7190881013
 40
0.8568161483
 40
1.0
 40
1.0
 40
1.0
 40
1.0
 10
4.1540757137
 20
3.4937043956
 30
0.0
 10
4.1540757135
 20
3.4919594701
 30
0.0
 10
4.153916753
 20
3.4884604823
 30
0.0
 10
4.1532044428
 20
3.4832391363
 30
0.0
 10
4.1520200997
 20
3.4780612357
 30
0.0
 10
4.1503695596
 20
3.472948834
 30
0.0
 10
4.1482599634
 20
3.4679228463
 30
0.0
 10
4.1456998491
 20
3.4630043099
 30
0.0
 10
4.1427010764
 20
3.458212742
 30
0.0
 10
4.1392751391
 20
3.4535683837
 30
0.0
 10
4.1354373345
 20
3.449089246
 30
0.0
 10
4.1312027885
 20
3.4447941788
 30
0.0
 10
4.1265894549
 20
3.4407000839
 30
0.0
 10
4.1198891389
 20
3.4354770675
 30
0.0
 10
4.1106518328
 20
3.4295592924
 30
0.0
 10
4.1027011312
 20
3.425643989
 30
0.0
 10
4.098560884
 20
3.4238621142
 30
0.0
  0
SPLINE
  5
44C
100
AcDbEntity
  8
ALL_ASSEMBLY_MEMBERS
100
AcDbSpline
 62
7
  6
CONTINUOUS
 70
0
 71
3
 72
9
 73
5
 74
0
 42
0.0000001
 43
0.0000001
 44
0.0000000001
 40
0.0
 40
0.0
 40
0.0
 40
0.0
 40
0.2448343158
 40
1.0
 40
1.0
 40
1.0
 40
1.0
 10
4.1103257137
 20
3.3473395485
 30
0.0
 10
4.1072287857
 20
3.3460752329
 30
0.0
 10
4.0944257972
 20
3.3412931853
 30
0.0
 10
4.0810733041
 20
3.3380115002
 30
0.0
 10
4.0708914948
 20
3.3363436997
 30
0.0
  0
SPLINE
  5
44D
100
AcDbEntity
  8
ALL_ASSEMBLY_MEMBERS
100
AcDbSpline
 62
7
  6
CONTINUOUS
 70
0
 71
3
 72
29
 73
25
 74
0
 42
0.0000001
 43
0.0000001
 44
0.0000000001
 40
0.0
 40
0.0
 40
0.0
 40
0.0
 40
0.0707204569
 40
0.1419118908
 40
0.2131032595
 40
0.2838633223
 40
0.3537528878
 40
0.4223680782
 40
0.4893470868
 40
0.5543866899
 40
0.6172582431
 40
0.6478447504
 40
0.67784638
 40
0.7360738457
 40
0.7643481191
 40
0.7920823904
 40
0.8193089036
 40
0.8460672961
 40
0.8724064149
 40
0.8983822183
 40
0.9240578443
 40
0.9495027929
 40
0.9747909402
 40
1.0
 40
1.0
 40
1.0
 40
1.0
 10
4.0708914948
 20
3.398215543
 30
0.0
 10
4.0656182478
 20
3.3973517747
 30
0.0
 10
4.0549609006
 20
3.3960513983
 30
0.0
 10
4.0388570795
 20
3.3953802509
 30
0.0
 10
4.022746616
 20
3.3959873037
 30
0.0
 10
4.0068333304
 20
3.3978637074
 30
0.0
 10
3.9913149233
 20
3.4009872723
 30
0.0
 10
3.9763858219
 20
3.4053191074
 30
0.0
 10
3.9622320606
 20
3.4108060105
 30
0.0
 10
3.9490314159
 20
3.4173801221
 30
0.0
 10
3.9388677179
 20
3.4237571674
 30
0.0
 10
3.9313842504
 20
3.4293336905
 30
0.0
 10
3.924488172
 20
3.4350867889
 30
0.0
 10
3.9182137633
 20
3.4412964843
 30
0.0
 10
3.9126703732
 20
3.4479187599
 30
0.0
 10
3.9089495981
 20
3.452994971
 30
0.0
 10
3.9056372041
 20
3.4582114478
 30
0.0
 10
3.9027445981
 20
3.4635526821
 30
0.0
 10
3.9002805718
 20
3.4690013428
 30
0.0
 10
3.8982532061
 20
3.4745403357
 30
0.0
 10
3.8966698423
 20
3.4801521961
 30
0.0
 10
3.8955346216
 20
3.485818858
 30
0.0
 10
3.8948524769
 20
3.4915219647
 30
0.0
 10
3.8947007661
 20
3.4953391815
 30
0.0
 10
3.8947008193
 20
3.4972439369
 30
0.0
  0
SPLINE
  5
44E
100
AcDbEntity
  8
ALL_ASSEMBLY_MEMBERS
100
AcDbSpline
 62
7
  6
CONTINUOUS
 70
0
 71
3
 72
26
 73
22
 74
0
 42
0.0000001
 43
0.0000001
 44
0.0000000001
 40
0.0
 40
0.0
 40
0.0
 40
0.0
 40
0.0616658935
 40
0.1215374204
 40
0.179950035
 40
0.2087527857
 40
0.2373528733
 40
0.29416193
 40
0.3509227841
 40
0.3794635411
 40
0.4081843937
 40
0.4663712037
 40
0.5259453751
 40
0.5872582636
 40
0.6505730283
 40
0.716058918
 40
0.7496518957
 40
0.7838065758
 40
0.8537696975
 40
0.9259034681
 40
1.0
 40
1.0
 40
1.0
 40
1.0
 10
4.1449446068
 20
3.5372987478
 30
0.0
 10
4.1467281628
 20
3.5349281572
 30
0.0
 10
4.149990751
 20
3.5300578572
 30
0.0
 10
4.1539344371
 20
3.5223288087
 30
0.0
 10
4.1563437532
 20
3.5156528027
 30
0.0
 10
4.1577116452
 20
3.510248018
 30
0.0
 10
4.1587037855
 20
3.5048402752
 30
0.0
 10
4.1592579056
 20
3.4980009297
 30
0.0
 10
4.1588759631
 20
3.4911525791
 30
0.0
 10
4.1580193852
 20
3.4857309136
 30
0.0
 10
4.1567879252
 20
3.4803114782
 30
0.0
 10
4.1545473082
 20
3.473607613
 30
0.0
 10
4.1507975214
 20
3.4658281059
 30
0.0
 10
4.1460130028
 20
3.4583452457
 30
0.0
 10
4.1402401515
 20
3.4512285399
 30
0.0
 10
4.1346977384
 20
3.4457020949
 30
0.0
 10
4.1298389864
 20
3.4415187104
 30
0.0
 10
4.1246169591
 20
3.4374382831
 30
0.0
 10
4.1175784599
 20
3.4326878859
 30
0.0
 10
4.1084777599
 20
3.4276298255
 30
0.0
 10
4.1020634104
 20
3.4247198041
 30
0.0
 10
4.0987632137
 20
3.4233725044
 30
0.0
  0
SPLINE
  5
44F
100
AcDbEntity
  8
ALL_ASSEMBLY_MEMBERS
100
AcDbSpline
 62
7
  6
CONTINUOUS
 70
0
 71
3
 72
10
 73
6
 74
0
 42
0.0000001
 43
0.0000001
 44
0.0000000001
 40
0.0
 40
0.0
 40
0.0
 40
0.0
 40
0.4887323386
 40
0.7417653517
 40
1.0
 40
1.0
 40
1.0
 40
1.0
 10
4.1435099326
 20
3.3659900527
 30
0.0
 10
4.1385541795
 20
3.362237802
 30
0.0
 10
4.1306059878
 20
3.3570845519
 30
0.0
 10
4.1193162617
 20
3.3512180533
 30
0.0
 10
4.1133664746
 20
3.3485809339
 30
0.0
 10
4.1103257137
 20
3.3473395485
 30
0.0
  0
SPLINE
  5
450
100
AcDbEntity
  8
ALL_ASSEMBLY_MEMBERS
100
AcDbSpline
 62
7
  6
CONTINUOUS
 70
0
 71
3
 72
15
 73
11
 74
0
 42
0.0000001
 43
0.0000001
 44
0.0000000001
 40
0.0
 40
0.0
 40
0.0
 40
0.0
 40
0.1313512195
 40
0.2603107674
 40
0.3871185119
 40
0.5120554704
 40
0.6354452226
 40
0.7576409495
 40
0.879025749
 40
1.0
 40
1.0
 40
1.0
 40
1.0
 10
4.1416811951
 20
3.5305323861
 30
0.0
 10
4.1426853699
 20
3.5291250929
 30
0.0
 10
4.1445811292
 20
3.5262672288
 30
0.0
 10
4.147090004
 20
3.5218276117
 30
0.0
 10
4.1492286583
 20
3.5172908823
 30
0.0
 10
4.1509884848
 20
3.5126724102
 30
0.0
 10
4.1523643431
 20
3.5079884327
 30
0.0
 10
4.1533504735
 20
3.5032546812
 30
0.0
 10
4.153943448
 20
3.498488089
 30
0.0
 10
4.1540757138
 20
3.4952966418
 30
0.0
 10
4.1540757137
 20
3.4937043956
 30
0.0
  0
SPLINE
  5
451
100
AcDbEntity
  8
ALL_ASSEMBLY_MEMBERS
100
AcDbSpline
 62
7
  6
CONTINUOUS
 70
0
 71
3
 72
11
 73
7
 74
0
 42
0.0000001
 43
0.0000001
 44
0.0000000001
 40
0.0
 40
0.0
 40
0.0
 40
0.0
 40
0.2434655602
 40
0.4297513324
 40
0.6184249109
 40
1.0
 40
1.0
 40
1.0
 40
1.0
 10
4.0964450321
 20
3.422450124
 30
0.0
 10
4.0921843774
 20
3.4207984043
 30
0.0
 10
4.0845186114
 20
3.4182435597
 30
0.0
 10
4.0732439728
 20
3.415451858
 30
0.0
 10
4.0592587792
 20
3.4129524895
 30
0.0
 10
4.0485518544
 20
3.4120939569
 30
0.0
 10
4.0413911229
 20
3.4119705903
 30
0.0
  0
SPLINE
  5
452
100
AcDbEntity
  8
ALL_ASSEMBLY_MEMBERS
100
AcDbSpline
 62
7
  6
CONTINUOUS
 70
0
 71
3
 72
34
 73
30
 74
0
 42
0.0000001
 43
0.0000001
 44
0.0000000001
 40
0.0
 40
0.0
 40
0.0
 40
0.0
 40
0.0753344122
 40
0.149949608
 40
0.2232721062
 40
0.2947838517
 40
0.329732033
 40
0.3640725378
 40
0.3977672859
 40
0.4307882222
 40
0.4947089965
 40
0.5256338037
 40
0.5558718995
 40
0.5854504969
 40
0.6144080877
 40
0.642797427
 40
0.6706830173
 40
0.6981416233
 40
0.7252607912
 40
0.7521365415
 40
0.7788720022
 40
0.8055737525
 40
0.8323496802
 40
0.8593052264
 40
0.8865413815
 40
0.914150918
 40
0.942217922
 40
0.9708141652
 40
1.0
 40
1.0
 40
1.0
 40
1.0
 10
4.0355136519
 20
3.4119705374
 30
0.0
 10
4.0304125322
 20
3.4120583266
 30
0.0
 10
4.0202608271
 20
3.4126888343
 30
0.0
 10
4.0052959468
 20
3.4149921171
 30
0.0
 10
3.9908598917
 20
3.4186148376
 30
0.0
 10
3.9793729412
 20
3.4227181188
 30
0.0
 10
3.9706667578
 20
3.4266167159
 30
0.0
 10
3.9644592539
 20
3.4298036598
 30
0.0
 10
3.9585500626
 20
3.4332639973
 30
0.0
 10
3.9511823849
 20
3.4381677741
 30
0.0
 10
3.9444074541
 20
3.4436047652
 30
0.0
 10
3.9383546373
 20
3.4495386284
 30
0.0
 10
3.9342682883
 20
3.4541354574
 30
0.0
 10
3.9306023537
 20
3.458907238
 30
0.0
 10
3.9273725915
 20
3.4638358932
 30
0.0
 10
3.9245918193
 20
3.4689010584
 30
0.0
 10
3.9222718148
 20
3.4740825169
 30
0.0
 10
3.9204228432
 20
3.4793593663
 30
0.0
 10
3.9190518074
 20
3.4847097927
 30
0.0
 10
3.9181660403
 20
3.4901121741
 30
0.0
 10
3.9177678998
 20
3.495543955
 30
0.0
 10
3.9178603849
 20
3.5009828101
 30
0.0
 10
3.9184423478
 20
3.5064061323
 30
0.0
 10
3.9195113087
 20
3.5117915944
 30
0.0
 10
3.9210632267
 20
3.5171168095
 30
0.0
 10
3.9230903074
 20
3.5223603474
 30
0.0
 10
3.9255853292
 20
3.5275003874
 30
0.0
 10
3.9285362432
 20
3.5325164124
 30
0.0
 10
3.930776347
 20
3.5357302918
 30
0.0
 10
3.9319649274
 20
3.5373095446
 30
0.0
  0
SPLINE
  5
453
100
AcDbEntity
  8
ALL_ASSEMBLY_MEMBERS
100
AcDbSpline
 62
7
  6
CONTINUOUS
 70
0
 71
3
 72
15
 73
11
 74
0
 42
0.0000001
 43
0.0000001
 44
0.0000000001
 40
0.0
 40
0.0
 40
0.0
 40
0.0
 40
0.1209773105
 40
0.2423648357
 40
0.3645626123
 40
0.4879534766
 40
0.6128904567
 40
0.7396969963
 40
0.8686537299
 40
1.0
 40
1.0
 40
1.0
 40
1.0
 10
3.9228257137
 20
3.4937043956
 30
0.0
 10
3.9228257138
 20
3.4952959772
 30
0.0
 10
3.9229578696
 20
3.4984860865
 30
0.0
 10
3.923550349
 20
3.5032506973
 30
0.0
 10
3.9245356534
 20
3.5079825092
 30
0.0
 10
3.925910367
 20
3.5126646101
 30
0.0
 10
3.9276687409
 20
3.5172812897
 30
0.0
 10
3.9298056471
 20
3.5218163269
 30
0.0
 10
3.9323124801
 20
3.5262543657
 30
0.0
 10
3.9342067059
 20
3.5291112997
 30
0.0
 10
3.93521007
 20
3.5305181511
 30
0.0
  0
SPLINE
  5
454
100
AcDbEntity
  8
ALL_ASSEMBLY_MEMBERS
100
AcDbSpline
 62
7
  6
CONTINUOUS
 70
0
 71
3
 72
17
 73
13
 74
0
 42
0.0000001
 43
0.0000001
 44
0.0000000001
 40
0.0
 40
0.0
 40
0.0
 40
0.0
 40
0.0579726503
 40
0.1160729165
 40
0.2330910649
 40
0.3520667551
 40
0.412583798
 40
0.4738929164
 40
0.5991394815
 40
0.7283734925
 40
0.8619688414
 40
1.0
 40
1.0
 40
1.0
 40
1.0
 10
4.182200608
 20
3.497235922
 30
0.0
 10
4.1822005636
 20
3.4956448715
 30
0.0
 10
4.1820945631
 20
3.4924581404
 30
0.0
 10
4.181457955
 20
3.4860890032
 30
0.0
 10
4.1798600958
 20
3.4781521171
 30
0.0
 10
4.1772344873
 20
3.4704256988
 30
0.0
 10
4.1745412281
 20
3.4643868635
 30
0.0
 10
4.1714099444
 20
3.4583681847
 30
0.0
 10
4.1667361276
 20
3.4510453322
 30
0.0
 10
4.1600398371
 20
3.4427375305
 30
0.0
 10
4.1522769368
 20
3.434916949
 30
0.0
 10
4.1465301303
 20
3.4301486402
 30
0.0
 10
4.1435099326
 20
3.4278618961
 30
0.0
  0
SPLINE
  5
455
100
AcDbEntity
  8
ALL_ASSEMBLY_MEMBERS
100
AcDbSpline
 62
7
  6
CONTINUOUS
 70
0
 71
3
 72
15
 73
11
 74
0
 42
0.0000001
 43
0.0000001
 44
0.0000000001
 40
0.0
 40
0.0
 40
0.0
 40
0.0
 40
0.1355073465
 40
0.2700859894
 40
0.4023473584
 40
0.5312801825
 40
0.6559816189
 40
0.7758076792
 40
0.8904528976
 40
1.0
 40
1.0
 40
1.0
 40
1.0
 10
4.0384507137
 20
3.5636234243
 30
0.0
 10
4.0431310113
 20
3.56371461
 30
0.0
 10
4.0524570496
 20
3.5643531864
 30
0.0
 10
4.0661856776
 20
3.5666608594
 30
0.0
 10
4.0793940722
 20
3.5702862949
 30
0.0
 10
4.0918287057
 20
3.5751649313
 30
0.0
 10
4.1032582658
 20
3.5812120684
 30
0.0
 10
4.1134669389
 20
3.5883245304
 30
0.0
 10
4.1222564478
 20
3.5963768151
 30
0.0
 10
4.1271665216
 20
3.602413289
 30
0.0
 10
4.1293058218
 20
3.605534967
 30
0.0
  0
SPLINE
  5
456
100
AcDbEntity
  8
ALL_ASSEMBLY_MEMBERS
100
AcDbSpline
 62
7
  6
CONTINUOUS
 70
0
 71
3
 72
9
 73
5
 74
0
 42
0.0000001
 43
0.0000001
 44
0.0000000001
 40
0.0
 40
0.0
 40
0.0
 40
0.0
 40
0.5064128557
 40
1.0
 40
1.0
 40
1.0
 40
1.0
 10
4.1293058218
 20
3.605534967
 30
0.0
 10
4.1306889255
 20
3.6075531991
 30
0.0
 10
4.133211507
 20
3.6116865069
 30
0.0
 10
4.1352485552
 20
3.6160813215
 30
0.0
 10
4.136118842
 20
3.6183015592
 30
0.0
  0
SPLINE
  5
457
100
AcDbEntity
  8
ALL_ASSEMBLY_MEMBERS
100
AcDbSpline
 62
7
  6
CONTINUOUS
 70
0
 71
3
 72
15
 73
11
 74
0
 42
0.0000001
 43
0.0000001
 44
0.0000000001
 40
0.0
 40
0.0
 40
0.0
 40
0.0
 40
0.1355229952
 40
0.2701145376
 40
0.4023848102
 40
0.5313234566
 40
0.6560239785
 40
0.7758411356
 40
0.8904713569
 40
1.0
 40
1.0
 40
1.0
 40
1.0
 10
4.0384507137
 20
3.588487462
 30
0.0
 10
4.0431353771
 20
3.5885788941
 30
0.0
 10
4.0524700098
 20
3.5892188304
 30
0.0
 10
4.0662107886
 20
3.5915309826
 30
0.0
 10
4.0794299515
 20
3.5951633232
 30
0.0
 10
4.0918733344
 20
3.6000510387
 30
0.0
 10
4.1033090122
 20
3.6061090853
 30
0.0
 10
4.1135205032
 20
3.6132339617
 30
0.0
 10
4.1223091112
 20
3.6212996375
 30
0.0
 10
4.1272158921
 20
3.627345634
 30
0.0
 10
4.1293527424
 20
3.630471966
 30
0.0
  0
SPLINE
  5
458
100
AcDbEntity
  8
ALL_ASSEMBLY_MEMBERS
100
AcDbSpline
 62
7
  6
CONTINUOUS
 70
0
 71
3
 72
9
 73
5
 74
0
 42
0.0000001
 43
0.0000001
 44
0.0000000001
 40
0.0
 40
0.0
 40
0.0
 40
0.0
 40
0.5066334788
 40
1.0
 40
1.0
 40
1.0
 40
1.0
 10
4.1293527424
 20
3.630471966
 30
0.0
 10
4.1307918852
 20
3.6325775128
 30
0.0
 10
4.1334056793
 20
3.6368942252
 30
0.0
 10
4.1354880875
 20
3.6414930715
 30
0.0
 10
4.1363673484
 20
3.6438158202
 30
0.0
  0
SPLINE
  5
459
100
AcDbEntity
  8
ALL_ASSEMBLY_MEMBERS
100
AcDbSpline
 62
7
  6
CONTINUOUS
 70
0
 71
3
 72
15
 73
11
 74
0
 42
0.0000001
 43
0.0000001
 44
0.0000000001
 40
0.0
 40
0.0
 40
0.0
 40
0.0
 40
0.135812927
 40
0.2706660465
 40
0.4031266322
 40
0.5321476047
 40
0.6568031648
 40
0.7764462734
 40
0.8907999173
 40
1.0
 40
1.0
 40
1.0
 40
1.0
 10
4.0384507137
 20
3.5760755893
 30
0.0
 10
4.0432056724
 20
3.5761686544
 30
0.0
 10
4.052679496
 20
3.5768254643
 30
0.0
 10
4.0666177086
 20
3.5792031887
 30
0.0
 10
4.0800111909
 20
3.5829390063
 30
0.0
 10
4.0925941195
 20
3.5879648988
 30
0.0
 10
4.1041249328
 20
3.5941897865
 30
0.0
 10
4.1143784442
 20
3.6015049617
 30
0.0
 10
4.1231495384
 20
3.6097767778
 30
0.0
 10
4.128000732
 20
3.6159701863
 30
0.0
 10
4.1300967972
 20
3.6191684788
 30
0.0
  0
SPLINE
  5
45A
100
AcDbEntity
  8
ALL_ASSEMBLY_MEMBERS
100
AcDbSpline
 62
7
  6
CONTINUOUS
 70
0
 71
3
 72
9
 73
5
 74
0
 42
0.0000001
 43
0.0000001
 44
0.0000000001
 40
0.0
 40
0.0
 40
0.0
 40
0.0
 40
0.2532120839
 40
1.0
 40
1.0
 40
1.0
 40
1.0
 10
4.1310420926
 20
3.6206525533
 30
0.0
 10
4.131456621
 20
3.6213225166
 30
0.0
 10
4.1330468235
 20
3.6239969989
 30
0.0
 10
4.1344451781
 20
3.6267862954
 30
0.0
 10
4.1353645677
 20
3.6289201922
 30
0.0
  0
LINE
  5
45B
100
AcDbEntity
  8
ALL_ASSEMBLY_MEMBERS
100
AcDbLine
 62
7
  6
CONTINUOUS
 10
4.138639574
 20
3.6389033762
 11
4.1386752713
 21
3.6390605332
  0
SPLINE
  5
45C
100
AcDbEntity
  8
ALL_ASSEMBLY_MEMBERS
100
AcDbSpline
 62
7
  6
CONTINUOUS
 70
0
 71
3
 72
9
 73
5
 74
0
 42
0.0000001
 43
0.0000001
 44
0.0000000001
 40
0.0
 40
0.0
 40
0.0
 40
0.0
 40
0.2458276098
 40
1.0
 40
1.0
 40
1.0
 40
1.0
 10
3.9504578084
 20
3.609935119
 30
0.0
 10
3.9509476308
 20
3.6093536042
 30
0.0
 10
3.9529796179
 20
3.6070214693
 30
0.0
 10
3.9551641719
 20
3.6048231065
 30
0.0
 10
3.9568806252
 20
3.6032436435
 30
0.0
  0
SPLINE
  5
45D
100
AcDbEntity
  8
ALL_ASSEMBLY_MEMBERS
100
AcDbSpline
 62
7
  6
CONTINUOUS
 70
0
 71
3
 72
13
 73
9
 74
0
 42
0.0000001
 43
0.0000001
 44
0.0000000001
 40
0.0
 40
0.0
 40
0.0
 40
0.0
 40
0.2272054283
 40
0.3479550681
 40
0.4728557524
 40
0.6012980948
 40
0.7325550348
 40
1.0
 40
1.0
 40
1.0
 40
1.0
 10
3.9568806252
 20
3.6032436435
 30
0.0
 10
3.9617799229
 20
3.598735359
 30
0.0
 10
3.9701899786
 20
3.5927715592
 30
0.0
 10
3.982589505
 20
3.586562907
 30
0.0
 10
3.9928375195
 20
3.5826188542
 30
0.0
 10
4.0036963175
 20
3.5795451476
 30
0.0
 10
4.0188828703
 20
3.5766467585
 30
0.0
 10
4.0306151475
 20
3.5759222298
 30
0.0
 10
4.0384507137
 20
3.5760755893
 30
0.0
  0
SPLINE
  5
45E
100
AcDbEntity
  8
ALL_ASSEMBLY_MEMBERS
100
AcDbSpline
 62
7
  6
CONTINUOUS
 70
0
 71
3
 72
21
 73
17
 74
0
 42
0.0000001
 43
0.0000001
 44
0.0000000001
 40
0.0
 40
0.0
 40
0.0
 40
0.0
 40
0.0598183068
 40
0.121827365
 40
0.1857049692
 40
0.2511497959
 40
0.3849952954
 40
0.5197913476
 40
0.5863759841
 40
0.6517442719
 40
0.715467411
 40
0.7771829001
 40
0.8366054222
 40
0.8935594735
 40
0.9479924986
 40
1.0
 40
1.0
 40
1.0
 40
1.0
 10
4.112403298
 20
3.6251372823
 30
0.0
 10
4.1095331984
 20
3.622899731
 30
0.0
 10
4.1034135555
 20
3.6186859017
 30
0.0
 10
4.0934617997
 20
3.6132979608
 30
0.0
 10
4.0827040543
 20
3.6088016463
 30
0.0
 10
4.0673963091
 20
3.6040430262
 30
0.0
 10
4.0472397474
 20
3.6006714944
 30
0.0
 10
4.0267397977
 20
3.6007677641
 30
0.0
 10
4.0106402572
 20
3.602946458
 30
0.0
 10
3.9990151822
 20
3.6055885958
 30
0.0
 10
3.9879659522
 20
3.6092039397
 30
0.0
 10
3.9776515276
 20
3.6137352413
 30
0.0
 10
3.9682238535
 20
3.6191178118
 30
0.0
 10
3.9598183745
 20
3.6252699724
 30
0.0
 10
3.9525622215
 20
3.632102222
 30
0.0
 10
3.9484726592
 20
3.6371564357
 30
0.0
 10
3.946673592
 20
3.639759235
 30
0.0
  0
SPLINE
  5
45F
100
AcDbEntity
  8
ALL_ASSEMBLY_MEMBERS
100
AcDbSpline
 62
7
  6
CONTINUOUS
 70
0
 71
3
 72
9
 73
5
 74
0
 42
0.0000001
 43
0.0000001
 44
0.0000000001
 40
0.0
 40
0.0
 40
0.0
 40
0.0
 40
0.2541164876
 40
1.0
 40
1.0
 40
1.0
 40
1.0
 10
3.9463281259
 20
3.6402642788
 30
0.0
 10
3.9458646034
 20
3.6409490634
 30
0.0
 10
3.9440942045
 20
3.6436796017
 30
0.0
 10
3.9425443093
 20
3.64655436
 30
0.0
 10
3.941536531
 20
3.6487624041
 30
0.0
  0
SPLINE
  5
460
100
AcDbEntity
  8
ALL_ASSEMBLY_MEMBERS
100
AcDbSpline
 62
7
  6
CONTINUOUS
 70
0
 71
3
 72
11
 73
7
 74
0
 42
0.0000001
 43
0.0000001
 44
0.0000000001
 40
0.0
 40
0.0
 40
0.0
 40
0.0
 40
0.2393283133
 40
0.4855718957
 40
0.7391628966
 40
1.0
 40
1.0
 40
1.0
 40
1.0
 10
4.1308753435
 20
3.6463943275
 30
0.0
 10
4.1297651562
 20
3.6444265319
 30
0.0
 10
4.1272951516
 20
3.6405532405
 30
0.0
 10
4.1229612518
 20
3.6350705944
 30
0.0
 10
4.1179866482
 20
3.6298780103
 30
0.0
 10
4.1143236775
 20
3.6266785964
 30
0.0
 10
4.112403298
 20
3.6251372823
 30
0.0
  0
SPLINE
  5
461
100
AcDbEntity
  8
ALL_ASSEMBLY_MEMBERS
100
AcDbSpline
 62
7
  6
CONTINUOUS
 70
0
 71
3
 72
15
 73
11
 74
0
 42
0.0000001
 43
0.0000001
 44
0.0000000001
 40
0.0
 40
0.0
 40
0.0
 40
0.0
 40
0.1070770089
 40
0.2197694474
 40
0.3383864399
 40
0.4627301916
 40
0.5921643571
 40
0.7256861643
 40
0.8621344321
 40
1.0
 40
1.0
 40
1.0
 40
1.0
 10
4.1322501457
 20
3.6545316548
 30
0.0
 10
4.1302955712
 20
3.6512031613
 30
0.0
 10
4.1256406344
 20
3.6447342415
 30
0.0
 10
4.1169574949
 20
3.6361011907
 30
0.0
 10
4.1065996504
 20
3.628472998
 30
0.0
 10
4.0947935873
 20
3.6220074581
 30
0.0
 10
4.0817904379
 20
3.6168358876
 30
0.0
 10
4.0678652138
 20
3.6130616153
 30
0.0
 10
4.0533168817
 20
3.6107670567
 30
0.0
 10
4.0434205432
 20
3.6102534422
 30
0.0
 10
4.0384507137
 20
3.6102534422
 30
0.0
  0
SPLINE
  5
462
100
AcDbEntity
  8
ALL_ASSEMBLY_MEMBERS
100
AcDbSpline
 62
7
  6
CONTINUOUS
 70
0
 71
3
 72
15
 73
11
 74
0
 42
0.0000001
 43
0.0000001
 44
0.0000000001
 40
0.0
 40
0.0
 40
0.0
 40
0.0
 40
0.1373766871
 40
0.2734103696
 40
0.4066442528
 40
0.5359667897
 40
0.6604008927
 40
0.7793025211
 40
0.8924285778
 40
1.0
 40
1.0
 40
1.0
 40
1.0
 10
4.0384507137
 20
3.6102534422
 30
0.0
 10
4.0335897553
 20
3.6102534422
 30
0.0
 10
4.0239080981
 20
3.6107450325
 30
0.0
 10
4.00966301
 20
3.6129412117
 30
0.0
 10
3.9960015973
 20
3.6165559152
 30
0.0
 10
3.9832050105
 20
3.6215134005
 30
0.0
 10
3.9715320057
 20
3.6277184757
 30
0.0
 10
3.9612201743
 20
3.635050109
 30
0.0
 10
3.9524842074
 20
3.6433624538
 30
0.0
 10
3.9477210348
 20
3.6496051701
 30
0.0
 10
3.9456905623
 20
3.6528246864
 30
0.0
  0
SPLINE
  5
463
100
AcDbEntity
  8
ALL_ASSEMBLY_MEMBERS
100
AcDbSpline
 62
7
  6
CONTINUOUS
 70
0
 71
3
 72
9
 73
5
 74
0
 42
0.0000001
 43
0.0000001
 44
0.0000000001
 40
0.0
 40
0.0
 40
0.0
 40
0.0
 40
0.25334593
 40
1.0
 40
1.0
 40
1.0
 40
1.0
 10
3.9445871794
 20
3.6546410842
 30
0.0
 10
3.944193525
 20
3.6553145821
 30
0.0
 10
3.9426898769
 20
3.6580019096
 30
0.0
 10
3.9413915498
 20
3.6608048649
 30
0.0
 10
3.9405548663
 20
3.6629463209
 30
0.0
  0
LINE
  5
464
100
AcDbEntity
  8
ALL_ASSEMBLY_MEMBERS
100
AcDbLine
 62
7
  6
CONTINUOUS
 10
3.9405548663
 20
3.6629463209
 11
3.940498121
 21
3.6630921559
  0
SPLINE
  5
465
100
AcDbEntity
  8
ALL_ASSEMBLY_MEMBERS
100
AcDbSpline
 62
7
  6
CONTINUOUS
 70
0
 71
3
 72
9
 73
5
 74
0
 42
0.0000001
 43
0.0000001
 44
0.0000000001
 40
0.0
 40
0.0
 40
0.0
 40
0.0
 40
0.2464196436
 40
1.0
 40
1.0
 40
1.0
 40
1.0
 10
3.941923013
 20
3.63548657
 30
0.0
 10
3.9422480821
 20
3.6348043726
 30
0.0
 10
3.9436236549
 20
3.6320630422
 30
0.0
 10
3.9452196856
 20
3.629433349
 30
0.0
 10
3.9465258679
 20
3.6275269075
 30
0.0
  0
SPLINE
  5
466
100
AcDbEntity
  8
ALL_ASSEMBLY_MEMBERS
100
AcDbSpline
 62
7
  6
CONTINUOUS
 70
0
 71
3
 72
15
 73
11
 74
0
 42
0.0000001
 43
0.0000001
 44
0.0000000001
 40
0.0
 40
0.0
 40
0.0
 40
0.0
 40
0.1072167501
 40
0.2201916799
 40
0.3390397482
 40
0.463458484
 40
0.5927844505
 40
0.7260821651
 40
0.8622984383
 40
1.0
 40
1.0
 40
1.0
 40
1.0
 10
3.9473708162
 20
3.6263239046
 30
0.0
 10
3.9495054681
 20
3.6233581193
 30
0.0
 10
3.9544195812
 20
3.6176362816
 30
0.0
 10
3.9632076156
 20
3.6100771412
 30
0.0
 10
3.9734301743
 20
3.6034624173
 30
0.0
 10
3.9848877928
 20
3.5979192311
 30
0.0
 10
3.9973631209
 20
3.5935520679
 30
0.0
 10
4.0106225262
 20
3.5904476894
 30
0.0
 10
4.0244092498
 20
3.5886717003
 30
0.0
 10
4.0337585108
 20
3.5883958827
 30
0.0
 10
4.0384507137
 20
3.588487462
 30
0.0
  0
SPLINE
  5
467
100
AcDbEntity
  8
ALL_ASSEMBLY_MEMBERS
100
AcDbSpline
 62
7
  6
CONTINUOUS
 70
0
 71
3
 72
9
 73
5
 74
0
 42
0.0000001
 43
0.0000001
 44
0.0000000001
 40
0.0
 40
0.0
 40
0.0
 40
0.0
 40
0.4937387419
 40
1.0
 40
1.0
 40
1.0
 40
1.0
 10
3.9410574924
 20
3.6249658831
 30
0.0
 10
3.9418188332
 20
3.623197621
 30
0.0
 10
3.9435528015
 20
3.6196963656
 30
0.0
 10
3.9456286201
 20
3.6163875259
 30
0.0
 10
3.9467546845
 20
3.6147661803
 30
0.0
  0
LINE
  5
468
100
AcDbEntity
  8
ALL_ASSEMBLY_MEMBERS
100
AcDbLine
 62
7
  6
CONTINUOUS
 10
3.9503570092
 20
3.6100551276
 11
3.9504578084
 21
3.609935119
  0
SPLINE
  5
469
100
AcDbEntity
  8
ALL_ASSEMBLY_MEMBERS
100
AcDbSpline
 62
7
  6
CONTINUOUS
 70
0
 71
3
 72
9
 73
5
 74
0
 42
0.0000001
 43
0.0000001
 44
0.0000000001
 40
0.0
 40
0.0
 40
0.0
 40
0.0
 40
0.2476700149
 40
1.0
 40
1.0
 40
1.0
 40
1.0
 10
3.9384948878
 20
3.6199609353
 30
0.0
 10
3.9386684049
 20
3.6192985786
 30
0.0
 10
3.9394232214
 20
3.6166386557
 30
0.0
 10
3.940393012
 20
3.614040299
 30
0.0
 10
3.9412305698
 20
3.6121365042
 30
0.0
  0
SPLINE
  5
46A
100
AcDbEntity
  8
ALL_ASSEMBLY_MEMBERS
100
AcDbSpline
 62
7
  6
CONTINUOUS
 70
0
 71
3
 72
9
 73
5
 74
0
 42
0.0000001
 43
0.0000001
 44
0.0000000001
 40
0.0
 40
0.0
 40
0.0
 40
0.0
 40
0.2461336012
 40
1.0
 40
1.0
 40
1.0
 40
1.0
 10
3.9419890992
 20
3.6104868868
 30
0.0
 10
3.942339968
 20
3.6097557275
 30
0.0
 10
3.9438303093
 20
3.6068165279
 30
0.0
 10
3.9455735288
 20
3.6040068908
 30
0.0
 10
3.9470045472
 20
3.6019766038
 30
0.0
  0
SPLINE
  5
46B
100
AcDbEntity
  8
ALL_ASSEMBLY_MEMBERS
100
AcDbSpline
 62
7
  6
CONTINUOUS
 70
0
 71
3
 72
15
 73
11
 74
0
 42
0.0000001
 43
0.0000001
 44
0.0000000001
 40
0.0
 40
0.0
 40
0.0
 40
0.0
 40
0.1088270828
 40
0.2230819098
 40
0.3427069952
 40
0.4673255215
 40
0.5962741873
 40
0.7287162795
 40
0.8637211007
 40
1.0
 40
1.0
 40
1.0
 40
1.0
 10
3.9508505962
 20
3.5970405665
 30
0.0
 10
3.9531317137
 20
3.594379009
 30
0.0
 10
3.958228633
 20
3.589273523
 30
0.0
 10
3.9670270383
 20
3.5825606321
 30
0.0
 10
3.9770174989
 20
3.5767163236
 30
0.0
 10
3.9880309681
 20
3.5718419223
 30
0.0
 10
3.9998835655
 20
3.5680163136
 30
0.0
 10
4.0123816797
 20
3.5653083432
 30
0.0
 10
4.025312419
 20
3.5637689708
 30
0.0
 10
4.0340619827
 20
3.5635379191
 30
0.0
 10
4.0384507137
 20
3.5636234243
 30
0.0
  0
LINE
  5
46C
100
AcDbEntity
  8
ALL_ASSEMBLY_MEMBERS
100
AcDbLine
 62
7
  6
CONTINUOUS
 10
4.1398899165
 20
4.8832506158
 11
4.1400127555
 21
4.8833931407
  0
LINE
  5
46D
100
AcDbEntity
  8
ALL_ASSEMBLY_MEMBERS
100
AcDbLine
 62
7
  6
CONTINUOUS
 10
3.9370117925
 20
4.8923513862
 11
3.93688866
 21
4.8924949316
  0
LINE
  5
46E
100
AcDbEntity
  8
ALL_ASSEMBLY_MEMBERS
100
AcDbLine
 62
7
  6
CONTINUOUS
 10
4.1398973649
 20
4.8875212451
 11
4.1400130155
 21
4.8873874232
  0
SPLINE
  5
46F
100
AcDbEntity
  8
ALL_ASSEMBLY_MEMBERS
100
AcDbSpline
 62
7
  6
CONTINUOUS
 70
0
 71
3
 72
11
 73
7
 74
0
 42
0.0000001
 43
0.0000001
 44
0.0000000001
 40
0.0
 40
0.0
 40
0.0
 40
0.0
 40
0.3332235332
 40
0.5712952716
 40
0.7659729582
 40
1.0
 40
1.0
 40
1.0
 40
1.0
 10
3.9387990981
 20
4.9275402067
 30
0.0
 10
3.9387877952
 20
4.9275467284
 30
0.0
 10
3.9387692063
 20
4.9275591255
 30
0.0
 10
3.9387490325
 20
4.9275831308
 30
0.0
 10
3.93874834
 20
4.9276113351
 30
0.0
 10
3.9387595253
 20
4.9276252167
 30
0.0
 10
3.9387660363
 20
4.9276316664
 30
0.0
  0
LINE
  5
470
100
AcDbEntity
  8
ALL_ASSEMBLY_MEMBERS
100
AcDbLine
 62
7
  6
CONTINUOUS
 10
4.1398982131
 20
4.922700931
 11
4.1400128006
 21
4.9225675872
  0
LINE
  5
471
100
AcDbEntity
  8
ALL_ASSEMBLY_MEMBERS
100
AcDbLine
 62
7
  6
CONTINUOUS
 10
4.1323541301
 20
4.9332795881
 11
4.1323898416
 21
4.9333768335
  0
LINE
  5
472
100
AcDbEntity
  8
ALL_ASSEMBLY_MEMBERS
100
AcDbLine
 62
7
  6
CONTINUOUS
 10
3.9370038613
 20
4.8963111437
 11
3.9368886749
 21
4.8961772134
  0
SPLINE
  5
473
100
AcDbEntity
  8
ALL_ASSEMBLY_MEMBERS
100
AcDbSpline
 62
7
  6
CONTINUOUS
 70
0
 71
3
 72
32
 73
28
 74
0
 42
0.0000001
 43
0.0000001
 44
0.0000000001
 40
0.0
 40
0.0
 40
0.0
 40
0.0
 40
0.0007392684
 40
0.0012452814
 40
0.0018712619
 40
0.0035202431
 40
0.0057300648
 40
0.0085166515
 40
0.011886533
 40
0.0158410772
 40
0.0203797961
 40
0.0312032834
 40
0.0443405716
 40
0.0597705364
 40
0.0774599284
 40
0.0973621218
 40
0.1194291707
 40
0.1698591205
 40
0.2282666788
 40
0.2940890472
 40
0.3667001106
 40
0.4454006187
 40
0.5294394912
 40
0.6179920011
 40
0.710219328
 40
0.8052670709
 40
1.0
 40
1.0
 40
1.0
 40
1.0
 10
4.1400128006
 20
4.9225675872
 30
0.0
 10
4.1400125797
 20
4.9225425097
 30
0.0
 10
4.1399891233
 20
4.9225018601
 30
0.0
 10
4.1399408276
 20
4.9224614518
 30
0.0
 10
4.1398602947
 20
4.9224112938
 30
0.0
 10
4.1397193764
 20
4.9223526305
 30
0.0
 10
4.1395039418
 20
4.9222857972
 30
0.0
 10
4.1392280217
 20
4.9222187184
 30
0.0
 10
4.1388916918
 20
4.922151156
 30
0.0
 10
4.1384949592
 20
4.9220833688
 30
0.0
 10
4.1378467611
 20
4.9219869998
 30
0.0
 10
4.136886992
 20
4.9218695141
 30
0.0
 10
4.1355575214
 20
4.9217344877
 30
0.0
 10
4.1339941586
 20
4.9215990036
 30
0.0
 10
4.1322006106
 20
4.9214631281
 30
0.0
 10
4.1301813634
 20
4.9213269553
 30
0.0
 10
4.1270526547
 20
4.9211365334
 30
0.0
 10
4.1226180402
 20
4.9209027231
 30
0.0
 10
4.1166991765
 20
4.920631859
 30
0.0
 10
4.1100271927
 20
4.9203602705
 30
0.0
 10
4.1026663202
 20
4.9200881329
 30
0.0
 10
4.0946871135
 20
4.9198155704
 30
0.0
 10
4.0861668372
 20
4.9195427524
 30
0.0
 10
4.0771874736
 20
4.9192696814
 30
0.0
 10
4.0678344936
 20
4.9189964468
 30
0.0
 10
4.0548807508
 20
4.9186289438
 30
0.0
 10
4.0450541784
 20
4.9183581164
 30
0.0
 10
4.0384507137
 20
4.918176045
 30
0.0
  0
SPLINE
  5
474
100
AcDbEntity
  8
ALL_ASSEMBLY_MEMBERS
100
AcDbSpline
 62
7
  6
CONTINUOUS
 70
0
 71
3
 72
32
 73
28
 74
0
 42
0.0000001
 43
0.0000001
 44
0.0000000001
 40
0.0
 40
0.0
 40
0.0
 40
0.0
 40
0.0007372426
 40
0.0012403629
 40
0.0018629548
 40
0.0035047571
 40
0.0057078388
 40
0.0084881759
 40
0.0118512751
 40
0.0157986374
 40
0.0203300209
 40
0.0311393119
 40
0.0442645595
 40
0.0596851469
 40
0.0773641059
 40
0.097255713
 40
0.1193135835
 40
0.1697299976
 40
0.2281242335
 40
0.293943246
 40
0.366555573
 40
0.4452692764
 40
0.5293258873
 40
0.6178997583
 40
0.7101516384
 40
0.8052252295
 40
1.0
 40
1.0
 40
1.0
 40
1.0
 10
4.140012753
 20
4.9049708616
 30
0.0
 10
4.1400129148
 20
4.904945852
 30
0.0
 10
4.1399901543
 20
4.9049049526
 30
0.0
 10
4.1399423486
 20
4.9048643569
 30
0.0
 10
4.1398624807
 20
4.904814
 30
0.0
 10
4.1397222526
 20
4.9047551375
 30
0.0
 10
4.1395075973
 20
4.9046881027
 30
0.0
 10
4.1392324038
 20
4.9046208332
 30
0.0
 10
4.13889681
 20
4.9045530598
 30
0.0
 10
4.1385008365
 20
4.9044850695
 30
0.0
 10
4.1378536543
 20
4.9043884068
 30
0.0
 10
4.1368950538
 20
4.9042705829
 30
0.0
 10
4.1355668078
 20
4.9041352031
 30
0.0
 10
4.1340045266
 20
4.9039994047
 30
0.0
 10
4.1322120033
 20
4.9038632041
 30
0.0
 10
4.1301937647
 20
4.9037267303
 30
0.0
 10
4.1270661526
 20
4.9035359106
 30
0.0
 10
4.1226326993
 20
4.9033016954
 30
0.0
 10
4.1167147704
 20
4.903030379
 30
0.0
 10
4.1100431975
 20
4.9027584501
 30
0.0
 10
4.1026818216
 20
4.9024859731
 30
0.0
 10
4.0947013799
 20
4.9022131576
 30
0.0
 10
4.0861791749
 20
4.9019401169
 30
0.0
 10
4.0771974862
 20
4.9016668889
 30
0.0
 10
4.0678418972
 20
4.901393553
 30
0.0
 10
4.0548847809
 20
4.9010259975
 30
0.0
 10
4.0450557247
 20
4.9007552135
 30
0.0
 10
4.0384507137
 20
4.9005732044
 30
0.0
  0
SPLINE
  5
475
100
AcDbEntity
  8
ALL_ASSEMBLY_MEMBERS
100
AcDbSpline
 62
7
  6
CONTINUOUS
 70
0
 71
3
 72
26
 73
22
 74
0
 42
0.0000001
 43
0.0000001
 44
0.0000000001
 40
0.0
 40
0.0
 40
0.0
 40
0.0
 40
0.0020923995
 40
0.0037031468
 40
0.0057786483
 40
0.0114124297
 40
0.0190870669
 40
0.0288272845
 40
0.0406394534
 40
0.0545225242
 40
0.0704715827
 40
0.1085062809
 40
0.1545814618
 40
0.2085186585
 40
0.2701065493
 40
0.3390605795
 40
0.4150843012
 40
0.4978686398
 40
0.5870656336
 40
0.7832394916
 40
1.0
 40
1.0
 40
1.0
 40
1.0
 10
4.1400130155
 20
4.8873874232
 30
0.0
 10
4.14001292
 20
4.8873518982
 30
0.0
 10
4.1399662755
 20
4.8872955818
 30
0.0
 10
4.1398847555
 20
4.8872450228
 30
0.0
 10
4.1397402761
 20
4.8871772251
 30
0.0
 10
4.139490743
 20
4.8870997846
 30
0.0
 10
4.139109393
 20
4.8870105459
 30
0.0
 10
4.1386212036
 20
4.8869211797
 30
0.0
 10
4.1380263071
 20
4.8868309254
 30
0.0
 10
4.1373250417
 20
4.8867404086
 30
0.0
 10
4.1361799562
 20
4.886611721
 30
0.0
 10
4.1344882471
 20
4.8864549922
 30
0.0
 10
4.1321513529
 20
4.886274765
 30
0.0
 10
4.1294135989
 20
4.8860938935
 30
0.0
 10
4.1262867126
 20
4.8859125389
 30
0.0
 10
4.1227842998
 20
4.8857308121
 30
0.0
 10
4.1189215884
 20
4.8855488428
 30
0.0
 10
4.1147148475
 20
4.8853667357
 30
0.0
 10
4.108469282
 20
4.8851156661
 30
0.0
 10
4.0999496035
 20
4.8848060873
 30
0.0
 10
4.0929425312
 20
4.8845750799
 30
0.0
 10
4.0892641971
 20
4.8844579943
 30
0.0
  0
SPLINE
  5
476
100
AcDbEntity
  8
ALL_ASSEMBLY_MEMBERS
100
AcDbSpline
 62
7
  6
CONTINUOUS
 70
0
 71
3
 72
11
 73
7
 74
0
 42
0.0000001
 43
0.0000001
 44
0.0000000001
 40
0.0
 40
0.0
 40
0.0
 40
0.0
 40
0.2353937426
 40
0.4826552582
 40
0.7387626812
 40
1.0
 40
1.0
 40
1.0
 40
1.0
 10
3.975289028
 20
3.6027788481
 30
0.0
 10
3.9796208312
 20
3.6001776785
 30
0.0
 10
3.9889575188
 20
3.5955768695
 30
0.0
 10
4.0040903764
 20
3.5906796443
 30
0.0
 10
4.0202835021
 20
3.5877418368
 30
0.0
 10
4.031407673
 20
3.5871593171
 30
0.0
 10
4.037014913
 20
3.5872153434
 30
0.0
  0
SPLINE
  5
477
100
AcDbEntity
  8
ALL_ASSEMBLY_MEMBERS
100
AcDbSpline
 62
7
  6
CONTINUOUS
 70
0
 71
3
 72
11
 73
7
 74
0
 42
0.0000001
 43
0.0000001
 44
0.0000000001
 40
0.0
 40
0.0
 40
0.0
 40
0.0
 40
0.2574930876
 40
0.5120934185
 40
0.7605162681
 40
1.0
 40
1.0
 40
1.0
 40
1.0
 10
4.038493511
 20
3.5872382254
 30
0.0
 10
4.0437895565
 20
3.5873492228
 30
0.0
 10
4.0543198074
 20
3.5881900093
 30
0.0
 10
4.0696934905
 20
3.5912886429
 30
0.0
 10
4.0842165867
 20
3.5961479034
 30
0.0
 10
4.0932649661
 20
3.6005804665
 30
0.0
 10
4.0975170391
 20
3.6030689207
 30
0.0
  0
SPLINE
  5
478
100
AcDbEntity
  8
ALL_ASSEMBLY_MEMBERS
100
AcDbSpline
 62
7
  6
CONTINUOUS
 70
0
 71
3
 72
9
 73
5
 74
0
 42
0.0000001
 43
0.0000001
 44
0.0000000001
 40
0.0
 40
0.0
 40
0.0
 40
0.0
 40
0.5104242121
 40
1.0
 40
1.0
 40
1.0
 40
1.0
 10
3.9504578084
 20
3.6011136057
 30
0.0
 10
3.9483565338
 20
3.6036069703
 30
0.0
 10
3.9445828135
 20
3.6087952186
 30
0.0
 10
3.9416805696
 20
3.614524308
 30
0.0
 10
3.9405181368
 20
3.6174277814
 30
0.0
  0
SPLINE
  5
479
100
AcDbEntity
  8
ALL_ASSEMBLY_MEMBERS
100
AcDbSpline
 62
7
  6
CONTINUOUS
 70
0
 71
3
 72
9
 73
5
 74
0
 42
0.0000001
 43
0.0000001
 44
0.0000000001
 40
0.0
 40
0.0
 40
0.0
 40
0.0
 40
0.5042607086
 40
1.0
 40
1.0
 40
1.0
 40
1.0
 10
3.9405181368
 20
3.6174277814
 30
0.0
 10
3.9396700409
 20
3.619546118
 30
0.0
 10
3.9382554934
 20
3.6238599642
 30
0.0
 10
3.9374374775
 20
3.6283268978
 30
0.0
 10
3.937187936
 20
3.6305562163
 30
0.0
  0
SPLINE
  5
47A
100
AcDbEntity
  8
ALL_ASSEMBLY_MEMBERS
100
AcDbSpline
 62
7
  6
CONTINUOUS
 70
0
 71
3
 72
32
 73
28
 74
0
 42
0.0000001
 43
0.0000001
 44
0.0000000001
 40
0.0
 40
0.0
 40
0.0
 40
0.0
 40
0.0007560167
 40
0.0012659053
 40
0.0018938946
 40
0.0035437036
 40
0.0057525687
 40
0.0085372785
 40
0.0119037554
 40
0.0158537797
 40
0.0203872894
 40
0.0311996785
 40
0.0443270326
 40
0.0597490169
 40
0.0774285887
 40
0.0973202113
 40
0.119377667
 40
0.1697921516
 40
0.2281829158
 40
0.2939974132
 40
0.3666041777
 40
0.4453118445
 40
0.5293617259
 40
0.6179285499
 40
0.7101733528
 40
0.8052401019
 40
1.0
 40
1.0
 40
1.0
 40
1.0
 10
3.9368886749
 20
4.910595954
 30
0.0
 10
3.9368884915
 20
4.9106216034
 30
0.0
 10
3.9369109134
 20
4.9106635685
 30
0.0
 10
3.9369588874
 20
4.910705679
 30
0.0
 10
3.9370386132
 20
4.9107575246
 30
0.0
 10
3.937178814
 20
4.9108182727
 30
0.0
 10
3.937393486
 20
4.9108873855
 30
0.0
 10
3.9376686775
 20
4.9109567516
 30
0.0
 10
3.9380042465
 20
4.9110266195
 30
0.0
 10
3.9384001861
 20
4.9110967119
 30
0.0
 10
3.939047268
 20
4.9111963529
 30
0.0
 10
3.9400057891
 20
4.9113178161
 30
0.0
 10
3.9413339898
 20
4.9114573788
 30
0.0
 10
3.9428962307
 20
4.911597373
 30
0.0
 10
3.9446887137
 20
4.9117377845
 30
0.0
 10
3.9467069118
 20
4.9118784785
 30
0.0
 10
3.9498344531
 20
4.9120751988
 30
0.0
 10
3.9542678524
 20
4.9123166601
 30
0.0
 10
3.9601857595
 20
4.9125963779
 30
0.0
 10
3.9668573189
 20
4.9128767293
 30
0.0
 10
3.9742187066
 20
4.9131576518
 30
0.0
 10
3.982199182
 20
4.9134389252
 30
0.0
 10
3.9907214525
 20
4.9137204361
 30
0.0
 10
3.9997032395
 20
4.9140021422
 30
0.0
 10
4.0090589774
 20
4.9142839631
 30
0.0
 10
4.0220163281
 20
4.9146629312
 30
0.0
 10
4.0318455804
 20
4.914942125
 30
0.0
 10
4.0384507137
 20
4.9151297867
 30
0.0
  0
SPLINE
  5
47B
100
AcDbEntity
  8
ALL_ASSEMBLY_MEMBERS
100
AcDbSpline
 62
7
  6
CONTINUOUS
 70
0
 71
3
 72
15
 73
11
 74
0
 42
0.0000001
 43
0.0000001
 44
0.0000000001
 40
0.0
 40
0.0
 40
0.0
 40
0.0
 40
0.136474159
 40
0.2715809385
 40
0.4041200627
 40
0.5331293407
 40
0.6577293066
 40
0.7772589735
 40
0.8913858841
 40
1.0
 40
1.0
 40
1.0
 40
1.0
 10
4.0384507137
 20
3.5672784008
 30
0.0
 10
4.0340288671
 20
3.567189951
 30
0.0
 10
4.0252158546
 20
3.5674202918
 30
0.0
 10
4.012193998
 20
3.5689788408
 30
0.0
 10
3.9996145916
 20
3.5717217649
 30
0.0
 10
3.9876926661
 20
3.5755966161
 30
0.0
 10
3.9766292716
 20
3.5805369266
 30
0.0
 10
3.9666093433
 20
3.5864563451
 30
0.0
 10
3.9578072902
 20
3.5932535887
 30
0.0
 10
3.9527254215
 20
3.5984215058
 30
0.0
 10
3.9504578084
 20
3.6011136057
 30
0.0
  0
SPLINE
  5
47C
100
AcDbEntity
  8
ALL_ASSEMBLY_MEMBERS
100
AcDbSpline
 62
7
  6
CONTINUOUS
 70
0
 71
3
 72
32
 73
28
 74
0
 42
0.0000001
 43
0.0000001
 44
0.0000000001
 40
0.0
 40
0.0
 40
0.0
 40
0.0
 40
0.0007624001
 40
0.0012773525
 40
0.0019107835
 40
0.0035714911
 40
0.0057903404
 40
0.0085841868
 40
0.0119601687
 40
0.0159199758
 40
0.0204632911
 40
0.0312943509
 40
0.0444374462
 40
0.059871677
 40
0.0775640322
 40
0.0974681174
 40
0.1195361703
 40
0.1699658672
 40
0.2283703189
 40
0.2941877406
 40
0.3667920483
 40
0.4454843203
 40
0.5295133458
 40
0.6180534472
 40
0.7102657862
 40
0.8052977248
 40
1.0
 40
1.0
 40
1.0
 40
1.0
 10
3.93688866
 20
4.8924949316
 30
0.0
 10
3.9368889702
 20
4.892520796
 30
0.0
 10
3.9369122259
 20
4.8925626691
 30
0.0
 10
3.9369608834
 20
4.8926048341
 30
0.0
 10
3.9370414502
 20
4.8926567153
 30
0.0
 10
3.9371825554
 20
4.8927175618
 30
0.0
 10
3.9373982609
 20
4.8927867944
 30
0.0
 10
3.9376744156
 20
4.8928562803
 30
0.0
 10
3.9380109489
 20
4.8929262291
 30
0.0
 10
3.9384078709
 20
4.8929963972
 30
0.0
 10
3.9390562449
 20
4.8930961148
 30
0.0
 10
3.9400162537
 20
4.8932176545
 30
0.0
 10
3.9413460191
 20
4.8933572892
 30
0.0
 10
3.9429096208
 20
4.8934973412
 30
0.0
 10
3.9447033548
 20
4.8936377405
 30
0.0
 10
3.9467227457
 20
4.8937783889
 30
0.0
 10
3.9498515505
 20
4.8939749834
 30
0.0
 10
3.9542862405
 20
4.8942162091
 30
0.0
 10
3.9602051665
 20
4.8944954288
 30
0.0
 10
3.9668771367
 20
4.8947751416
 30
0.0
 10
3.9742379454
 20
4.8950551636
 30
0.0
 10
3.9822170293
 20
4.8953353548
 30
0.0
 10
3.9907370828
 20
4.8956155311
 30
0.0
 10
3.9997160714
 20
4.8958956822
 30
0.0
 10
4.0090685374
 20
4.8961757072
 30
0.0
 10
4.0220215409
 20
4.89655194
 30
0.0
 10
4.0318475814
 20
4.8968287437
 30
0.0
 10
4.0384507137
 20
4.8970146226
 30
0.0
  0
SPLINE
  5
47D
100
AcDbEntity
  8
ALL_ASSEMBLY_MEMBERS
100
AcDbSpline
 62
7
  6
CONTINUOUS
 70
0
 71
3
 72
14
 73
10
 74
0
 42
0.0000001
 43
0.0000001
 44
0.0000000001
 40
0.0
 40
0.0
 40
0.0
 40
0.0
 40
0.1357862428
 40
0.270372625
 40
0.531059146
 40
0.6557777369
 40
0.7757228919
 40
0.8905014131
 40
1.0
 40
1.0
 40
1.0
 40
1.0
 10
4.0384507137
 20
3.5801208497
 30
0.0
 10
4.0341846429
 20
3.5800352817
 30
0.0
 10
4.0256763386
 20
3.580244457
 30
0.0
 10
4.0090832315
 20
3.5821443437
 30
0.0
 10
3.9931330775
 20
3.5862166146
 30
0.0
 10
3.9785008447
 20
3.5924477459
 30
0.0
 10
3.9686264361
 20
3.597983613
 30
0.0
 10
3.9598540941
 20
3.6043547959
 30
0.0
 10
3.9547108248
 20
3.6092104359
 30
0.0
 10
3.9523853937
 20
3.6117465648
 30
0.0
  0
SPLINE
  5
47E
100
AcDbEntity
  8
ALL_ASSEMBLY_MEMBERS
100
AcDbSpline
 62
7
  6
CONTINUOUS
 70
0
 71
3
 72
10
 73
6
 74
0
 42
0.0000001
 43
0.0000001
 44
0.0000000001
 40
0.0
 40
0.0
 40
0.0
 40
0.0
 40
0.5113747096
 40
0.7582175052
 40
1.0
 40
1.0
 40
1.0
 40
1.0
 10
3.950782174
 20
3.6135564398
 30
0.0
 10
3.9484221772
 20
3.6163157668
 30
0.0
 10
3.9452367901
 20
3.620699252
 30
0.0
 10
3.9418743969
 20
3.6269608821
 30
0.0
 10
3.9405241247
 20
3.6301639381
 30
0.0
 10
3.9399354635
 20
3.6317765817
 30
0.0
  0
SPLINE
  5
47F
100
AcDbEntity
  8
ALL_ASSEMBLY_MEMBERS
100
AcDbSpline
 62
7
  6
CONTINUOUS
 70
0
 71
3
 72
32
 73
28
 74
0
 42
0.0000001
 43
0.0000001
 44
0.0000000001
 40
0.0
 40
0.0
 40
0.0
 40
0.0
 40
0.0007541045
 40
0.0012629438
 40
0.0018899128
 40
0.0035378319
 40
0.0057450303
 40
0.0085281687
 40
0.0118930965
 40
0.0158416106
 40
0.02037367
 40
0.0311834358
 40
0.0443087092
 40
0.0597291308
 40
0.0774072684
 40
0.0972976685
 40
0.1193542185
 40
0.1697678488
 40
0.2281583775
 40
0.2939731439
 40
0.3665806468
 40
0.4452899178
 40
0.5293420535
 40
0.6179117937
 40
0.7101601776
 40
0.8052312607
 40
1.0
 40
1.0
 40
1.0
 40
1.0
 10
3.9368886792
 20
4.8743347396
 30
0.0
 10
3.9368884346
 20
4.8743603235
 30
0.0
 10
3.9369107691
 20
4.8744022374
 30
0.0
 10
3.936958647
 20
4.8744442513
 30
0.0
 10
3.9370382735
 20
4.8744960031
 30
0.0
 10
3.937178359
 20
4.874556625
 30
0.0
 10
3.9373928919
 20
4.8746255947
 30
0.0
 10
3.9376679498
 20
4.8746948188
 30
0.0
 10
3.9380033852
 20
4.8747645461
 30
0.0
 10
3.9383991918
 20
4.8748344974
 30
0.0
 10
3.9390461083
 20
4.874933941
 30
0.0
 10
3.9400044433
 20
4.8750551621
 30
0.0
 10
3.9413324516
 20
4.8751944444
 30
0.0
 10
3.9428945351
 20
4.8753341574
 30
0.0
 10
3.9446868853
 20
4.8754742914
 30
0.0
 10
3.9467049693
 20
4.8756147083
 30
0.0
 10
3.9498324145
 20
4.8758110449
 30
0.0
 10
3.9542657446
 20
4.8760520364
 30
0.0
 10
3.9601836134
 20
4.8763312198
 30
0.0
 10
3.966855181
 20
4.8766110455
 30
0.0
 10
3.9742166327
 20
4.8768914561
 30
0.0
 10
3.9821972337
 20
4.8771722331
 30
0.0
 10
3.9907196988
 20
4.8774532684
 30
0.0
 10
3.9997017432
 20
4.8777345203
 30
0.0
 10
4.0090578056
 20
4.8780159123
 30
0.0
 10
4.0220156631
 20
4.8783943402
 30
0.0
 10
4.0318453138
 20
4.8786731798
 30
0.0
 10
4.0384507137
 20
4.8788606257
 30
0.0
  0
SPLINE
  5
480
100
AcDbEntity
  8
ALL_ASSEMBLY_MEMBERS
100
AcDbSpline
 62
7
  6
CONTINUOUS
 70
0
 71
3
 72
26
 73
22
 74
0
 42
0.0000001
 43
0.0000001
 44
0.0000000001
 40
0.0
 40
0.0
 40
0.0
 40
0.0
 40
0.1892425324
 40
0.3716778587
 40
0.4582389565
 40
0.540667143
 40
0.6182049555
 40
0.6901486681
 40
0.7558541579
 40
0.8147242596
 40
0.8662376683
 40
0.9099160533
 40
0.9286997116
 40
0.9453881502
 40
0.9599399523
 40
0.9723279186
 40
0.9825335443
 40
0.9905422876
 40
0.9963497554
 40
0.9984378506
 40
1.0
 40
1.0
 40
1.0
 40
1.0
 10
4.0384507137
 20
4.918176045
 30
0.0
 10
4.0320448533
 20
4.917999422
 30
0.0
 10
4.0194635581
 20
4.9176524911
 30
0.0
 10
4.0039525941
 20
4.917209336
 30
0.0
 10
3.9920577913
 20
4.916849364
 30
0.0
 10
3.9837138836
 20
4.9165842462
 30
0.0
 10
3.9758652197
 20
4.9163193028
 30
0.0
 10
3.9685831686
 20
4.9160546096
 30
0.0
 10
3.9619336958
 20
4.9157903225
 30
0.0
 10
3.9559766234
 20
4.9155265716
 30
0.0
 10
3.9507662375
 20
4.9152636947
 30
0.0
 10
3.9469133431
 20
4.9150358368
 30
0.0
 10
3.9442395254
 20
4.9148496902
 30
0.0
 10
3.9425507208
 20
4.9147174503
 30
0.0
 10
3.9410791845
 20
4.9145855804
 30
0.0
 10
3.9398282017
 20
4.9144541376
 30
0.0
 10
3.9387998956
 20
4.9143239045
 30
0.0
 10
3.937996876
 20
4.91419458
 30
0.0
 10
3.9374693184
 20
4.9140813327
 30
0.0
 10
3.9371641455
 20
4.9139838271
 30
0.0
 10
3.9370502391
 20
4.913934281
 30
0.0
 10
3.9370044535
 20
4.9139077862
 30
0.0
  0
SPLINE
  5
481
100
AcDbEntity
  8
ALL_ASSEMBLY_MEMBERS
100
AcDbSpline
 62
7
  6
CONTINUOUS
 70
0
 71
3
 72
19
 73
15
 74
0
 42
0.0000001
 43
0.0000001
 44
0.0000000001
 40
0.0
 40
0.0
 40
0.0
 40
0.0
 40
0.1420505436
 40
0.2818872143
 40
0.4175981277
 40
0.5477126077
 40
0.6103351943
 40
0.6711846084
 40
0.7302134133
 40
0.7874277335
 40
0.8428774558
 40
0.896669896
 40
0.9489717334
 40
1.0
 40
1.0
 40
1.0
 40
1.0
 10
4.0384507137
 20
3.5929307865
 30
0.0
 10
4.0328526458
 20
3.5928182987
 30
0.0
 10
4.0217196006
 20
3.5932441067
 30
0.0
 10
4.0054221521
 20
3.5958146668
 30
0.0
 10
3.9900139595
 20
3.6002424895
 30
0.0
 10
3.978106495
 20
3.6054398244
 30
0.0
 10
3.9694340041
 20
3.6104261152
 30
0.0
 10
3.9634833863
 20
3.6144818135
 30
0.0
 10
3.9580478141
 20
3.6188743527
 30
0.0
 10
3.9531629859
 20
3.6235711155
 30
0.0
 10
3.9488633799
 20
3.6285401489
 30
0.0
 10
3.9451805218
 20
3.6337479282
 30
0.0
 10
3.9421384707
 20
3.6391552601
 30
0.0
 10
3.9405369825
 20
3.6429111209
 30
0.0
 10
3.9398557038
 20
3.6448036064
 30
0.0
  0
SPLINE
  5
482
100
AcDbEntity
  8
ALL_ASSEMBLY_MEMBERS
100
AcDbSpline
 62
7
  6
CONTINUOUS
 70
0
 71
3
 72
9
 73
5
 74
0
 42
0.0000001
 43
0.0000001
 44
0.0000000001
 40
0.0
 40
0.0
 40
0.0
 40
0.0
 40
0.2523322191
 40
1.0
 40
1.0
 40
1.0
 40
1.0
 10
3.9395783096
 20
3.6455939263
 30
0.0
 10
3.9393306823
 20
3.6463179503
 30
0.0
 10
3.938412498
 20
3.6492084204
 30
0.0
 10
3.9377527459
 20
3.6521815875
 30
0.0
 10
3.9374179756
 20
3.6544240449
 30
0.0
  0
SPLINE
  5
483
100
AcDbEntity
  8
ALL_ASSEMBLY_MEMBERS
100
AcDbSpline
 62
9
  6
CONTINUOUS
 70
0
 71
3
 72
21
 73
17
 74
0
 42
0.0000001
 43
0.0000001
 44
0.0000000001
 40
0.0
 40
0.0
 40
0.0
 40
0.0
 40
0.0726131494
 40
0.1449649683
 40
0.2871118953
 40
0.3564059284
 40
0.4241377628
 40
0.5539380128
 40
0.615862808
 40
0.675701978
 40
0.7335069738
 40
0.7894173001
 40
0.8436654523
 40
0.8965697715
 40
0.9485293739
 40
1.0
 40
1.0
 40
1.0
 40
1.0
 10
4.0384507137
 20
3.8045791592
 30
0.0
 10
4.035132543
 20
3.8045791592
 30
0.0
 10
4.0285053379
 20
3.8048100652
 30
0.0
 10
4.0154494707
 20
3.8061739702
 30
0.0
 10
4.0027106411
 20
3.808878962
 30
0.0
 10
3.9905986997
 20
3.8129202598
 30
0.0
 10
3.979359349
 20
3.8176693372
 30
0.0
 10
3.9690118304
 20
3.8236028777
 30
0.0
 10
3.9599250375
 20
3.8306684019
 30
0.0
 10
3.9539654976
 20
3.8363305573
 30
0.0
 10
3.9488152009
 20
3.8423823295
 30
0.0
 10
3.9445267188
 20
3.8487691333
 30
0.0
 10
3.9411409576
 20
3.855428587
 30
0.0
 10
3.9386973748
 20
3.8622990541
 30
0.0
 10
3.9372179872
 20
3.8693096906
 30
0.0
 10
3.936888727
 20
3.8740426614
 30
0.0
 10
3.936888727
 20
3.8763946917
 30
0.0
  0
SPLINE
  5
484
100
AcDbEntity
  8
ALL_ASSEMBLY_MEMBERS
100
AcDbSpline
 62
7
  6
CONTINUOUS
 70
0
 71
3
 72
26
 73
22
 74
0
 42
0.0000001
 43
0.0000001
 44
0.0000000001
 40
0.0
 40
0.0
 40
0.0
 40
0.0
 40
0.1892522526
 40
0.3717105993
 40
0.4582816632
 40
0.5407176934
 40
0.6182626816
 40
0.6902048771
 40
0.7559070374
 40
0.8147686924
 40
0.8662742874
 40
0.9099456212
 40
0.9287249564
 40
0.94541034
 40
0.9599604909
 40
0.972344667
 40
0.9825453494
 40
0.9905495736
 40
0.9963542762
 40
0.9984405295
 40
1.0
 40
1.0
 40
1.0
 40
1.0
 10
4.0384507137
 20
4.9005732044
 30
0.0
 10
4.0320445118
 20
4.9003966737
 30
0.0
 10
4.0194620823
 20
4.9000499673
 30
0.0
 10
4.0039496365
 20
4.899607218
 30
0.0
 10
3.9920534206
 20
4.8992476396
 30
0.0
 10
3.9837086439
 20
4.8989828315
 30
0.0
 10
3.9758594982
 20
4.8987182592
 30
0.0
 10
3.9685773436
 20
4.8984539409
 30
0.0
 10
3.9619282936
 20
4.8981901003
 30
0.0
 10
3.9559718563
 20
4.8979267995
 30
0.0
 10
3.9507622287
 20
4.8976644062
 30
0.0
 10
3.9469099536
 20
4.8974369901
 30
0.0
 10
3.9442365976
 20
4.897251189
 30
0.0
 10
3.9425480778
 20
4.8971191992
 30
0.0
 10
3.9410768034
 20
4.8969876072
 30
0.0
 10
3.939826146
 20
4.8968564166
 30
0.0
 10
3.9387982582
 20
4.8967264383
 30
0.0
 10
3.9379956208
 20
4.8965973463
 30
0.0
 10
3.9374683249
 20
4.896484356
 30
0.0
 10
3.9371633467
 20
4.8963870551
 30
0.0
 10
3.937049565
 20
4.896337599
 30
0.0
 10
3.9370038613
 20
4.8963111437
 30
0.0
  0
SPLINE
  5
485
100
AcDbEntity
  8
ALL_ASSEMBLY_MEMBERS
100
AcDbSpline
 62
7
  6
CONTINUOUS
 70
0
 71
3
 72
26
 73
22
 74
0
 42
0.0000001
 43
0.0000001
 44
0.0000000001
 40
0.0
 40
0.0
 40
0.0
 40
0.0
 40
0.1892659839
 40
0.3717203385
 40
0.4582903241
 40
0.5407266919
 40
0.6182706724
 40
0.6902182079
 40
0.7559248426
 40
0.8147934479
 40
0.8663024051
 40
0.9099736807
 40
0.9287527517
 40
0.9454357586
 40
0.9599813889
 40
0.9723627688
 40
0.9825611451
 40
0.9905616882
 40
0.9963597867
 40
0.9984429466
 40
1.0
 40
1.0
 40
1.0
 40
1.0
 10
4.0384507137
 20
4.8829733777
 30
0.0
 10
4.0320440536
 20
4.8827951601
 30
0.0
 10
4.019461298
 20
4.8824454901
 30
0.0
 10
4.0039485483
 20
4.8819997556
 30
0.0
 10
3.992052478
 20
4.8816382265
 30
0.0
 10
3.9837077473
 20
4.8813722091
 30
0.0
 10
3.9758584296
 20
4.8811066008
 30
0.0
 10
3.968575961
 20
4.8808414701
 30
0.0
 10
3.9619263282
 20
4.8805769598
 30
0.0
 10
3.9559693737
 20
4.8803131912
 30
0.0
 10
3.9507593818
 20
4.880050487
 30
0.0
 10
3.9469069883
 20
4.8798229319
 30
0.0
 10
3.9442337075
 20
4.8796371294
 30
0.0
 10
3.9425454172
 20
4.8795051793
 30
0.0
 10
3.941074459
 20
4.8793736372
 30
0.0
 10
3.9398241094
 20
4.8792425635
 30
0.0
 10
3.9387964965
 20
4.8791127364
 30
0.0
 10
3.9379942526
 20
4.8789838536
 30
0.0
 10
3.9374673827
 20
4.8788710185
 30
0.0
 10
3.9371627866
 20
4.8787738657
 30
0.0
 10
3.9370491673
 20
4.8787245048
 30
0.0
 10
3.9370035302
 20
4.8786980971
 30
0.0
  0
SPLINE
  5
486
100
AcDbEntity
  8
ALL_ASSEMBLY_MEMBERS
100
AcDbSpline
 62
9
  6
CONTINUOUS
 70
0
 71
3
 72
21
 73
17
 74
0
 42
0.0000001
 43
0.0000001
 44
0.0000000001
 40
0.0
 40
0.0
 40
0.0
 40
0.0
 40
0.0514706261
 40
0.1034302285
 40
0.1563345477
 40
0.2105826999
 40
0.2664930262
 40
0.324298022
 40
0.384137192
 40
0.4460619872
 40
0.5758622372
 40
0.6435940716
 40
0.7128881047
 40
0.8550350317
 40
0.9273868506
 40
1.0
 40
1.0
 40
1.0
 40
1.0
 10
4.1400127004
 20
3.8763946917
 30
0.0
 10
4.1400127004
 20
3.8740426614
 30
0.0
 10
4.1396834402
 20
3.8693096906
 30
0.0
 10
4.1382040525
 20
3.8622990541
 30
0.0
 10
4.1357604697
 20
3.855428587
 30
0.0
 10
4.1323747085
 20
3.8487691333
 30
0.0
 10
4.1280862264
 20
3.8423823295
 30
0.0
 10
4.1229359298
 20
3.8363305573
 30
0.0
 10
4.1169763898
 20
3.8306684019
 30
0.0
 10
4.107889597
 20
3.8236028777
 30
0.0
 10
4.0975420784
 20
3.8176693372
 30
0.0
 10
4.0863027277
 20
3.8129202598
 30
0.0
 10
4.0741907862
 20
3.808878962
 30
0.0
 10
4.0614519566
 20
3.8061739702
 30
0.0
 10
4.0483960894
 20
3.8048100652
 30
0.0
 10
4.0417688844
 20
3.8045791592
 30
0.0
 10
4.0384507137
 20
3.8045791592
 30
0.0
  0
SPLINE
  5
487
100
AcDbEntity
  8
ALL_ASSEMBLY_MEMBERS
100
AcDbSpline
 62
7
  6
CONTINUOUS
 70
0
 71
3
 72
18
 73
14
 74
0
 42
0.0000001
 43
0.0000001
 44
0.0000000001
 40
0.0
 40
0.0
 40
0.0
 40
0.0
 40
0.0524718484
 40
0.1060484837
 40
0.1609291301
 40
0.2172679282
 40
0.2751667645
 40
0.3346741899
 40
0.4584022934
 40
0.5880775404
 40
0.7226015424
 40
0.8605380591
 40
1.0
 40
1.0
 40
1.0
 40
1.0
 10
4.1372619615
 20
3.6508750524
 30
0.0
 10
4.1366023105
 20
3.648854005
 30
0.0
 10
4.1350420939
 20
3.6448399459
 30
0.0
 10
4.1320458319
 20
3.6390365658
 30
0.0
 10
4.1283975905
 20
3.6334314274
 30
0.0
 10
4.1241214169
 20
3.6280648668
 30
0.0
 10
4.1192488219
 20
3.6229713534
 30
0.0
 10
4.1119106423
 20
3.6165063064
 30
0.0
 10
4.1013986588
 20
3.6093204094
 30
0.0
 10
4.0872347405
 20
3.6023973397
 30
0.0
 10
4.0717369815
 20
3.5972233056
 30
0.0
 10
4.0553351473
 20
3.5939331776
 30
0.0
 10
4.0441000827
 20
3.5930443051
 30
0.0
 10
4.0384507137
 20
3.5929307865
 30
0.0
  0
SPLINE
  5
488
100
AcDbEntity
  8
ALL_ASSEMBLY_MEMBERS
100
AcDbSpline
 62
7
  6
CONTINUOUS
 70
0
 71
3
 72
9
 73
5
 74
0
 42
0.0000001
 43
0.0000001
 44
0.0000000001
 40
0.0
 40
0.0
 40
0.0
 40
0.0
 40
0.4966313151
 40
1.0
 40
1.0
 40
1.0
 40
1.0
 10
4.1398564985
 20
3.6510388687
 30
0.0
 10
4.1396704381
 20
3.6486009236
 30
0.0
 10
4.1389596688
 20
3.6437121056
 30
0.0
 10
4.1376038573
 20
3.6389628693
 30
0.0
 10
4.1367737845
 20
3.6366278155
 30
0.0
  0
SPLINE
  5
489
100
AcDbEntity
  8
ALL_ASSEMBLY_MEMBERS
100
AcDbSpline
 62
7
  6
CONTINUOUS
 70
0
 71
3
 72
18
 73
14
 74
0
 42
0.0000001
 43
0.0000001
 44
0.0000000001
 40
0.0
 40
0.0
 40
0.0
 40
0.0
 40
0.0525704803
 40
0.1062765435
 40
0.1613010826
 40
0.2177837111
 40
0.2758133364
 40
0.3354274454
 40
0.4592712087
 40
0.5889029432
 40
0.7232370877
 40
0.8608780924
 40
1.0
 40
1.0
 40
1.0
 40
1.0
 10
4.1367737845
 20
3.6366278155
 30
0.0
 10
4.1360692254
 20
3.6346458403
 30
0.0
 10
4.1344271912
 20
3.6307131402
 30
0.0
 10
4.1313348651
 20
3.625036398
 30
0.0
 10
4.1276147116
 20
3.6195595314
 30
0.0
 10
4.1232905165
 20
3.6143208259
 30
0.0
 10
4.118393065
 20
3.6093529755
 30
0.0
 10
4.1110536152
 20
3.6030539187
 30
0.0
 10
4.1005968776
 20
3.5960604521
 30
0.0
 10
4.0865664617
 20
3.589326538
 30
0.0
 10
4.0712589689
 20
3.5842967159
 30
0.0
 10
4.0550860116
 20
3.5810982167
 30
0.0
 10
4.0440162199
 20
3.5802324815
 30
0.0
 10
4.0384507137
 20
3.5801208497
 30
0.0
  0
SPLINE
  5
48A
100
AcDbEntity
  8
ALL_ASSEMBLY_MEMBERS
100
AcDbSpline
 62
7
  6
CONTINUOUS
 70
0
 71
3
 72
18
 73
14
 74
0
 42
0.0000001
 43
0.0000001
 44
0.0000000001
 40
0.0
 40
0.0
 40
0.0
 40
0.0
 40
0.0524741225
 40
0.1060521242
 40
0.1609334146
 40
0.2172723219
 40
0.2751708699
 40
0.3346776149
 40
0.4584035785
 40
0.588076926
 40
0.7225999468
 40
0.860536509
 40
1.0
 40
1.0
 40
1.0
 40
1.0
 10
4.1372673518
 20
3.6252389303
 30
0.0
 10
4.136608234
 20
3.6232172642
 30
0.0
 10
4.1350489964
 20
3.6192019428
 30
0.0
 10
4.132053876
 20
3.6133966278
 30
0.0
 10
4.1284064896
 20
3.6077895817
 30
0.0
 10
4.1241308851
 20
3.6024211704
 30
0.0
 10
4.1192585758
 20
3.5973259064
 30
0.0
 10
4.1119204717
 20
3.5908586534
 30
0.0
 10
4.1014078999
 20
3.5836703754
 30
0.0
 10
4.0872424571
 20
3.5767452267
 30
0.0
 10
4.0717425025
 20
3.571569999
 30
0.0
 10
4.0553379962
 20
3.5682796833
 30
0.0
 10
4.0441010345
 20
3.5673914236
 30
0.0
 10
4.0384507137
 20
3.5672784008
 30
0.0
  0
SPLINE
  5
48B
100
AcDbEntity
  8
ALL_ASSEMBLY_MEMBERS
100
AcDbSpline
 62
7
  6
CONTINUOUS
 70
0
 71
3
 72
9
 73
5
 74
0
 42
0.0000001
 43
0.0000001
 44
0.0000000001
 40
0.0
 40
0.0
 40
0.0
 40
0.0
 40
0.4965626026
 40
1.0
 40
1.0
 40
1.0
 40
1.0
 10
4.1398999857
 20
3.6260165012
 30
0.0
 10
4.1397348487
 20
3.6234685573
 30
0.0
 10
4.1390351128
 20
3.6183548762
 30
0.0
 10
4.1376293036
 20
3.6133901678
 30
0.0
 10
4.1367606537
 20
3.6109516229
 30
0.0
  0
SPLINE
  5
48C
100
AcDbEntity
  8
ALL_ASSEMBLY_MEMBERS
100
AcDbSpline
 62
7
  6
CONTINUOUS
 70
0
 71
3
 72
13
 73
9
 74
0
 42
0.0000001
 43
0.0000001
 44
0.0000000001
 40
0.0
 40
0.0
 40
0.0
 40
0.0
 40
0.1118162199
 40
0.2268014007
 40
0.3455102826
 40
0.4683040131
 40
0.7262332544
 40
1.0
 40
1.0
 40
1.0
 40
1.0
 10
4.1367606537
 20
3.6109516229
 30
0.0
 10
4.1358703192
 20
3.6084522029
 30
0.0
 10
4.1337158116
 20
3.6035003632
 30
0.0
 10
4.1295002331
 20
3.5964455971
 30
0.0
 10
4.1243104588
 20
3.5897407161
 30
0.0
 10
4.1160356357
 20
3.5812274656
 30
0.0
 10
4.1034994579
 20
3.571879778
 30
0.0
 10
4.0921230828
 20
3.5662669468
 30
0.0
 10
4.0860881208
 20
3.5638629552
 30
0.0
  0
SPLINE
  5
48D
100
AcDbEntity
  8
ALL_ASSEMBLY_MEMBERS
100
AcDbSpline
 62
7
  6
CONTINUOUS
 70
0
 71
3
 72
18
 73
14
 74
0
 42
0.0000001
 43
0.0000001
 44
0.0000000001
 40
0.0
 40
0.0
 40
0.0
 40
0.0
 40
0.0246541363
 40
0.0462379093
 40
0.0749598774
 40
0.1110574533
 40
0.1546186813
 40
0.2056750887
 40
0.2642315047
 40
0.4037931596
 40
0.573146943
 40
0.772040762
 40
1.0
 40
1.0
 40
1.0
 40
1.0
 10
4.1321155021
 20
4.8743658854
 30
0.0
 10
4.1321155628
 20
4.8743064304
 30
0.0
 10
4.1320077166
 20
4.8742207593
 30
0.0
 10
4.1318510907
 20
4.8741491539
 30
0.0
 10
4.1316510855
 20
4.8740795993
 30
0.0
 10
4.1313996514
 20
4.8740121371
 30
0.0
 10
4.1310915311
 20
4.8739433529
 30
0.0
 10
4.1307286768
 20
4.8738746574
 30
0.0
 10
4.1301356817
 20
4.8737768971
 30
0.0
 10
4.1292574236
 20
4.8736577659
 30
0.0
 10
4.1280404172
 20
4.8735208538
 30
0.0
 10
4.1266091513
 20
4.8733835382
 30
0.0
 10
4.1255833483
 20
4.8732975049
 30
0.0
 10
4.1250353401
 20
4.8732539228
 30
0.0
  0
SPLINE
  5
48E
100
AcDbEntity
  8
ALL_ASSEMBLY_MEMBERS
100
AcDbSpline
 62
7
  6
CONTINUOUS
 70
0
 71
3
 72
28
 73
24
 74
0
 42
0.0000001
 43
0.0000001
 44
0.0000000001
 40
0.0
 40
0.0
 40
0.0
 40
0.0
 40
0.1911837563
 40
0.3750133471
 40
0.4620840107
 40
0.5449036059
 40
0.6227172357
 40
0.6948122091
 40
0.760540737
 40
0.819291218
 40
0.8705335213
 40
0.8931797078
 40
0.9137719235
 40
0.9322658944
 40
0.948617574
 40
0.9627834188
 40
0.9747289826
 40
0.9844336045
 40
0.9918802267
 40
0.9947534785
 40
0.9970600351
 40
0.9988038867
 40
1.0
 40
1.0
 40
1.0
 40
1.0
 10
4.0384507137
 20
4.9305011378
 30
0.0
 10
4.0444384324
 20
4.9306142146
 30
0.0
 10
4.0561835286
 20
4.9308368036
 30
0.0
 10
4.070655383
 20
4.9311226813
 30
0.0
 10
4.0817331294
 20
4.9313555191
 30
0.0
 10
4.0894904978
 20
4.9315272185
 30
0.0
 10
4.0967786308
 20
4.931699104
 30
0.0
 10
4.1035312266
 20
4.9318711627
 30
0.0
 10
4.109686465
 20
4.9320432301
 30
0.0
 10
4.1151882137
 20
4.932215336
 30
0.0
 10
4.1193404669
 20
4.9323638827
 30
0.0
 10
4.1222975862
 20
4.9324848481
 30
0.0
 10
4.1242293893
 20
4.9325717986
 30
0.0
 10
4.1259638004
 20
4.9326586981
 30
0.0
 10
4.1274966358
 20
4.9327454806
 30
0.0
 10
4.1288239723
 20
4.9328321092
 30
0.0
 10
4.1299426397
 20
4.932918341
 30
0.0
 10
4.1308500505
 20
4.9330041527
 30
0.0
 10
4.1314730204
 20
4.9330793523
 30
0.0
 10
4.1318634524
 20
4.9331425987
 30
0.0
 10
4.1320762661
 20
4.9331854151
 30
0.0
 10
4.1322349296
 20
4.9332277848
 30
0.0
 10
4.1323217105
 20
4.9332608046
 30
0.0
 10
4.1323541301
 20
4.9332795881
 30
0.0
  0
SPLINE
  5
48F
100
AcDbEntity
  8
ALL_ASSEMBLY_MEMBERS
100
AcDbSpline
 62
7
  6
CONTINUOUS
 70
0
 71
3
 72
26
 73
22
 74
0
 42
0.0000001
 43
0.0000001
 44
0.0000000001
 40
0.0
 40
0.0
 40
0.0
 40
0.0
 40
0.1890640664
 40
0.3713535465
 40
0.4578560239
 40
0.5402366576
 40
0.6177405724
 40
0.6896589105
 40
0.7553551271
 40
0.8142302217
 40
0.8657693127
 40
0.9094950344
 40
0.9283098311
 40
0.945036111
 40
0.9596326946
 40
0.9720696302
 40
0.9823293642
 40
0.9903988464
 40
0.9962751877
 40
0.9983999977
 40
1.0
 40
1.0
 40
1.0
 40
1.0
 10
4.0384507137
 20
4.8788606257
 30
0.0
 10
4.0448504114
 20
4.8790422343
 30
0.0
 10
4.0574204901
 20
4.8793989676
 30
0.0
 10
4.0729181744
 20
4.8798546184
 30
0.0
 10
4.0848041692
 20
4.8802247469
 30
0.0
 10
4.0931431188
 20
4.8804973768
 30
0.0
 10
4.1009879346
 20
4.8807698132
 30
0.0
 10
4.1082674117
 20
4.8810420302
 30
0.0
 10
4.1149156018
 20
4.8813138078
 30
0.0
 10
4.1208730846
 20
4.8815850797
 30
0.0
 10
4.1260857516
 20
4.8818554696
 30
0.0
 10
4.1299418077
 20
4.8820898332
 30
0.0
 10
4.1326192086
 20
4.8822813096
 30
0.0
 10
4.134311581
 20
4.8824173783
 30
0.0
 10
4.1357872519
 20
4.8825530651
 30
0.0
 10
4.1370428696
 20
4.8826883508
 30
0.0
 10
4.1380762794
 20
4.8828224425
 30
0.0
 10
4.1388849906
 20
4.8829556277
 30
0.0
 10
4.1394175759
 20
4.8830722868
 30
0.0
 10
4.1397269874
 20
4.8831725307
 30
0.0
 10
4.1398430248
 20
4.8832234729
 30
0.0
 10
4.1398899165
 20
4.8832506158
 30
0.0
  0
SPLINE
  5
490
100
AcDbEntity
  8
ALL_ASSEMBLY_MEMBERS
100
AcDbSpline
 62
7
  6
CONTINUOUS
 70
0
 71
3
 72
9
 73
5
 74
0
 42
0.0000001
 43
0.0000001
 44
0.0000000001
 40
0.0
 40
0.0
 40
0.0
 40
0.0
 40
0.4956348024
 40
1.0
 40
1.0
 40
1.0
 40
1.0
 10
3.9368882141
 20
3.6743610402
 30
0.0
 10
3.9368882462
 20
3.6711949662
 30
0.0
 10
3.9374928188
 20
3.6647934915
 30
0.0
 10
3.9392613163
 20
3.6586150236
 30
0.0
 10
3.9404127269
 20
3.6556059495
 30
0.0
  0
SPLINE
  5
491
100
AcDbEntity
  8
ALL_ASSEMBLY_MEMBERS
100
AcDbSpline
 62
7
  6
CONTINUOUS
 70
0
 71
3
 72
23
 73
19
 74
0
 42
0.0000001
 43
0.0000001
 44
0.0000000001
 40
0.0
 40
0.0
 40
0.0
 40
0.0
 40
0.050920447
 40
0.1039732908
 40
0.1595182506
 40
0.2177076048
 40
0.2785054686
 40
0.3417047413
 40
0.4069642319
 40
0.4738357644
 40
0.5417918119
 40
0.6102570971
 40
0.6786322036
 40
0.7463242869
 40
0.8127659822
 40
0.8774470781
 40
0.9399821267
 40
1.0
 40
1.0
 40
1.0
 40
1.0
 10
3.9404127269
 20
3.6556059495
 30
0.0
 10
3.9416047198
 20
3.6524908184
 30
0.0
 10
3.9446136777
 20
3.6463375263
 30
0.0
 10
3.9506957605
 20
3.637792074
 30
0.0
 10
3.9583088445
 20
3.6299043428
 30
0.0
 10
3.9673140704
 20
3.6228099112
 30
0.0
 10
3.9775530529
 20
3.6166257103
 30
0.0
 10
3.9888466731
 20
3.6114537154
 30
0.0
 10
4.0009994898
 20
3.6073807112
 30
0.0
 10
4.0138014597
 20
3.6044768912
 30
0.0
 10
4.0270305077
 20
3.6027902996
 30
0.0
 10
4.0404574962
 20
3.6023497122
 30
0.0
 10
4.0538497701
 20
3.6031638808
 30
0.0
 10
4.0669750491
 20
3.6052180868
 30
0.0
 10
4.0796056164
 20
3.60847642
 30
0.0
 10
4.0915250871
 20
3.6128853354
 30
0.0
 10
4.1025215631
 20
3.618369793
 30
0.0
 10
4.1092600509
 20
3.622776113
 30
0.0
 10
4.112403298
 20
3.6251372823
 30
0.0
  0
SPLINE
  5
492
100
AcDbEntity
  8
ALL_ASSEMBLY_MEMBERS
100
AcDbSpline
 62
7
  6
CONTINUOUS
 70
0
 71
3
 72
11
 73
7
 74
0
 42
0.0000001
 43
0.0000001
 44
0.0000000001
 40
0.0
 40
0.0
 40
0.0
 40
0.0
 40
0.2395906492
 40
0.4876647963
 40
0.741986723
 40
1.0
 40
1.0
 40
1.0
 40
1.0
 10
3.9849344849
 20
3.5732728563
 30
0.0
 10
3.9887769086
 20
3.5714929741
 30
0.0
 10
3.996832058
 20
3.5683592677
 30
0.0
 10
4.0095398296
 20
3.5650183154
 30
0.0
 10
4.0228542597
 20
3.5630159107
 30
0.0
 10
4.0319191618
 20
3.5626051974
 30
0.0
 10
4.0364793329
 20
3.5626326036
 30
0.0
  0
SPLINE
  5
493
100
AcDbEntity
  8
ALL_ASSEMBLY_MEMBERS
100
AcDbSpline
 62
7
  6
CONTINUOUS
 70
0
 71
3
 72
11
 73
7
 74
0
 42
0.0000001
 43
0.0000001
 44
0.0000000001
 40
0.0
 40
0.0
 40
0.0
 40
0.0
 40
0.2554090208
 40
0.5087961323
 40
0.7577136833
 40
1.0
 40
1.0
 40
1.0
 40
1.0
 10
4.0384795655
 20
3.5626596129
 30
0.0
 10
4.0429685963
 20
3.5627538592
 30
0.0
 10
4.0519082689
 20
3.5633922358
 30
0.0
 10
4.0650521658
 20
3.5656905891
 30
0.0
 10
4.0776626492
 20
3.569287683
 30
0.0
 10
4.0856771956
 20
3.5725616096
 30
0.0
 10
4.0895166359
 20
3.5744056706
 30
0.0
  0
SPLINE
  5
494
100
AcDbEntity
  8
ALL_ASSEMBLY_MEMBERS
100
AcDbSpline
 62
7
  6
CONTINUOUS
 70
0
 71
3
 72
33
 73
29
 74
0
 42
0.0000001
 43
0.0000001
 44
0.0000000001
 40
0.0
 40
0.0
 40
0.0
 40
0.0
 40
0.1605828311
 40
0.245993629
 40
0.3328927071
 40
0.4198027388
 40
0.5052248252
 40
0.5876997
 40
0.6658209758
 40
0.7382474026
 40
0.8037485356
 40
0.8335439377
 40
0.8612019556
 40
0.88660133
 40
0.9096308535
 40
0.9301999322
 40
0.9482209609
 40
0.9636128116
 40
0.976320317
 40
0.9816532242
 40
0.9862985734
 40
0.9902521419
 40
0.9935132893
 40
0.9960868635
 40
0.997985133
 40
0.9986911489
 40
0.9992466397
 40
1.0
 40
1.0
 40
1.0
 40
1.0
 10
4.0851109875
 20
4.8937156655
 30
0.0
 10
4.0776068053
 20
4.8934515443
 30
0.0
 10
4.0661102245
 20
4.8930776461
 30
0.0
 10
4.0505516944
 20
4.8925952127
 30
0.0
 10
4.0384362319
 20
4.8922260666
 30
0.0
 10
4.0263202446
 20
4.891856868
 30
0.0
 10
4.0144112241
 20
4.8914878107
 30
0.0
 10
4.0029133591
 20
4.8911189906
 30
0.0
 10
3.9920234779
 20
4.8907506354
 30
0.0
 10
3.981927752
 20
4.8903828202
 30
0.0
 10
3.974091335
 20
4.8900681317
 30
0.0
 10
3.9683476557
 20
4.8898129545
 30
0.0
 10
3.9644778878
 20
4.889627832
 30
0.0
 10
3.9609248714
 20
4.8894429121
 30
0.0
 10
3.9577038091
 20
4.8892581941
 30
0.0
 10
3.9548283625
 20
4.8890738448
 30
0.0
 10
3.9523108197
 20
4.8888901072
 30
0.0
 10
3.9501619771
 20
4.8887069416
 30
0.0
 10
3.9486066763
 20
4.8885476124
 30
0.0
 10
3.9475539395
 20
4.8884168709
 30
0.0
 10
3.9469089643
 20
4.8883249072
 30
0.0
 10
3.9463619524
 20
4.8882332147
 30
0.0
 10
3.9459132346
 20
4.8881423125
 30
0.0
 10
3.94556294
 20
4.8880516327
 30
0.0
 10
3.9453337117
 20
4.8879725926
 30
0.0
 10
3.9452016441
 20
4.8879039766
 30
0.0
 10
3.945125367
 20
4.8878513414
 30
0.0
 10
3.9450842723
 20
4.8877946928
 30
0.0
 10
3.9450841852
 20
4.8877594659
 30
0.0
  0
SPLINE
  5
495
100
AcDbEntity
  8
ALL_ASSEMBLY_MEMBERS
100
AcDbSpline
 62
7
  6
CONTINUOUS
 70
0
 71
3
 72
28
 73
24
 74
0
 42
0.0000001
 43
0.0000001
 44
0.0000000001
 40
0.0
 40
0.0
 40
0.0
 40
0.0
 40
0.1565770261
 40
0.3245926064
 40
0.4095150513
 40
0.4931984551
 40
0.5742846692
 40
0.651457715
 40
0.7234610988
 40
0.7891308494
 40
0.8473940313
 40
0.8734534192
 40
0.8973159495
 40
0.9188877083
 40
0.9380868826
 40
0.9548325795
 40
0.9690567181
 40
0.9807129894
 40
0.9897607626
 40
0.9932972199
 40
0.9961762679
 40
0.9984047787
 40
1.0
 40
1.0
 40
1.0
 40
1.0
 10
4.0851109875
 20
4.8892506655
 30
0.0
 10
4.0778046281
 20
4.8889935069
 30
0.0
 10
4.0626567724
 20
4.8884998778
 30
0.0
 10
4.0435446296
 20
4.8879165394
 30
0.0
 10
4.0278344057
 20
4.8874381764
 30
0.0
 10
4.0161813589
 20
4.8870782148
 30
0.0
 10
4.0048903152
 20
4.8867184715
 30
0.0
 10
3.9941449101
 20
4.8863590828
 30
0.0
 10
3.984119734
 20
4.8860002151
 30
0.0
 10
3.9749780788
 20
4.8856421615
 30
0.0
 10
3.9679813611
 20
4.8853344706
 30
0.0
 10
3.9629361654
 20
4.8850845039
 30
0.0
 10
3.9596028442
 20
4.8849042329
 30
0.0
 10
3.9565903386
 20
4.8847242088
 30
0.0
 10
3.9539107536
 20
4.8845446102
 30
0.0
 10
3.9515750876
 20
4.8843655105
 30
0.0
 10
3.9495926697
 20
4.8841873143
 30
0.0
 10
3.947971411
 20
4.8840101594
 30
0.0
 10
3.9468497897
 20
4.8838551476
 30
0.0
 10
3.9461394847
 20
4.883725346
 30
0.0
 10
3.9457453991
 20
4.8836368156
 30
0.0
 10
3.9454450066
 20
4.8835491836
 30
0.0
 10
3.945278556
 20
4.8834814873
 30
0.0
 10
3.945214062
 20
4.8834442263
 30
0.0
  0
LINE
  5
496
100
AcDbEntity
  8
ALL_ASSEMBLY_MEMBERS
100
AcDbLine
 62
7
  6
CONTINUOUS
 10
4.1319867604
 20
4.8786816849
 11
4.1309039136
 21
4.8783732873
  0
SPLINE
  5
497
100
AcDbEntity
  8
ALL_ASSEMBLY_MEMBERS
100
AcDbSpline
 62
7
  6
CONTINUOUS
 70
0
 71
3
 72
21
 73
17
 74
0
 42
0.0000001
 43
0.0000001
 44
0.0000000001
 40
0.0
 40
0.0
 40
0.0
 40
0.0
 40
0.0078256094
 40
0.017884837
 40
0.0301598847
 40
0.0446167837
 40
0.0798789799
 40
0.1232481433
 40
0.1741692689
 40
0.2320120298
 40
0.296034964
 40
0.3654385281
 40
0.5168011235
 40
0.678466847
 40
0.8422849455
 40
1.0
 40
1.0
 40
1.0
 40
1.0
 10
4.1309039136
 20
4.8783732873
 30
0.0
 10
4.1305746933
 20
4.8783110127
 30
0.0
 10
4.1298176027
 20
4.8781939069
 30
0.0
 10
4.1285357315
 20
4.878037504
 30
0.0
 10
4.1269682661
 20
4.8778801449
 30
0.0
 10
4.1243235336
 20
4.8776541291
 30
0.0
 10
4.1203470502
 20
4.8773808836
 30
0.0
 10
4.1148089853
 20
4.8770675465
 30
0.0
 10
4.10830287
 20
4.8767526316
 30
0.0
 10
4.1009116226
 20
4.8764366382
 30
0.0
 10
4.0927284207
 20
4.8761198749
 30
0.0
 10
4.0805427652
 20
4.8756843563
 30
0.0
 10
4.0641773156
 20
4.8751524118
 30
0.0
 10
4.0437703597
 20
4.8745289438
 30
0.0
 10
4.0230913021
 20
4.8739052562
 30
0.0
 10
4.0093313675
 20
4.8734751343
 30
0.0
 10
4.002582323
 20
4.8732539194
 30
0.0
  0
SPLINE
  5
498
100
AcDbEntity
  8
ALL_ASSEMBLY_MEMBERS
100
AcDbSpline
 62
7
  6
CONTINUOUS
 70
0
 71
3
 72
11
 73
7
 74
0
 42
0.0000001
 43
0.0000001
 44
0.0000000001
 40
0.0
 40
0.0
 40
0.0
 40
0.0
 40
0.2347577815
 40
0.4820980976
 40
0.7386272696
 40
1.0
 40
1.0
 40
1.0
 40
1.0
 10
3.9712413054
 20
3.6281766668
 30
0.0
 10
3.9757960929
 20
3.6250180133
 30
0.0
 10
3.9857684359
 20
3.6193945032
 30
0.0
 10
4.0021902072
 20
3.613337837
 30
0.0
 10
4.0199296945
 20
3.6096086834
 30
0.0
 10
4.0321739189
 20
3.6087667223
 30
0.0
 10
4.0383451703
 20
3.6087619242
 30
0.0
  0
SPLINE
  5
499
100
AcDbEntity
  8
ALL_ASSEMBLY_MEMBERS
100
AcDbSpline
 62
7
  6
CONTINUOUS
 70
0
 71
3
 72
11
 73
7
 74
0
 42
0.0000001
 43
0.0000001
 44
0.0000000001
 40
0.0
 40
0.0
 40
0.0
 40
0.0
 40
0.2613691898
 40
0.5179175725
 40
0.7652675632
 40
1.0
 40
1.0
 40
1.0
 40
1.0
 10
4.0383451703
 20
3.6087619242
 30
0.0
 10
4.0445370379
 20
3.6087571101
 30
0.0
 10
4.0568240962
 20
3.6095855916
 30
0.0
 10
4.0746274657
 20
3.6133109484
 30
0.0
 10
4.0911078584
 20
3.6193796483
 30
0.0
 10
4.1011138054
 20
3.6250218629
 30
0.0
 10
4.1056824254
 20
3.6281921418
 30
0.0
  0
SPLINE
  5
49A
100
AcDbEntity
  8
ALL_ASSEMBLY_MEMBERS
100
AcDbSpline
 62
7
  6
CONTINUOUS
 70
0
 71
3
 72
30
 73
26
 74
0
 42
0.0000001
 43
0.0000001
 44
0.0000000001
 40
0.0
 40
0.0
 40
0.0
 40
0.0
 40
0.0008619836
 40
0.0022581099
 40
0.0042162842
 40
0.0067451518
 40
0.009848001
 40
0.0135260831
 40
0.0226082261
 40
0.0339795757
 40
0.047613145
 40
0.0634799752
 40
0.0815503298
 40
0.1017859856
 40
0.1241358109
 40
0.1749683165
 40
0.2335928039
 40
0.2994471856
 40
0.3719237627
 40
0.4503273999
 40
0.5339206829
 40
0.6218826179
 40
0.7133689965
 40
0.8075192248
 40
1.0
 40
1.0
 40
1.0
 40
1.0
 10
3.9387660363
 20
4.9276316664
 30
0.0
 10
3.9387864007
 20
4.927651839
 30
0.0
 10
3.938856069
 20
4.9276854299
 30
0.0
 10
3.9389890138
 20
4.927727154
 30
0.0
 10
3.939180608
 20
4.9277697049
 30
0.0
 10
3.939429124
 20
4.9278129254
 30
0.0
 10
3.9397357418
 20
4.9278564646
 30
0.0
 10
3.9402594879
 20
4.9279193111
 30
0.0
 10
3.9410584721
 20
4.9279952603
 30
0.0
 10
3.9421886706
 20
4.9280822545
 30
0.0
 10
3.9435450254
 20
4.9281697574
 30
0.0
 10
3.9451245002
 20
4.9282577094
 30
0.0
 10
3.9469238044
 20
4.9283459255
 30
0.0
 10
3.9489389101
 20
4.9284343619
 30
0.0
 10
3.9520429651
 20
4.9285579068
 30
0.0
 10
3.9564234316
 20
4.9287100234
 30
0.0
 10
3.9622505427
 20
4.9288865944
 30
0.0
 10
3.9687976724
 20
4.9290639585
 30
0.0
 10
3.9760027351
 20
4.929241919
 30
0.0
 10
3.9837978354
 20
4.9294204682
 30
0.0
 10
3.9921079988
 20
4.9295994715
 30
0.0
 10
4.0008532988
 20
4.929778951
 30
0.0
 10
4.0099497201
 20
4.9299588419
 30
0.0
 10
4.0225212385
 20
4.9302010428
 30
0.0
 10
4.0320511319
 20
4.930380283
 30
0.0
 10
4.0384507137
 20
4.9305011378
 30
0.0
  0
LINE
  5
49B
100
AcDbEntity
  8
ALL_ASSEMBLY_MEMBERS
100
AcDbLine
 62
7
  6
CONTINUOUS
 10
4.1305763528
 20
4.9322516806
 11
4.1295302732
 21
4.931948753
  0
SPLINE
  5
49C
100
AcDbEntity
  8
ALL_ASSEMBLY_MEMBERS
100
AcDbSpline
 62
7
  6
CONTINUOUS
 70
0
 71
3
 72
41
 73
37
 74
0
 42
0.0000001
 43
0.0000001
 44
0.0000000001
 40
0.0
 40
0.0
 40
0.0
 40
0.0
 40
0.0043245727
 40
0.0097036853
 40
0.0235980282
 40
0.0415799434
 40
0.0634961715
 40
0.0891660567
 40
0.1183609479
 40
0.1508361764
 40
0.1863039209
 40
0.2649749183
 40
0.3516503881
 40
0.4433296812
 40
0.5368398955
 40
0.6289460554
 40
0.6734724494
 40
0.7164632352
 40
0.7575456672
 40
0.7963669033
 40
0.8325866019
 40
0.8658980794
 40
0.8960071827
 40
0.9226609234
 40
0.9456264361
 40
0.9647100175
 40
0.9797542625
 40
0.9857204381
 40
0.990637582
 40
0.9927012511
 40
0.9945012729
 40
0.99603806
 40
0.9973130759
 40
0.9983301459
 40
0.9990988219
 40
1.0
 40
1.0
 40
1.0
 40
1.0
 10
4.1295302732
 20
4.931948753
 30
0.0
 10
4.1292699905
 20
4.9318984191
 30
0.0
 10
4.1286827681
 20
4.9318021215
 30
0.0
 10
4.1272486023
 20
4.9316120718
 30
0.0
 10
4.1249754987
 20
4.9313860917
 30
0.0
 10
4.1216880027
 20
4.9311277809
 30
0.0
 10
4.1176768452
 20
4.9308678794
 30
0.0
 10
4.1129772459
 20
4.9306065611
 30
0.0
 10
4.10762952
 20
4.9303444145
 30
0.0
 10
4.1016805543
 20
4.9300818056
 30
0.0
 10
4.0927001595
 20
4.929718469
 30
0.0
 10
4.0803978483
 20
4.9292735269
 30
0.0
 10
4.0646502141
 20
4.9287541489
 30
0.0
 10
4.0479924703
 20
4.928233919
 30
0.0
 10
4.0310016717
 20
4.92771335
 30
0.0
 10
4.0169002708
 20
4.9272750765
 30
0.0
 10
4.0058947373
 20
4.9269197627
 30
0.0
 10
3.9980157252
 20
4.9266563881
 30
0.0
 10
3.990486649
 20
4.9263931419
 30
0.0
 10
3.9833729113
 20
4.9261301297
 30
0.0
 10
3.9767358858
 20
4.9258673118
 30
0.0
 10
3.9706333636
 20
4.9256049242
 30
0.0
 10
3.9651178196
 20
4.925342972
 30
0.0
 10
3.9602372678
 20
4.9250817665
 30
0.0
 10
3.9560335838
 20
4.9248218623
 30
0.0
 10
3.9525431542
 20
4.9245633114
 30
0.0
 10
3.9500953606
 20
4.9243374958
 30
0.0
 10
3.9485170821
 20
4.9241488908
 30
0.0
 10
3.9477314208
 20
4.9240354766
 30
0.0
 10
3.9472011489
 20
4.923942456
 30
0.0
 10
3.9468766692
 20
4.9238770739
 30
0.0
 10
3.9466012378
 20
4.9238116228
 30
0.0
 10
3.9463763096
 20
4.923747357
 30
0.0
 10
3.9461978172
 20
4.9236811896
 30
0.0
 10
3.9460558013
 20
4.9236122027
 30
0.0
 10
3.9459616329
 20
4.9235303311
 30
0.0
 10
3.9459616726
 20
4.9234750871
 30
0.0
  0
SPLINE
  5
49D
100
AcDbEntity
  8
ALL_ASSEMBLY_MEMBERS
100
AcDbSpline
 62
7
  6
CONTINUOUS
 70
0
 71
3
 72
11
 73
7
 74
0
 42
0.0000001
 43
0.0000001
 44
0.0000000001
 40
0.0
 40
0.0
 40
0.0
 40
0.0
 40
0.2376849579
 40
0.4855075009
 40
0.7406892263
 40
1.0
 40
1.0
 40
1.0
 40
1.0
 10
3.9805691803
 20
3.5876549264
 30
0.0
 10
3.9847745553
 20
3.5854675462
 30
0.0
 10
3.9937019412
 20
3.5816264799
 30
0.0
 10
4.0079501511
 20
3.5775912973
 30
0.0
 10
4.0230079652
 20
3.5752533624
 30
0.0
 10
4.0332889024
 20
3.5748750966
 30
0.0
 10
4.0384593023
 20
3.5749829393
 30
0.0
  0
SPLINE
  5
49E
100
AcDbEntity
  8
ALL_ASSEMBLY_MEMBERS
100
AcDbSpline
 62
7
  6
CONTINUOUS
 70
0
 71
3
 72
10
 73
6
 74
0
 42
0.0000001
 43
0.0000001
 44
0.0000000001
 40
0.0
 40
0.0
 40
0.0
 40
0.0
 40
0.2565039059
 40
0.5104813337
 40
1.0
 40
1.0
 40
1.0
 40
1.0
 10
4.0401081928
 20
3.5750275115
 30
0.0
 10
4.0447788637
 20
3.5751826294
 30
0.0
 10
4.0540683172
 20
3.5759785422
 30
0.0
 10
4.0719722136
 20
3.579440757
 30
0.0
 10
4.0848372533
 20
3.5841701469
 30
0.0
 10
4.092750314
 20
3.5882840116
 30
0.0
  0
LINE
  5
49F
100
AcDbEntity
  8
ALL_ASSEMBLY_MEMBERS
100
AcDbLine
 62
7
  6
CONTINUOUS
 10
4.1310264364
 20
4.9143953791
 11
4.1301810804
 21
4.9141333358
  0
SPLINE
  5
4A0
100
AcDbEntity
  8
ALL_ASSEMBLY_MEMBERS
100
AcDbSpline
 62
7
  6
CONTINUOUS
 70
0
 71
3
 72
42
 73
38
 74
0
 42
0.0000001
 43
0.0000001
 44
0.0000000001
 40
0.0
 40
0.0
 40
0.0
 40
0.0
 40
0.0040097058
 40
0.0090862506
 40
0.0224053669
 40
0.0398685265
 40
0.0613247463
 40
0.086591925
 40
0.1154513589
 40
0.1476478547
 40
0.1829051891
 40
0.2613313819
 40
0.3479890502
 40
0.4398489647
 40
0.5337004468
 40
0.6262640309
 40
0.6710465873
 40
0.7143065637
 40
0.7556621451
 40
0.7947552174
 40
0.8312424976
 40
0.8648055206
 40
0.8951545443
 40
0.9220203988
 40
0.94517782
 40
0.9644192162
 40
0.9725223562
 40
0.9795912895
 40
0.9856099524
 40
0.9905673363
 40
0.9926471623
 40
0.9944611289
 40
0.9960099593
 40
0.997295406
 40
0.9983213044
 40
0.9990963283
 40
1.0
 40
1.0
 40
1.0
 40
1.0
 10
4.1301810804
 20
4.9141333358
 30
0.0
 10
4.129939165
 20
4.9140820992
 30
0.0
 10
4.1293870189
 20
4.9139849104
 30
0.0
 10
4.128018509
 20
4.9137932863
 30
0.0
 10
4.1258181587
 20
4.913566378
 30
0.0
 10
4.1226069771
 20
4.9133072513
 30
0.0
 10
4.1186570062
 20
4.9130463974
 30
0.0
 10
4.1140031194
 20
4.9127838734
 30
0.0
 10
4.1086859813
 20
4.9125206103
 30
0.0
 10
4.1027521146
 20
4.9122566815
 30
0.0
 10
4.093762982
 20
4.9118912942
 30
0.0
 10
4.0814158312
 20
4.9114439427
 30
0.0
 10
4.065578485
 20
4.9109221364
 30
0.0
 10
4.0487893957
 20
4.910399408
 30
0.0
 10
4.0316359288
 20
4.9098763077
 30
0.0
 10
4.0173845817
 20
4.9094360143
 30
0.0
 10
4.0062521781
 20
4.9090790067
 30
0.0
 10
3.9982764803
 20
4.9088143291
 30
0.0
 10
3.990651854
 20
4.9085497698
 30
0.0
 10
3.983445161
 20
4.9082854278
 30
0.0
 10
3.9767193742
 20
4.9080213419
 30
0.0
 10
3.9705332711
 20
4.9077575925
 30
0.0
 10
3.9649410931
 20
4.9074943963
 30
0.0
 10
3.959991379
 20
4.9072318954
 30
0.0
 10
3.9557277273
 20
4.9069705111
 30
0.0
 10
3.9526213855
 20
4.9067432414
 30
0.0
 10
3.9505072538
 20
4.9065566862
 30
0.0
 10
3.9492069749
 20
4.906425314
 30
0.0
 10
3.9481017852
 20
4.9062944134
 30
0.0
 10
3.9473045965
 20
4.9061804477
 30
0.0
 10
3.9467667151
 20
4.9060869478
 30
0.0
 10
3.9464376232
 20
4.9060212398
 30
0.0
 10
3.9461582012
 20
4.9059554549
 30
0.0
 10
3.9459299291
 20
4.9058908758
 30
0.0
 10
3.9457485639
 20
4.9058243748
 30
0.0
 10
3.9456046037
 20
4.9057552961
 30
0.0
 10
3.9455084232
 20
4.9056730074
 30
0.0
 10
3.9455085602
 20
4.9056172775
 30
0.0
  0
SPLINE
  5
4A1
100
AcDbEntity
  8
ALL_ASSEMBLY_MEMBERS
100
AcDbSpline
 62
7
  6
CONTINUOUS
 70
0
 71
3
 72
26
 73
22
 74
0
 42
0.0000001
 43
0.0000001
 44
0.0000000001
 40
0.0
 40
0.0
 40
0.0
 40
0.0
 40
0.0015983781
 40
0.0037204917
 40
0.0095888901
 40
0.0176548229
 40
0.0279140679
 40
0.040349851
 40
0.0549413553
 40
0.0716638919
 40
0.0904785393
 40
0.1342036575
 40
0.1857419804
 40
0.24462227
 40
0.3103206765
 40
0.3822443464
 40
0.4597472144
 40
0.5421293567
 40
0.6286321467
 40
0.8109182245
 40
1.0
 40
1.0
 40
1.0
 40
1.0
 10
4.1398901288
 20
4.9195196004
 30
0.0
 10
4.1398432742
 20
4.9194925032
 30
0.0
 10
4.1397273596
 20
4.9194416507
 30
0.0
 10
4.1394183376
 20
4.9193415546
 30
0.0
 10
4.1388862242
 20
4.919224987
 30
0.0
 10
4.1380778815
 20
4.9190920442
 30
0.0
 10
4.137044626
 20
4.9189581369
 30
0.0
 10
4.1357892177
 20
4.9188230244
 30
0.0
 10
4.134313876
 20
4.918687442
 30
0.0
 10
4.1326217974
 20
4.9185514938
 30
0.0
 10
4.1299445354
 20
4.9183601888
 30
0.0
 10
4.1260885208
 20
4.9181259599
 30
0.0
 10
4.1208757167
 20
4.9178556539
 30
0.0
 10
4.1149180026
 20
4.9175844592
 30
0.0
 10
4.1082693787
 20
4.9173126541
 30
0.0
 10
4.1009896782
 20
4.9170404219
 30
0.0
 10
4.0931446649
 20
4.9167678833
 30
0.0
 10
4.0848056875
 20
4.9164951466
 30
0.0
 10
4.072919746
 20
4.9161247953
 30
0.0
 10
4.0574215683
 20
4.9156687603
 30
0.0
 10
4.0448510086
 20
4.9153116287
 30
0.0
 10
4.0384507137
 20
4.9151297867
 30
0.0
  0
SPLINE
  5
4A2
100
AcDbEntity
  8
ALL_ASSEMBLY_MEMBERS
100
AcDbSpline
 62
7
  6
CONTINUOUS
 70
0
 71
3
 72
22
 73
18
 74
0
 42
0.0000001
 43
0.0000001
 44
0.0000000001
 40
0.0
 40
0.0
 40
0.0
 40
0.0
 40
0.0046518665
 40
0.0111053824
 40
0.0194084977
 40
0.0295797661
 40
0.0555449145
 40
0.0889540968
 40
0.1296878648
 40
0.177614565
 40
0.2325685826
 40
0.2943193604
 40
0.3626266635
 40
0.4372443207
 40
0.6042643781
 40
0.7929301872
 40
1.0
 40
1.0
 40
1.0
 40
1.0
 10
4.1315033621
 20
4.8965385711
 30
0.0
 10
4.1314408884
 20
4.8965024975
 30
0.0
 10
4.1312805945
 20
4.896436659
 30
0.0
 10
4.1309920007
 20
4.8963512835
 30
0.0
 10
4.1306148717
 20
4.8962650626
 30
0.0
 10
4.1299373141
 20
4.8961387806
 30
0.0
 10
4.1288689823
 20
4.8959878631
 30
0.0
 10
4.1273260679
 20
4.895815487
 30
0.0
 10
4.1254408707
 20
4.8956420859
 30
0.0
 10
4.123220509
 20
4.895467781
 30
0.0
 10
4.1206733715
 20
4.8952930799
 30
0.0
 10
4.117809553
 20
4.8951179882
 30
0.0
 10
4.1146402963
 20
4.894942645
 30
0.0
 10
4.109839845
 20
4.8946994699
 30
0.0
 10
4.1031734128
 20
4.8944001176
 30
0.0
 10
4.0944531864
 20
4.8940519772
 30
0.0
 10
4.0883202145
 20
4.8938286712
 30
0.0
 10
4.0851109875
 20
4.8937156655
 30
0.0
  0
SPLINE
  5
4A3
100
AcDbEntity
  8
ALL_ASSEMBLY_MEMBERS
100
AcDbSpline
 62
7
  6
CONTINUOUS
 70
0
 71
3
 72
23
 73
19
 74
0
 42
0.0000001
 43
0.0000001
 44
0.0000000001
 40
0.0
 40
0.0
 40
0.0
 40
0.0
 40
0.2077770048
 40
0.3969593978
 40
0.5643421743
 40
0.6390712118
 40
0.7074442964
 40
0.7692032484
 40
0.8240920834
 40
0.8718951139
 40
0.9124520216
 40
0.9456109766
 40
0.9593757116
 40
0.9712542966
 40
0.9812451001
 40
0.9893515443
 40
0.9955882476
 40
1.0
 40
1.0
 40
1.0
 40
1.0
 10
4.0892641971
 20
4.8985083366
 30
0.0
 10
4.0927774346
 20
4.8986236003
 30
0.0
 10
4.0994892601
 20
4.8988512961
 30
0.0
 10
4.1090300974
 20
4.8992063481
 30
0.0
 10
4.1163203022
 20
4.8995116078
 30
0.0
 10
4.1215671726
 20
4.8997596794
 30
0.0
 10
4.1250283671
 20
4.8999384845
 30
0.0
 10
4.1281534379
 20
4.9001169887
 30
0.0
 10
4.1309298977
 20
4.9002951627
 30
0.0
 10
4.133346886
 20
4.9004728077
 30
0.0
 10
4.1353951424
 20
4.9006497177
 30
0.0
 10
4.1368672545
 20
4.9008038047
 30
0.0
 10
4.1378539787
 20
4.9009306478
 30
0.0
 10
4.1384503202
 20
4.9010195107
 30
0.0
 10
4.1389496931
 20
4.9011079738
 30
0.0
 10
4.1393522516
 20
4.901195671
 30
0.0
 10
4.1396573343
 20
4.9012824673
 30
0.0
 10
4.1398258168
 20
4.9013496881
 30
0.0
 10
4.1398904387
 20
4.9013870338
 30
0.0
  0
SPLINE
  5
4A4
100
AcDbEntity
  8
ALL_ASSEMBLY_MEMBERS
100
AcDbSpline
 62
7
  6
CONTINUOUS
 70
0
 71
3
 72
48
 73
44
 74
0
 42
0.0000001
 43
0.0000001
 44
0.0000000001
 40
0.0
 40
0.0
 40
0.0
 40
0.0
 40
0.0009435636
 40
0.0017595557
 40
0.0028418252
 40
0.004199841
 40
0.0058381572
 40
0.0077588743
 40
0.0099621042
 40
0.0152130869
 40
0.0215828928
 40
0.029060555
 40
0.0376333139
 40
0.057980084
 40
0.0824334702
 40
0.1107756177
 40
0.1427364847
 40
0.1780268204
 40
0.2163120288
 40
0.257241153
 40
0.3004299508
 40
0.3454783661
 40
0.3919669784
 40
0.4875246831
 40
0.5835565927
 40
0.676500342
 40
0.7207304556
 40
0.7629102792
 40
0.8026532015
 40
0.8395857029
 40
0.8733701248
 40
0.9036905818
 40
0.9302689724
 40
0.9528616368
 40
0.9625955569
 40
0.9712606517
 40
0.9788378301
 40
0.9853086765
 40
0.9906602561
 40
0.9948881869
 40
0.9979940213
 40
0.9991314857
 40
1.0
 40
1.0
 40
1.0
 40
1.0
 10
4.130707161
 20
4.9279381479
 30
0.0
 10
4.1307070473
 20
4.9278799621
 30
0.0
 10
4.1306042654
 20
4.9277952972
 30
0.0
 10
4.1304527227
 20
4.9277241234
 30
0.0
 10
4.130260734
 20
4.9276554323
 30
0.0
 10
4.1300191933
 20
4.9275887275
 30
0.0
 10
4.1297232388
 20
4.927520778
 30
0.0
 10
4.1293745172
 20
4.9274529261
 30
0.0
 10
4.1288044259
 20
4.9273563717
 30
0.0
 10
4.1279599837
 20
4.92723872
 30
0.0
 10
4.1267899764
 20
4.9271034982
 30
0.0
 10
4.1254140343
 20
4.9269677889
 30
0.0
 10
4.1231777927
 20
4.9267752351
 30
0.0
 10
4.1198947062
 20
4.9265407368
 30
0.0
 10
4.115392337
 20
4.9262708094
 30
0.0
 10
4.1101727079
 20
4.9260000376
 30
0.0
 10
4.1042840748
 20
4.9257283638
 30
0.0
 10
4.0977817213
 20
4.9254563325
 30
0.0
 10
4.0907259062
 20
4.9251838927
 30
0.0
 10
4.0831826929
 20
4.9249112848
 30
0.0
 10
4.0752221694
 20
4.9246384899
 30
0.0
 10
4.0669186252
 20
4.9243656009
 30
0.0
 10
4.0553870569
 20
4.9239983051
 30
0.0
 10
4.0407126626
 20
4.9235456672
 30
0.0
 10
4.023174845
 20
4.923007255
 30
0.0
 10
4.0088011375
 20
4.9225520374
 30
0.0
 10
3.9977472591
 20
4.9221823741
 30
0.0
 10
3.989972667
 20
4.921909835
 30
0.0
 10
3.9826483708
 20
4.9216375794
 30
0.0
 10
3.9758421569
 20
4.9213655769
 30
0.0
 10
3.9696174721
 20
4.921094034
 30
0.0
 10
3.9640319159
 20
4.9208231161
 30
0.0
 10
3.9591373887
 20
4.9205529979
 30
0.0
 10
3.9555123798
 20
4.9203191634
 30
0.0
 10
3.9529917823
 20
4.9201280951
 30
0.0
 10
3.951395676
 20
4.9199922534
 30
0.0
 10
3.9500015492
 20
4.919856836
 30
0.0
 10
3.9488128563
 20
4.9197218706
 30
0.0
 10
3.9478319635
 20
4.9195879556
 30
0.0
 10
3.9470611291
 20
4.9194549546
 30
0.0
 10
3.9465509489
 20
4.9193383306
 30
0.0
 10
3.9462517512
 20
4.9192386605
 30
0.0
 10
3.946138306
 20
4.9191880299
 30
0.0
 10
3.9460919393
 20
4.9191612235
 30
0.0
  0
SPLINE
  5
4A5
100
AcDbEntity
  8
ALL_ASSEMBLY_MEMBERS
100
AcDbSpline
 62
7
  6
CONTINUOUS
 70
0
 71
3
 72
48
 73
44
 74
0
 42
0.0000001
 43
0.0000001
 44
0.0000000001
 40
0.0
 40
0.0
 40
0.0
 40
0.0
 40
0.0009414359
 40
0.001757261
 40
0.0028394421
 40
0.0041971384
 40
0.005834637
 40
0.0077541333
 40
0.0099566503
 40
0.0152080056
 40
0.0215791632
 40
0.0290574527
 40
0.0376290637
 40
0.0579781411
 40
0.0824335531
 40
0.1107782422
 40
0.1427434106
 40
0.1780367282
 40
0.2163277092
 40
0.2572606769
 40
0.3004558235
 40
0.3455090573
 40
0.3920037914
 40
0.4875722373
 40
0.5836135558
 40
0.6765641636
 40
0.7207958947
 40
0.7629772216
 40
0.8027187682
 40
0.8396509909
 40
0.8734308807
 40
0.9037486565
 40
0.9303196192
 40
0.95290648
 40
0.9626363066
 40
0.9712957481
 40
0.9788673284
 40
0.9853341489
 40
0.99068111
 40
0.9949021807
 40
0.99800054
 40
0.999134535
 40
1.0
 40
1.0
 40
1.0
 40
1.0
 10
4.1311571479
 20
4.9100811413
 30
0.0
 10
4.1311570072
 20
4.9100228037
 30
0.0
 10
4.1310533538
 20
4.9099382103
 30
0.0
 10
4.1309011468
 20
4.9098670921
 30
0.0
 10
4.1307081089
 20
4.9097983973
 30
0.0
 10
4.1304653961
 20
4.9097316884
 30
0.0
 10
4.1301680724
 20
4.9096637255
 30
0.0
 10
4.1298177676
 20
4.9095958466
 30
0.0
 10
4.129244919
 20
4.9094992703
 30
0.0
 10
4.1283962195
 20
4.9093816164
 30
0.0
 10
4.1272202875
 20
4.9092463901
 30
0.0
 10
4.1258375237
 20
4.9091106675
 30
0.0
 10
4.1235901979
 20
4.908918025
 30
0.0
 10
4.1202908284
 20
4.9086835445
 30
0.0
 10
4.1157660125
 20
4.9084135443
 30
0.0
 10
4.1105203249
 20
4.9081427202
 30
0.0
 10
4.1046023196
 20
4.9078710105
 30
0.0
 10
4.0980674091
 20
4.9075988996
 30
0.0
 10
4.0909763697
 20
4.9073264308
 30
0.0
 10
4.0833953526
 20
4.9070537407
 30
0.0
 10
4.0753950511
 20
4.9067809091
 30
0.0
 10
4.0670499187
 20
4.9065079469
 30
0.0
 10
4.0554607415
 20
4.9061405851
 30
0.0
 10
4.0407131242
 20
4.9056878467
 30
0.0
 10
4.0230880681
 20
4.9051493249
 30
0.0
 10
4.0086431207
 20
4.9046940213
 30
0.0
 10
3.9975346848
 20
4.9043242738
 30
0.0
 10
3.9897220425
 20
4.9040517002
 30
0.0
 10
3.9823620075
 20
4.9037793715
 30
0.0
 10
3.9755229483
 20
4.9035073577
 30
0.0
 10
3.9692683328
 20
4.9032357281
 30
0.0
 10
3.9636563943
 20
4.9029648198
 30
0.0
 10
3.9587389292
 20
4.9026946144
 30
0.0
 10
3.9550972541
 20
4.9024607751
 30
0.0
 10
3.952565268
 20
4.9022696815
 30
0.0
 10
3.950962282
 20
4.9021338134
 30
0.0
 10
3.9495622506
 20
4.9019983608
 30
0.0
 10
3.9483685774
 20
4.9018634016
 30
0.0
 10
3.9473837807
 20
4.9017295132
 30
0.0
 10
3.9466102726
 20
4.9015964932
 30
0.0
 10
3.9460986148
 20
4.9014798471
 30
0.0
 10
3.9457987228
 20
4.9013801435
 30
0.0
 10
3.9456850642
 20
4.9013295002
 30
0.0
 10
3.9456386198
 20
4.9013026841
 30
0.0
  0
SPLINE
  5
4A6
100
AcDbEntity
  8
ALL_ASSEMBLY_MEMBERS
100
AcDbSpline
 62
7
  6
CONTINUOUS
 70
0
 71
3
 72
26
 73
22
 74
0
 42
0.0000001
 43
0.0000001
 44
0.0000000001
 40
0.0
 40
0.0
 40
0.0
 40
0.0
 40
0.0022585307
 40
0.0039232186
 40
0.0060386927
 40
0.0117251533
 40
0.0194316561
 40
0.0291929885
 40
0.0410220764
 40
0.0549218862
 40
0.0708824673
 40
0.1089172676
 40
0.1549800411
 40
0.2089077674
 40
0.2704672136
 40
0.3393795189
 40
0.4153626835
 40
0.4981051073
 40
0.5872610554
 40
0.7833634855
 40
1.0
 40
1.0
 40
1.0
 40
1.0
 10
4.1316334495
 20
4.8922235612
 30
0.0
 10
4.131633422
 20
4.8921883825
 30
0.0
 10
4.1315924663
 20
4.8921317492
 30
0.0
 10
4.1315163516
 20
4.892079147
 30
0.0
 10
4.1313845962
 20
4.8920105846
 30
0.0
 10
4.1311559335
 20
4.8919316109
 30
0.0
 10
4.130806596
 20
4.891841006
 30
0.0
 10
4.1303592625
 20
4.8917501832
 30
0.0
 10
4.1298140477
 20
4.8916585491
 30
0.0
 10
4.1291711791
 20
4.8915666713
 30
0.0
 10
4.1281217024
 20
4.8914360711
 30
0.0
 10
4.1265711957
 20
4.8912769423
 30
0.0
 10
4.124429071
 20
4.8910939867
 30
0.0
 10
4.1219194324
 20
4.8909104652
 30
0.0
 10
4.1190531194
 20
4.8907264014
 30
0.0
 10
4.1158426675
 20
4.8905419777
 30
0.0
 10
4.1123017952
 20
4.8903573521
 30
0.0
 10
4.1084452272
 20
4.8901725732
 30
0.0
 10
4.1027189321
 20
4.8899178057
 30
0.0
 10
4.0949077363
 20
4.8896037476
 30
0.0
 10
4.0884832105
 20
4.8893694108
 30
0.0
 10
4.0851109875
 20
4.8892506655
 30
0.0
  0
SPLINE
  5
4A7
100
AcDbEntity
  8
ALL_ASSEMBLY_MEMBERS
100
AcDbSpline
 62
7
  6
CONTINUOUS
 70
0
 71
3
 72
17
 73
13
 74
0
 42
0.0000001
 43
0.0000001
 44
0.0000000001
 40
0.0
 40
0.0
 40
0.0
 40
0.0
 40
0.1159440718
 40
0.1764427723
 40
0.2383613668
 40
0.3014877695
 40
0.3655774785
 40
0.4955211823
 40
0.6260512136
 40
0.7549391274
 40
0.8801413064
 40
1.0
 40
1.0
 40
1.0
 40
1.0
 10
3.9724158772
 20
3.6167816056
 30
0.0
 10
3.9768342656
 20
3.6139197445
 30
0.0
 10
3.9839604182
 20
3.6101577647
 30
0.0
 10
3.9940502192
 20
3.6062285605
 30
0.0
 10
4.0021116884
 20
3.6037544082
 30
0.0
 10
4.0104862187
 20
3.6018231239
 30
0.0
 10
4.0220238514
 20
3.5999827311
 30
0.0
 10
4.0367830372
 20
3.5991367697
 30
0.0
 10
4.0544626542
 20
3.6004364578
 30
0.0
 10
4.0716104946
 20
3.6040174418
 30
0.0
 10
4.087641898
 20
3.6097723502
 30
0.0
 10
4.0974830608
 20
3.6150828208
 30
0.0
 10
4.1020334989
 20
3.6180675849
 30
0.0
  0
LINE
  5
4A8
100
AcDbEntity
  8
ALL_FEATURES
100
AcDbLine
 62
7
  6
CONTINUOUS
 10
3.8291017074
 20
3.6726168229
 11
3.8290757144
 21
3.6732538912
  0
LINE
  5
4A9
100
AcDbEntity
  8
ALL_FEATURES
100
AcDbLine
 62
7
  6
CONTINUOUS
 10
4.2477997199
 20
3.6726168229
 11
4.247825713
 21
3.6732538912
  0
SPLINE
  5
4AA
100
AcDbEntity
  8
ALL_FEATURES
100
AcDbSpline
 62
9
  6
CONTINUOUS
 70
0
 71
3
 72
13
 73
9
 74
0
 42
0.0000001
 43
0.0000001
 44
0.0000000001
 40
0.0
 40
0.0
 40
0.0
 40
0.0
 40
0.2546632024
 40
0.5068655041
 40
0.6316178134
 40
0.7553818222
 40
0.8781622137
 40
1.0
 40
1.0
 40
1.0
 40
1.0
 10
3.8290757145
 20
3.6732539085
 30
0.0
 10
3.8258629247
 20
3.752009184
 30
0.0
 10
3.8197811135
 20
3.9087718232
 30
0.0
 10
3.8135503115
 20
4.1041672169
 30
0.0
 10
3.8098043249
 20
4.2591000544
 30
0.0
 10
3.8076969692
 20
4.3740014682
 30
0.0
 10
3.8063272275
 20
4.4880119325
 30
0.0
 10
3.8059077778
 20
4.5637231131
 30
0.0
 10
3.8058147859
 20
4.6014329987
 30
0.0
  0
SPLINE
  5
4AB
100
AcDbEntity
  8
ALL_FEATURES
100
AcDbSpline
 62
9
  6
CONTINUOUS
 70
0
 71
3
 72
13
 73
9
 74
0
 42
0.0000001
 43
0.0000001
 44
0.0000000001
 40
0.0
 40
0.0
 40
0.0
 40
0.0
 40
0.2551953818
 40
0.5076662652
 40
0.6324059616
 40
0.756035817
 40
0.8785522978
 40
1.0
 40
1.0
 40
1.0
 40
1.0
 10
3.8446877244
 20
3.6738958633
 30
0.0
 10
3.8415060771
 20
3.7524848074
 30
0.0
 10
3.835108445
 20
3.9088208656
 30
0.0
 10
3.8273694006
 20
4.1035800934
 30
0.0
 10
3.821615925
 20
4.2578360791
 30
0.0
 10
3.817606717
 20
4.3720760111
 30
0.0
 10
3.8139636331
 20
4.4853131208
 30
0.0
 10
3.811829453
 20
4.5604748837
 30
0.0
 10
3.8108580129
 20
4.5978934595
 30
0.0
  0
LINE
  5
4AC
100
AcDbEntity
  8
ALL_FEATURES
100
AcDbLine
 62
9
  6
CONTINUOUS
 10
3.8447116088
 20
3.673253837
 11
3.8446898321
 21
3.6738959348
  0
LINE
  5
4AD
100
AcDbEntity
  8
ALL_FEATURES
100
AcDbLine
 62
9
  6
CONTINUOUS
 10
4.2321898186
 20
3.673253837
 11
4.2322115953
 21
3.6738959348
  0
SPLINE
  5
4AE
100
AcDbEntity
  8
ALL_FEATURES
100
AcDbSpline
 62
9
  6
CONTINUOUS
 70
0
 71
3
 72
13
 73
9
 74
0
 42
0.0000001
 43
0.0000001
 44
0.0000000001
 40
0.0
 40
0.0
 40
0.0
 40
0.0
 40
0.2551952376
 40
0.5076660599
 40
0.6324056891
 40
0.7560356136
 40
0.8785521195
 40
1.0
 40
1.0
 40
1.0
 40
1.0
 10
4.232213703
 20
3.6738958633
 30
0.0
 10
4.2353953526
 20
3.7524848033
 30
0.0
 10
4.2417929878
 20
3.9088208786
 30
0.0
 10
4.2495320096
 20
4.1035801234
 30
0.0
 10
4.2552855287
 20
4.2578361687
 30
0.0
 10
4.2592946714
 20
4.37207617
 30
0.0
 10
4.2629378413
 20
4.4853134192
 30
0.0
 10
4.2650720094
 20
4.5604752839
 30
0.0
 10
4.2660434347
 20
4.5978939343
 30
0.0
  0
SPLINE
  5
4AF
100
AcDbEntity
  8
ALL_FEATURES
100
AcDbSpline
 62
9
  6
CONTINUOUS
 70
0
 71
3
 72
13
 73
9
 74
0
 42
0.0000001
 43
0.0000001
 44
0.0000000001
 40
0.0
 40
0.0
 40
0.0
 40
0.0
 40
0.2546630605
 40
0.5068653067
 40
0.6316175563
 40
0.755381623
 40
0.8781620595
 40
1.0
 40
1.0
 40
1.0
 40
1.0
 10
4.2478257128
 20
3.6732539085
 30
0.0
 10
4.2510385039
 20
3.752009149
 30
0.0
 10
4.2571202957
 20
3.9087717455
 30
0.0
 10
4.2633511486
 20
4.1041670809
 30
0.0
 10
4.2670970481
 20
4.2590999201
 30
0.0
 10
4.2692045418
 20
4.3740013583
 30
0.0
 10
4.2705741067
 20
4.4880119173
 30
0.0
 10
4.2709936432
 20
4.5637231675
 30
0.0
 10
4.2710866458
 20
4.6014331051
 30
0.0
  0
SPLINE
  5
4B0
100
AcDbEntity
  8
ALL_ASSEMBLY_MEMBERS
100
AcDbSpline
 62
7
  6
CONTINUOUS
 70
0
 71
3
 72
26
 73
22
 74
0
 42
0.0000001
 43
0.0000001
 44
0.0000000001
 40
0.0
 40
0.0
 40
0.0
 40
0.0
 40
0.0252197665
 40
0.0507146647
 40
0.0765616757
 40
0.1028234338
 40
0.1295519003
 40
0.1567879299
 40
0.2128597422
 40
0.2712005568
 40
0.3317998542
 40
0.3945381709
 40
0.4592031459
 40
0.52550047
 40
0.593065149
 40
0.6614762346
 40
0.7302745482
 40
0.7989841067
 40
0.8671310523
 40
0.9342708488
 40
1.0
 40
1.0
 40
1.0
 40
1.0
 10
3.5038847948
 20
3.0273084343
 30
0.0
 10
3.50505588
 20
3.0193143071
 30
0.0
 10
3.5081097348
 20
3.0033329229
 30
0.0
 10
3.5147451889
 20
2.9796916476
 30
0.0
 10
3.5234367142
 20
2.9563690525
 30
0.0
 10
3.5341432542
 20
2.933465278
 30
0.0
 10
3.5468249591
 20
2.9110805626
 30
0.0
 10
3.5664700308
 20
2.8817769858
 30
0.0
 10
3.5958111477
 20
2.8469482506
 30
0.0
 10
3.6374036369
 20
2.8091335964
 30
0.0
 10
3.6850181508
 20
2.7754280806
 30
0.0
 10
3.7378737551
 20
2.746308569
 30
0.0
 10
3.7951519886
 20
2.722160544
 30
0.0
 10
3.8559930846
 20
2.70329854
 30
0.0
 10
3.9195006133
 20
2.6899660335
 30
0.0
 10
3.9847453333
 20
2.6823360781
 30
0.0
 10
4.0507746416
 20
2.6805079288
 30
0.0
 10
4.1166232553
 20
2.6845059189
 30
0.0
 10
4.1813323895
 20
2.6942777055
 30
0.0
 10
4.2439482879
 20
2.7096939967
 30
0.0
 10
4.284200939
 20
2.7237830603
 30
0.0
 10
4.3036961106
 20
2.731741712
 30
0.0
  0
SPLINE
  5
4B1
100
AcDbEntity
  8
ALL_ASSEMBLY_MEMBERS
100
AcDbSpline
 62
7
  6
CONTINUOUS
 70
0
 71
3
 72
20
 73
16
 74
0
 42
0.0000001
 43
0.0000001
 44
0.0000000001
 40
0.0
 40
0.0
 40
0.0
 40
0.0
 40
0.1402285871
 40
0.2762645795
 40
0.4077595083
 40
0.4717765253
 40
0.5346127196
 40
0.5962800443
 40
0.6568072276
 40
0.7162413165
 40
0.7746464489
 40
0.832109
 40
0.8887328987
 40
0.9446459136
 40
1.0
 40
1.0
 40
1.0
 40
1.0
 10
4.3087145055
 20
2.7338163558
 30
0.0
 10
4.3265053572
 20
2.7412633816
 30
0.0
 10
4.3608933656
 20
2.7575949514
 30
0.0
 10
4.4089379601
 20
2.7867083834
 30
0.0
 10
4.4452220815
 20
2.8145076303
 30
0.0
 10
4.471406914
 20
2.8385538398
 30
0.0
 10
4.4894035425
 20
2.8572438563
 30
0.0
 10
4.5058619956
 20
2.8766772721
 30
0.0
 10
4.5207134843
 20
2.896787546
 30
0.0
 10
4.5339026589
 20
2.9174963596
 30
0.0
 10
4.5453732271
 20
2.9387278072
 30
0.0
 10
4.5550821288
 20
2.9603985489
 30
0.0
 10
4.5629935585
 20
2.9824258162
 30
0.0
 10
4.5690764855
 20
3.0047252009
 30
0.0
 10
4.5719144748
 20
3.0197831057
 30
0.0
 10
4.5730176925
 20
3.0273159729
 30
0.0
  0
SPLINE
  5
4B2
100
AcDbEntity
  8
ALL_ASSEMBLY_MEMBERS
100
AcDbSpline
 62
7
  6
CONTINUOUS
 70
0
 71
3
 72
22
 73
18
 74
0
 42
0.0000001
 43
0.0000001
 44
0.0000000001
 40
0.0
 40
0.0
 40
0.0
 40
0.0
 40
0.1442317051
 40
0.2145677186
 40
0.2835269131
 40
0.3510093073
 40
0.4169451021
 40
0.4812924736
 40
0.5440455569
 40
0.6648161418
 40
0.7231123363
 40
0.7517896175
 40
0.7801756963
 40
0.8361544698
 40
0.8912862422
 40
0.9458213712
 40
1.0
 40
1.0
 40
1.0
 40
1.0
 10
4.1822340478
 20
3.482431097
 30
0.0
 10
4.2006816106
 20
3.477458707
 30
0.0
 10
4.2277558045
 20
3.4685322572
 30
0.0
 10
4.262235348
 20
3.4535980808
 30
0.0
 10
4.2866645393
 20
3.4411657357
 30
0.0
 10
4.309735466
 20
3.4274740102
 30
0.0
 10
4.3313245424
 20
3.4125981717
 30
0.0
 10
4.3513129827
 20
3.3966099495
 30
0.0
 10
4.3753643804
 20
3.3742267744
 30
0.0
 10
4.3962199824
 20
3.3496805293
 30
0.0
 10
4.4111193375
 20
3.3265035464
 30
0.0
 10
4.4184771771
 20
3.3131038869
 30
0.0
 10
4.4250639469
 20
3.2996509595
 30
0.0
 10
4.4319925007
 20
3.2824861996
 30
0.0
 10
4.4381563538
 20
3.2613884421
 30
0.0
 10
4.4420866878
 20
3.2400055086
 30
0.0
 10
4.4432063734
 20
3.2256169899
 30
0.0
 10
4.4433863579
 20
3.2184423643
 30
0.0
  0
SPLINE
  5
4B3
100
AcDbEntity
  8
ALL_ASSEMBLY_MEMBERS
100
AcDbSpline
 62
7
  6
CONTINUOUS
 70
0
 71
3
 72
20
 73
16
 74
0
 42
0.0000001
 43
0.0000001
 44
0.0000000001
 40
0.0
 40
0.0
 40
0.0
 40
0.0
 40
0.0555406923
 40
0.1113214445
 40
0.1675323943
 40
0.2243795667
 40
0.2820563542
 40
0.3407279924
 40
0.4005349942
 40
0.4615926721
 40
0.5239904544
 40
0.5877894953
 40
0.7196319231
 40
0.8571676938
 40
1.0
 40
1.0
 40
1.0
 40
1.0
 10
3.6334507137
 20
3.2133130031
 30
0.0
 10
3.6334507137
 20
3.219630081
 30
0.0
 10
3.6340386309
 20
3.2322991993
 30
0.0
 10
3.636671041
 20
3.2511969044
 30
0.0
 10
3.6410467979
 20
3.2699222249
 30
0.0
 10
3.6471390045
 20
3.2883871824
 30
0.0
 10
3.654919793
 20
3.3065103751
 30
0.0
 10
3.6643478887
 20
3.3242146373
 30
0.0
 10
3.6753817804
 20
3.3414223307
 30
0.0
 10
3.6879670008
 20
3.3580627582
 30
0.0
 10
3.7020496831
 20
3.3740657891
 30
0.0
 10
3.7229603731
 20
3.3946883888
 30
0.0
 10
3.752611019
 20
3.4184753047
 30
0.0
 10
3.7925946786
 20
3.4431497605
 30
0.0
 10
3.8215205394
 20
3.4567508799
 30
0.0
 10
3.8365608913
 20
3.4628910778
 30
0.0
  0
SPLINE
  5
4B4
100
AcDbEntity
  8
ALL_ASSEMBLY_MEMBERS
100
AcDbSpline
 62
7
  6
CONTINUOUS
 70
0
 71
3
 72
9
 73
5
 74
0
 42
0.0000001
 43
0.0000001
 44
0.0000000001
 40
0.0
 40
0.0
 40
0.0
 40
0.0
 40
0.2462849312
 40
1.0
 40
1.0
 40
1.0
 40
1.0
 10
3.8052388412
 20
3.4725506424
 30
0.0
 10
3.8123243256
 20
3.4754006484
 30
0.0
 10
3.8413326083
 20
3.4863726496
 30
0.0
 10
3.8712265875
 20
3.4949792488
 30
0.0
 10
3.8940153069
 20
3.5001698178
 30
0.0
  0
LINE
  5
4B5
100
AcDbEntity
  8
ALL_ASSEMBLY_MEMBERS
100
AcDbLine
 62
7
  6
CONTINUOUS
 10
3.8940153069
 20
3.5001698178
 11
3.8947543302
 21
3.5003376703
  0
SPLINE
  5
4B6
100
AcDbEntity
  8
ALL_ASSEMBLY_MEMBERS
100
AcDbSpline
 62
7
  6
CONTINUOUS
 70
0
 71
3
 72
22
 73
18
 74
0
 42
0.0000001
 43
0.0000001
 44
0.0000000001
 40
0.0
 40
0.0
 40
0.0
 40
0.0
 40
0.1433990825
 40
0.213459523
 40
0.2822118613
 40
0.3495431995
 40
0.4153721304
 40
0.4796517551
 40
0.542372413
 40
0.603564641
 40
0.6632998378
 40
0.7216911023
 40
0.7788916889
 40
0.8350894022
 40
0.8905068288
 40
0.9453922085
 40
1.0
 40
1.0
 40
1.0
 40
1.0
 10
4.1821190349
 20
3.5003439535
 30
0.0
 10
4.2055383263
 20
3.495041153
 30
0.0
 10
4.2399966513
 20
3.4851145941
 30
0.0
 10
4.2839995356
 20
3.4678208678
 30
0.0
 10
4.3152680913
 20
3.4531351266
 30
0.0
 10
4.3448551377
 20
3.4367179048
 30
0.0
 10
4.3725834363
 20
3.4186594399
 30
0.0
 10
4.3982820159
 20
3.3990584074
 30
0.0
 10
4.4217893033
 20
3.3780200793
 30
0.0
 10
4.4429561905
 20
3.355661136
 30
0.0
 10
4.46163905
 20
3.3321028625
 30
0.0
 10
4.477709658
 20
3.3074811216
 30
0.0
 10
4.4910458867
 20
3.281939738
 30
0.0
 10
4.501542966
 20
3.2556387239
 30
0.0
 10
4.5091117098
 20
3.2287491012
 30
0.0
 10
4.5136796458
 20
3.2014620261
 30
0.0
 10
4.5147007137
 20
3.1831114634
 30
0.0
 10
4.5147007137
 20
3.1739674022
 30
0.0
  0
SPLINE
  5
4B7
100
AcDbEntity
  8
ALL_ASSEMBLY_MEMBERS
100
AcDbSpline
 62
7
  6
CONTINUOUS
 70
0
 71
3
 72
21
 73
17
 74
0
 42
0.0000001
 43
0.0000001
 44
0.0000000001
 40
0.0
 40
0.0
 40
0.0
 40
0.0
 40
0.0562131564
 40
0.112626343
 40
0.1694203745
 40
0.2267779766
 40
0.2848686469
 40
0.3438454288
 40
0.4038400223
 40
0.4649643214
 40
0.5908512454
 40
0.6557970955
 40
0.7220757954
 40
0.8585278339
 40
0.9286944826
 40
1.0
 40
1.0
 40
1.0
 40
1.0
 10
3.5622007137
 20
3.1739674022
 30
0.0
 10
3.5622007137
 20
3.1815691552
 30
0.0
 10
3.5629053412
 20
3.196808879
 30
0.0
 10
3.5660600887
 20
3.2195321504
 30
0.0
 10
3.5712995035
 20
3.2420272124
 30
0.0
 10
3.5785846633
 20
3.2641824779
 30
0.0
 10
3.5878764662
 20
3.2858940668
 30
0.0
 10
3.5991169475
 20
3.307066198
 30
0.0
 10
3.6122503802
 20
3.3276074622
 30
0.0
 10
3.6323798291
 20
3.354296737
 30
0.0
 10
3.6559086602
 20
3.3791293474
 30
0.0
 10
3.6822475771
 20
3.4018535514
 30
0.0
 10
3.7111413843
 20
3.4236948796
 30
0.0
 10
3.7426219272
 20
3.443151802
 30
0.0
 10
3.7761604367
 20
3.4601409441
 30
0.0
 10
3.7936864691
 20
3.4678423182
 30
0.0
 10
3.8026138798
 20
3.4714869184
 30
0.0
  0
SPLINE
  5
4B8
100
AcDbEntity
  8
ALL_ASSEMBLY_MEMBERS
100
AcDbSpline
 62
7
  6
CONTINUOUS
 70
0
 71
3
 72
15
 73
11
 74
0
 42
0.0000001
 43
0.0000001
 44
0.0000000001
 40
0.0
 40
0.0
 40
0.0
 40
0.0
 40
0.1317065785
 40
0.2609864906
 40
0.3880449445
 40
0.513127925
 40
0.6365271294
 40
0.7585704563
 40
0.8796126034
 40
1.0
 40
1.0
 40
1.0
 40
1.0
 10
4.4964473458
 20
3.2682932684
 30
0.0
 10
4.5023380113
 20
3.2614066708
 30
0.0
 10
4.5135392859
 20
3.2473473971
 30
0.0
 10
4.5286097642
 20
3.2252779204
 30
0.0
 10
4.541719095
 20
3.202511121
 30
0.0
 10
4.5528042069
 20
3.1791386411
 30
0.0
 10
4.5618051272
 20
3.1552541014
 30
0.0
 10
4.5686771088
 20
3.1309592454
 30
0.0
 10
4.5733751511
 20
3.1063641886
 30
0.0
 10
4.575047721
 20
3.0898107984
 30
0.0
 10
4.5755120156
 20
3.0815403625
 30
0.0
  0
SPLINE
  5
4B9
100
AcDbEntity
  8
ALL_ASSEMBLY_MEMBERS
100
AcDbSpline
 62
7
  6
CONTINUOUS
 70
0
 71
3
 72
15
 73
11
 74
0
 42
0.0000001
 43
0.0000001
 44
0.0000000001
 40
0.0
 40
0.0
 40
0.0
 40
0.0
 40
0.120377012
 40
0.2414059428
 40
0.3634390023
 40
0.4868336009
 40
0.6119179982
 40
0.7389827441
 40
0.8682747662
 40
1.0
 40
1.0
 40
1.0
 40
1.0
 10
3.5013894117
 20
3.0815403625
 30
0.0
 10
3.5018545252
 20
3.0898253855
 30
0.0
 10
3.503530953
 20
3.1064077827
 30
0.0
 10
3.5082433214
 20
3.1310450073
 30
0.0
 10
3.5151366064
 20
3.1553804579
 30
0.0
 10
3.5241660659
 20
3.1793038243
 30
0.0
 10
3.5352868183
 20
3.2027126773
 30
0.0
 10
3.5484378349
 20
3.2255132432
 30
0.0
 10
3.5635571884
 20
3.247612353
 30
0.0
 10
3.5747931437
 20
3.2616892796
 30
0.0
 10
3.5807024728
 20
3.268583663
 30
0.0
  0
SPLINE
  5
4BA
100
AcDbEntity
  8
ALL_ASSEMBLY_MEMBERS
100
AcDbSpline
 62
9
  6
CONTINUOUS
 70
0
 71
3
 72
22
 73
18
 74
0
 42
0.0000001
 43
0.0000001
 44
0.0000000001
 40
0.0
 40
0.0
 40
0.0
 40
0.0
 40
0.0723873266
 40
0.1435339722
 40
0.2815714342
 40
0.3484250451
 40
0.4137891642
 40
0.4776643525
 40
0.5400808387
 40
0.6010993847
 40
0.660808607
 40
0.7193267142
 40
0.7767986067
 40
0.8333975786
 40
0.8893185725
 40
0.9447768663
 40
1.0
 40
1.0
 40
1.0
 40
1.0
 10
4.2409507137
 20
2.9592938038
 30
0.0
 10
4.2485356069
 20
2.9623903235
 30
0.0
 10
4.2634181843
 20
2.968927454
 30
0.0
 10
4.2918620903
 20
2.9833191662
 30
0.0
 10
4.3185278357
 20
2.9997649685
 30
0.0
 10
4.3429644928
 20
3.018188203
 30
0.0
 10
4.3598015991
 20
3.0326726854
 30
0.0
 10
4.375265978
 20
3.0479075121
 30
0.0
 10
4.3892907348
 20
3.0638292878
 30
0.0
 10
4.4018163321
 20
3.0803693555
 30
0.0
 10
4.4127861593
 20
3.0974593443
 30
0.0
 10
4.4221549198
 20
3.1150247489
 30
0.0
 10
4.4298770773
 20
3.1329926074
 30
0.0
 10
4.4359221558
 20
3.1512836369
 30
0.0
 10
4.4402582106
 20
3.1698208365
 30
0.0
 10
4.4428694632
 20
3.1885202323
 30
0.0
 10
4.4434505259
 20
3.2010546207
 30
0.0
 10
4.4434503662
 20
3.2073046403
 30
0.0
  0
SPLINE
  5
4BB
100
AcDbEntity
  8
ALL_ASSEMBLY_MEMBERS
100
AcDbSpline
 62
9
  6
CONTINUOUS
 70
0
 71
3
 72
21
 73
17
 74
0
 42
0.0000001
 43
0.0000001
 44
0.0000000001
 40
0.0
 40
0.0
 40
0.0
 40
0.0
 40
0.0725869197
 40
0.1438944363
 40
0.2821191058
 40
0.349002677
 40
0.4143538754
 40
0.5404247015
 40
0.6013354329
 40
0.6609252044
 40
0.7193249107
 40
0.7766957082
 40
0.8332270015
 40
0.8891316059
 40
0.9446413891
 40
1.0
 40
1.0
 40
1.0
 40
1.0
 10
4.2424338721
 20
2.9542474422
 30
0.0
 10
4.2502642596
 20
2.9574441846
 30
0.0
 10
4.2656208529
 20
2.9642014401
 30
0.0
 10
4.2949314123
 20
2.9791078755
 30
0.0
 10
4.3223525323
 20
2.9961829132
 30
0.0
 10
4.3473966419
 20
3.0153451033
 30
0.0
 10
4.3700467944
 20
3.035189242
 30
0.0
 10
4.3901315921
 20
3.0568331083
 30
0.0
 10
4.4071169128
 20
3.0800352384
 30
0.0
 10
4.4180570277
 20
3.0978074923
 30
0.0
 10
4.4272886908
 20
3.116063536
 30
0.0
 10
4.4347677291
 20
3.134723229
 30
0.0
 10
4.4404609195
 20
3.1537007096
 30
0.0
 10
4.4443375034
 20
3.1729110962
 30
0.0
 10
4.4463827617
 20
3.1922631583
 30
0.0
 10
4.446515349
 20
3.2052037928
 30
0.0
 10
4.4462759159
 20
3.2116497003
 30
0.0
  0
SPLINE
  5
4BC
100
AcDbEntity
  8
ALL_ASSEMBLY_MEMBERS
100
AcDbSpline
 62
9
  6
CONTINUOUS
 70
0
 71
3
 72
11
 73
7
 74
0
 42
0.0000001
 43
0.0000001
 44
0.0000000001
 40
0.0
 40
0.0
 40
0.0
 40
0.0
 40
0.2477537435
 40
0.4965566718
 40
0.7470903354
 40
1.0
 40
1.0
 40
1.0
 40
1.0
 10
4.4462759159
 20
3.2116497003
 30
0.0
 10
4.4460844829
 20
3.2168033736
 30
0.0
 10
4.4453092456
 20
3.227122203
 30
0.0
 10
4.4429762873
 20
3.2425118238
 30
0.0
 10
4.4394806964
 20
3.2577895223
 30
0.0
 10
4.436398979
 20
3.2678171048
 30
0.0
 10
4.4346737425
 20
3.272790944
 30
0.0
  0
SPLINE
  5
4BD
100
AcDbEntity
  8
ALL_ASSEMBLY_MEMBERS
100
AcDbSpline
 62
9
  6
CONTINUOUS
 70
0
 71
3
 72
9
 73
5
 74
0
 42
0.0000001
 43
0.0000001
 44
0.0000000001
 40
0.0
 40
0.0
 40
0.0
 40
0.0
 40
0.4946548972
 40
1.0
 40
1.0
 40
1.0
 40
1.0
 10
3.8058875577
 20
3.4709099509
 30
0.0
 10
3.8200553567
 20
3.4766939306
 30
0.0
 10
3.8492064354
 20
3.4871699348
 30
0.0
 10
3.8790986891
 20
3.4952769696
 30
0.0
 10
3.8943331508
 20
3.4987874509
 30
0.0
  0
LINE
  5
4BE
100
AcDbEntity
  8
ALL_ASSEMBLY_MEMBERS
100
AcDbLine
 62
9
  6
CONTINUOUS
 10
3.8943331508
 20
3.4987874509
 11
3.8947092912
 21
3.4988739999
  0
LINE
  5
4BF
100
AcDbEntity
  8
ALL_ASSEMBLY_MEMBERS
100
AcDbLine
 62
9
  6
CONTINUOUS
 10
4.1821821817
 20
3.4988761997
 11
4.1825699547
 21
3.4987869813
  0
SPLINE
  5
4C0
100
AcDbEntity
  8
ALL_ASSEMBLY_MEMBERS
100
AcDbSpline
 62
9
  6
CONTINUOUS
 70
0
 71
3
 72
38
 73
34
 74
0
 42
0.0000001
 43
0.0000001
 44
0.0000000001
 40
0.0
 40
0.0
 40
0.0
 40
0.0
 40
0.0738686217
 40
0.1099898163
 40
0.1454663745
 40
0.1802395742
 40
0.2142632235
 40
0.2475028241
 40
0.2799394732
 40
0.3115687563
 40
0.3424045937
 40
0.3724777358
 40
0.401838976
 40
0.4305569175
 40
0.4587196971
 40
0.4864315625
 40
0.5138122436
 40
0.5409921649
 40
0.5681092471
 40
0.5953034616
 40
0.6227119938
 40
0.6504647281
 40
0.6786794221
 40
0.7074595064
 40
0.7368902152
 40
0.7670392559
 40
0.7979547317
 40
0.8296669727
 40
0.862185079
 40
0.895503537
 40
0.9296074886
 40
0.9644646245
 40
1.0
 40
1.0
 40
1.0
 40
1.0
 10
4.1825699547
 20
3.4987869813
 30
0.0
 10
4.2035093149
 20
3.4939620882
 30
0.0
 10
4.2343489492
 20
3.4851244624
 30
0.0
 10
4.2739053351
 20
3.4700478358
 30
0.0
 10
4.3021463126
 20
3.457354882
 30
0.0
 10
4.3290255423
 20
3.4432577128
 30
0.0
 10
4.3544077653
 20
3.4278307428
 30
0.0
 10
4.3781596121
 20
3.4111495221
 30
0.0
 10
4.4001604696
 20
3.3933021783
 30
0.0
 10
4.4202937198
 20
3.3743762501
 30
0.0
 10
4.4384572761
 20
3.3544711673
 30
0.0
 10
4.4545527101
 20
3.3336851973
 30
0.0
 10
4.4684984394
 20
3.3121273563
 30
0.0
 10
4.4802158886
 20
3.2899055251
 30
0.0
 10
4.4896458181
 20
3.2671368183
 30
0.0
 10
4.4967315943
 20
3.2439377543
 30
0.0
 10
4.5014385778
 20
3.2204317879
 30
0.0
 10
4.5037348429
 20
3.1967423214
 30
0.0
 10
4.5036126878
 20
3.1729960826
 30
0.0
 10
4.5010672821
 20
3.1493198198
 30
0.0
 10
4.4961187163
 20
3.1258389835
 30
0.0
 10
4.4887895548
 20
3.1026790141
 30
0.0
 10
4.4791259963
 20
3.0799597381
 30
0.0
 10
4.4671761141
 20
3.057801589
 30
0.0
 10
4.4530095305
 20
3.0363162004
 30
0.0
 10
4.4366975
 20
3.0156166363
 30
0.0
 10
4.4183299833
 20
2.9958052019
 30
0.0
 10
4.3979996444
 20
2.976986749
 30
0.0
 10
4.3758167662
 20
2.9592529429
 30
0.0
 10
4.3518924678
 20
2.9426970039
 30
0.0
 10
4.3263496217
 20
2.9273993507
 30
0.0
 10
4.2993236902
 20
2.9134449039
 30
0.0
 10
4.2805841482
 20
2.9051559354
 30
0.0
 10
4.2710138697
 20
2.9012488856
 30
0.0
  0
SPLINE
  5
4C1
100
AcDbEntity
  8
ALL_ASSEMBLY_MEMBERS
100
AcDbSpline
 62
7
  6
CONTINUOUS
 70
0
 71
3
 72
21
 73
17
 74
0
 42
0.0000001
 43
0.0000001
 44
0.0000000001
 40
0.0
 40
0.0
 40
0.0
 40
0.0
 40
0.0549821461
 40
0.1104695247
 40
0.1666289469
 40
0.2236111993
 40
0.2815502166
 40
0.3405601824
 40
0.4007339985
 40
0.4621452619
 40
0.5248451101
 40
0.5888662479
 40
0.7208338649
 40
0.8580014735
 40
0.9284531341
 40
1.0
 40
1.0
 40
1.0
 40
1.0
 10
4.5730745439
 20
3.027307534
 30
0.0
 10
4.571981772
 20
3.0198487266
 30
0.0
 10
4.5691629996
 20
3.0049467264
 30
0.0
 10
4.5631009087
 20
2.9828953357
 30
0.0
 10
4.5552070356
 20
2.9611387123
 30
0.0
 10
4.545514345
 20
2.9397537365
 30
0.0
 10
4.5340551654
 20
2.9188154266
 30
0.0
 10
4.520871671
 20
2.8983963225
 30
0.0
 10
4.5060114171
 20
2.8785662381
 30
0.0
 10
4.4895250817
 20
2.8593953971
 30
0.0
 10
4.4714725236
 20
2.8409467017
 30
0.0
 10
4.4451337512
 20
2.8171643492
 30
0.0
 10
4.4085439363
 20
2.7896420082
 30
0.0
 10
4.3684308167
 20
2.7658286671
 30
0.0
 10
4.3341287593
 20
2.7488199551
 30
0.0
 10
4.3162747531
 20
2.7410324089
 30
0.0
 10
4.3071928564
 20
2.7373247401
 30
0.0
  0
SPLINE
  5
4C2
100
AcDbEntity
  8
ALL_ASSEMBLY_MEMBERS
100
AcDbSpline
 62
9
  6
CONTINUOUS
 70
0
 71
3
 72
24
 73
20
 74
0
 42
0.0000001
 43
0.0000001
 44
0.0000000001
 40
0.0
 40
0.0
 40
0.0
 40
0.0
 40
0.0739930283
 40
0.1462542272
 40
0.2166065874
 40
0.284984163
 40
0.3513581041
 40
0.4157507342
 40
0.4782536463
 40
0.5390246278
 40
0.5982863185
 40
0.6274506972
 40
0.656350132
 40
0.7135100779
 40
0.7701743245
 40
0.8267520907
 40
0.8836569661
 40
0.941285774
 40
1.0
 40
1.0
 40
1.0
 40
1.0
 10
4.2887301444
 20
2.7856910525
 30
0.0
 10
4.3009837892
 20
2.790693582
 30
0.0
 10
4.3248745945
 20
2.8014163225
 30
0.0
 10
4.3590139311
 20
2.8198105305
 30
0.0
 10
4.390811776
 20
2.8402119347
 30
0.0
 10
4.4200296321
 20
2.8624691718
 30
0.0
 10
4.4464575895
 20
2.8864223114
 30
0.0
 10
4.4698971302
 20
2.9119021077
 30
0.0
 10
4.4901733561
 20
2.9387250074
 30
0.0
 10
4.507133301
 20
2.9666940597
 30
0.0
 10
4.5184537937
 20
2.990927418
 30
0.0
 10
4.5256898259
 20
3.0106379386
 30
0.0
 10
4.5316687604
 20
3.0303723594
 30
0.0
 10
4.5369182929
 20
3.0554229318
 30
0.0
 10
4.5395453158
 20
3.0858636075
 30
0.0
 10
4.538463238
 20
3.1163544982
 30
0.0
 10
4.533677081
 20
3.146660789
 30
0.0
 10
4.5252297253
 20
3.1765473485
 30
0.0
 10
4.5172881933
 20
3.1958392775
 30
0.0
 10
4.5127672878
 20
3.2053188964
 30
0.0
  0
SPLINE
  5
4C3
100
AcDbEntity
  8
ALL_ASSEMBLY_MEMBERS
100
AcDbSpline
 62
9
  6
CONTINUOUS
 70
0
 71
3
 72
26
 73
22
 74
0
 42
0.0000001
 43
0.0000001
 44
0.0000000001
 40
0.0
 40
0.0
 40
0.0
 40
0.0
 40
0.074098605
 40
0.1462197681
 40
0.2161715994
 40
0.2838871315
 40
0.349353191
 40
0.4126462504
 40
0.4739369793
 40
0.5334889056
 40
0.5627355554
 40
0.5916873143
 40
0.6489042573
 40
0.70566028
 40
0.7340438157
 40
0.7625073027
 40
0.7911145484
 40
0.8199272541
 40
0.8783693269
 40
0.9382819667
 40
1.0
 40
1.0
 40
1.0
 40
1.0
 10
4.3010860396
 20
2.7572745831
 30
0.0
 10
4.3154830737
 20
2.7631521477
 30
0.0
 10
4.3434620022
 20
2.7758468139
 30
0.0
 10
4.3831547386
 20
2.7979203891
 30
0.0
 10
4.4196870187
 20
2.8225975113
 30
0.0
 10
4.4527171114
 20
2.84965009
 30
0.0
 10
4.4819410786
 20
2.8788389816
 30
0.0
 10
4.5070844614
 20
2.9099027425
 30
0.0
 10
4.5279060431
 20
2.9425576988
 30
0.0
 10
4.5415704079
 20
2.9710351634
 30
0.0
 10
4.5500929576
 20
2.9942466928
 30
0.0
 10
4.5569576888
 20
3.0174902348
 30
0.0
 10
4.5626014107
 20
3.047045575
 30
0.0
 10
4.5641872208
 20
3.0769778218
 30
0.0
 10
4.5630131996
 20
3.1008054011
 30
0.0
 10
4.5609163605
 20
3.1186303304
 30
0.0
 10
4.557610099
 20
3.1363623275
 30
0.0
 10
4.5515716439
 20
3.1599311612
 30
0.0
 10
4.5409645621
 20
3.1890377888
 30
0.0
 10
4.5236441608
 20
3.2227237515
 30
0.0
 10
4.5093332847
 20
3.2439408152
 30
0.0
 10
4.5015137206
 20
3.2542664007
 30
0.0
  0
SPLINE
  5
4C4
100
AcDbEntity
  8
ALL_ASSEMBLY_MEMBERS
100
AcDbSpline
 62
9
  6
CONTINUOUS
 70
0
 71
3
 72
43
 73
39
 74
0
 42
0.0000001
 43
0.0000001
 44
0.0000000001
 40
0.0
 40
0.0
 40
0.0
 40
0.0
 40
0.0343895584
 40
0.069492256
 40
0.1051420732
 40
0.1411927823
 40
0.1774765187
 40
0.2138186903
 40
0.2500454569
 40
0.285985245
 40
0.3214734157
 40
0.3563564914
 40
0.3904972511
 40
0.423778479
 40
0.4561078243
 40
0.4874234292
 40
0.5176974999
 40
0.546941448
 40
0.5752100882
 40
0.6026027581
 40
0.6292639371
 40
0.6553795734
 40
0.6811684936
 40
0.6940227197
 40
0.7068861103
 40
0.7197893332
 40
0.7327623896
 40
0.7590178289
 40
0.7723672039
 40
0.785891255
 40
0.8135296078
 40
0.8420781815
 40
0.8716235016
 40
0.8867889897
 40
0.9022146139
 40
0.9338324321
 40
0.9664585289
 40
1.0
 40
1.0
 40
1.0
 40
1.0
 10
4.2389900128
 20
2.9711558159
 30
0.0
 10
4.2275067966
 20
2.9664678125
 30
0.0
 10
4.2039133523
 20
2.9579217583
 30
0.0
 10
4.1673538257
 20
2.9477265285
 30
0.0
 10
4.1295594516
 20
2.9401080631
 30
0.0
 10
4.0908988832
 20
2.9351383009
 30
0.0
 10
4.0517370153
 20
2.9328617496
 30
0.0
 10
4.0124481553
 20
2.9333017578
 30
0.0
 10
3.9734077186
 20
2.9364548082
 30
0.0
 10
3.934987896
 20
2.9422890726
 30
0.0
 10
3.8975553358
 20
2.950750393
 30
0.0
 10
3.8614674581
 20
2.9617597772
 30
0.0
 10
3.8270677937
 20
2.9752114245
 30
0.0
 10
3.7946847742
 20
2.9909801507
 30
0.0
 10
3.7646279485
 20
3.0089187886
 30
0.0
 10
3.73718366
 20
3.0288579862
 30
0.0
 10
3.7126165238
 20
3.0506136324
 30
0.0
 10
3.691165079
 20
3.0739834752
 30
0.0
 10
3.6730386978
 20
3.0987484471
 30
0.0
 10
3.6584215495
 20
3.1246772321
 30
0.0
 10
3.6474654891
 20
3.1515233249
 30
0.0
 10
3.640285864
 20
3.1790215723
 30
0.0
 10
3.6375170216
 20
3.202295145
 30
0.0
 10
3.6372532724
 20
3.2208825666
 30
0.0
 10
3.6380233144
 20
3.2348021851
 30
0.0
 10
3.6397577555
 20
3.2486779468
 30
0.0
 10
3.6433635918
 20
3.2671430647
 30
0.0
 10
3.6488961527
 20
3.2853510835
 30
0.0
 10
3.6562241378
 20
3.3030671662
 30
0.0
 10
3.6648827406
 20
3.3207320082
 30
0.0
 10
3.6780390204
 20
3.342235754
 30
0.0
 10
3.697167381
 20
3.3666091997
 30
0.0
 10
3.7156726354
 20
3.3855426456
 30
0.0
 10
3.7319625197
 20
3.3998736675
 30
0.0
 10
3.7495187274
 20
3.4138576479
 30
0.0
 10
3.7732541375
 20
3.4301323985
 30
0.0
 10
3.8040280985
 20
3.4474427905
 30
0.0
 10
3.8257585076
 20
3.457382673
 30
0.0
 10
3.8369482073
 20
3.4619802787
 30
0.0
  0
LINE
  5
4C5
100
AcDbEntity
  8
ALL_ASSEMBLY_MEMBERS
100
AcDbLine
 62
9
  6
CONTINUOUS
 10
3.8369482073
 20
3.4619802787
 11
3.8379114146
 21
3.4623747721
  0
SPLINE
  5
4C6
100
AcDbEntity
  8
ALL_ASSEMBLY_MEMBERS
100
AcDbSpline
 62
9
  6
CONTINUOUS
 70
0
 71
3
 72
30
 73
26
 74
0
 42
0.0000001
 43
0.0000001
 44
0.0000000001
 40
0.0
 40
0.0
 40
0.0
 40
0.0
 40
0.0330522054
 40
0.0665975443
 40
0.134847827
 40
0.2042578492
 40
0.2742764662
 40
0.3443181129
 40
0.4137997855
 40
0.4821610761
 40
0.5488910543
 40
0.6135538633
 40
0.6450137513
 40
0.6758422859
 40
0.7355007896
 40
0.7643491458
 40
0.7925451814
 40
0.8201115971
 40
0.8470847765
 40
0.8735128991
 40
0.8994572146
 40
0.9249904471
 40
0.9501960074
 40
0.9751662494
 40
1.0
 40
1.0
 40
1.0
 40
1.0
 10
4.2409507137
 20
2.9653021666
 30
0.0
 10
4.233319677
 20
2.9621868089
 30
0.0
 10
4.2177747531
 20
2.9563149435
 30
0.0
 10
4.1857445523
 20
2.9460360303
 30
0.0
 10
4.1441619813
 20
2.9360350714
 30
0.0
 10
4.0928173215
 20
2.9287217695
 30
0.0
 10
4.040570273
 20
2.9261405884
 30
0.0
 10
3.9882885279
 20
2.9283358757
 30
0.0
 10
3.9368375222
 20
2.9352705273
 30
0.0
 10
3.8870678454
 20
2.9468324042
 30
0.0
 10
3.8398067621
 20
2.9628316115
 30
0.0
 10
3.8028176107
 20
2.9798053771
 30
0.0
 10
3.7752445405
 20
2.9953950621
 30
0.0
 10
3.7496737492
 20
3.0118778548
 30
0.0
 10
3.7261301928
 20
3.030235803
 30
0.0
 10
3.7050725742
 20
3.0503512229
 30
0.0
 10
3.6908465547
 20
3.0659591277
 30
0.0
 10
3.6780786545
 20
3.0821902189
 30
0.0
 10
3.6668204611
 20
3.0989761235
 30
0.0
 10
3.6571220036
 20
3.1162479311
 30
0.0
 10
3.6490249401
 20
3.13393307
 30
0.0
 10
3.6425641595
 20
3.1519569066
 30
0.0
 10
3.6377702567
 20
3.170244242
 30
0.0
 10
3.6346617715
 20
3.1887144553
 30
0.0
 10
3.6337237222
 20
3.2011195259
 30
0.0
 10
3.6335401469
 20
3.2073097721
 30
0.0
  0
SPLINE
  5
4C7
100
AcDbEntity
  8
ALL_ASSEMBLY_MEMBERS
100
AcDbSpline
 62
9
  6
CONTINUOUS
 70
0
 71
3
 72
36
 73
32
 74
0
 42
0.0000001
 43
0.0000001
 44
0.0000000001
 40
0.0
 40
0.0
 40
0.0
 40
0.0
 40
0.0258771379
 40
0.0514550596
 40
0.0768604861
 40
0.1022265207
 40
0.1276875094
 40
0.1533746042
 40
0.1794104769
 40
0.2059060877
 40
0.2329568972
 40
0.2606415462
 40
0.2890201401
 40
0.31813451
 40
0.3786078225
 40
0.4100030632
 40
0.4421294924
 40
0.4749491689
 40
0.5084120407
 40
0.5424577923
 40
0.5770168389
 40
0.6473350828
 40
0.6829479053
 40
0.7187333349
 40
0.7545970184
 40
0.7904441283
 40
0.8261797639
 40
0.8617089843
 40
0.9317665658
 40
0.9661614425
 40
1.0
 40
1.0
 40
1.0
 40
1.0
 10
3.6422005001
 20
3.2727114559
 30
0.0
 10
3.6398578592
 20
3.2659497241
 30
0.0
 10
3.6358492761
 20
3.2522679939
 30
0.0
 10
3.6319461778
 20
3.2313389102
 30
0.0
 10
3.6302146567
 20
3.210258487
 30
0.0
 10
3.6306677885
 20
3.1891446167
 30
0.0
 10
3.6333008419
 20
3.1681124768
 30
0.0
 10
3.6380999126
 20
3.1472774998
 30
0.0
 10
3.6450358954
 20
3.1267525869
 30
0.0
 10
3.654069829
 20
3.1066485878
 30
0.0
 10
3.6651503333
 20
3.0870724801
 30
0.0
 10
3.6782157179
 20
3.0681282578
 30
0.0
 10
3.6931956998
 20
3.0499144915
 30
0.0
 10
3.7158909987
 20
3.0264421224
 30
0.0
 10
3.7418767953
 20
3.0051456667
 30
0.0
 10
3.7704861984
 20
2.9862144839
 30
0.0
 10
3.7936387559
 20
2.97299153
 30
0.0
 10
3.8180867764
 20
2.9609997829
 30
0.0
 10
3.8437021726
 20
2.9502985378
 30
0.0
 10
3.8703505572
 20
2.9409460499
 30
0.0
 10
3.9072736264
 20
2.9302786314
 30
0.0
 10
3.945447775
 20
2.9225904489
 30
0.0
 10
3.9843674464
 20
2.9178878238
 30
0.0
 10
4.0139746999
 20
2.9158624097
 30
0.0
 10
4.0437104754
 20
2.9153679253
 30
0.0
 10
4.0734185505
 20
2.9164037836
 30
0.0
 10
4.1029424648
 20
2.9189682147
 30
0.0
 10
4.1416603792
 20
2.9243755329
 30
0.0
 10
4.1795465665
 20
2.9327541535
 30
0.0
 10
4.2160838886
 20
2.9440972594
 30
0.0
 10
4.2337703342
 20
2.9507105677
 30
0.0
 10
4.2424338721
 20
2.9542474422
 30
0.0
  0
SPLINE
  5
4C8
100
AcDbEntity
  8
ALL_ASSEMBLY_MEMBERS
100
AcDbSpline
 62
9
  6
CONTINUOUS
 70
0
 71
3
 72
47
 73
43
 74
0
 42
0.0000001
 43
0.0000001
 44
0.0000000001
 40
0.0
 40
0.0
 40
0.0
 40
0.0
 40
0.0343918114
 40
0.0694936548
 40
0.1051436207
 40
0.1411951215
 40
0.1774795804
 40
0.2138235098
 40
0.2500535518
 40
0.285998157
 40
0.3214931181
 40
0.3563853822
 40
0.3905374064
 40
0.423832254
 40
0.4561776264
 40
0.4875107203
 40
0.5178036937
 40
0.5470674021
 40
0.5753551025
 40
0.5891683351
 40
0.6027782258
 40
0.6294546785
 40
0.6555815021
 40
0.6685134942
 40
0.6813918587
 40
0.6942470478
 40
0.7071097749
 40
0.7200107852
 40
0.7329800293
 40
0.7460464086
 40
0.7592373916
 40
0.7725782134
 40
0.7860921208
 40
0.7997998592
 40
0.8137191226
 40
0.8422393608
 40
0.8717530131
 40
0.8869022442
 40
0.9023115137
 40
0.933895536
 40
0.9664869287
 40
1.0
 40
1.0
 40
1.0
 40
1.0
 10
4.2710138697
 20
2.9012488856
 30
0.0
 10
4.2577121169
 20
2.8958184678
 30
0.0
 10
4.2303841896
 20
2.8859178959
 30
0.0
 10
4.1880385479
 20
2.8741036705
 30
0.0
 10
4.1442636566
 20
2.8652701981
 30
0.0
 10
4.0994846693
 20
2.8595001698
 30
0.0
 10
4.0541235372
 20
2.8568473464
 30
0.0
 10
4.0086131775
 20
2.8573368743
 30
0.0
 10
3.9633870729
 20
2.8609648771
 30
0.0
 10
3.9188757114
 20
2.867696909
 30
0.0
 10
3.8755026472
 20
2.8774683567
 30
0.0
 10
3.8336808624
 20
2.8901882332
 30
0.0
 10
3.7938084704
 20
2.9057371653
 30
0.0
 10
3.7562643149
 20
2.923967939
 30
0.0
 10
3.7214061178
 20
2.9447109722
 30
0.0
 10
3.6895672813
 20
2.9677735394
 30
0.0
 10
3.6610515902
 20
2.9929409228
 30
0.0
 10
3.6361362926
 20
3.0199766781
 30
0.0
 10
3.6184347099
 20
3.0440548575
 30
0.0
 10
3.6063684085
 20
3.0639713854
 30
0.0
 10
3.5958515673
 20
3.0839895436
 30
0.0
 10
3.5852627695
 20
3.1097211551
 30
0.0
 10
3.5782263452
 20
3.1363581796
 30
0.0
 10
3.5748589225
 20
3.157807211
 30
0.0
 10
3.5734569361
 20
3.1739125899
 30
0.0
 10
3.5731721702
 20
3.1900468326
 30
0.0
 10
3.5740062709
 20
3.2061716938
 30
0.0
 10
3.5759586222
 20
3.2222474508
 30
0.0
 10
3.5790215377
 20
3.2382354399
 30
0.0
 10
3.5831890233
 20
3.2540967328
 30
0.0
 10
3.5884514404
 20
3.2697925285
 30
0.0
 10
3.5947933519
 20
3.2852858569
 30
0.0
 10
3.6022008901
 20
3.3005386996
 30
0.0
 10
3.6106563477
 20
3.3155145567
 30
0.0
 10
3.6233975593
 20
3.3352226387
 30
0.0
 10
3.6419148481
 20
3.3589886853
 30
0.0
 10
3.6632513605
 20
3.3809665672
 30
0.0
 10
3.6820458358
 20
3.3976097367
 30
0.0
 10
3.7023070714
 20
3.4138551571
 30
0.0
 10
3.729711019
 20
3.4327722727
 30
0.0
 10
3.7652592239
 20
3.4529121655
 30
0.0
 10
3.7903712616
 20
3.4644887474
 30
0.0
 10
3.803305377
 20
3.4698479233
 30
0.0
  0
SPLINE
  5
4C9
100
AcDbEntity
  8
ALL_ASSEMBLY_MEMBERS
100
AcDbSpline
 62
9
  6
CONTINUOUS
 70
0
 71
3
 72
32
 73
28
 74
0
 42
0.0000001
 43
0.0000001
 44
0.0000000001
 40
0.0
 40
0.0
 40
0.0
 40
0.0
 40
0.0327910247
 40
0.0660566295
 40
0.1337138827
 40
0.2025156625
 40
0.2719595951
 40
0.3415058267
 40
0.4106153266
 40
0.4787646667
 40
0.5123352013
 40
0.545488858
 40
0.5781744408
 40
0.610346965
 40
0.6419663566
 40
0.6730002999
 40
0.7331920091
 40
0.7623512852
 40
0.7908761145
 40
0.8187791733
 40
0.8460827288
 40
0.8728214773
 40
0.8990403788
 40
0.9247961586
 40
0.9501557235
 40
0.9751954592
 40
1.0
 40
1.0
 40
1.0
 40
1.0
 10
4.2765757137
 20
2.8823250297
 30
0.0
 10
4.2679258337
 20
2.878793731
 30
0.0
 10
4.2503163612
 20
2.8721228889
 30
0.0
 10
4.2140607743
 20
2.8603795367
 30
0.0
 10
4.1670274489
 20
2.8488059235
 30
0.0
 10
4.1089424391
 20
2.8400353177
 30
0.0
 10
4.0497696298
 20
2.8364299403
 30
0.0
 10
3.9904218491
 20
2.8380477963
 30
0.0
 10
3.9318170346
 20
2.8448621704
 30
0.0
 10
3.8840996847
 20
2.8548374741
 30
0.0
 10
3.8471215131
 20
2.8653403651
 30
0.0
 10
3.8202663588
 20
2.8743801507
 30
0.0
 10
3.7942609771
 20
2.8845891823
 30
0.0
 10
3.769205007
 20
2.8959241796
 30
0.0
 10
3.7451955733
 20
2.9083456296
 30
0.0
 10
3.7150188044
 20
2.9261019585
 30
0.0
 10
3.6869418877
 20
2.9459712882
 30
0.0
 10
3.6614357229
 20
2.9678493742
 30
0.0
 10
3.6439727458
 20
2.9848965217
 30
0.0
 10
3.6280448923
 20
3.0026827442
 30
0.0
 10
3.6137173001
 20
3.0211434213
 30
0.0
 10
3.6010440659
 20
3.0402044837
 30
0.0
 10
3.5900777764
 20
3.0597938966
 30
0.0
 10
3.5808620463
 20
3.0798346661
 30
0.0
 10
3.5734332308
 20
3.1002488487
 30
0.0
 10
3.5678249784
 20
3.1209548813
 30
0.0
 10
3.565303013
 20
3.13495255
 30
0.0
 10
3.5643572091
 20
3.1419563775
 30
0.0
  0
SPLINE
  5
4CA
100
AcDbEntity
  8
ALL_ASSEMBLY_MEMBERS
100
AcDbSpline
 62
9
  6
CONTINUOUS
 70
0
 71
3
 72
22
 73
18
 74
0
 42
0.0000001
 43
0.0000001
 44
0.0000000001
 40
0.0
 40
0.0
 40
0.0
 40
0.0
 40
0.0552231337
 40
0.1106814275
 40
0.1666024214
 40
0.2232013933
 40
0.2806732858
 40
0.339191393
 40
0.3989006153
 40
0.4599191613
 40
0.5223356474
 40
0.5862108358
 40
0.6515749549
 40
0.7184285657
 40
0.8564660278
 40
0.9276126734
 40
1.0
 40
1.0
 40
1.0
 40
1.0
 10
4.4434503662
 20
3.2133130035
 30
0.0
 10
4.4434505259
 20
3.207062984
 30
0.0
 10
4.4428694632
 20
3.1945285955
 30
0.0
 10
4.4402582107
 20
3.1758291996
 30
0.0
 10
4.4359221559
 20
3.1572920001
 30
0.0
 10
4.4298770774
 20
3.1390009705
 30
0.0
 10
4.4221549199
 20
3.121033112
 30
0.0
 10
4.4127861595
 20
3.1034677074
 30
0.0
 10
4.4018163323
 20
3.0863777185
 30
0.0
 10
4.3892907349
 20
3.0698376507
 30
0.0
 10
4.3752659781
 20
3.053915875
 30
0.0
 10
4.3598015992
 20
3.0386810484
 30
0.0
 10
4.342964493
 20
3.0241965659
 30
0.0
 10
4.3185278358
 20
3.0057733313
 30
0.0
 10
4.2918620904
 20
2.989327529
 30
0.0
 10
4.2634181843
 20
2.9749358168
 30
0.0
 10
4.2485356069
 20
2.9683986863
 30
0.0
 10
4.2409507137
 20
2.9653021666
 30
0.0
  0
SPLINE
  5
4CB
100
AcDbEntity
  8
ALL_ASSEMBLY_MEMBERS
100
AcDbSpline
 62
9
  6
CONTINUOUS
 70
0
 71
3
 72
35
 73
31
 74
0
 42
0.0000001
 43
0.0000001
 44
0.0000000001
 40
0.0
 40
0.0
 40
0.0
 40
0.0
 40
0.0734704321
 40
0.1093346638
 40
0.144527552
 40
0.2126791251
 40
0.2456103097
 40
0.2777486441
 40
0.3090992427
 40
0.3396838403
 40
0.369541794
 40
0.3987297804
 40
0.4273228254
 40
0.4554120342
 40
0.4831044786
 40
0.5105191456
 40
0.5377847719
 40
0.5650347976
 40
0.5924033582
 40
0.6200205468
 40
0.6480080734
 40
0.6764759027
 40
0.7055191545
 40
0.7352162811
 40
0.7967533712
 40
0.8287091971
 40
0.861455805
 40
0.9292571449
 40
0.9642977792
 40
1.0
 40
1.0
 40
1.0
 40
1.0
 10
4.1822232354
 20
3.4815231927
 30
0.0
 10
4.1995317586
 20
3.476823797
 30
0.0
 10
4.2249556132
 20
3.4684728004
 30
0.0
 10
4.2574323236
 20
3.4546473337
 30
0.0
 10
4.2878831801
 20
3.4395297186
 30
0.0
 10
4.3163198315
 20
3.4220605423
 30
0.0
 10
4.3421969699
 20
3.4023286827
 30
0.0
 10
4.3598901208
 20
3.3867740752
 30
0.0
 10
4.3759972204
 20
3.3703753434
 30
0.0
 10
4.3904375881
 20
3.3532103558
 30
0.0
 10
4.4031404138
 20
3.3353646246
 30
0.0
 10
4.4140383739
 20
3.3169233867
 30
0.0
 10
4.4230792287
 20
3.2979794967
 30
0.0
 10
4.4302113556
 20
3.2786246041
 30
0.0
 10
4.4354022816
 20
3.2589572517
 30
0.0
 10
4.4386185232
 20
3.2390749195
 30
0.0
 10
4.4398485365
 20
3.2190793806
 30
0.0
 10
4.4390798322
 20
3.199071988
 30
0.0
 10
4.4363220092
 20
3.1791544987
 30
0.0
 10
4.4315852926
 20
3.1594285657
 30
0.0
 10
4.4248989785
 20
3.1399927445
 30
0.0
 10
4.4162957786
 20
3.1209454944
 30
0.0
 10
4.4058215528
 20
3.1023792887
 30
0.0
 10
4.3892440509
 20
3.0781107577
 30
0.0
 10
4.3692429388
 20
3.0554591332
 30
0.0
 10
4.3464242261
 20
3.0347203251
 30
0.0
 10
4.3209989638
 20
3.014686857
 30
0.0
 10
4.2929616847
 20
2.9968916235
 30
0.0
 10
4.2628680136
 20
2.9814309143
 30
0.0
 10
4.2470589075
 20
2.9744499284
 30
0.0
 10
4.2389900128
 20
2.9711558159
 30
0.0
  0
SPLINE
  5
4CC
100
AcDbEntity
  8
ALL_ASSEMBLY_MEMBERS
100
AcDbSpline
 62
9
  6
CONTINUOUS
 70
0
 71
3
 72
22
 73
18
 74
0
 42
0.0000001
 43
0.0000001
 44
0.0000000001
 40
0.0
 40
0.0
 40
0.0
 40
0.0
 40
0.0552231337
 40
0.1106814275
 40
0.1666024214
 40
0.2232013933
 40
0.2806732858
 40
0.339191393
 40
0.3989006153
 40
0.4599191613
 40
0.5223356474
 40
0.5862108358
 40
0.6515749549
 40
0.7184285658
 40
0.8564660278
 40
0.9276126734
 40
1.0
 40
1.0
 40
1.0
 40
1.0
 10
4.514700305
 20
3.1739674024
 30
0.0
 10
4.5147004929
 20
3.1666178424
 30
0.0
 10
4.5140172062
 20
3.1518783301
 30
0.0
 10
4.5109465666
 20
3.1298892257
 30
0.0
 10
4.5058476873
 20
3.1080908522
 30
0.0
 10
4.4987391228
 20
3.0865819563
 30
0.0
 10
4.4896584376
 20
3.0654530857
 30
0.0
 10
4.4786414693
 20
3.044797471
 30
0.0
 10
4.465741765
 20
3.0247009101
 30
0.0
 10
4.4510125904
 20
3.0052510156
 30
0.0
 10
4.4345205153
 20
2.9865281868
 30
0.0
 10
4.4163355512
 20
2.9686131591
 30
0.0
 10
4.3965363615
 20
2.9515804807
 30
0.0
 10
4.3678006627
 20
2.9299161215
 30
0.0
 10
4.3364437214
 20
2.9105770763
 30
0.0
 10
4.3029957949
 20
2.8936534888
 30
0.0
 10
4.2854949862
 20
2.8859663075
 30
0.0
 10
4.2765757137
 20
2.8823250297
 30
0.0
  0
SPLINE
  5
4CD
100
AcDbEntity
  8
ALL_ASSEMBLY_MEMBERS
100
AcDbSpline
 62
9
  6
CONTINUOUS
 70
0
 71
3
 72
11
 73
7
 74
0
 42
0.0000001
 43
0.0000001
 44
0.0000000001
 40
0.0
 40
0.0
 40
0.0
 40
0.0
 40
0.2482912388
 40
0.497273851
 40
0.747626263
 40
1.0
 40
1.0
 40
1.0
 40
1.0
 10
4.5147007137
 20
3.1416086354
 30
0.0
 10
4.5147007137
 20
3.135670138
 30
0.0
 10
4.5142546634
 20
3.1237718964
 30
0.0
 10
4.5122526966
 20
3.1059869999
 30
0.0
 10
4.5089216005
 20
3.0883033157
 30
0.0
 10
4.5058364343
 20
3.0766691716
 30
0.0
 10
4.5040822609
 20
3.0708935446
 30
0.0
  0
SPLINE
  5
4CE
100
AcDbEntity
  8
ALL_ASSEMBLY_MEMBERS
100
AcDbSpline
 62
9
  6
CONTINUOUS
 70
0
 71
3
 72
17
 73
13
 74
0
 42
0.0000001
 43
0.0000001
 44
0.0000000001
 40
0.0
 40
0.0
 40
0.0
 40
0.0
 40
0.0551685191
 40
0.1110197365
 40
0.1676614154
 40
0.2251889704
 40
0.3431568015
 40
0.4654627377
 40
0.5923597094
 40
0.7238797007
 40
0.8598739538
 40
1.0
 40
1.0
 40
1.0
 40
1.0
 10
4.5040822609
 20
3.0708935446
 30
0.0
 10
4.5023321117
 20
3.0651311671
 30
0.0
 10
4.4983957097
 20
3.0536567071
 30
0.0
 10
4.4912688601
 20
3.0367845855
 30
0.0
 10
4.4829057705
 20
3.0201998417
 30
0.0
 10
4.4700338475
 20
2.9983545166
 30
0.0
 10
4.4508752488
 20
2.9719802202
 30
0.0
 10
4.4236060521
 20
2.9424915417
 30
0.0
 10
4.3921635522
 20
2.9151948886
 30
0.0
 10
4.3568946461
 20
2.8903793968
 30
0.0
 10
4.318186151
 20
2.8683081372
 30
0.0
 10
4.2907374352
 20
2.8557477615
 30
0.0
 10
4.2765757137
 20
2.8499662629
 30
0.0
  0
SPLINE
  5
4CF
100
AcDbEntity
  8
ALL_ASSEMBLY_MEMBERS
100
AcDbSpline
 62
9
  6
CONTINUOUS
 70
0
 71
3
 72
37
 73
33
 74
0
 42
0.0000001
 43
0.0000001
 44
0.0000000001
 40
0.0
 40
0.0
 40
0.0
 40
0.0
 40
0.0280461132
 40
0.055386504
 40
0.0821214438
 40
0.1083743737
 40
0.1342888077
 40
0.1600225227
 40
0.1857415115
 40
0.2116124988
 40
0.2377952476
 40
0.264436011
 40
0.2916623173
 40
0.3195784412
 40
0.3482644709
 40
0.3777745002
 40
0.40813779
 40
0.4393601601
 40
0.4714248232
 40
0.5042959195
 40
0.5379191925
 40
0.5722253466
 40
0.6071317973
 40
0.6425445857
 40
0.6783612251
 40
0.7144718526
 40
0.7870840663
 40
0.8594709257
 40
0.8953013231
 40
0.9307335001
 40
0.9656716846
 40
1.0
 40
1.0
 40
1.0
 40
1.0
 10
3.5754940814
 20
3.2544071824
 30
0.0
 10
3.5689002498
 20
3.2457084612
 30
0.0
 10
3.5566614086
 20
3.2279163853
 30
0.0
 10
3.5412027308
 20
3.1998826156
 30
0.0
 10
3.5289930214
 20
3.1710379795
 30
0.0
 10
3.5201217415
 20
3.141574607
 30
0.0
 10
3.514649041
 20
3.1116885113
 30
0.0
 10
3.5126193291
 20
3.0815802355
 30
0.0
 10
3.5140437129
 20
3.0514541347
 30
0.0
 10
3.5189139224
 20
3.021514226
 30
0.0
 10
3.5271941525
 20
2.9919626264
 30
0.0
 10
3.5388225397
 20
2.9629954704
 30
0.0
 10
3.553720284
 20
2.9348050556
 30
0.0
 10
3.5717806965
 20
2.9075729246
 30
0.0
 10
3.5928836581
 20
2.8814761492
 30
0.0
 10
3.6168870444
 20
2.8566814455
 30
0.0
 10
3.6436315325
 20
2.8333462958
 30
0.0
 10
3.6729432935
 20
2.8116218801
 30
0.0
 10
3.7046289191
 20
2.7916441002
 30
0.0
 10
3.738483727
 20
2.7735433748
 30
0.0
 10
3.7742867631
 20
2.7574342428
 30
0.0
 10
3.8118055011
 20
2.7434200009
 30
0.0
 10
3.8507969339
 20
2.7315925928
 30
0.0
 10
3.8910066902
 20
2.7220254634
 30
0.0
 10
3.9321758216
 20
2.7147830148
 30
0.0
 10
3.9880789329
 20
2.7082756632
 30
0.0
 10
4.0586979922
 20
2.7061806729
 30
0.0
 10
4.1289919986
 20
2.712109695
 30
0.0
 10
4.184105838
 20
2.7216585295
 30
0.0
 10
4.224367112
 20
2.7311245296
 30
0.0
 10
4.2634152267
 20
2.7428565822
 30
0.0
 10
4.2887166914
 20
2.7522248178
 30
0.0
 10
4.3010860396
 20
2.7572745831
 30
0.0
  0
SPLINE
  5
4D0
100
AcDbEntity
  8
ALL_ASSEMBLY_MEMBERS
100
AcDbSpline
 62
7
  6
CONTINUOUS
 70
0
 71
3
 72
28
 73
24
 74
0
 42
0.0000001
 43
0.0000001
 44
0.0000000001
 40
0.0
 40
0.0
 40
0.0
 40
0.0
 40
0.0661501026
 40
0.1338639052
 40
0.2026836053
 40
0.2721084927
 40
0.3416100925
 40
0.410659261
 40
0.478743475
 40
0.5453888195
 40
0.6101809656
 40
0.6727875004
 40
0.7329809323
 40
0.7621500407
 40
0.7906911709
 40
0.8186150608
 40
0.8459441067
 40
0.8727105415
 40
0.8989583999
 40
0.9247419327
 40
0.9501259986
 40
0.9751846808
 40
1.0
 40
1.0
 40
1.0
 40
1.0
 10
4.3023206494
 20
2.735359631
 30
0.0
 10
4.2827322582
 20
2.7275547589
 30
0.0
 10
4.242273593
 20
2.7137479406
 30
0.0
 10
4.1793552798
 20
2.6986968085
 30
0.0
 10
4.1143002698
 20
2.6892333581
 30
0.0
 10
4.0480998414
 20
2.6855007384
 30
0.0
 10
3.9817527054
 20
2.6875549304
 30
0.0
 10
3.9162636545
 20
2.6953646715
 30
0.0
 10
3.8526227686
 20
2.7088137796
 30
0.0
 10
3.7917926388
 20
2.7277015082
 30
0.0
 10
3.7346908548
 20
2.7517491046
 30
0.0
 10
3.6821862636
 20
2.7805979071
 30
0.0
 10
3.6425004797
 20
2.8085889533
 30
0.0
 10
3.6138971004
 20
2.8330004065
 30
0.0
 10
3.5942860733
 20
2.8520162857
 30
0.0
 10
3.5763748253
 20
2.8718584769
 30
0.0
 10
3.560228981
 20
2.8924496337
 30
0.0
 10
3.545914109
 20
2.9137138397
 30
0.0
 10
3.5334843731
 20
2.9355688558
 30
0.0
 10
3.5229897556
 20
2.9579318524
 30
0.0
 10
3.5144724296
 20
2.9807177002
 30
0.0
 10
3.507965267
 20
3.0038357301
 30
0.0
 10
3.5049751873
 20
3.0194735611
 30
0.0
 10
3.5038283846
 20
3.0273001324
 30
0.0
  0
SPLINE
  5
4D1
100
AcDbEntity
  8
ALL_ASSEMBLY_MEMBERS
100
AcDbSpline
 62
9
  6
CONTINUOUS
 70
0
 71
3
 72
28
 73
24
 74
0
 42
0.0000001
 43
0.0000001
 44
0.0000000001
 40
0.0
 40
0.0
 40
0.0
 40
0.0
 40
0.0248650503
 40
0.049835839
 40
0.0750151667
 40
0.1004994942
 40
0.1263772037
 40
0.1527255366
 40
0.2070443919
 40
0.2351484958
 40
0.2639085863
 40
0.3234118207
 40
0.3855628009
 40
0.4501683408
 40
0.5168978559
 40
0.5853126868
 40
0.6548946671
 40
0.7250729581
 40
0.7952519098
 40
0.8648327015
 40
0.933250022
 40
0.9668741979
 40
1.0
 40
1.0
 40
1.0
 40
1.0
 10
3.6334510612
 20
3.2073046396
 30
0.0
 10
3.6334512209
 20
3.2010546049
 30
0.0
 10
3.6340321475
 20
3.1885202595
 30
0.0
 10
3.6366427378
 20
3.1698207044
 30
0.0
 10
3.64098004
 20
3.1512838027
 30
0.0
 10
3.6470234249
 20
3.1329924209
 30
0.0
 10
3.6547479057
 20
3.1150245379
 30
0.0
 10
3.6673599148
 20
3.0913708693
 30
0.0
 10
3.6831496425
 20
3.0688903558
 30
0.0
 10
3.7016354666
 20
3.0479088987
 30
0.0
 10
3.7224869791
 20
3.0273639995
 30
0.0
 10
3.7520786645
 20
3.0036466394
 30
0.0
 10
3.7920171316
 20
2.9790165682
 30
0.0
 10
3.8361190302
 20
2.9582848314
 30
0.0
 10
3.8836348474
 20
2.9417945166
 30
0.0
 10
3.93376448
 20
2.9298160803
 30
0.0
 10
3.9856618056
 20
2.9225485173
 30
0.0
 10
4.0384506348
 20
2.9201121517
 30
0.0
 10
4.0912399967
 20
2.922548627
 30
0.0
 10
4.1431353713
 20
2.9298153311
 30
0.0
 10
4.1851665877
 20
2.9398583575
 30
0.0
 10
4.2175358814
 20
2.9502187926
 30
0.0
 10
4.2332419258
 20
2.9561467043
 30
0.0
 10
4.2409507137
 20
2.9592938038
 30
0.0
  0
SPLINE
  5
4D2
100
AcDbEntity
  8
ALL_ASSEMBLY_MEMBERS
100
AcDbSpline
 62
9
  6
CONTINUOUS
 70
0
 71
3
 72
11
 73
7
 74
0
 42
0.0000001
 43
0.0000001
 44
0.0000000001
 40
0.0
 40
0.0
 40
0.0
 40
0.0
 40
0.2482912375
 40
0.4972738493
 40
0.7476262637
 40
1.0
 40
1.0
 40
1.0
 40
1.0
 10
3.5622007137
 20
3.1416086354
 30
0.0
 10
3.5622007137
 20
3.135670138
 30
0.0
 10
3.5626467638
 20
3.1237718965
 30
0.0
 10
3.5646487306
 20
3.1059869999
 30
0.0
 10
3.5679798272
 20
3.0883033158
 30
0.0
 10
3.5710649936
 20
3.0766691716
 30
0.0
 10
3.5728191668
 20
3.0708935446
 30
0.0
  0
SPLINE
  5
4D3
100
AcDbEntity
  8
ALL_ASSEMBLY_MEMBERS
100
AcDbSpline
 62
9
  6
CONTINUOUS
 70
0
 71
3
 72
25
 73
21
 74
0
 42
0.0000001
 43
0.0000001
 44
0.0000000001
 40
0.0
 40
0.0
 40
0.0
 40
0.0
 40
0.0249904489
 40
0.0503362504
 40
0.0760980906
 40
0.1023280604
 40
0.1563250779
 40
0.2125951907
 40
0.2712270476
 40
0.3321763932
 40
0.3952828906
 40
0.4602887489
 40
0.5268575181
 40
0.5945923711
 40
0.6630537012
 40
0.7317761774
 40
0.8002853085
 40
0.8681142184
 40
0.9348195942
 40
1.0
 40
1.0
 40
1.0
 40
1.0
 10
3.5728191668
 20
3.0708935446
 30
0.0
 10
3.5747922239
 20
3.0643972406
 30
0.0
 10
3.5792940005
 20
3.0514664606
 30
0.0
 10
3.5875940688
 20
3.0325109376
 30
0.0
 10
3.5974571261
 20
3.0139361835
 30
0.0
 10
3.6127856766
 20
2.9895354633
 30
0.0
 10
3.6358065623
 20
2.9603043444
 30
0.0
 10
3.6686897441
 20
2.9281388129
 30
0.0
 10
3.7066438497
 20
2.8989511649
 30
0.0
 10
3.7491391355
 20
2.8731325653
 30
0.0
 10
3.7955927929
 20
2.8510234699
 30
0.0
 10
3.8453687306
 20
2.8329191626
 30
0.0
 10
3.897786433
 20
2.8190622327
 30
0.0
 10
3.952129082
 20
2.8096393325
 30
0.0
 10
4.0076531928
 20
2.8047777181
 30
0.0
 10
4.0635989585
 20
2.8045432624
 30
0.0
 10
4.1192001513
 20
2.8089389041
 30
0.0
 10
4.1736973824
 20
2.8179059191
 30
0.0
 10
4.2263389992
 20
2.8313205126
 30
0.0
 10
4.2601812905
 20
2.8432732677
 30
0.0
 10
4.2765757137
 20
2.8499662629
 30
0.0
  0
SPLINE
  5
4D4
100
AcDbEntity
  8
ALL_ASSEMBLY_MEMBERS
100
AcDbSpline
 62
9
  6
CONTINUOUS
 70
0
 71
3
 72
22
 73
18
 74
0
 42
0.0000001
 43
0.0000001
 44
0.0000000001
 40
0.0
 40
0.0
 40
0.0
 40
0.0
 40
0.0624218766
 40
0.1239733172
 40
0.1848259607
 40
0.2451675241
 40
0.3051972551
 40
0.3651224194
 40
0.4251524388
 40
0.4854944773
 40
0.5463478286
 40
0.6079004169
 40
0.6703231616
 40
0.733769646
 40
0.7983702264
 40
0.864234712
 40
1.0
 40
1.0
 40
1.0
 40
1.0
 10
3.5641849696
 20
3.2054248122
 30
0.0
 10
3.5610512049
 20
3.1988600645
 30
0.0
 10
3.5553158742
 20
3.1855815797
 30
0.0
 10
3.5483423743
 20
3.1651800015
 30
0.0
 10
3.5430904002
 20
3.1445169654
 30
0.0
 10
3.5395768991
 20
3.123667904
 30
0.0
 10
3.5378191461
 20
3.1027060617
 30
0.0
 10
3.5378192074
 20
3.0817068691
 30
0.0
 10
3.539581054
 20
3.0607452708
 30
0.0
 10
3.5430953528
 20
3.0398961542
 30
0.0
 10
3.548349989
 20
3.0192337152
 30
0.0
 10
3.5553262144
 20
2.9988317637
 30
0.0
 10
3.5639960989
 20
2.9787611898
 30
0.0
 10
3.5743310675
 20
2.9590945541
 30
0.0
 10
3.5862912877
 20
2.939897103
 30
0.0
 10
3.6045278823
 20
2.9147744932
 30
0.0
 10
3.6202691048
 20
2.8972100824
 30
0.0
 10
3.6315293192
 20
2.8860958242
 30
0.0
  0
SPLINE
  5
4D5
100
AcDbEntity
  8
ALL_ASSEMBLY_MEMBERS
100
AcDbSpline
 62
9
  6
CONTINUOUS
 70
0
 71
3
 72
23
 73
19
 74
0
 42
0.0000001
 43
0.0000001
 44
0.0000000001
 40
0.0
 40
0.0
 40
0.0
 40
0.0
 40
0.0547456797
 40
0.1112630142
 40
0.1695138599
 40
0.229408036
 40
0.2908088931
 40
0.3535400009
 40
0.4173929183
 40
0.4821326715
 40
0.5475042332
 40
0.613239079
 40
0.6790605105
 40
0.7446913701
 40
0.8098555788
 40
0.8742869676
 40
0.9377547283
 40
1.0
 40
1.0
 40
1.0
 40
1.0
 10
3.6315293192
 20
2.8860958242
 30
0.0
 10
3.6406168116
 20
2.8771261248
 30
0.0
 10
3.6599955544
 20
2.859798002
 30
0.0
 10
3.6917815237
 20
2.8362054319
 30
0.0
 10
3.7264860536
 20
2.814780862
 30
0.0
 10
3.7638137861
 20
2.7957056477
 30
0.0
 10
3.8034517494
 20
2.7791372508
 30
0.0
 10
3.8450657407
 20
2.7652118948
 30
0.0
 10
3.8883063001
 20
2.7540459192
 30
0.0
 10
3.932810004
 20
2.7457333224
 30
0.0
 10
3.9782022686
 20
2.7403419711
 30
0.0
 10
4.0241013612
 20
2.7379173171
 30
0.0
 10
4.0701213386
 20
2.7384805833
 30
0.0
 10
4.1158748111
 20
2.7420261705
 30
0.0
 10
4.1609761023
 20
2.7485238664
 30
0.0
 10
4.2050498127
 20
2.7579208172
 30
0.0
 10
4.2477174767
 20
2.7701387918
 30
0.0
 10
4.2752892684
 20
2.7802038378
 30
0.0
 10
4.2887301444
 20
2.7856910525
 30
0.0
  0
SPLINE
  5
4D6
100
AcDbEntity
  8
ALL_ASSEMBLY_MEMBERS
100
AcDbSpline
 62
40
  6
CONTINUOUS
 70
0
 71
3
 72
107
 73
103
 74
0
 42
0.0000001
 43
0.0000001
 44
0.0000000001
 40
0.0
 40
0.0
 40
0.0
 40
0.0
 40
0.0625
 40
0.09375
 40
0.109375
 40
0.125
 40
0.140625
 40
0.1484375
 40
0.15625
 40
0.16015625
 40
0.1640625
 40
0.166015625
 40
0.1669921875
 40
0.16796875
 40
0.169921875
 40
0.171875
 40
0.1796875
 40
0.1875
 40
0.1953125
 40
0.203125
 40
0.21875
 40
0.25
 40
0.28125
 40
0.296875
 40
0.3046875
 40
0.3125
 40
0.3203125
 40
0.328125
 40
0.330078125
 40
0.33203125
 40
0.3330078125
 40
0.333984375
 40
0.3359375
 40
0.33984375
 40
0.34375
 40
0.3515625
 40
0.359375
 40
0.375
 40
0.390625
 40
0.40625
 40
0.421875
 40
0.4375
 40
0.453125
 40
0.46875
 40
0.4765625
 40
0.484375
 40
0.4921875
 40
0.49609375
 40
0.498046875
 40
0.5
 40
0.501953125
 40
0.50390625
 40
0.5078125
 40
0.515625
 40
0.5234375
 40
0.53125
 40
0.546875
 40
0.5625
 40
0.578125
 40
0.59375
 40
0.609375
 40
0.625
 40
0.640625
 40
0.6484375
 40
0.65234375
 40
0.65625
 40
0.66015625
 40
0.6640625
 40
0.6650390625
 40
0.666015625
 40
0.6665039062
 40
0.6669921875
 40
0.66796875
 40
0.669921875
 40
0.671875
 40
0.67578125
 40
0.6796875
 40
0.6875
 40
0.6953125
 40
0.703125
 40
0.71875
 40
0.734375
 40
0.75
 40
0.78125
 40
0.796875
 40
0.8046875
 40
0.8125
 40
0.8203125
 40
0.828125
 40
0.830078125
 40
0.83203125
 40
0.833984375
 40
0.8359375
 40
0.83984375
 40
0.84375
 40
0.8515625
 40
0.859375
 40
0.875
 40
0.890625
 40
0.90625
 40
0.9375
 40
1.0
 40
1.0
 40
1.0
 40
1.0
 10
3.8371282521
 20
3.4630912231
 30
0.0
 10
3.838337532
 20
3.4620196159
 30
0.0
 10
3.8401514517
 20
3.4604122054
 30
0.0
 10
3.8422676916
 20
3.4585368919
 30
0.0
 10
3.8434769712
 20
3.4574652861
 30
0.0
 10
3.8443839318
 20
3.4566615763
 30
0.0
 10
3.8451397296
 20
3.4559918355
 30
0.0
 10
3.8457443738
 20
3.455456004
 30
0.0
 10
3.846122263
 20
3.4551211979
 30
0.0
 10
3.846424605
 20
3.45485315
 30
0.0
 10
3.8466134989
 20
3.4546860832
 30
0.0
 10
3.8467458646
 20
3.4545682083
 30
0.0
 10
3.8468212831
 20
3.4545023035
 30
0.0
 10
3.8468958764
 20
3.4544418686
 30
0.0
 10
3.8469894001
 20
3.4543644554
 30
0.0
 10
3.8472136249
 20
3.4541802024
 30
0.0
 10
3.8475500596
 20
3.4539031767
 30
0.0
 10
3.8479985835
 20
3.4535341785
 30
0.0
 10
3.8484471222
 20
3.4531650814
 30
0.0
 10
3.8490451687
 20
3.4526729865
 30
0.0
 10
3.8500917525
 20
3.4518118042
 30
0.0
 10
3.8515868708
 20
3.4505815531
 30
0.0
 10
3.8530819901
 20
3.4493512957
 30
0.0
 10
3.8541285724
 20
3.4484901221
 30
0.0
 10
3.8547266211
 20
3.4479980135
 30
0.0
 10
3.8551751531
 20
3.4476289585
 30
0.0
 10
3.8556237024
 20
3.4472598026
 30
0.0
 10
3.8559600659
 20
3.4469832182
 30
0.0
 10
3.8561843836
 20
3.4467983893
 30
0.0
 10
3.8562777372
 20
3.446722031
 30
0.0
 10
3.8563526816
 20
3.4466594192
 30
0.0
 10
3.8564266695
 20
3.4466023854
 30
0.0
 10
3.856555704
 20
3.4465051679
 30
0.0
 10
3.8567402709
 20
3.4463649335
 30
0.0
 10
3.8570354483
 20
3.4461413142
 30
0.0
 10
3.8574044644
 20
3.4458615314
 30
0.0
 10
3.8579948654
 20
3.4454140234
 30
0.0
 10
3.8587328752
 20
3.4448545888
 30
0.0
 10
3.8596184833
 20
3.4441832886
 30
0.0
 10
3.8605040923
 20
3.4435119827
 30
0.0
 10
3.8613897014
 20
3.4428406784
 30
0.0
 10
3.8622753089
 20
3.4421693732
 30
0.0
 10
3.8631609228
 20
3.4414980703
 30
0.0
 10
3.8638989145
 20
3.4409386441
 30
0.0
 10
3.8644893524
 20
3.4404911189
 30
0.0
 10
3.8649320593
 20
3.4401554322
 30
0.0
 10
3.8653013679
 20
3.4398758296
 30
0.0
 10
3.8655591262
 20
3.4396798401
 30
0.0
 10
3.8657075998
 20
3.439568264
 30
0.0
 10
3.8658156219
 20
3.4394834049
 30
0.0
 10
3.8659363851
 20
3.4394030449
 30
0.0
 10
3.8660929584
 20
3.439294329
 30
0.0
 10
3.8663690324
 20
3.4391048073
 30
0.0
 10
3.8667623413
 20
3.4388336797
 30
0.0
 10
3.8672347754
 20
3.4385084902
 30
0.0
 10
3.8678645256
 20
3.4380748471
 30
0.0
 10
3.8686517688
 20
3.4375328127
 30
0.0
 10
3.869596437
 20
3.4368823632
 30
0.0
 10
3.8705411115
 20
3.4362319158
 30
0.0
 10
3.8714857842
 20
3.435581468
 30
0.0
 10
3.8724304576
 20
3.43493102
 30
0.0
 10
3.8733751303
 20
3.4342805729
 30
0.0
 10
3.8741623595
 20
3.4337385309
 30
0.0
 10
3.874713416
 20
3.4333591069
 30
0.0
 10
3.8750283116
 20
3.4331422847
 30
0.0
 10
3.8752644659
 20
3.4329796921
 30
0.0
 10
3.8755006866
 20
3.4328170075
 30
0.0
 10
3.8756776662
 20
3.432695252
 30
0.0
 10
3.8757959416
 20
3.4326136805
 30
0.0
 10
3.8758447931
 20
3.4325802893
 30
0.0
 10
3.8758848772
 20
3.4325521839
 30
0.0
 10
3.8759212936
 20
3.4325291707
 30
0.0
 10
3.8759833183
 20
3.4324912638
 30
0.0
 10
3.876072814
 20
3.4324358765
 30
0.0
 10
3.8762155103
 20
3.4323479468
 30
0.0
 10
3.8763940508
 20
3.4322377984
 30
0.0
 10
3.8766796205
 20
3.432061693
 30
0.0
 10
3.8770366152
 20
3.4318415159
 30
0.0
 10
3.8774649949
 20
3.4315773228
 30
0.0
 10
3.8780361728
 20
3.4312250586
 30
0.0
 10
3.8787501434
 20
3.4307847307
 30
0.0
 10
3.879606909
 20
3.4302563362
 30
0.0
 10
3.8807492625
 20
3.4295518104
 30
0.0
 10
3.8818916175
 20
3.4288472855
 30
0.0
 10
3.8828911746
 20
3.4282308237
 30
0.0
 10
3.8834623554
 20
3.4278785637
 30
0.0
 10
3.8838907261
 20
3.4276143578
 30
0.0
 10
3.8843191536
 20
3.4273501933
 30
0.0
 10
3.8846403152
 20
3.4271519541
 30
0.0
 10
3.8848546701
 20
3.4270199747
 30
0.0
 10
3.8849614063
 20
3.4269536635
 30
0.0
 10
3.8850698582
 20
3.4268886023
 30
0.0
 10
3.8852226246
 20
3.4268078018
 30
0.0
 10
3.8854107873
 20
3.4267047647
 30
0.0
 10
3.8857134097
 20
3.4265410435
 30
0.0
 10
3.8860911528
 20
3.4263360022
 30
0.0
 10
3.8866958408
 20
3.426008154
 30
0.0
 10
3.8874515983
 20
3.425598269
 30
0.0
 10
3.8883585511
 20
3.4251064389
 30
0.0
 10
3.8895678062
 20
3.4244506544
 30
0.0
 10
3.8916840098
 20
3.4233030367
 30
0.0
 10
3.8934978961
 20
3.4223193626
 30
0.0
 10
3.8947071542
 20
3.4216635802
 30
0.0
  0
ELLIPSE
  5
4D7
100
AcDbEntity
  8
ALL_ASSEMBLY_MEMBERS
100
AcDbEllipse
 62
7
  6
CONTINUOUS
 10
4.0384507137
 20
3.5272919677
 30
0.0
 11
0.1130741804
 21
0.0402989548
 31
0.0
 40
0.084133201
 41
4.9269927592
 42
5.4850315861
  0
ENDSEC
  0
SECTION
  2
OBJECTS
  0
DICTIONARY
  5
C
100
AcDbDictionary
280
0
281
1
  3
ACAD_GROUP
350
D
  3
ACAD_MLINESTYLE
350
17
  3
ACAD_LAYOUT
350
1A
  3
ACAD_PLOTSETTINGS
350
19
  3
ACAD_PLOTSTYLENAME
350
E
  0
DICTIONARY
  5
D
102
{ACAD_REACTORS
330
C
102
}
100
AcDbDictionary
280
0
281
1
  0
ACDBDICTIONARYWDFLT
  5
E
102
{ACAD_REACTORS
330
C
102
}
100
AcDbDictionary
281
1
  3
Normal
350
F
100
AcDbDictionaryWithDefault
340
F
  0
DICTIONARY
  5
17
102
{ACAD_REACTORS
330
C
102
}
100
AcDbDictionary
280
0
281
1
  3
Standard
350
18
  0
DICTIONARY
  5
19
102
{ACAD_REACTORS
330
C
102
}
100
AcDbDictionary
281
1
  0
DICTIONARY
  5
1A
102
{ACAD_REACTORS
330
C
102
}
100
AcDbDictionary
281
1
  3
Model
350
4D8
  3
Layout1
350
4D9
  0
ACDBPLACEHOLDER
  5
F
102
{ACAD_REACTORS
330
E
102
}
  0
MLINESTYLE
  5
18
102
{ACAD_REACTORS
330
17
102
}
100
AcDbMlineStyle
  2
STANDARD
 70
0
  3

 62
256
 51
90.0
 52
90.0
 71
2
 49
0.5
 62
256
  6
BYLAYER
 49
-0.5
 62
256
  6
BYLAYER
  0
LAYOUT
  5
4D8
102
{ACAD_REACTORS
330
1A
102
}
100
AcDbPlotSettings
  1

  2
none_device
  4
ANSI_A_(11.00_x_8.50_Inches)
  6

 40
0.0
 41
0.0
 42
0.0
 43
0.0
 44
279.4
 45
215.9
 46
0.0
 47
0.0
 48
0.0
 49
0.0
140
0.0
141
0.0
142
1.0
143
1.0
 70
1024
 72
0
 73
0
 74
0
  7

 75
0
147
1.0
148
0.0
149
0.0
100
AcDbLayout
  1
Model
 70
0
 71
0
 10
0.0
 20
0.0
 11
11.0
 21
8.5
 12
0.0
 22
0.0
 32
0.0
 14
0.0
 24
0.0
 34
0.0
 15
0.0
 25
0.0
 35
0.0
146
0.0
 13
0.0
 23
0.0
 33
0.0
 16
1.0
 26
0.0
 36
0.0
 17
0.0
 27
1.0
 37
0.0
 76
0
330
261
345
0
346
0
  0
LAYOUT
  5
4D9
102
{ACAD_REACTORS
330
1A
102
}
100
AcDbPlotSettings
  1

  2
none_device
  4
ANSI_A_(11.00_x_8.50_Inches)
  6

 40
0.0
 41
0.0
 42
0.0
 43
0.0
 44
279.4
 45
215.9
 46
0.0
 47
0.0
 48
0.0
 49
0.0
140
0.0
141
0.0
142
1.0
143
1.0
 70
0
 72
0
 73
0
 74
0
  7

 75
0
147
1.0
148
0.0
149
0.0
100
AcDbLayout
  1
Layout1
 70
0
 71
1
 10
0.0
 20
0.0
 11
11.0
 21
8.5
 12
0.0
 22
0.0
 32
0.0
 14
0.0
 24
0.0
 34
0.0
 15
0.0
 25
0.0
 35
0.0
146
0.0
 13
0.0
 23
0.0
 33
0.0
 16
1.0
 26
0.0
 36
0.0
 17
0.0
 27
1.0
 37
0.0
 76
0
330
262
345
0
346
0
  0
ENDSEC
  0
EOF
