999
DXF file: 3-904bp_right.dxf
999
Pro/ENGINEER 2013150 by Parametric Technology Corporation
  0
SECTION
  2
HEADER
  9
$ACADVER
  1
AC1021
  9
$DWGCODEPAGE
  3
ANSI_1252
  9
$EXTMAX
 10
11.0
 20
8.5
 30
0.0
  9
$EXTMIN
 10
0.0
 20
0.0
 30
0.0
  9
$LIMMIN
 10
0.0
 20
0.0
  9
$LIMMAX
 10
11.0
 20
8.5
  9
$VIEWCTR
 10
5.5
 20
4.25
  9
$VIEWSIZE
 40
8.5
  9
$CLAYER
  8
0
  9
$LTSCALE
 40
0.605
  9
$CELTYPE
  6
BYLAYER
  9
$DIMSCALE
 40
1.0
  9
$DIMASZ
 40
0.1
  9
$DIMEXO
 40
0.0625
  9
$DIMDLI
 40
0.418
  9
$DIMEXE
 40
0.125
  9
$DIMCEN
 40
0.099
  9
$DIMLFAC
 40
1.0
  9
$DIMBLK
  1
_FILLED
  9
$DIMTXT
 40
0.08
  9
$DIMTOL
 70
1
  9
$DIMLIM
 70
0
  9
$DIMTFAC
 40
1.0
  9
$DIMTP
 40
0.001
  9
$DIMTM
 40
0.001
  9
$DIMGAP
 40
0.09
  9
$DIMDSEP
 70
46
  9
$PDMODE
 70
3
  9
$PDSIZE
 40
0.3125
  9
$HANDSEED
  5
66E
  9
$TILEMODE
 70
1
  9
$MEASUREMENT
 70
0
  9
$INSUNITS
 70
1
  0
ENDSEC
  0
SECTION
  2
CLASSES
  0
CLASS
  1
ACDBDICTIONARYWDFLT
  2
AcDbDictionaryWithDefault
  3
AutoCAD 2000
 90
0
 91
1
280
0
281
0
  0
CLASS
  1
ACDBPLACEHOLDER
  2
AcDbPlaceHolder
  3
AutoCAD 2000
 90
0
 91
1
280
0
281
0
  0
CLASS
  1
LAYOUT
  2
AcDbLayout
  3
AutoCAD 2000
 90
0
 91
0
280
0
281
0
  0
ENDSEC
  0
SECTION
  2
TABLES
  0
TABLE
  2
VPORT
  5
8
100
AcDbSymbolTable
 70
2
  0
VPORT
  5
1F4
100
AcDbSymbolTableRecord
100
AcDbViewportTableRecord
  2
*ACTIVE
 70
0
 10
0.0
 20
0.0
 11
1.0
 21
1.0
 12
5.5
 22
4.25
 13
0.0
 23
0.0
 14
1.0
 24
1.0
 15
0.0
 25
0.0
 16
0.0
 26
0.0
 36
1.0
 17
0.0
 27
0.0
 37
0.0
 40
8.5
 41
1.2941176471
 42
50.0
 43
0.0
 44
0.0
 50
0.0
 51
0.0
 71
0
 72
100
 73
1
 74
1
 75
0
 76
0
 77
0
 78
0
  0
ENDTAB
  0
TABLE
  2
LTYPE
  5
5
100
AcDbSymbolTable
 70
6
  0
LTYPE
  5
14
100
AcDbSymbolTableRecord
100
AcDbLinetypeTableRecord
  2
BYBLOCK
 70
0
  3

 72
65
 73
0
 40
0.0
  0
LTYPE
  5
15
100
AcDbSymbolTableRecord
100
AcDbLinetypeTableRecord
  2
BYLAYER
 70
0
  3

 72
65
 73
0
 40
0.0
  0
LTYPE
  5
16
100
AcDbSymbolTableRecord
100
AcDbLinetypeTableRecord
  2
CONTINUOUS
 70
64
  3
Solid line
 72
65
 73
0
 40
0.0
  0
LTYPE
  5
1F5
100
AcDbSymbolTableRecord
100
AcDbLinetypeTableRecord
  2
CENTER
 70
64
  3
____ _ ____ _ ____ _ ____ _ ____ _ ____ _ ____
 72
65
 73
4
 40
0.6
 49
0.375
 74
0
 49
-0.075
 74
0
 49
0.075
 74
0
 49
-0.075
 74
0
  0
LTYPE
  5
1F6
100
AcDbSymbolTableRecord
100
AcDbLinetypeTableRecord
  2
HIDDEN
 70
64
  3
- - - - - - - - - - - - - - - - - - - -
 72
65
 73
2
 40
0.2
 49
0.1
 74
0
 49
-0.1
 74
0
  0
LTYPE
  5
1F7
100
AcDbSymbolTableRecord
100
AcDbLinetypeTableRecord
  2
PHANTOM
 70
64
  3
_____ _ _ _____ _ _ _____ _ _ _____
 72
65
 73
6
 40
0.8
 49
0.45
 74
0
 49
-0.05
 74
0
 49
0.1
 74
0
 49
-0.05
 74
0
 49
0.1
 74
0
 49
-0.05
 74
0
  0
LTYPE
  5
1F8
100
AcDbSymbolTableRecord
100
AcDbLinetypeTableRecord
  2
DOT
 70
64
  3
. . . . . . . . . . . . . . . . . . . .
 72
65
 73
2
 40
0.2
 49
0.1
 74
0
 49
-0.1
 74
0
  0
LTYPE
  5
1F9
100
AcDbSymbolTableRecord
100
AcDbLinetypeTableRecord
  2
DASHED
 70
64
  3
- - - - - - - - - - - - - - - - - - - -
 72
65
 73
2
 40
0.2
 49
0.1
 74
0
 49
-0.1
 74
0
  0
ENDTAB
  0
TABLE
  2
LAYER
  5
2
100
AcDbSymbolTable
 70
36
  0
LAYER
  5
10
100
AcDbSymbolTableRecord
100
AcDbLayerTableRecord
  2
0
 70
0
 62
7
  6
CONTINUOUS
370
-3
390
F
  0
LAYER
  5
1FA
100
AcDbSymbolTableRecord
100
AcDbLayerTableRecord
  2
DEFAULT_1
 70
0
 62
7
  6
CENTER
370
-3
390
F
  0
LAYER
  5
1FB
100
AcDbSymbolTableRecord
100
AcDbLayerTableRecord
  2
DEFAULT_2
 70
0
 62
8
  6
HIDDEN
370
-3
390
F
  0
LAYER
  5
1FC
100
AcDbSymbolTableRecord
100
AcDbLayerTableRecord
  2
DEFAULT_3
 70
0
 62
7
  6
PHANTOM
370
-3
390
F
  0
LAYER
  5
1FD
100
AcDbSymbolTableRecord
100
AcDbLayerTableRecord
  2
_  SHELL
 70
0
 62
7
  6
CONTINUOUS
370
-3
390
F
  0
LAYER
  5
1FE
100
AcDbSymbolTableRecord
100
AcDbLayerTableRecord
  2
06___PRT_ALL_SURFS_15
 70
0
 62
7
  6
CONTINUOUS
370
-3
390
F
  0
LAYER
  5
1FF
100
AcDbSymbolTableRecord
100
AcDbLayerTableRecord
  2
11_9
 70
0
 62
7
  6
CONTINUOUS
370
-3
390
F
  0
LAYER
  5
200
100
AcDbSymbolTableRecord
100
AcDbLayerTableRecord
  2
1451A0A-0Z1-01
 70
0
 62
7
  6
CONTINUOUS
370
-3
390
F
  0
LAYER
  5
201
100
AcDbSymbolTableRecord
100
AcDbLayerTableRecord
  2
1451A0A-0Z1-02
 70
0
 62
7
  6
CONTINUOUS
370
-3
390
F
  0
LAYER
  5
202
100
AcDbSymbolTableRecord
100
AcDbLayerTableRecord
  2
1451A0A-0Z1-02_1
 70
0
 62
7
  6
CONTINUOUS
370
-3
390
F
  0
LAYER
  5
203
100
AcDbSymbolTableRecord
100
AcDbLayerTableRecord
  2
1451A0A-0Z1-03
 70
0
 62
7
  6
CONTINUOUS
370
-3
390
F
  0
LAYER
  5
204
100
AcDbSymbolTableRecord
100
AcDbLayerTableRecord
  2
1451A0A-0Z1-04
 70
0
 62
7
  6
CONTINUOUS
370
-3
390
F
  0
LAYER
  5
205
100
AcDbSymbolTableRecord
100
AcDbLayerTableRecord
  2
1451A0A-0Z1-05
 70
0
 62
7
  6
CONTINUOUS
370
-3
390
F
  0
LAYER
  5
206
100
AcDbSymbolTableRecord
100
AcDbLayerTableRecord
  2
1451A0A-0Z1-06
 70
0
 62
7
  6
CONTINUOUS
370
-3
390
F
  0
LAYER
  5
207
100
AcDbSymbolTableRecord
100
AcDbLayerTableRecord
  2
1451A0A-0Z1-07
 70
0
 62
7
  6
CONTINUOUS
370
-3
390
F
  0
LAYER
  5
208
100
AcDbSymbolTableRecord
100
AcDbLayerTableRecord
  2
2-103H_ASSY_DATUMS
 70
0
 62
7
  6
CONTINUOUS
370
-3
390
F
  0
LAYER
  5
209
100
AcDbSymbolTableRecord
100
AcDbLayerTableRecord
  2
2-225_ASSY_DATUMS
 70
0
 62
7
  6
CONTINUOUS
370
-3
390
F
  0
LAYER
  5
20A
100
AcDbSymbolTableRecord
100
AcDbLayerTableRecord
  2
22_4
 70
0
 62
7
  6
CONTINUOUS
370
-3
390
F
  0
LAYER
  5
20B
100
AcDbSymbolTableRecord
100
AcDbLayerTableRecord
  2
22_5
 70
0
 62
7
  6
CONTINUOUS
370
-3
390
F
  0
LAYER
  5
20C
100
AcDbSymbolTableRecord
100
AcDbLayerTableRecord
  2
264X18
 70
0
 62
7
  6
CONTINUOUS
370
-3
390
F
  0
LAYER
  5
20D
100
AcDbSymbolTableRecord
100
AcDbLayerTableRecord
  2
3-187H_ASSY_PLANES
 70
0
 62
7
  6
CONTINUOUS
370
-3
390
F
  0
LAYER
  5
20E
100
AcDbSymbolTableRecord
100
AcDbLayerTableRecord
  2
30X15
 70
0
 62
7
  6
CONTINUOUS
370
-3
390
F
  0
LAYER
  5
20F
100
AcDbSymbolTableRecord
100
AcDbLayerTableRecord
  2
315X18
 70
0
 62
7
  6
CONTINUOUS
370
-3
390
F
  0
LAYER
  5
210
100
AcDbSymbolTableRecord
100
AcDbLayerTableRecord
  2
59X178
 70
0
 62
7
  6
CONTINUOUS
370
-3
390
F
  0
LAYER
  5
211
100
AcDbSymbolTableRecord
100
AcDbLayerTableRecord
  2
6X15
 70
0
 62
7
  6
CONTINUOUS
370
-3
390
F
  0
LAYER
  5
212
100
AcDbSymbolTableRecord
100
AcDbLayerTableRecord
  2
925X178
 70
0
 62
7
  6
CONTINUOUS
370
-3
390
F
  0
LAYER
  5
213
100
AcDbSymbolTableRecord
100
AcDbLayerTableRecord
  2
AA
 70
0
 62
7
  6
CONTINUOUS
370
-3
390
F
  0
LAYER
  5
214
100
AcDbSymbolTableRecord
100
AcDbLayerTableRecord
  2
ALL_ASSEMBLY_MEMBERS
 70
0
 62
7
  6
CONTINUOUS
370
-3
390
F
  0
LAYER
  5
215
100
AcDbSymbolTableRecord
100
AcDbLayerTableRecord
  2
ALL_FEATURES
 70
0
 62
7
  6
CONTINUOUS
370
-3
390
F
  0
LAYER
  5
216
100
AcDbSymbolTableRecord
100
AcDbLayerTableRecord
  2
AXES_FEATURES
 70
0
 62
7
  6
CONTINUOUS
370
-3
390
F
  0
LAYER
  5
217
100
AcDbSymbolTableRecord
100
AcDbLayerTableRecord
  2
CHAMFER_FEATURES
 70
0
 62
7
  6
CONTINUOUS
370
-3
390
F
  0
LAYER
  5
218
100
AcDbSymbolTableRecord
100
AcDbLayerTableRecord
  2
COLOR14
 70
0
 62
7
  6
CONTINUOUS
370
-3
390
F
  0
LAYER
  5
219
100
AcDbSymbolTableRecord
100
AcDbLayerTableRecord
  2
COLOR33
 70
0
 62
7
  6
CONTINUOUS
370
-3
390
F
  0
LAYER
  5
21A
100
AcDbSymbolTableRecord
100
AcDbLayerTableRecord
  2
COLOR9
 70
0
 62
7
  6
CONTINUOUS
370
-3
390
F
  0
LAYER
  5
21B
100
AcDbSymbolTableRecord
100
AcDbLayerTableRecord
  2
CONSTR_CURVES
 70
0
 62
7
  6
CONTINUOUS
370
-3
390
F
  0
LAYER
  5
21C
100
AcDbSymbolTableRecord
100
AcDbLayerTableRecord
  2
COSMETIC_SKETCHES
 70
0
 62
7
  6
CONTINUOUS
370
-3
390
F
  0
LAYER
  5
21D
100
AcDbSymbolTableRecord
100
AcDbLayerTableRecord
  2
CURVE
 70
0
 62
7
  6
CONTINUOUS
370
-3
390
F
  0
LAYER
  5
21E
100
AcDbSymbolTableRecord
100
AcDbLayerTableRecord
  2
CUT_FEATURES
 70
0
 62
7
  6
CONTINUOUS
370
-3
390
F
  0
LAYER
  5
21F
100
AcDbSymbolTableRecord
100
AcDbLayerTableRecord
  2
DATUM_CURVE
 70
0
 62
7
  6
CONTINUOUS
370
-3
390
F
  0
LAYER
  5
220
100
AcDbSymbolTableRecord
100
AcDbLayerTableRecord
  2
DATUM_CURVES
 70
0
 62
7
  6
CONTINUOUS
370
-3
390
F
  0
LAYER
  5
221
100
AcDbSymbolTableRecord
100
AcDbLayerTableRecord
  2
DATUM_PLANE
 70
0
 62
7
  6
CONTINUOUS
370
-3
390
F
  0
LAYER
  5
222
100
AcDbSymbolTableRecord
100
AcDbLayerTableRecord
  2
DATUM_PLANES
 70
0
 62
7
  6
CONTINUOUS
370
-3
390
F
  0
LAYER
  5
223
100
AcDbSymbolTableRecord
100
AcDbLayerTableRecord
  2
DATUM_POINTS
 70
0
 62
7
  6
CONTINUOUS
370
-3
390
F
  0
LAYER
  5
224
100
AcDbSymbolTableRecord
100
AcDbLayerTableRecord
  2
DEFAULT_COORDINATE_SYSTEM
 70
0
 62
7
  6
CONTINUOUS
370
-3
390
F
  0
LAYER
  5
225
100
AcDbSymbolTableRecord
100
AcDbLayerTableRecord
  2
DEFAULT_DATUM_AXES
 70
0
 62
7
  6
CONTINUOUS
370
-3
390
F
  0
LAYER
  5
226
100
AcDbSymbolTableRecord
100
AcDbLayerTableRecord
  2
DEFAULT_DATUM_CURVES
 70
0
 62
7
  6
CONTINUOUS
370
-3
390
F
  0
LAYER
  5
227
100
AcDbSymbolTableRecord
100
AcDbLayerTableRecord
  2
DEFAULT_DATUM_PLANES
 70
0
 62
7
  6
CONTINUOUS
370
-3
390
F
  0
LAYER
  5
228
100
AcDbSymbolTableRecord
100
AcDbLayerTableRecord
  2
DEFAULT_SURFACES
 70
0
 62
7
  6
CONTINUOUS
370
-3
390
F
  0
LAYER
  5
229
100
AcDbSymbolTableRecord
100
AcDbLayerTableRecord
  2
DETAIL_ITEMS
 70
0
 62
7
  6
CONTINUOUS
370
-3
390
F
  0
LAYER
  5
22A
100
AcDbSymbolTableRecord
100
AcDbLayerTableRecord
  2
DIMENSIONS
 70
0
 62
7
  6
CONTINUOUS
370
-3
390
F
  0
LAYER
  5
22B
100
AcDbSymbolTableRecord
100
AcDbLayerTableRecord
  2
HIDE
 70
0
 62
7
  6
CONTINUOUS
370
-3
390
F
  0
LAYER
  5
22C
100
AcDbSymbolTableRecord
100
AcDbLayerTableRecord
  2
HIDE_10
 70
0
 62
7
  6
CONTINUOUS
370
-3
390
F
  0
LAYER
  5
22D
100
AcDbSymbolTableRecord
100
AcDbLayerTableRecord
  2
HIDE_7
 70
0
 62
7
  6
CONTINUOUS
370
-3
390
F
  0
LAYER
  5
22E
100
AcDbSymbolTableRecord
100
AcDbLayerTableRecord
  2
HIDE_8
 70
0
 62
7
  6
CONTINUOUS
370
-3
390
F
  0
LAYER
  5
22F
100
AcDbSymbolTableRecord
100
AcDbLayerTableRecord
  2
HIDE_9
 70
0
 62
7
  6
CONTINUOUS
370
-3
390
F
  0
LAYER
  5
230
100
AcDbSymbolTableRecord
100
AcDbLayerTableRecord
  2
HOLE_FEATURES
 70
0
 62
7
  6
CONTINUOUS
370
-3
390
F
  0
LAYER
  5
231
100
AcDbSymbolTableRecord
100
AcDbLayerTableRecord
  2
INTFCLR_33883
 70
0
 62
7
  6
CONTINUOUS
370
-3
390
F
  0
LAYER
  5
232
100
AcDbSymbolTableRecord
100
AcDbLayerTableRecord
  2
INTFCLR_33883_1
 70
0
 62
7
  6
CONTINUOUS
370
-3
390
F
  0
LAYER
  5
233
100
AcDbSymbolTableRecord
100
AcDbLayerTableRecord
  2
INTFCLR_33883_2
 70
0
 62
7
  6
CONTINUOUS
370
-3
390
F
  0
LAYER
  5
234
100
AcDbSymbolTableRecord
100
AcDbLayerTableRecord
  2
INTFCLR_33883_3
 70
0
 62
7
  6
CONTINUOUS
370
-3
390
F
  0
LAYER
  5
235
100
AcDbSymbolTableRecord
100
AcDbLayerTableRecord
  2
INTFCLR_33883_4
 70
0
 62
7
  6
CONTINUOUS
370
-3
390
F
  0
LAYER
  5
236
100
AcDbSymbolTableRecord
100
AcDbLayerTableRecord
  2
INTFCLR_33883_5
 70
0
 62
7
  6
CONTINUOUS
370
-3
390
F
  0
LAYER
  5
237
100
AcDbSymbolTableRecord
100
AcDbLayerTableRecord
  2
INTF_BLANK
 70
0
 62
7
  6
CONTINUOUS
370
-3
390
F
  0
LAYER
  5
238
100
AcDbSymbolTableRecord
100
AcDbLayerTableRecord
  2
LAY0001
 70
0
 62
7
  6
CONTINUOUS
370
-3
390
F
  0
LAYER
  5
239
100
AcDbSymbolTableRecord
100
AcDbLayerTableRecord
  2
MIXEDCOLOR
 70
0
 62
7
  6
CONTINUOUS
370
-3
390
F
  0
LAYER
  5
23A
100
AcDbSymbolTableRecord
100
AcDbLayerTableRecord
  2
NOTES
 70
0
 62
7
  6
CONTINUOUS
370
-3
390
F
  0
LAYER
  5
23B
100
AcDbSymbolTableRecord
100
AcDbLayerTableRecord
  2
PART_REFERENCE_DIMENSIONS
 70
0
 62
7
  6
CONTINUOUS
370
-3
390
F
  0
LAYER
  5
23C
100
AcDbSymbolTableRecord
100
AcDbLayerTableRecord
  2
PLATED_AREA
 70
0
 62
7
  6
CONTINUOUS
370
-3
390
F
  0
LAYER
  5
23D
100
AcDbSymbolTableRecord
100
AcDbLayerTableRecord
  2
PLATED_SURFACE_AREA
 70
0
 62
7
  6
CONTINUOUS
370
-3
390
F
  0
LAYER
  5
23E
100
AcDbSymbolTableRecord
100
AcDbLayerTableRecord
  2
POINTS
 70
0
 62
7
  6
CONTINUOUS
370
-3
390
F
  0
LAYER
  5
23F
100
AcDbSymbolTableRecord
100
AcDbLayerTableRecord
  2
PROTRUSION
 70
0
 62
7
  6
CONTINUOUS
370
-3
390
F
  0
LAYER
  5
240
100
AcDbSymbolTableRecord
100
AcDbLayerTableRecord
  2
PROTRUSION_FEATURES
 70
0
 62
7
  6
CONTINUOUS
370
-3
390
F
  0
LAYER
  5
241
100
AcDbSymbolTableRecord
100
AcDbLayerTableRecord
  2
QUILTED_AREA
 70
0
 62
7
  6
CONTINUOUS
370
-3
390
F
  0
LAYER
  5
242
100
AcDbSymbolTableRecord
100
AcDbLayerTableRecord
  2
QUILTS
 70
0
 62
7
  6
CONTINUOUS
370
-3
390
F
  0
LAYER
  5
243
100
AcDbSymbolTableRecord
100
AcDbLayerTableRecord
  2
REFERENCE_DIMENSIONS
 70
0
 62
7
  6
CONTINUOUS
370
-3
390
F
  0
LAYER
  5
244
100
AcDbSymbolTableRecord
100
AcDbLayerTableRecord
  2
ROUND_FEATURES
 70
0
 62
7
  6
CONTINUOUS
370
-3
390
F
  0
LAYER
  5
245
100
AcDbSymbolTableRecord
100
AcDbLayerTableRecord
  2
S01012-09A
 70
0
 62
7
  6
CONTINUOUS
370
-3
390
F
  0
LAYER
  5
246
100
AcDbSymbolTableRecord
100
AcDbLayerTableRecord
  2
S01012-10A
 70
0
 62
7
  6
CONTINUOUS
370
-3
390
F
  0
LAYER
  5
247
100
AcDbSymbolTableRecord
100
AcDbLayerTableRecord
  2
S02015-05
 70
0
 62
7
  6
CONTINUOUS
370
-3
390
F
  0
LAYER
  5
248
100
AcDbSymbolTableRecord
100
AcDbLayerTableRecord
  2
S02015-16B
 70
0
 62
7
  6
CONTINUOUS
370
-3
390
F
  0
LAYER
  5
249
100
AcDbSymbolTableRecord
100
AcDbLayerTableRecord
  2
S02015-17
 70
0
 62
7
  6
CONTINUOUS
370
-3
390
F
  0
LAYER
  5
24A
100
AcDbSymbolTableRecord
100
AcDbLayerTableRecord
  2
S02015-18
 70
0
 62
7
  6
CONTINUOUS
370
-3
390
F
  0
LAYER
  5
24B
100
AcDbSymbolTableRecord
100
AcDbLayerTableRecord
  2
S02015-20A
 70
0
 62
7
  6
CONTINUOUS
370
-3
390
F
  0
LAYER
  5
24C
100
AcDbSymbolTableRecord
100
AcDbLayerTableRecord
  2
S02015-31A
 70
0
 62
7
  6
CONTINUOUS
370
-3
390
F
  0
LAYER
  5
24D
100
AcDbSymbolTableRecord
100
AcDbLayerTableRecord
  2
S02015-32A
 70
0
 62
7
  6
CONTINUOUS
370
-3
390
F
  0
LAYER
  5
24E
100
AcDbSymbolTableRecord
100
AcDbLayerTableRecord
  2
S02015-32A_1
 70
0
 62
7
  6
CONTINUOUS
370
-3
390
F
  0
LAYER
  5
24F
100
AcDbSymbolTableRecord
100
AcDbLayerTableRecord
  2
S02015-35
 70
0
 62
7
  6
CONTINUOUS
370
-3
390
F
  0
LAYER
  5
250
100
AcDbSymbolTableRecord
100
AcDbLayerTableRecord
  2
S15025-04A
 70
0
 62
7
  6
CONTINUOUS
370
-3
390
F
  0
LAYER
  5
251
100
AcDbSymbolTableRecord
100
AcDbLayerTableRecord
  2
SHELL_FEATURES
 70
0
 62
7
  6
CONTINUOUS
370
-3
390
F
  0
LAYER
  5
252
100
AcDbSymbolTableRecord
100
AcDbLayerTableRecord
  2
SURFACE
 70
0
 62
7
  6
CONTINUOUS
370
-3
390
F
  0
LAYER
  5
253
100
AcDbSymbolTableRecord
100
AcDbLayerTableRecord
  2
WETTED_SURFACES
 70
0
 62
7
  6
CONTINUOUS
370
-3
390
F
  0
LAYER
  5
254
100
AcDbSymbolTableRecord
100
AcDbLayerTableRecord
  2
XSEC_DATUMS
 70
0
 62
7
  6
CONTINUOUS
370
-3
390
F
  0
LAYER
  5
255
100
AcDbSymbolTableRecord
100
AcDbLayerTableRecord
  2
___SHELL
 70
0
 62
7
  6
CONTINUOUS
370
-3
390
F
  0
ENDTAB
  0
TABLE
  2
STYLE
  5
3
100
AcDbSymbolTable
 70
1
  0
STYLE
  5
11
100
AcDbSymbolTableRecord
100
AcDbTextStyleTableRecord
  2
STANDARD
 70
0
 40
0.0
 41
0.8
 50
0.0
 71
0
 42
0.2
  3
txt
  4

  0
STYLE
  5
256
100
AcDbSymbolTableRecord
100
AcDbTextStyleTableRecord
  2
TEXTSTYLE_1
 70
0
 40
0.0
 41
0.8
 50
0.0
 71
0
 42
0.2
  3
gdt
  4

  0
ENDTAB
  0
TABLE
  2
VIEW
  5
6
100
AcDbSymbolTable
 70
0
  0
ENDTAB
  0
TABLE
  2
UCS
  5
7
100
AcDbSymbolTable
 70
0
  0
ENDTAB
  0
TABLE
  2
APPID
  5
9
100
AcDbSymbolTable
 70
1
  0
APPID
  5
257
100
AcDbSymbolTableRecord
100
AcDbRegAppTableRecord
  2
ACAD
 70
0
  0
ENDTAB
  0
TABLE
  2
BLOCK_RECORD
  5
1
100
AcDbSymbolTable
 70
0
  0
BLOCK_RECORD
  5
258
100
AcDbSymbolTableRecord
100
AcDbBlockTableRecord
  2
*Model_Space
  0
BLOCK_RECORD
  5
259
100
AcDbSymbolTableRecord
100
AcDbBlockTableRecord
  2
*Paper_Space
  0
ENDTAB
  0
TABLE
  2
DIMSTYLE
  5
A
100
AcDbSymbolTable
 70
1
100
AcDbDimStyleTable
 71
0
  0
DIMSTYLE
105
25A
100
AcDbSymbolTableRecord
100
AcDbDimStyleTableRecord
  2
STANDARD
 70
0
  3

  4

 40
1.0
 41
0.1
 42
0.0625
 43
0.38
 44
0.125
 45
0.0
 46
0.0
 47
0.001
 48
0.001
140
0.08
141
0.09
142
0.0
143
25.4
144
1.0
145
0.0
146
1.0
147
0.09
 71
1.0
 72
0.0
 73
1
 74
1
 75
0
 76
0
 77
0
 78
4
170
0
171
2
172
0
173
0
174
0
175
0
176
0
177
0
178
0
270
2
271
3
272
3
273
2
274
2
275
0
280
0
281
0
282
0
283
1
284
4
285
0
286
0
287
3
288
0
340
11
278
46
  0
ENDTAB
  0
ENDSEC
  0
SECTION
  2
BLOCKS
  0
BLOCK
  5
20
100
AcDbEntity
  8
0
100
AcDbBlockBegin
  2
*Model_Space
 70
0
 10
0.0
 20
0.0
 30
0.0
  3
*Model_Space
  1

  0
ENDBLK
  5
21
100
AcDbEntity
  8
0
100
AcDbBlockEnd
  0
BLOCK
  5
1C
100
AcDbEntity
  8
0
100
AcDbBlockBegin
  2
*Paper_Space
 70
0
 10
0.0
 20
0.0
 30
0.0
  3
*Paper_Space
  1

  0
ENDBLK
  5
1D
100
AcDbEntity
  8
0
100
AcDbBlockEnd
  0
ENDSEC
  0
SECTION
  2
ENTITIES
  0
LINE
  5
25B
100
AcDbEntity
  8
0
100
AcDbLine
 62
7
  6
CONTINUOUS
 10
0.0
 20
0.0
 11
0.0
 21
8.5
  0
LINE
  5
25C
100
AcDbEntity
  8
0
100
AcDbLine
 62
7
  6
CONTINUOUS
 10
0.0
 20
0.0
 11
11.0
 21
0.0
  0
LINE
  5
25D
100
AcDbEntity
  8
0
100
AcDbLine
 62
7
  6
CONTINUOUS
 10
0.0
 20
8.5
 11
11.0
 21
8.5
  0
LINE
  5
25E
100
AcDbEntity
  8
0
100
AcDbLine
 62
7
  6
CONTINUOUS
 10
11.0
 20
0.0
 11
11.0
 21
8.5
  0
LINE
  5
25F
100
AcDbEntity
  8
ALL_ASSEMBLY_MEMBERS
100
AcDbLine
 62
7
  6
CONTINUOUS
 10
5.2913232998
 20
2.011376987
 11
5.4761232998
 21
2.011376987
  0
LINE
  5
260
100
AcDbEntity
  8
ALL_ASSEMBLY_MEMBERS
100
AcDbLine
 62
7
  6
CONTINUOUS
 10
5.2853232998
 20
2.017376987
 11
5.4821232998
 21
2.017376987
  0
LINE
  5
261
100
AcDbEntity
  8
ALL_ASSEMBLY_MEMBERS
100
AcDbLine
 62
7
  6
CONTINUOUS
 10
4.0115429669
 20
5.9230068252
 11
3.9727124467
 21
5.8841763051
  0
LINE
  5
262
100
AcDbEntity
  8
ALL_ASSEMBLY_MEMBERS
100
AcDbLine
 62
7
  6
CONTINUOUS
 10
3.8974031505
 20
5.7205566099
 11
3.8899955387
 21
5.7131489982
  0
LINE
  5
263
100
AcDbEntity
  8
ALL_ASSEMBLY_MEMBERS
100
AcDbLine
 62
7
  6
CONTINUOUS
 10
3.9090707558
 20
5.7088890046
 11
3.9016631441
 21
5.7014813929
  0
LINE
  5
264
100
AcDbEntity
  8
ALL_ASSEMBLY_MEMBERS
100
AcDbLine
 62
7
  6
CONTINUOUS
 10
4.1192153177
 20
5.9097639164
 11
4.1120052823
 21
5.9025538811
  0
LINE
  5
265
100
AcDbEntity
  8
ALL_ASSEMBLY_MEMBERS
100
AcDbLine
 62
7
  6
CONTINUOUS
 10
3.9432784437
 20
5.6746813167
 11
3.935870832
 21
5.6672737049
  0
LINE
  5
266
100
AcDbEntity
  8
ALL_ASSEMBLY_MEMBERS
100
AcDbLine
 62
7
  6
CONTINUOUS
 10
3.9348412009
 20
5.656870565
 11
3.9317441011
 21
5.6537734652
  0
LINE
  5
267
100
AcDbEntity
  8
ALL_ASSEMBLY_MEMBERS
100
AcDbLine
 62
7
  6
CONTINUOUS
 10
3.9547123107
 20
5.6366212026
 11
3.9518043372
 21
5.6337132291
  0
LINE
  5
268
100
AcDbEntity
  8
ALL_ASSEMBLY_MEMBERS
100
AcDbLine
 62
7
  6
CONTINUOUS
 10
3.9756248898
 20
5.6368738616
 11
3.9709477826
 21
5.6321967544
  0
LINE
  5
269
100
AcDbEntity
  8
ALL_ASSEMBLY_MEMBERS
100
AcDbLine
 62
7
  6
CONTINUOUS
 10
3.9976950169
 20
5.6202647435
 11
3.9902874052
 21
5.6128571317
  0
LINE
  5
26A
100
AcDbEntity
  8
ALL_ASSEMBLY_MEMBERS
100
AcDbLine
 62
7
  6
CONTINUOUS
 10
3.9862395778
 20
5.6080165545
 11
3.9818702948
 21
5.6036472715
  0
LINE
  5
26B
100
AcDbEntity
  8
ALL_ASSEMBLY_MEMBERS
100
AcDbLine
 62
7
  6
CONTINUOUS
 10
3.993465711
 20
5.5978678023
 11
3.9905577375
 21
5.5949598288
  0
LINE
  5
26C
100
AcDbEntity
  8
ALL_ASSEMBLY_MEMBERS
100
AcDbLine
 62
7
  6
CONTINUOUS
 10
3.9845300248
 20
5.5805184711
 11
3.9830936322
 21
5.5790820785
  0
LINE
  5
26D
100
AcDbEntity
  8
ALL_ASSEMBLY_MEMBERS
100
AcDbLine
 62
7
  6
CONTINUOUS
 10
4.0363650191
 20
5.5107137367
 11
4.0360758747
 21
5.5102221434
  0
LINE
  5
26E
100
AcDbEntity
  8
ALL_ASSEMBLY_MEMBERS
100
AcDbLine
 62
7
  6
CONTINUOUS
 10
4.0360758747
 20
5.5102221434
 11
4.0356959507
 21
5.5097711322
  0
LINE
  5
26F
100
AcDbEntity
  8
ALL_ASSEMBLY_MEMBERS
100
AcDbLine
 62
7
  6
CONTINUOUS
 10
4.0197599579
 20
5.5266607419
 11
4.0194899848
 21
5.5263579407
  0
LINE
  5
270
100
AcDbEntity
  8
ALL_ASSEMBLY_MEMBERS
100
AcDbLine
 62
7
  6
CONTINUOUS
 10
4.0306906898
 20
5.5831065152
 11
4.0253643558
 21
5.5777801812
  0
LINE
  5
271
100
AcDbEntity
  8
ALL_ASSEMBLY_MEMBERS
100
AcDbLine
 62
7
  6
CONTINUOUS
 10
4.0253718191
 20
5.5696419952
 11
4.0206236951
 21
5.5648938712
  0
LINE
  5
272
100
AcDbEntity
  8
ALL_ASSEMBLY_MEMBERS
100
AcDbLine
 62
7
  6
CONTINUOUS
 10
4.0142514368
 20
5.5317196989
 11
4.008632823
 21
5.526101085
  0
LINE
  5
273
100
AcDbEntity
  8
ALL_ASSEMBLY_MEMBERS
100
AcDbLine
 62
7
  6
CONTINUOUS
 10
4.0194695857
 20
5.5263376591
 11
4.0139329173
 21
5.5208009907
  0
LINE
  5
274
100
AcDbEntity
  8
ALL_ASSEMBLY_MEMBERS
100
AcDbLine
 62
7
  6
CONTINUOUS
 10
4.0543160248
 20
5.5491069477
 11
4.0453633217
 21
5.5401542446
  0
LINE
  5
275
100
AcDbEntity
  8
ALL_ASSEMBLY_MEMBERS
100
AcDbLine
 62
7
  6
CONTINUOUS
 10
4.0686120758
 20
5.5493476846
 11
4.0612044641
 21
5.5419400729
  0
LINE
  5
276
100
AcDbEntity
  8
ALL_ASSEMBLY_MEMBERS
100
AcDbLine
 62
7
  6
CONTINUOUS
 10
4.0356711354
 20
5.5097462854
 11
4.030329379
 21
5.504404529
  0
LINE
  5
277
100
AcDbEntity
  8
ALL_ASSEMBLY_MEMBERS
100
AcDbLine
 62
7
  6
CONTINUOUS
 10
4.0783372529
 20
5.5129962604
 11
4.0754292794
 21
5.5100882869
  0
LINE
  5
278
100
AcDbEntity
  8
ALL_ASSEMBLY_MEMBERS
100
AcDbLine
 62
7
  6
CONTINUOUS
 10
4.0618325725
 20
5.4757758072
 11
4.0603953366
 21
5.4743385714
  0
LINE
  5
279
100
AcDbEntity
  8
ALL_ASSEMBLY_MEMBERS
100
AcDbLine
 62
7
  6
CONTINUOUS
 10
4.1024486124
 20
5.51303032
 11
4.0962814147
 21
5.5068631223
  0
LINE
  5
27A
100
AcDbEntity
  8
ALL_ASSEMBLY_MEMBERS
100
AcDbLine
 62
7
  6
CONTINUOUS
 10
4.0648162813
 20
5.4721368403
 11
4.0637066745
 21
5.4710272335
  0
LINE
  5
27B
100
AcDbEntity
  8
ALL_ASSEMBLY_MEMBERS
100
AcDbLine
 62
7
  6
CONTINUOUS
 10
4.1207517486
 20
5.481296955
 11
4.11248618
 21
5.4730313863
  0
LINE
  5
27C
100
AcDbEntity
  8
ALL_ASSEMBLY_MEMBERS
100
AcDbLine
 62
7
  6
CONTINUOUS
 10
4.6816056053
 20
6.0287982522
 11
4.482201493
 21
5.8293941399
  0
LINE
  5
27D
100
AcDbEntity
  8
ALL_ASSEMBLY_MEMBERS
100
AcDbLine
 62
7
  6
CONTINUOUS
 10
4.6847522613
 20
6.0256515962
 11
4.6105060493
 21
5.9514053842
  0
LINE
  5
27E
100
AcDbEntity
  8
ALL_ASSEMBLY_MEMBERS
100
AcDbLine
 62
7
  6
CONTINUOUS
 10
4.15119674
 20
5.4667630204
 11
4.1437891283
 21
5.4593554086
  0
LINE
  5
27F
100
AcDbEntity
  8
ALL_ASSEMBLY_MEMBERS
100
AcDbLine
 62
7
  6
CONTINUOUS
 10
4.1454601111
 20
5.4458734022
 11
4.1425521376
 21
5.4429654287
  0
LINE
  5
280
100
AcDbEntity
  8
ALL_ASSEMBLY_MEMBERS
100
AcDbLine
 62
7
  6
CONTINUOUS
 10
4.8624481646
 20
6.1576684631
 11
4.7941145284
 21
6.0893348269
  0
LINE
  5
281
100
AcDbEntity
  8
ALL_ASSEMBLY_MEMBERS
100
AcDbLine
 62
7
  6
CONTINUOUS
 10
4.8387883854
 20
6.1282952337
 11
4.7969712535
 21
6.0864781018
  0
LWPOLYLINE
  5
282
100
AcDbEntity
  8
ALL_ASSEMBLY_MEMBERS
100
AcDbPolyline
 62
7
  6
CONTINUOUS
 90
5
 70
0
 10
4.0618058289
 20
5.4757500065
 10
4.0619597252
 20
5.4758949247
 10
4.062421177
 20
5.4762389753
 10
4.0629324881
 20
5.4765017505
 10
4.0634615522
 20
5.4766713388
  0
LINE
  5
283
100
AcDbEntity
  8
ALL_ASSEMBLY_MEMBERS
100
AcDbLine
 62
9
  6
CONTINUOUS
 10
5.1003675827
 20
6.0407095712
 11
5.1002796606
 21
6.0406757058
  0
LINE
  5
284
100
AcDbEntity
  8
ALL_ASSEMBLY_MEMBERS
100
AcDbLine
 62
7
  6
CONTINUOUS
 10
6.0899982998
 20
2.671826987
 11
6.1160982998
 21
2.671826987
  0
LINE
  5
285
100
AcDbEntity
  8
ALL_ASSEMBLY_MEMBERS
100
AcDbLine
 62
7
  6
CONTINUOUS
 10
5.2732174973
 20
2.793776987
 11
5.4942291023
 21
2.793776987
  0
LINE
  5
286
100
AcDbEntity
  8
ALL_ASSEMBLY_MEMBERS
100
AcDbLine
 62
7
  6
CONTINUOUS
 10
5.2853232998
 20
2.017376987
 11
5.2913232998
 21
2.011376987
  0
LINE
  5
287
100
AcDbEntity
  8
ALL_ASSEMBLY_MEMBERS
100
AcDbLine
 62
7
  6
CONTINUOUS
 10
4.0652406068
 20
5.4613740233
 11
4.0547213693
 21
5.4388154456
  0
LINE
  5
288
100
AcDbEntity
  8
ALL_ASSEMBLY_MEMBERS
100
AcDbLine
 62
7
  6
CONTINUOUS
 10
4.218925452
 20
5.3222424497
 11
4.2189224027
 21
5.3222393644
  0
LINE
  5
289
100
AcDbEntity
  8
ALL_ASSEMBLY_MEMBERS
100
AcDbLine
 62
7
  6
CONTINUOUS
 10
5.1723886007
 20
6.4479866861
 11
4.9391977402
 21
6.2147958256
  0
LINE
  5
28A
100
AcDbEntity
  8
ALL_ASSEMBLY_MEMBERS
100
AcDbLine
 62
7
  6
CONTINUOUS
 10
4.9299482189
 20
6.2055463043
 11
4.9280118287
 21
6.203609914
  0
LINE
  5
28B
100
AcDbEntity
  8
ALL_ASSEMBLY_MEMBERS
100
AcDbLine
 62
7
  6
CONTINUOUS
 10
4.9184105534
 20
6.1940086388
 11
4.913078564
 21
6.1886766494
  0
LINE
  5
28C
100
AcDbEntity
  8
ALL_ASSEMBLY_MEMBERS
100
AcDbLine
 62
7
  6
CONTINUOUS
 10
4.9030386293
 20
6.1786367147
 11
4.8981843168
 21
6.1737824021
  0
LINE
  5
28D
100
AcDbEntity
  8
ALL_ASSEMBLY_MEMBERS
100
AcDbLine
 62
7
  6
CONTINUOUS
 10
4.8876276906
 20
6.1632257759
 11
4.8832417188
 21
6.1588398042
  0
LINE
  5
28E
100
AcDbEntity
  8
ALL_ASSEMBLY_MEMBERS
100
AcDbLine
 62
7
  6
CONTINUOUS
 10
4.720327885
 20
5.9900759725
 11
4.6460816729
 21
5.9158297605
  0
LINE
  5
28F
100
AcDbEntity
  8
ALL_ASSEMBLY_MEMBERS
100
AcDbLine
 62
7
  6
CONTINUOUS
 10
4.9374078694
 20
6.2035474969
 11
4.9411965476
 21
6.2073361751
  0
LINE
  5
290
100
AcDbEntity
  8
ALL_ASSEMBLY_MEMBERS
100
AcDbLine
 62
7
  6
CONTINUOUS
 10
4.9301412845
 20
6.195671707
 11
4.9263526064
 21
6.1918830288
  0
LINE
  5
291
100
AcDbEntity
  8
ALL_ASSEMBLY_MEMBERS
100
AcDbLine
 62
7
  6
CONTINUOUS
 10
4.9153683658
 20
6.1801389974
 11
4.9115796877
 21
6.1763503193
  0
LINE
  5
292
100
AcDbEntity
  8
ALL_ASSEMBLY_MEMBERS
100
AcDbLine
 62
7
  6
CONTINUOUS
 10
4.9006629103
 20
6.1645385915
 11
4.8968742321
 21
6.1607499134
  0
LINE
  5
293
100
AcDbEntity
  8
ALL_ASSEMBLY_MEMBERS
100
AcDbLine
 62
7
  6
CONTINUOUS
 10
4.8858745959
 20
6.1490228822
 11
4.8820859178
 21
6.145234204
  0
LINE
  5
294
100
AcDbEntity
  8
ALL_ASSEMBLY_MEMBERS
100
AcDbLine
 62
7
  6
CONTINUOUS
 10
4.1438560627
 20
5.3990637012
 11
4.1397631347
 21
5.3949707732
  0
LINE
  5
295
100
AcDbEntity
  8
ALL_ASSEMBLY_MEMBERS
100
AcDbLine
 62
7
  6
CONTINUOUS
 10
4.1860095367
 20
5.4314219159
 11
4.1788660789
 21
5.4242784581
  0
LINE
  5
296
100
AcDbEntity
  8
ALL_ASSEMBLY_MEMBERS
100
AcDbLine
 62
7
  6
CONTINUOUS
 10
4.8652252205
 20
6.1018583986
 11
4.8234080886
 21
6.0600412667
  0
LINE
  5
297
100
AcDbEntity
  8
ALL_ASSEMBLY_MEMBERS
100
AcDbLine
 62
7
  6
CONTINUOUS
 10
4.1948636916
 20
5.4056772572
 11
4.1873520003
 21
5.398165566
  0
LINE
  5
298
100
AcDbEntity
  8
ALL_ASSEMBLY_MEMBERS
100
AcDbLine
 62
7
  6
CONTINUOUS
 10
4.1725126683
 20
5.3675883915
 11
4.1698290924
 21
5.3649048156
  0
LINE
  5
299
100
AcDbEntity
  8
ALL_ASSEMBLY_MEMBERS
100
AcDbLine
 62
7
  6
CONTINUOUS
 10
4.1892021986
 20
5.352651075
 11
4.1856425157
 21
5.3490913922
  0
LINE
  5
29A
100
AcDbEntity
  8
ALL_ASSEMBLY_MEMBERS
100
AcDbLine
 62
7
  6
CONTINUOUS
 10
4.2241543337
 20
5.3748359841
 11
4.217417958
 21
5.3680996083
  0
LINE
  5
29B
100
AcDbEntity
  8
ALL_ASSEMBLY_MEMBERS
100
AcDbLine
 62
7
  6
CONTINUOUS
 10
4.2398210012
 20
5.3781387592
 11
4.2324133895
 21
5.3707311475
  0
LINE
  5
29C
100
AcDbEntity
  8
ALL_ASSEMBLY_MEMBERS
100
AcDbLine
 62
7
  6
CONTINUOUS
 10
4.2189238574
 20
5.3222408186
 11
4.2157084734
 21
5.3190254346
  0
LINE
  5
29D
100
AcDbEntity
  8
ALL_ASSEMBLY_MEMBERS
100
AcDbLine
 62
7
  6
CONTINUOUS
 10
4.2354419903
 20
5.3053414057
 11
4.2324172463
 21
5.3023166617
  0
LINE
  5
29E
100
AcDbEntity
  8
ALL_ASSEMBLY_MEMBERS
100
AcDbLine
 62
7
  6
CONTINUOUS
 10
4.2748979518
 20
5.3430618086
 11
4.26749034
 21
5.3356541969
  0
LINE
  5
29F
100
AcDbEntity
  8
ALL_ASSEMBLY_MEMBERS
100
AcDbLine
 62
7
  6
CONTINUOUS
 10
4.2715955791
 20
5.3273955437
 11
4.2648588009
 21
5.3206587654
  0
LWPOLYLINE
  5
2A0
100
AcDbEntity
  8
ALL_ASSEMBLY_MEMBERS
100
AcDbPolyline
 62
7
  6
CONTINUOUS
 90
9
 70
0
 10
4.2189239866
 20
5.3222418252
 10
4.2189737206
 20
5.3222903521
 10
4.2194243603
 20
5.3226471528
 10
4.2199288543
 20
5.3229137822
 10
4.2204331731
 20
5.3230724608
 10
4.2208461227
 20
5.3231312751
 10
4.2211391888
 20
5.3231337329
 10
4.2213519735
 20
5.3231120603
 10
4.2214158506
 20
5.3231006463
  0
LWPOLYLINE
  5
2A1
100
AcDbEntity
  8
ALL_ASSEMBLY_MEMBERS
100
AcDbPolyline
 62
7
  6
CONTINUOUS
 90
10
 70
0
 10
4.2662372999
 20
5.276004633
 10
4.2663071186
 20
5.2760724812
 10
4.2668249424
 20
5.2764671534
 10
4.267350535
 20
5.2767229208
 10
4.2678399209
 20
5.2768587945
 10
4.2682577935
 20
5.2769033446
 10
4.2685408628
 20
5.2768933889
 10
4.2686891393
 20
5.2768717058
 10
4.2687282032
 20
5.2768636348
 10
4.268724528
 20
5.276864946
  0
LWPOLYLINE
  5
2A2
100
AcDbEntity
  8
ALL_ASSEMBLY_MEMBERS
100
AcDbPolyline
 62
7
  6
CONTINUOUS
 90
9
 70
0
 10
4.1725090634
 20
5.367585425
 10
4.1728967422
 20
5.3679156508
 10
4.1733783763
 20
5.3682021902
 10
4.1738703588
 20
5.3683889478
 10
4.1743367596
 20
5.3684822262
 10
4.1747013409
 20
5.3685009551
 10
4.1749616972
 20
5.36848326
 10
4.1751540721
 20
5.3684503041
 10
4.1751756125
 20
5.3684453174
  0
LINE
  5
2A3
100
AcDbEntity
  8
ALL_ASSEMBLY_MEMBERS
100
AcDbLine
 62
7
  6
CONTINUOUS
 10
5.6867232998
 20
2.821826987
 11
5.5050566382
 21
2.821826987
  0
LINE
  5
2A4
100
AcDbEntity
  8
ALL_ASSEMBLY_MEMBERS
100
AcDbLine
 62
7
  6
CONTINUOUS
 10
5.2732165971
 20
2.842496987
 11
5.4734237331
 21
2.842496987
  0
LINE
  5
2A5
100
AcDbEntity
  8
ALL_ASSEMBLY_MEMBERS
100
AcDbLine
 62
7
  6
CONTINUOUS
 10
5.2732165971
 20
2.891216987
 11
5.4411592722
 21
2.891216987
  0
LINE
  5
2A6
100
AcDbEntity
  8
ALL_ASSEMBLY_MEMBERS
100
AcDbLine
 62
7
  6
CONTINUOUS
 10
5.2732165971
 20
2.939936987
 11
5.4411592722
 21
2.939936987
  0
LINE
  5
2A7
100
AcDbEntity
  8
ALL_ASSEMBLY_MEMBERS
100
AcDbLine
 62
7
  6
CONTINUOUS
 10
3.8882658544
 20
5.7089730653
 11
3.8882658544
 21
5.7055136952
  0
LINE
  5
2A8
100
AcDbEntity
  8
ALL_ASSEMBLY_MEMBERS
100
AcDbLine
 62
7
  6
CONTINUOUS
 10
3.8999334597
 20
5.6973053542
 11
3.8999334597
 21
5.6938460789
  0
LINE
  5
2A9
100
AcDbEntity
  8
ALL_ASSEMBLY_MEMBERS
100
AcDbLine
 62
7
  6
CONTINUOUS
 10
3.9300144167
 20
5.649597586
 11
3.9300144167
 21
5.6461381322
  0
LINE
  5
2AA
100
AcDbEntity
  8
ALL_ASSEMBLY_MEMBERS
100
AcDbLine
 62
7
  6
CONTINUOUS
 10
3.9341411477
 20
5.663097624
 11
3.9341411477
 21
5.6596383909
  0
LINE
  5
2AB
100
AcDbEntity
  8
ALL_ASSEMBLY_MEMBERS
100
AcDbLine
 62
7
  6
CONTINUOUS
 10
3.9500746528
 20
5.6295372775
 11
3.9500746528
 21
5.6260778961
  0
LINE
  5
2AC
100
AcDbEntity
  8
ALL_ASSEMBLY_MEMBERS
100
AcDbLine
 62
7
  6
CONTINUOUS
 10
3.9885577208
 20
5.6086810509
 11
3.9885577208
 21
5.6052218177
  0
LINE
  5
2AD
100
AcDbEntity
  8
ALL_ASSEMBLY_MEMBERS
100
AcDbLine
 62
7
  6
CONTINUOUS
 10
3.9888280531
 20
5.5907838772
 11
3.9888280531
 21
5.5873244958
  0
LINE
  5
2AE
100
AcDbEntity
  8
ALL_ASSEMBLY_MEMBERS
100
AcDbLine
 62
7
  6
CONTINUOUS
 10
4.0075950123
 20
5.52359557
 11
4.0075950123
 21
5.518179305
  0
LINE
  5
2AF
100
AcDbEntity
  8
ALL_ASSEMBLY_MEMBERS
100
AcDbLine
 62
7
  6
CONTINUOUS
 10
4.0128951067
 20
5.5182954757
 11
4.0128951067
 21
5.5128791954
  0
LINE
  5
2B0
100
AcDbEntity
  8
ALL_ASSEMBLY_MEMBERS
100
AcDbLine
 62
7
  6
CONTINUOUS
 10
4.0292915684
 20
5.501899014
 11
4.0292915684
 21
5.4964827337
  0
LINE
  5
2B1
100
AcDbEntity
  8
ALL_ASSEMBLY_MEMBERS
100
AcDbLine
 62
7
  6
CONTINUOUS
 10
4.0436336374
 20
5.5359782929
 11
4.0436336374
 21
5.5325189116
  0
LWPOLYLINE
  5
2B2
100
AcDbEntity
  8
ALL_ASSEMBLY_MEMBERS
100
AcDbPolyline
 62
7
  6
CONTINUOUS
 90
7
 70
0
 10
4.0152867144
 20
5.5340939703
 10
4.0152309876
 20
5.5335860551
 10
4.0151029511
 20
5.5330917822
 10
4.0149021576
 20
5.5326153622
 10
4.0146309048
 20
5.5321684454
 10
4.0143001366
 20
5.5317697309
 10
4.0142511489
 20
5.5317198208
  0
LINE
  5
2B3
100
AcDbEntity
  8
ALL_ASSEMBLY_MEMBERS
100
AcDbLine
 62
7
  6
CONTINUOUS
 10
4.3569992975
 20
5.1815198191
 11
4.3567208082
 21
5.181204775
  0
LINE
  5
2B4
100
AcDbEntity
  8
ALL_ASSEMBLY_MEMBERS
100
AcDbLine
 62
7
  6
CONTINUOUS
 10
5.1003697069
 20
6.0407117451
 11
5.1003675827
 21
6.0407095712
  0
LINE
  5
2B5
100
AcDbEntity
  8
ALL_ASSEMBLY_MEMBERS
100
AcDbLine
 62
7
  6
CONTINUOUS
 10
4.2662340117
 20
5.2760015118
 11
4.2624832039
 21
5.2722507041
  0
LINE
  5
2B6
100
AcDbEntity
  8
ALL_ASSEMBLY_MEMBERS
100
AcDbLine
 62
7
  6
CONTINUOUS
 10
4.3024371576
 20
5.2981052069
 11
4.2949247585
 21
5.2905928078
  0
LINE
  5
2B7
100
AcDbEntity
  8
ALL_ASSEMBLY_MEMBERS
100
AcDbLine
 62
7
  6
CONTINUOUS
 10
4.3281772364
 20
5.2892464721
 11
4.3210376506
 21
5.2821068863
  0
LINE
  5
2B8
100
AcDbEntity
  8
ALL_ASSEMBLY_MEMBERS
100
AcDbLine
 62
7
  6
CONTINUOUS
 10
5.0497737555
 20
5.9926989852
 11
5.0535624336
 21
5.9964876633
  0
LINE
  5
2B9
100
AcDbEntity
  8
ALL_ASSEMBLY_MEMBERS
100
AcDbLine
 62
7
  6
CONTINUOUS
 10
5.0653252027
 20
6.0074536815
 11
5.0691138808
 21
6.0112423596
  0
LINE
  5
2BA
100
AcDbEntity
  8
ALL_ASSEMBLY_MEMBERS
100
AcDbLine
 62
7
  6
CONTINUOUS
 10
5.0808676537
 20
6.0222151627
 11
5.0846563318
 21
6.0260038408
  0
LINE
  5
2BB
100
AcDbEntity
  8
ALL_ASSEMBLY_MEMBERS
100
AcDbLine
 62
7
  6
CONTINUOUS
 10
5.0964227078
 20
6.0369655053
 11
5.1000876568
 21
6.0406304543
  0
LINE
  5
2BC
100
AcDbEntity
  8
ALL_ASSEMBLY_MEMBERS
100
AcDbLine
 62
7
  6
CONTINUOUS
 10
5.100367859
 20
6.0407098464
 11
5.1040953676
 21
6.044437355
  0
LINE
  5
2BD
100
AcDbEntity
  8
ALL_ASSEMBLY_MEMBERS
100
AcDbLine
 62
7
  6
CONTINUOUS
 10
5.3447458786
 20
6.2756294082
 11
5.1115550182
 21
6.0424385477
  0
LINE
  5
2BE
100
AcDbEntity
  8
ALL_ASSEMBLY_MEMBERS
100
AcDbLine
 62
7
  6
CONTINUOUS
 10
5.09846202
 20
6.0293455495
 11
5.092907214
 21
6.0237907435
  0
LINE
  5
2BF
100
AcDbEntity
  8
ALL_ASSEMBLY_MEMBERS
100
AcDbLine
 62
7
  6
CONTINUOUS
 10
5.0830771281
 20
6.0139606576
 11
5.0779800789
 21
6.0088636085
  0
LINE
  5
2C0
100
AcDbEntity
  8
ALL_ASSEMBLY_MEMBERS
100
AcDbLine
 62
7
  6
CONTINUOUS
 10
5.0676990788
 20
5.9985826084
 11
5.0630574849
 21
5.9939410144
  0
LINE
  5
2C1
100
AcDbEntity
  8
ALL_ASSEMBLY_MEMBERS
100
AcDbLine
 62
7
  6
CONTINUOUS
 10
5.0523164976
 20
5.9832000271
 11
5.048135827
 21
5.9790193565
  0
LINE
  5
2C2
100
AcDbEntity
  8
ALL_ASSEMBLY_MEMBERS
100
AcDbLine
 62
7
  6
CONTINUOUS
 10
5.0544276556
 20
5.965688972
 11
4.9860940194
 21
5.8973553358
  0
LINE
  5
2C3
100
AcDbEntity
  8
ALL_ASSEMBLY_MEMBERS
100
AcDbLine
 62
7
  6
CONTINUOUS
 10
4.3426325948
 20
5.2487009186
 11
4.3397246212
 21
5.2457929451
  0
LINE
  5
2C4
100
AcDbEntity
  8
ALL_ASSEMBLY_MEMBERS
100
AcDbLine
 62
7
  6
CONTINUOUS
 10
4.3635222129
 20
5.2544375475
 11
4.3561146012
 21
5.2470299358
  0
LINE
  5
2C5
100
AcDbEntity
  8
ALL_ASSEMBLY_MEMBERS
100
AcDbLine
 62
7
  6
CONTINUOUS
 10
4.9255574448
 20
5.7848464127
 11
4.7261533325
 21
5.5854423004
  0
LINE
  5
2C6
100
AcDbEntity
  8
ALL_ASSEMBLY_MEMBERS
100
AcDbLine
 62
7
  6
CONTINUOUS
 10
4.3780534166
 20
5.2239898252
 11
4.3697905789
 21
5.2157269874
  0
LINE
  5
2C7
100
AcDbEntity
  8
ALL_ASSEMBLY_MEMBERS
100
AcDbLine
 62
7
  6
CONTINUOUS
 10
4.3567225492
 20
5.1812067004
 11
4.3551248784
 21
5.1796090296
  0
LINE
  5
2C8
100
AcDbEntity
  8
ALL_ASSEMBLY_MEMBERS
100
AcDbLine
 62
7
  6
CONTINUOUS
 10
4.4097949976
 20
5.2056949049
 11
4.4036223148
 21
5.1995222221
  0
LINE
  5
2C9
100
AcDbEntity
  8
ALL_ASSEMBLY_MEMBERS
100
AcDbLine
 62
7
  6
CONTINUOUS
 10
4.409755453
 20
5.1815780603
 11
4.4068474795
 21
5.1786700868
  0
LINE
  5
2CA
100
AcDbEntity
  8
ALL_ASSEMBLY_MEMBERS
100
AcDbLine
 62
7
  6
CONTINUOUS
 10
4.3903670558
 20
5.1547192917
 11
4.385190836
 21
5.1495430719
  0
LINE
  5
2CB
100
AcDbEntity
  8
ALL_ASSEMBLY_MEMBERS
100
AcDbLine
 62
7
  6
CONTINUOUS
 10
4.266238967
 20
5.2760064684
 11
4.2662369023
 21
5.2760044086
  0
LINE
  5
2CC
100
AcDbEntity
  8
ALL_ASSEMBLY_MEMBERS
100
AcDbLine
 62
7
  6
CONTINUOUS
 10
4.3903718288
 20
5.1547240647
 11
4.3903709977
 21
5.1547232394
  0
LWPOLYLINE
  5
2CD
100
AcDbEntity
  8
ALL_ASSEMBLY_MEMBERS
100
AcDbPolyline
 62
7
  6
CONTINUOUS
 90
9
 70
0
 10
4.3903704897
 20
5.1547231438
 10
4.3908315853
 20
5.1551091301
 10
4.3913182443
 20
5.1553909923
 10
4.3918332566
 20
5.1555840853
 10
4.3923316453
 20
5.155683779
 10
4.3927310734
 20
5.1557055773
 10
4.3930230441
 20
5.1556875503
 10
4.393243489
 20
5.1556522325
 10
4.3933223259
 20
5.155634077
  0
LINE
  5
2CE
100
AcDbEntity
  8
ALL_ASSEMBLY_MEMBERS
100
AcDbLine
 62
7
  6
CONTINUOUS
 10
5.2732165971
 20
2.988656987
 11
5.4734237331
 21
2.988656987
  0
LINE
  5
2CF
100
AcDbEntity
  8
ALL_ASSEMBLY_MEMBERS
100
AcDbLine
 62
7
  6
CONTINUOUS
 10
5.6867232998
 20
3.009326987
 11
5.5050565799
 21
3.009326987
  0
LINE
  5
2D0
100
AcDbEntity
  8
ALL_ASSEMBLY_MEMBERS
100
AcDbLine
 62
7
  6
CONTINUOUS
 10
5.2732174973
 20
3.037376987
 11
5.4942291023
 21
3.037376987
  0
LINE
  5
2D1
100
AcDbEntity
  8
ALL_ASSEMBLY_MEMBERS
100
AcDbLine
 62
7
  6
CONTINUOUS
 10
6.0899982998
 20
3.159326987
 11
6.1160982998
 21
3.159326987
  0
LINE
  5
2D2
100
AcDbEntity
  8
ALL_ASSEMBLY_MEMBERS
100
AcDbLine
 62
7
  6
CONTINUOUS
 10
5.2853232998
 20
3.175376987
 11
5.4821232998
 21
3.175376987
  0
LINE
  5
2D3
100
AcDbEntity
  8
ALL_ASSEMBLY_MEMBERS
100
AcDbLine
 62
7
  6
CONTINUOUS
 10
5.2913232998
 20
3.181376987
 11
5.4761232998
 21
3.181376987
  0
LINE
  5
2D4
100
AcDbEntity
  8
ALL_ASSEMBLY_MEMBERS
100
AcDbLine
 62
7
  6
CONTINUOUS
 10
4.0594747797
 20
5.537763992
 11
4.0594747797
 21
5.5343047588
  0
LINE
  5
2D5
100
AcDbEntity
  8
ALL_ASSEMBLY_MEMBERS
100
AcDbLine
 62
7
  6
CONTINUOUS
 10
4.0626688639
 20
5.4685217184
 11
4.0626688639
 21
5.4631054381
  0
LINE
  5
2D6
100
AcDbEntity
  8
ALL_ASSEMBLY_MEMBERS
100
AcDbLine
 62
7
  6
CONTINUOUS
 10
4.0721535027
 20
5.4134417115
 11
4.0721535027
 21
5.4099823283
  0
LINE
  5
2D7
100
AcDbEntity
  8
ALL_ASSEMBLY_MEMBERS
100
AcDbLine
 62
7
  6
CONTINUOUS
 10
4.1107564956
 20
5.4688554347
 11
4.1107564956
 21
5.4653960534
  0
LINE
  5
2D8
100
AcDbEntity
  8
ALL_ASSEMBLY_MEMBERS
100
AcDbLine
 62
7
  6
CONTINUOUS
 10
4.125714117
 20
5.3598810966
 11
4.125714117
 21
5.3564217141
  0
LINE
  5
2D9
100
AcDbEntity
  8
ALL_ASSEMBLY_MEMBERS
100
AcDbLine
 62
7
  6
CONTINUOUS
 10
4.1387253241
 20
5.3924652582
 11
4.1387253241
 21
5.3870489781
  0
LINE
  5
2DA
100
AcDbEntity
  8
ALL_ASSEMBLY_MEMBERS
100
AcDbLine
 62
7
  6
CONTINUOUS
 10
4.1420594439
 20
5.4551793278
 11
4.1420594439
 21
5.4517200946
  0
LINE
  5
2DB
100
AcDbEntity
  8
ALL_ASSEMBLY_MEMBERS
100
AcDbLine
 62
7
  6
CONTINUOUS
 10
4.1846047051
 20
5.3465858772
 11
4.1846047051
 21
5.3411695969
  0
LINE
  5
2DC
100
AcDbEntity
  8
ALL_ASSEMBLY_MEMBERS
100
AcDbLine
 62
7
  6
CONTINUOUS
 10
4.185622316
 20
5.3939896143
 11
4.185622316
 21
5.390530233
  0
LINE
  5
2DD
100
AcDbEntity
  8
ALL_ASSEMBLY_MEMBERS
100
AcDbLine
 62
7
  6
CONTINUOUS
 10
4.201460264
 20
5.2841349502
 11
4.201460264
 21
5.280675567
  0
LINE
  5
2DE
100
AcDbEntity
  8
ALL_ASSEMBLY_MEMBERS
100
AcDbLine
 62
7
  6
CONTINUOUS
 10
4.2306837051
 20
5.3665550667
 11
4.2306837051
 21
5.3630958335
  0
LINE
  5
2DF
100
AcDbEntity
  8
ALL_ASSEMBLY_MEMBERS
100
AcDbLine
 62
7
  6
CONTINUOUS
 10
4.2313794357
 20
5.2998111467
 11
4.2313794357
 21
5.2943948664
  0
LWPOLYLINE
  5
2E0
100
AcDbEntity
  8
ALL_ASSEMBLY_MEMBERS
100
AcDbPolyline
 62
7
  6
CONTINUOUS
 90
3
 70
0
 10
4.3575612933
 20
5.1825921179
 10
4.3573319325
 20
5.182037533
 10
4.3569992975
 20
5.1815198191
  0
LINE
  5
2E1
100
AcDbEntity
  8
ALL_ASSEMBLY_MEMBERS
100
AcDbLine
 62
7
  6
CONTINUOUS
 10
4.4461068771
 20
5.1718528833
 11
4.4386992654
 21
5.1644452716
  0
LINE
  5
2E2
100
AcDbEntity
  8
ALL_ASSEMBLY_MEMBERS
100
AcDbLine
 62
7
  6
CONTINUOUS
 10
4.413675804
 20
5.1319181949
 11
4.4082457585
 21
5.1264881494
  0
LINE
  5
2E3
100
AcDbEntity
  8
ALL_ASSEMBLY_MEMBERS
100
AcDbLine
 62
7
  6
CONTINUOUS
 10
4.4458589738
 20
5.1575496659
 11
4.4369134371
 21
5.1486041292
  0
LINE
  5
2E4
100
AcDbEntity
  8
ALL_ASSEMBLY_MEMBERS
100
AcDbLine
 62
7
  6
CONTINUOUS
 10
4.4263254926
 20
5.1195440603
 11
4.4207576701
 21
5.1139762378
  0
LINE
  5
2E5
100
AcDbEntity
  8
ALL_ASSEMBLY_MEMBERS
100
AcDbLine
 62
7
  6
CONTINUOUS
 10
4.4664024748
 20
5.1286139136
 11
4.4616530637
 21
5.1238645026
  0
LINE
  5
2E6
100
AcDbEntity
  8
ALL_ASSEMBLY_MEMBERS
100
AcDbLine
 62
7
  6
CONTINUOUS
 10
4.4798839221
 20
5.1339497116
 11
4.4745393737
 21
5.1286051632
  0
LINE
  5
2E7
100
AcDbEntity
  8
ALL_ASSEMBLY_MEMBERS
100
AcDbLine
 62
7
  6
CONTINUOUS
 10
4.4772776636
 20
5.0877708322
 11
4.4758412711
 21
5.0863344397
  0
LINE
  5
2E8
100
AcDbEntity
  8
ALL_ASSEMBLY_MEMBERS
100
AcDbLine
 62
7
  6
CONTINUOUS
 10
4.4946269949
 20
5.0967065185
 11
4.4917190214
 21
5.0937985449
  0
LINE
  5
2E9
100
AcDbEntity
  8
ALL_ASSEMBLY_MEMBERS
100
AcDbLine
 62
7
  6
CONTINUOUS
 10
4.5047776693
 20
5.0894823076
 11
4.500406464
 21
5.0851111023
  0
LINE
  5
2EA
100
AcDbEntity
  8
ALL_ASSEMBLY_MEMBERS
100
AcDbLine
 62
7
  6
CONTINUOUS
 10
4.517023936
 20
5.1009358244
 11
4.5096163243
 21
5.0935282127
  0
LINE
  5
2EB
100
AcDbEntity
  8
ALL_ASSEMBLY_MEMBERS
100
AcDbLine
 62
7
  6
CONTINUOUS
 10
4.5336527331
 20
5.0788853763
 11
4.5289559469
 21
5.07418859
  0
LINE
  5
2EC
100
AcDbEntity
  8
ALL_ASSEMBLY_MEMBERS
100
AcDbLine
 62
7
  6
CONTINUOUS
 10
4.5333803951
 20
5.0579531182
 11
4.5304724216
 21
5.0550451447
  0
LINE
  5
2ED
100
AcDbEntity
  8
ALL_ASSEMBLY_MEMBERS
100
AcDbLine
 62
7
  6
CONTINUOUS
 10
4.5536297575
 20
5.0380820083
 11
4.5505326577
 21
5.0349849086
  0
LINE
  5
2EE
100
AcDbEntity
  8
ALL_ASSEMBLY_MEMBERS
100
AcDbLine
 62
7
  6
CONTINUOUS
 10
4.5714405092
 20
5.0465192512
 11
4.5640328975
 21
5.0391116395
  0
LWPOLYLINE
  5
2EF
100
AcDbEntity
  8
ALL_ASSEMBLY_MEMBERS
100
AcDbPolyline
 62
7
  6
CONTINUOUS
 90
5
 70
0
 10
4.4263516456
 20
5.1195704652
 10
4.426717459
 20
5.1198893448
 10
4.4271082358
 20
5.1201462426
 10
4.42751643
 20
5.1203443109
 10
4.4279286619
 20
5.1204833429
  0
LWPOLYLINE
  5
2F0
100
AcDbEntity
  8
ALL_ASSEMBLY_MEMBERS
100
AcDbPolyline
 62
7
  6
CONTINUOUS
 90
3
 70
0
 10
4.4136946177
 20
5.1319368033
 10
4.4141031963
 20
5.132286739
 10
4.4145974975
 20
5.1325880322
  0
LINE
  5
2F1
100
AcDbEntity
  8
ALL_ASSEMBLY_MEMBERS
100
AcDbLine
 62
7
  6
CONTINUOUS
 10
4.3567747336
 20
5.1678479436
 11
4.3355746382
 21
5.1579621768
  0
LWPOLYLINE
  5
2F2
100
AcDbEntity
  8
ALL_ASSEMBLY_MEMBERS
100
AcDbPolyline
 62
7
  6
CONTINUOUS
 90
9
 70
0
 10
4.4145974975
 20
5.1325880322
 10
4.4151279497
 20
5.1328007471
 10
4.4156525151
 20
5.1329179056
 10
4.4160942669
 20
5.1329512539
 10
4.4164443798
 20
5.1329356064
 10
4.4167385206
 20
5.1328920468
 10
4.4169664957
 20
5.1328368839
 10
4.4171004848
 20
5.1327936921
 10
4.4171536642
 20
5.1327733605
  0
LINE
  5
2F3
100
AcDbEntity
  8
ALL_ASSEMBLY_MEMBERS
100
AcDbLine
 62
7
  6
CONTINUOUS
 10
4.2550208783
 20
5.2289549244
 11
4.2550208783
 21
5.2271149527
  0
LINE
  5
2F4
100
AcDbEntity
  8
ALL_ASSEMBLY_MEMBERS
100
AcDbLine
 62
7
  6
CONTINUOUS
 10
4.2631291165
 20
5.3164828138
 11
4.2631291165
 21
5.3130234324
  0
LINE
  5
2F5
100
AcDbEntity
  8
ALL_ASSEMBLY_MEMBERS
100
AcDbLine
 62
7
  6
CONTINUOUS
 10
4.3193079663
 20
5.2779308055
 11
4.3193079663
 21
5.2744715723
  0
LINE
  5
2F6
100
AcDbEntity
  8
ALL_ASSEMBLY_MEMBERS
100
AcDbLine
 62
7
  6
CONTINUOUS
 10
4.3379949369
 20
5.2416169934
 11
4.3379949369
 21
5.2381576121
  0
LINE
  5
2F7
100
AcDbEntity
  8
ALL_ASSEMBLY_MEMBERS
100
AcDbLine
 62
7
  6
CONTINUOUS
 10
4.3540870678
 20
5.1771035145
 11
4.3540870678
 21
5.1716872342
  0
LINE
  5
2F8
100
AcDbEntity
  8
ALL_ASSEMBLY_MEMBERS
100
AcDbLine
 62
7
  6
CONTINUOUS
 10
4.4018926305
 20
5.1953461412
 11
4.4018926305
 21
5.1918869081
  0
LINE
  5
2F9
100
AcDbEntity
  8
ALL_ASSEMBLY_MEMBERS
100
AcDbLine
 62
7
  6
CONTINUOUS
 10
4.4051177951
 20
5.1744941352
 11
4.4051177951
 21
5.1710347539
  0
LINE
  5
2FA
100
AcDbEntity
  8
ALL_ASSEMBLY_MEMBERS
100
AcDbLine
 62
7
  6
CONTINUOUS
 10
4.6530758149
 20
4.9669507415
 11
4.6341872834
 21
4.9480553496
  0
LINE
  5
2FB
100
AcDbEntity
  8
ALL_ASSEMBLY_MEMBERS
100
AcDbLine
 62
7
  6
CONTINUOUS
 10
4.806523109
 20
5.2224561251
 11
4.7993130736
 21
5.2152460898
  0
LINE
  5
2FC
100
AcDbEntity
  8
ALL_ASSEMBLY_MEMBERS
100
AcDbLine
 62
7
  6
CONTINUOUS
 10
4.6056481972
 20
5.0123115632
 11
4.5982405854
 21
5.0049039515
  0
LINE
  5
2FD
100
AcDbEntity
  8
ALL_ASSEMBLY_MEMBERS
100
AcDbLine
 62
7
  6
CONTINUOUS
 10
4.6567643926
 20
4.9699386469
 11
4.6493066852
 21
4.9624809395
  0
LINE
  5
2FE
100
AcDbEntity
  8
ALL_ASSEMBLY_MEMBERS
100
AcDbLine
 62
7
  6
CONTINUOUS
 10
4.8197660178
 20
5.1147837743
 11
4.7809354976
 21
5.0759532542
  0
LINE
  5
2FF
100
AcDbEntity
  8
ALL_ASSEMBLY_MEMBERS
100
AcDbLine
 62
7
  6
CONTINUOUS
 10
4.4599233794
 20
5.1196885509
 11
4.4599233794
 21
5.1162291696
  0
LINE
  5
300
100
AcDbEntity
  8
ALL_ASSEMBLY_MEMBERS
100
AcDbLine
 62
7
  6
CONTINUOUS
 10
4.4728096894
 20
5.1244290824
 11
4.4728096894
 21
5.1209698492
  0
LINE
  5
301
100
AcDbEntity
  8
ALL_ASSEMBLY_MEMBERS
100
AcDbLine
 62
7
  6
CONTINUOUS
 10
4.4986767796
 20
5.0809351507
 11
4.4986767796
 21
5.0774757693
  0
LINE
  5
302
100
AcDbEntity
  8
ALL_ASSEMBLY_MEMBERS
100
AcDbLine
 62
7
  6
CONTINUOUS
 10
4.5272262625
 20
5.0700125092
 11
4.5272262625
 21
5.066553276
  0
LINE
  5
303
100
AcDbEntity
  8
ALL_ASSEMBLY_MEMBERS
100
AcDbLine
 62
7
  6
CONTINUOUS
 10
4.5614339505
 20
5.0358048212
 11
4.5614339505
 21
5.0323455881
  0
LINE
  5
304
100
AcDbEntity
  8
ALL_ASSEMBLY_MEMBERS
100
AcDbLine
 62
7
  6
CONTINUOUS
 10
5.6960982998
 20
2.798726987
 11
5.7020982998
 21
2.792726987
  0
LINE
  5
305
100
AcDbEntity
  8
ALL_ASSEMBLY_MEMBERS
100
AcDbLine
 62
7
  6
CONTINUOUS
 10
5.4761232998
 20
3.181376987
 11
5.4821232998
 21
3.175376987
  0
LINE
  5
306
100
AcDbEntity
  8
ALL_ASSEMBLY_MEMBERS
100
AcDbLine
 62
7
  6
CONTINUOUS
 10
4.7775953508
 20
6.0494540039
 11
4.7775953508
 21
6.027459155
  0
LINE
  5
307
100
AcDbEntity
  8
ALL_ASSEMBLY_MEMBERS
100
AcDbLine
 62
7
  6
CONTINUOUS
 10
6.5297982998
 20
6.405701987
 11
6.5291492267
 21
6.4050529139
  0
LINE
  5
308
100
AcDbEntity
  8
ALL_ASSEMBLY_MEMBERS
100
AcDbLine
 62
7
  6
CONTINUOUS
 10
6.5211773502
 20
6.3970810374
 11
6.5177982998
 21
6.393701987
  0
LWPOLYLINE
  5
309
100
AcDbEntity
  8
ALL_ASSEMBLY_MEMBERS
100
AcDbPolyline
 62
7
  6
CONTINUOUS
 90
17
 70
0
 10
4.0202911916
 20
5.5300777635
 10
4.0202740181
 20
5.530107025
 10
4.0202456747
 20
5.5301565186
 10
4.0202325965
 20
5.5301802584
 10
4.0202308223
 20
5.5301835649
 10
4.0202413371
 20
5.5301622871
 10
4.0202722373
 20
5.5300941499
 10
4.0203172741
 20
5.5299821802
 10
4.0203709881
 20
5.5298255187
 10
4.0204325967
 20
5.5295981248
 10
4.0204895437
 20
5.5292854259
 10
4.0205183315
 20
5.528915862
 10
4.020504048
 20
5.5285108561
 10
4.0204327796
 20
5.5280645125
 10
4.0202864287
 20
5.5275830279
 10
4.02006005
 20
5.5271054872
 10
4.0197599579
 20
5.5266607419
  0
LWPOLYLINE
  5
30A
100
AcDbEntity
  8
ALL_ASSEMBLY_MEMBERS
100
AcDbPolyline
 62
7
  6
CONTINUOUS
 90
13
 70
0
 10
4.0366898441
 20
5.5127997783
 10
4.0366654669
 20
5.5128461691
 10
4.0366060236
 20
5.5129633587
 10
4.0365714168
 20
5.5130359983
 10
4.0365544833
 20
5.5130743677
 10
4.0365568514
 20
5.5130687056
 10
4.0365882962
 20
5.5129752737
 10
4.0366377076
 20
5.5127811228
 10
4.0366806764
 20
5.5125139
 10
4.0366999141
 20
5.5121847444
 10
4.0366741293
 20
5.511757972
 10
4.0365669498
 20
5.511240705
 10
4.0363650191
 20
5.5107137367
  0
LWPOLYLINE
  5
30B
100
AcDbEntity
  8
ALL_ASSEMBLY_MEMBERS
100
AcDbPolyline
 62
7
  6
CONTINUOUS
 90
11
 70
0
 10
4.190165074
 20
5.3548986714
 10
4.1900889511
 20
5.3550750082
 10
4.1900586956
 20
5.3551564991
 10
4.1900618806
 20
5.3551405407
 10
4.1900802201
 20
5.3550398042
 10
4.1900985064
 20
5.3548474459
 10
4.1900924442
 20
5.3545262071
 10
4.1900178717
 20
5.354078427
 10
4.1898489499
 20
5.3535893336
 10
4.189576156
 20
5.3531011976
 10
4.1892035985
 20
5.3526523109
  0
LWPOLYLINE
  5
30C
100
AcDbEntity
  8
ALL_ASSEMBLY_MEMBERS
100
AcDbPolyline
 62
7
  6
CONTINUOUS
 90
11
 70
0
 10
4.1448331241
 20
5.4012958444
 10
4.1447534506
 20
5.401487963
 10
4.1447252176
 20
5.4015678692
 10
4.144729912
 20
5.4015450072
 10
4.1447479118
 20
5.4014356238
 10
4.1447632227
 20
5.4012359937
 10
4.1447511954
 20
5.4009085757
 10
4.1446686873
 20
5.4004595281
 10
4.1444928251
 20
5.3999737704
 10
4.1442168597
 20
5.3994933338
 10
4.1438586015
 20
5.3990660283
  0
LWPOLYLINE
  5
30D
100
AcDbEntity
  8
ALL_ASSEMBLY_MEMBERS
100
AcDbPolyline
 62
7
  6
CONTINUOUS
 90
11
 70
0
 10
4.2362866231
 20
5.3079414656
 10
4.2362728019
 20
5.307979322
 10
4.2362871432
 20
5.3079294953
 10
4.2363154878
 20
5.3077870135
 10
4.2363367757
 20
5.3075765417
 10
4.2363361491
 20
5.3073019962
 10
4.2362908966
 20
5.3069348645
 10
4.2361700475
 20
5.3064914973
 10
4.2359630267
 20
5.3060343865
 10
4.2356672683
 20
5.3055934071
 10
4.2354365002
 20
5.3053360394
  0
LINE
  5
30E
100
AcDbEntity
  8
ALL_ASSEMBLY_MEMBERS
100
AcDbLine
 62
7
  6
CONTINUOUS
 10
4.0146473175
 20
5.5362587122
 11
4.0145721542
 21
5.5363602878
  0
LWPOLYLINE
  5
30F
100
AcDbEntity
  8
ALL_ASSEMBLY_MEMBERS
100
AcDbPolyline
 62
7
  6
CONTINUOUS
 90
6
 70
0
 10
4.0145721161
 20
5.5363620814
 10
4.0148211706
 20
5.5359852107
 10
4.0150351592
 20
5.5355425467
 10
4.0151855308
 20
5.5350756137
 10
4.0152702896
 20
5.5345905738
 10
4.0152867144
 20
5.5340939703
  0
LWPOLYLINE
  5
310
100
AcDbEntity
  8
ALL_ASSEMBLY_MEMBERS
100
AcDbPolyline
 62
7
  6
CONTINUOUS
 90
11
 70
0
 10
4.3574200858
 20
5.1848843595
 10
4.3574078953
 20
5.1849030972
 10
4.3574091772
 20
5.184900913
 10
4.3574346057
 20
5.1848540772
 10
4.3574799813
 20
5.1847587346
 10
4.3575490889
 20
5.1845834997
 10
4.3576275004
 20
5.1843171176
 10
4.3576882227
 20
5.1839865157
 10
4.357713488
 20
5.1836093442
 10
4.3576838836
 20
5.1831436759
 10
4.3575612933
 20
5.1825921179
  0
LINE
  5
311
100
AcDbEntity
  8
ALL_ASSEMBLY_MEMBERS
100
AcDbLine
 62
7
  6
CONTINUOUS
 10
6.4612240954
 20
6.6370759653
 11
6.4560668877
 21
6.6281550834
  0
LINE
  5
312
100
AcDbEntity
  8
ALL_ASSEMBLY_MEMBERS
100
AcDbLine
 62
7
  6
CONTINUOUS
 10
6.4613565174
 20
6.6373050499
 11
6.4612240954
 21
6.6370759653
  0
LINE
  5
313
100
AcDbEntity
  8
ALL_ASSEMBLY_MEMBERS
100
AcDbLine
 62
7
  6
CONTINUOUS
 10
6.4826529066
 20
6.6364578485
 11
6.4774969278
 21
6.6275390416
  0
LINE
  5
314
100
AcDbEntity
  8
ALL_ASSEMBLY_MEMBERS
100
AcDbLine
 62
7
  6
CONTINUOUS
 10
6.4831438875
 20
6.6373072351
 11
6.4826529066
 21
6.6364578485
  0
LINE
  5
315
100
AcDbEntity
  8
ALL_ASSEMBLY_MEMBERS
100
AcDbLine
 62
7
  6
CONTINUOUS
 10
6.5048790907
 20
6.6373046827
 11
6.4989239451
 21
6.6270036836
  0
LINE
  5
316
100
AcDbEntity
  8
ALL_ASSEMBLY_MEMBERS
100
AcDbLine
 62
7
  6
CONTINUOUS
 10
6.5233819991
 20
6.6317141357
 11
6.5203527226
 21
6.6264745588
  0
LINE
  5
317
100
AcDbEntity
  8
ALL_ASSEMBLY_MEMBERS
100
AcDbLine
 62
7
  6
CONTINUOUS
 10
6.5211771296
 20
6.3970808168
 11
6.5215641714
 21
6.3976093107
  0
LINE
  5
318
100
AcDbEntity
  8
ALL_ASSEMBLY_MEMBERS
100
AcDbLine
 62
7
  6
CONTINUOUS
 10
4.0738877557
 20
5.4058021967
 11
4.1196940136
 21
5.3599959388
  0
LINE
  5
319
100
AcDbEntity
  8
ALL_ASSEMBLY_MEMBERS
100
AcDbLine
 62
7
  6
CONTINUOUS
 10
4.1274447906
 20
5.3522451618
 11
4.1732582072
 21
5.3064317451
  0
LINE
  5
31A
100
AcDbEntity
  8
ALL_ASSEMBLY_MEMBERS
100
AcDbLine
 62
7
  6
CONTINUOUS
 10
4.2031918268
 20
5.2764981256
 11
4.2490034652
 21
5.2306864871
  0
LINE
  5
31B
100
AcDbEntity
  8
ALL_ASSEMBLY_MEMBERS
100
AcDbLine
 62
7
  6
CONTINUOUS
 10
4.2567539889
 20
5.2229359634
 11
4.302561516
 21
5.1771284364
  0
LINE
  5
31C
100
AcDbEntity
  8
ALL_ASSEMBLY_MEMBERS
100
AcDbLine
 62
9
  6
CONTINUOUS
 10
4.1416782032
 20
5.3404578919
 11
4.1439940469
 21
5.3381419309
  0
LINE
  5
31D
100
AcDbEntity
  8
ALL_ASSEMBLY_MEMBERS
100
AcDbLine
 62
9
  6
CONTINUOUS
 10
4.2372170844
 20
5.2449190107
 11
4.2435471355
 21
5.2385886956
  0
LINE
  5
31E
100
AcDbEntity
  8
ALL_ASSEMBLY_MEMBERS
100
AcDbLine
 62
9
  6
CONTINUOUS
 10
4.1439940469
 20
5.3381419309
 11
4.156166021
 21
5.3259698101
  0
LINE
  5
31F
100
AcDbEntity
  8
ALL_ASSEMBLY_MEMBERS
100
AcDbLine
 62
9
  6
CONTINUOUS
 10
4.156166021
 20
5.3259698101
 11
4.1774347595
 21
5.3047010715
  0
LINE
  5
320
100
AcDbEntity
  8
ALL_ASSEMBLY_MEMBERS
100
AcDbLine
 62
9
  6
CONTINUOUS
 10
4.2372169019
 20
5.2449189292
 11
4.201460264
 21
5.280675567
  0
LINE
  5
321
100
AcDbEntity
  8
ALL_ASSEMBLY_MEMBERS
100
AcDbLine
 62
9
  6
CONTINUOUS
 10
4.1416781217
 20
5.3404577093
 11
4.125714117
 21
5.3564217141
  0
LINE
  5
322
100
AcDbEntity
  8
ALL_ASSEMBLY_MEMBERS
100
AcDbLine
 62
9
  6
CONTINUOUS
 10
4.2435471355
 20
5.2385886956
 11
4.2531809066
 21
5.2289549244
  0
LINE
  5
323
100
AcDbEntity
  8
ALL_ASSEMBLY_MEMBERS
100
AcDbLine
 62
9
  6
CONTINUOUS
 10
4.1795227341
 20
5.3047010715
 11
4.201460264
 21
5.2827635415
  0
LINE
  5
324
100
AcDbEntity
  8
ALL_ASSEMBLY_MEMBERS
100
AcDbLine
 62
9
  6
CONTINUOUS
 10
4.3102009034
 20
5.1753943102
 11
4.201460264
 21
5.2841349502
  0
LINE
  5
325
100
AcDbEntity
  8
ALL_ASSEMBLY_MEMBERS
100
AcDbLine
 62
9
  6
CONTINUOUS
 10
4.180894142
 20
5.3047010715
 11
4.0721535027
 21
5.4134417115
  0
LINE
  5
326
100
AcDbEntity
  8
ALL_ASSEMBLY_MEMBERS
100
AcDbLine
 62
7
  6
CONTINUOUS
 10
4.0558986872
 20
5.4321429201
 11
4.3289021126
 21
5.1591394946
  0
LINE
  5
327
100
AcDbEntity
  8
ALL_ASSEMBLY_MEMBERS
100
AcDbLine
 62
9
  6
CONTINUOUS
 10
4.3355746382
 20
5.1579621768
 11
4.0547213693
 21
5.4388154456
  0
LINE
  5
328
100
AcDbEntity
  8
ALL_ASSEMBLY_MEMBERS
100
AcDbLine
 62
7
  6
CONTINUOUS
 10
4.0086338441
 20
5.5156727878
 11
4.0303293903
 21
5.4939772415
  0
LINE
  5
329
100
AcDbEntity
  8
ALL_ASSEMBLY_MEMBERS
100
AcDbLine
 62
7
  6
CONTINUOUS
 10
4.0303334523
 20
5.4939731796
 11
4.0499639872
 21
5.4743426446
  0
LINE
  5
32A
100
AcDbEntity
  8
ALL_ASSEMBLY_MEMBERS
100
AcDbLine
 62
7
  6
CONTINUOUS
 10
4.0637069118
 20
5.4605997201
 11
4.064506629
 21
5.4598000028
  0
LINE
  5
32B
100
AcDbEntity
  8
ALL_ASSEMBLY_MEMBERS
100
AcDbLine
 62
7
  6
CONTINUOUS
 10
4.1856448464
 20
5.3386617854
 11
4.2052788666
 21
5.3190277652
  0
LINE
  5
32C
100
AcDbEntity
  8
ALL_ASSEMBLY_MEMBERS
100
AcDbLine
 62
7
  6
CONTINUOUS
 10
4.232417506
 20
5.2918891259
 11
4.2520556681
 21
5.2722509637
  0
LINE
  5
32D
100
AcDbEntity
  8
ALL_ASSEMBLY_MEMBERS
100
AcDbLine
 62
7
  6
CONTINUOUS
 10
4.355126859
 20
5.1691797729
 11
4.3767337517
 21
5.1475728801
  0
LINE
  5
32E
100
AcDbEntity
  8
ALL_ASSEMBLY_MEMBERS
100
AcDbLine
 62
7
  6
CONTINUOUS
 10
4.3781802322
 20
5.1461263997
 11
4.4103249838
 21
5.1139816481
  0
LINE
  5
32F
100
AcDbEntity
  8
ALL_ASSEMBLY_MEMBERS
100
AcDbLine
 62
7
  6
CONTINUOUS
 10
4.1594014423
 20
5.3649051895
 11
4.1397635086
 21
5.3845431232
  0
LINE
  5
330
100
AcDbEntity
  8
ALL_ASSEMBLY_MEMBERS
100
AcDbLine
 62
9
  6
CONTINUOUS
 10
4.4127085734
 20
5.1130657443
 11
4.4128358819
 21
5.1129384272
  0
LINE
  5
331
100
AcDbEntity
  8
ALL_ASSEMBLY_MEMBERS
100
AcDbLine
 62
9
  6
CONTINUOUS
 10
4.399441667
 20
5.1263326507
 11
4.4003239625
 21
5.1254503388
  0
LINE
  5
332
100
AcDbEntity
  8
ALL_ASSEMBLY_MEMBERS
100
AcDbLine
 62
9
  6
CONTINUOUS
 10
4.0626688639
 20
5.4631054381
 11
4.06497337
 21
5.460800932
  0
LINE
  5
333
100
AcDbEntity
  8
ALL_ASSEMBLY_MEMBERS
100
AcDbLine
 62
9
  6
CONTINUOUS
 10
4.4127085578
 20
5.1130657442
 11
4.4003239632
 21
5.1254503388
  0
LINE
  5
334
100
AcDbEntity
  8
ALL_ASSEMBLY_MEMBERS
100
AcDbLine
 62
9
  6
CONTINUOUS
 10
4.2313794357
 20
5.2943948664
 11
4.2545614086
 21
5.2712128934
  0
LINE
  5
335
100
AcDbEntity
  8
ALL_ASSEMBLY_MEMBERS
100
AcDbLine
 62
9
  6
CONTINUOUS
 10
4.1387253241
 20
5.3870489781
 11
4.1619072972
 21
5.363867005
  0
LINE
  5
336
100
AcDbEntity
  8
ALL_ASSEMBLY_MEMBERS
100
AcDbLine
 62
9
  6
CONTINUOUS
 10
4.0075950123
 20
5.5181793048
 11
4.0524735413
 21
5.4733007607
  0
LINE
  5
337
100
AcDbEntity
  8
ALL_ASSEMBLY_MEMBERS
100
AcDbLine
 62
9
  6
CONTINUOUS
 10
4.1846047051
 20
5.3411695969
 11
4.2077866781
 21
5.317987624
  0
LINE
  5
338
100
AcDbEntity
  8
ALL_ASSEMBLY_MEMBERS
100
AcDbLine
 62
9
  6
CONTINUOUS
 10
4.3994416519
 20
5.1263326501
 11
4.3540870678
 21
5.171687234
  0
LINE
  5
339
100
AcDbEntity
  8
ALL_ASSEMBLY_MEMBERS
100
AcDbLine
 62
9
  6
CONTINUOUS
 10
4.0652406068
 20
5.4613740233
 11
4.1387253241
 21
5.387889306
  0
LINE
  5
33A
100
AcDbEntity
  8
ALL_ASSEMBLY_MEMBERS
100
AcDbLine
 62
9
  6
CONTINUOUS
 10
4.1627476252
 20
5.363867005
 11
4.1846047051
 21
5.342009925
  0
LINE
  5
33B
100
AcDbEntity
  8
ALL_ASSEMBLY_MEMBERS
100
AcDbLine
 62
9
  6
CONTINUOUS
 10
4.2086270062
 20
5.317987624
 11
4.2313794357
 21
5.2952351945
  0
LINE
  5
33C
100
AcDbEntity
  8
ALL_ASSEMBLY_MEMBERS
100
AcDbLine
 62
9
  6
CONTINUOUS
 10
4.2554017367
 20
5.2712128934
 11
4.3540870678
 21
5.1725275624
  0
LINE
  5
33D
100
AcDbEntity
  8
ALL_ASSEMBLY_MEMBERS
100
AcDbLine
 62
9
  6
CONTINUOUS
 10
4.2550208783
 20
5.2271149334
 11
4.3067415015
 21
5.1753943102
  0
LINE
  5
33E
100
AcDbEntity
  8
ALL_ASSEMBLY_MEMBERS
100
AcDbLine
 62
9
  6
CONTINUOUS
 10
4.0721535027
 20
5.4099823283
 11
4.1238741453
 21
5.3582616858
  0
LINE
  5
33F
100
AcDbEntity
  8
ALL_ASSEMBLY_MEMBERS
100
AcDbLine
 62
7
  6
CONTINUOUS
 10
3.8338091171
 20
5.7961846637
 11
3.8635592876
 21
5.763143752
  0
LINE
  5
340
100
AcDbEntity
  8
ALL_ASSEMBLY_MEMBERS
100
AcDbLine
 62
7
  6
CONTINUOUS
 10
4.7979542318
 20
5.2088532414
 11
4.8248616748
 21
5.1387569558
  0
LINE
  5
341
100
AcDbEntity
  8
ALL_ASSEMBLY_MEMBERS
100
AcDbLine
 62
7
  6
CONTINUOUS
 10
5.2853232998
 20
3.175376987
 11
5.2853232998
 21
3.037376987
  0
LINE
  5
342
100
AcDbEntity
  8
ALL_ASSEMBLY_MEMBERS
100
AcDbLine
 62
7
  6
CONTINUOUS
 10
5.2853232998
 20
2.793776987
 11
5.2853232998
 21
2.017376987
  0
LINE
  5
343
100
AcDbEntity
  8
ALL_ASSEMBLY_MEMBERS
100
AcDbLine
 62
7
  6
CONTINUOUS
 10
6.4565272134
 20
6.3946132293
 11
6.4615564194
 21
6.4033133797
  0
LINE
  5
344
100
AcDbEntity
  8
ALL_ASSEMBLY_MEMBERS
100
AcDbLine
 62
7
  6
CONTINUOUS
 10
6.4560797487
 20
6.3938390751
 11
6.4565272134
 21
6.3946132293
  0
LINE
  5
345
100
AcDbEntity
  8
ALL_ASSEMBLY_MEMBERS
100
AcDbLine
 62
7
  6
CONTINUOUS
 10
6.4773735593
 20
6.394152468
 11
6.4829866238
 21
6.403862514
  0
LINE
  5
346
100
AcDbEntity
  8
ALL_ASSEMBLY_MEMBERS
100
AcDbLine
 62
7
  6
CONTINUOUS
 10
6.4771932285
 20
6.3938404816
 11
6.4773735593
 21
6.394152468
  0
LINE
  5
347
100
AcDbEntity
  8
ALL_ASSEMBLY_MEMBERS
100
AcDbLine
 62
7
  6
CONTINUOUS
 10
6.498804122
 20
6.3947154413
 11
6.5044162372
 21
6.4044236893
  0
LINE
  5
348
100
AcDbEntity
  8
ALL_ASSEMBLY_MEMBERS
100
AcDbLine
 62
7
  6
CONTINUOUS
 10
6.4982986396
 20
6.3938409254
 11
6.498804122
 21
6.3947154413
  0
LINE
  5
349
100
AcDbEntity
  8
ALL_ASSEMBLY_MEMBERS
100
AcDbLine
 62
7
  6
CONTINUOUS
 10
6.521564168
 20
6.3976093074
 11
6.5258443889
 21
6.4050133953
  0
LINE
  5
34A
100
AcDbEntity
  8
ALL_ASSEMBLY_MEMBERS
100
AcDbLine
 62
7
  6
CONTINUOUS
 10
4.6929438562
 20
4.9370499245
 11
4.6599029446
 21
4.966800095
  0
LINE
  5
34B
100
AcDbEntity
  8
ALL_ASSEMBLY_MEMBERS
100
AcDbLine
 62
9
  6
CONTINUOUS
 10
4.0626688639
 20
5.4685217184
 11
4.0662393153
 21
5.464951267
  0
LINE
  5
34C
100
AcDbEntity
  8
ALL_ASSEMBLY_MEMBERS
100
AcDbLine
 62
9
  6
CONTINUOUS
 10
4.4182521551
 20
5.1129384272
 11
4.3540870678
 21
5.1771035145
  0
LINE
  5
34D
100
AcDbEntity
  8
ALL_ASSEMBLY_MEMBERS
100
AcDbLine
 62
9
  6
CONTINUOUS
 10
4.2599776889
 20
5.2712128934
 11
4.2313794357
 21
5.2998111467
  0
LINE
  5
34E
100
AcDbEntity
  8
ALL_ASSEMBLY_MEMBERS
100
AcDbLine
 62
9
  6
CONTINUOUS
 10
4.2132029584
 20
5.317987624
 11
4.1846047051
 21
5.3465858772
  0
LINE
  5
34F
100
AcDbEntity
  8
ALL_ASSEMBLY_MEMBERS
100
AcDbLine
 62
9
  6
CONTINUOUS
 10
4.1673235773
 20
5.363867005
 11
4.1387253241
 21
5.3924652582
  0
LINE
  5
350
100
AcDbEntity
  8
ALL_ASSEMBLY_MEMBERS
100
AcDbLine
 62
9
  6
CONTINUOUS
 10
4.0578898216
 20
5.4733007607
 11
4.0075950123
 21
5.52359557
  0
LINE
  5
351
100
AcDbEntity
  8
ALL_ASSEMBLY_MEMBERS
100
AcDbLine
 62
9
  6
CONTINUOUS
 10
4.4207576701
 20
5.1139762378
 11
4.3551248784
 21
5.1796090296
  0
LINE
  5
352
100
AcDbEntity
  8
ALL_ASSEMBLY_MEMBERS
100
AcDbLine
 62
9
  6
CONTINUOUS
 10
4.2624832039
 20
5.2722507041
 11
4.2324172463
 21
5.3023166617
  0
LINE
  5
353
100
AcDbEntity
  8
ALL_ASSEMBLY_MEMBERS
100
AcDbLine
 62
9
  6
CONTINUOUS
 10
4.2157084734
 20
5.3190254346
 11
4.1856425157
 21
5.3490913922
  0
LINE
  5
354
100
AcDbEntity
  8
ALL_ASSEMBLY_MEMBERS
100
AcDbLine
 62
9
  6
CONTINUOUS
 10
4.1698290924
 20
5.3649048156
 11
4.1397631347
 21
5.3949707732
  0
LINE
  5
355
100
AcDbEntity
  8
ALL_ASSEMBLY_MEMBERS
100
AcDbLine
 62
9
  6
CONTINUOUS
 10
4.066129941
 20
5.468603967
 11
4.0637066745
 21
5.4710272335
  0
LINE
  5
356
100
AcDbEntity
  8
ALL_ASSEMBLY_MEMBERS
100
AcDbLine
 62
9
  6
CONTINUOUS
 10
4.0603953366
 20
5.4743385714
 11
4.008632823
 21
5.526101085
  0
LINE
  5
357
100
AcDbEntity
  8
ALL_ASSEMBLY_MEMBERS
100
AcDbLine
 62
7
  6
CONTINUOUS
 10
4.063687969
 20
5.473831867
 11
4.1411588609
 21
5.3963609751
  0
LINE
  5
358
100
AcDbEntity
  8
ALL_ASSEMBLY_MEMBERS
100
AcDbLine
 62
7
  6
CONTINUOUS
 10
4.1712220564
 20
5.3662977797
 11
4.1868481593
 21
5.3506716768
  0
LINE
  5
359
100
AcDbEntity
  8
ALL_ASSEMBLY_MEMBERS
100
AcDbLine
 62
7
  6
CONTINUOUS
 10
4.2171014192
 20
5.3204184168
 11
4.2338428241
 21
5.303677012
  0
LINE
  5
35A
100
AcDbEntity
  8
ALL_ASSEMBLY_MEMBERS
100
AcDbLine
 62
7
  6
CONTINUOUS
 10
4.2638761679
 20
5.2736436681
 11
4.3565178424
 21
5.1810019936
  0
LINE
  5
35B
100
AcDbEntity
  8
ALL_ASSEMBLY_MEMBERS
100
AcDbLine
 62
7
  6
CONTINUOUS
 10
4.4758412711
 20
5.0863344397
 11
3.9830936322
 21
5.5790820785
  0
LINE
  5
35C
100
AcDbEntity
  8
ALL_ASSEMBLY_MEMBERS
100
AcDbLine
 62
7
  6
CONTINUOUS
 10
3.9820274628
 20
5.5830210331
 11
4.4797802256
 21
5.0852682703
  0
LINE
  5
35D
100
AcDbEntity
  8
ALL_ASSEMBLY_MEMBERS
100
AcDbLine
 62
7
  6
CONTINUOUS
 10
4.5019040865
 20
5.0696535393
 11
3.9664127318
 21
5.605144894
  0
LINE
  5
35E
100
AcDbEntity
  8
ALL_ASSEMBLY_MEMBERS
100
AcDbLine
 62
7
  6
CONTINUOUS
 10
3.9317484246
 20
5.6419581181
 11
3.9499947116
 21
5.623711831
  0
LINE
  5
35F
100
AcDbEntity
  8
ALL_ASSEMBLY_MEMBERS
100
AcDbLine
 62
7
  6
CONTINUOUS
 10
3.9518051208
 20
5.6219014219
 11
3.9700584877
 21
5.603648055
  0
LINE
  5
360
100
AcDbEntity
  8
ALL_ASSEMBLY_MEMBERS
100
AcDbLine
 62
7
  6
CONTINUOUS
 10
3.9905595548
 20
5.5831469879
 11
4.0088108542
 21
5.5648956885
  0
LINE
  5
361
100
AcDbEntity
  8
ALL_ASSEMBLY_MEMBERS
100
AcDbLine
 62
7
  6
CONTINUOUS
 10
4.0453649961
 20
5.5283415465
 11
4.0636147984
 21
5.5100917443
  0
LINE
  5
362
100
AcDbEntity
  8
ALL_ASSEMBLY_MEMBERS
100
AcDbLine
 62
7
  6
CONTINUOUS
 10
4.1124892628
 20
5.4612172798
 11
4.1307380311
 21
5.4429685116
  0
LINE
  5
363
100
AcDbEntity
  8
ALL_ASSEMBLY_MEMBERS
100
AcDbLine
 62
7
  6
CONTINUOUS
 10
4.1873527902
 20
5.3863537524
 11
4.2056061444
 21
5.3681003983
  0
LINE
  5
364
100
AcDbEntity
  8
ALL_ASSEMBLY_MEMBERS
100
AcDbLine
 62
7
  6
CONTINUOUS
 10
4.2648597937
 20
5.308846749
 11
4.2831127421
 21
5.2905938006
  0
LINE
  5
365
100
AcDbEntity
  8
ALL_ASSEMBLY_MEMBERS
100
AcDbLine
 62
7
  6
CONTINUOUS
 10
4.3397286394
 20
5.2339779033
 11
4.3579755371
 21
5.2157310056
  0
LINE
  5
366
100
AcDbEntity
  8
ALL_ASSEMBLY_MEMBERS
100
AcDbLine
 62
7
  6
CONTINUOUS
 10
4.4068483869
 20
5.1668581558
 11
4.4251015061
 21
5.1486050366
  0
LINE
  5
367
100
AcDbEntity
  8
ALL_ASSEMBLY_MEMBERS
100
AcDbLine
 62
7
  6
CONTINUOUS
 10
4.4616544063
 20
5.1120521363
 11
4.4799066551
 21
5.0937998876
  0
LINE
  5
368
100
AcDbEntity
  8
ALL_ASSEMBLY_MEMBERS
100
AcDbLine
 62
7
  6
CONTINUOUS
 10
4.5004069332
 20
5.0732996095
 11
4.5186609288
 21
5.0550456139
  0
LINE
  5
369
100
AcDbEntity
  8
ALL_ASSEMBLY_MEMBERS
100
AcDbLine
 62
7
  6
CONTINUOUS
 10
4.5204720554
 20
5.0532344873
 11
4.5387162788
 21
5.0349902639
  0
LINE
  5
36A
100
AcDbEntity
  8
ALL_ASSEMBLY_MEMBERS
100
AcDbLine
 62
9
  6
CONTINUOUS
 10
4.4990170531
 20
5.0755378277
 11
4.4821457468
 21
5.0924091341
  0
LINE
  5
36B
100
AcDbEntity
  8
ALL_ASSEMBLY_MEMBERS
100
AcDbLine
 62
9
  6
CONTINUOUS
 10
4.4602636529
 20
5.114291228
 11
4.4273401625
 21
5.1472147183
  0
LINE
  5
36C
100
AcDbEntity
  8
ALL_ASSEMBLY_MEMBERS
100
AcDbLine
 62
9
  6
CONTINUOUS
 10
4.4054580686
 20
5.1690968123
 11
4.3602173043
 21
5.2143375766
  0
LINE
  5
36D
100
AcDbEntity
  8
ALL_ASSEMBLY_MEMBERS
100
AcDbLine
 62
9
  6
CONTINUOUS
 10
4.3383352104
 20
5.2362196705
 11
4.2853514839
 21
5.2892033969
  0
LINE
  5
36E
100
AcDbEntity
  8
ALL_ASSEMBLY_MEMBERS
100
AcDbLine
 62
9
  6
CONTINUOUS
 10
4.26346939
 20
5.3110854909
 11
4.2078446834
 21
5.3667101975
  0
LINE
  5
36F
100
AcDbEntity
  8
ALL_ASSEMBLY_MEMBERS
100
AcDbLine
 62
9
  6
CONTINUOUS
 10
4.1859625895
 20
5.3885922914
 11
4.132978863
 21
5.4415760178
  0
LINE
  5
370
100
AcDbEntity
  8
ALL_ASSEMBLY_MEMBERS
100
AcDbLine
 62
9
  6
CONTINUOUS
 10
4.1110967691
 20
5.4634581118
 11
4.0658560048
 21
5.5086988761
  0
LINE
  5
371
100
AcDbEntity
  8
ALL_ASSEMBLY_MEMBERS
100
AcDbLine
 62
9
  6
CONTINUOUS
 10
4.0439739109
 20
5.53058097
 11
4.0110504205
 21
5.5635044603
  0
LINE
  5
372
100
AcDbEntity
  8
ALL_ASSEMBLY_MEMBERS
100
AcDbLine
 62
9
  6
CONTINUOUS
 10
3.9891683266
 20
5.5853865542
 11
3.9722970203
 21
5.6022578606
  0
LINE
  5
373
100
AcDbEntity
  8
ALL_ASSEMBLY_MEMBERS
100
AcDbLine
 62
9
  6
CONTINUOUS
 10
4.0483598865
 20
5.5277927992
 11
4.0507682784
 21
5.5253843009
  0
LINE
  5
374
100
AcDbEntity
  8
ALL_ASSEMBLY_MEMBERS
100
AcDbLine
 62
9
  6
CONTINUOUS
 10
4.3546980609
 20
5.2214546248
 11
4.3559624321
 21
5.2201901928
  0
LINE
  5
375
100
AcDbEntity
  8
ALL_ASSEMBLY_MEMBERS
100
AcDbLine
 62
9
  6
CONTINUOUS
 10
4.4815874874
 20
5.0945651983
 11
4.4840836874
 21
5.0920688606
  0
LINE
  5
376
100
AcDbEntity
  8
ALL_ASSEMBLY_MEMBERS
100
AcDbLine
 62
9
  6
CONTINUOUS
 10
4.1961257534
 20
5.3800269324
 11
4.1989302547
 21
5.3772223247
  0
LINE
  5
377
100
AcDbEntity
  8
ALL_ASSEMBLY_MEMBERS
100
AcDbLine
 62
9
  6
CONTINUOUS
 10
4.0507682784
 20
5.5253843009
 11
4.0534432895
 21
5.5227092494
  0
LINE
  5
378
100
AcDbEntity
  8
ALL_ASSEMBLY_MEMBERS
100
AcDbLine
 62
9
  6
CONTINUOUS
 10
4.1989302547
 20
5.3772223247
 11
4.201668586
 21
5.3744839529
  0
LINE
  5
379
100
AcDbEntity
  8
ALL_ASSEMBLY_MEMBERS
100
AcDbLine
 62
9
  6
CONTINUOUS
 10
4.3559624321
 20
5.2201901928
 11
4.3621552459
 21
5.2139973031
  0
LINE
  5
37A
100
AcDbEntity
  8
ALL_ASSEMBLY_MEMBERS
100
AcDbLine
 62
9
  6
CONTINUOUS
 10
4.4815873648
 20
5.0945651842
 11
4.459934877
 21
5.116217672
  0
LINE
  5
37B
100
AcDbEntity
  8
ALL_ASSEMBLY_MEMBERS
100
AcDbLine
 62
9
  6
CONTINUOUS
 10
4.4292781041
 20
5.1468744448
 11
4.4051190728
 21
5.1710334762
  0
LINE
  5
37C
100
AcDbEntity
  8
ALL_ASSEMBLY_MEMBERS
100
AcDbLine
 62
9
  6
CONTINUOUS
 10
4.3546979664
 20
5.2214545826
 11
4.3379949369
 21
5.2381576121
  0
LINE
  5
37D
100
AcDbEntity
  8
ALL_ASSEMBLY_MEMBERS
100
AcDbLine
 62
9
  6
CONTINUOUS
 10
4.2872894255
 20
5.2888631234
 11
4.2631291165
 21
5.3130234324
  0
LINE
  5
37E
100
AcDbEntity
  8
ALL_ASSEMBLY_MEMBERS
100
AcDbLine
 62
9
  6
CONTINUOUS
 10
4.1961256939
 20
5.3800268551
 11
4.185622316
 21
5.390530233
  0
LINE
  5
37F
100
AcDbEntity
  8
ALL_ASSEMBLY_MEMBERS
100
AcDbLine
 62
9
  6
CONTINUOUS
 10
4.1349168046
 20
5.4412357443
 11
4.1107577733
 21
5.4653947757
  0
LINE
  5
380
100
AcDbEntity
  8
ALL_ASSEMBLY_MEMBERS
100
AcDbLine
 62
9
  6
CONTINUOUS
 10
4.0483598598
 20
5.5277926892
 11
4.0436336374
 21
5.5325189116
  0
LINE
  5
381
100
AcDbEntity
  8
ALL_ASSEMBLY_MEMBERS
100
AcDbLine
 62
9
  6
CONTINUOUS
 10
4.0129883621
 20
5.5631641868
 11
3.9888280531
 21
5.5873244958
  0
LINE
  5
382
100
AcDbEntity
  8
ALL_ASSEMBLY_MEMBERS
100
AcDbLine
 62
9
  6
CONTINUOUS
 10
4.201668586
 20
5.3744839529
 11
4.209782625
 21
5.366369924
  0
LINE
  5
383
100
AcDbEntity
  8
ALL_ASSEMBLY_MEMBERS
100
AcDbLine
 62
9
  6
CONTINUOUS
 10
4.0534432895
 20
5.5227092494
 11
4.0677939464
 21
5.5083586026
  0
LINE
  5
384
100
AcDbEntity
  8
ALL_ASSEMBLY_MEMBERS
100
AcDbLine
 62
9
  6
CONTINUOUS
 10
4.459934877
 20
5.116217672
 11
4.4599233794
 21
5.1162291687
  0
LINE
  5
385
100
AcDbEntity
  8
ALL_ASSEMBLY_MEMBERS
100
AcDbLine
 62
9
  6
CONTINUOUS
 10
4.5463567061
 20
5.0332552242
 11
4.5252452581
 21
5.0543666722
  0
LINE
  5
386
100
AcDbEntity
  8
ALL_ASSEMBLY_MEMBERS
100
AcDbLine
 62
9
  6
CONTINUOUS
 10
4.5229877135
 20
5.0566242168
 11
4.4986767796
 21
5.0809351507
  0
LINE
  5
387
100
AcDbEntity
  8
ALL_ASSEMBLY_MEMBERS
100
AcDbLine
 62
9
  6
CONTINUOUS
 10
4.4875430697
 20
5.0920688606
 11
4.4599233794
 21
5.1196885509
  0
LINE
  5
388
100
AcDbEntity
  8
ALL_ASSEMBLY_MEMBERS
100
AcDbLine
 62
9
  6
CONTINUOUS
 10
4.4327374855
 20
5.1468744448
 11
4.4273345414
 21
5.1522773889
  0
LINE
  5
389
100
AcDbEntity
  8
ALL_ASSEMBLY_MEMBERS
100
AcDbLine
 62
9
  6
CONTINUOUS
 10
4.3656146272
 20
5.2139973031
 11
4.3379949369
 21
5.2416169934
  0
LINE
  5
38A
100
AcDbEntity
  8
ALL_ASSEMBLY_MEMBERS
100
AcDbLine
 62
9
  6
CONTINUOUS
 10
4.2907488069
 20
5.2888631234
 11
4.2787415082
 21
5.3008704221
  0
LINE
  5
38B
100
AcDbEntity
  8
ALL_ASSEMBLY_MEMBERS
100
AcDbLine
 62
9
  6
CONTINUOUS
 10
4.2744223173
 20
5.305189613
 11
4.2631291165
 21
5.3164828138
  0
LINE
  5
38C
100
AcDbEntity
  8
ALL_ASSEMBLY_MEMBERS
100
AcDbLine
 62
9
  6
CONTINUOUS
 10
4.2132420063
 20
5.366369924
 11
4.185622316
 21
5.3939896143
  0
LINE
  5
38D
100
AcDbEntity
  8
ALL_ASSEMBLY_MEMBERS
100
AcDbLine
 62
9
  6
CONTINUOUS
 10
4.138376186
 20
5.4412357443
 11
4.1192815418
 21
5.4603303885
  0
LINE
  5
38E
100
AcDbEntity
  8
ALL_ASSEMBLY_MEMBERS
100
AcDbLine
 62
9
  6
CONTINUOUS
 10
4.0712533277
 20
5.5083586026
 11
4.0436336374
 21
5.5359782929
  0
LINE
  5
38F
100
AcDbEntity
  8
ALL_ASSEMBLY_MEMBERS
100
AcDbLine
 62
9
  6
CONTINUOUS
 10
4.0164477435
 20
5.5631641868
 11
3.9916818115
 21
5.5879301188
  0
LINE
  5
390
100
AcDbEntity
  8
ALL_ASSEMBLY_MEMBERS
100
AcDbLine
 62
9
  6
CONTINUOUS
 10
3.9888327854
 20
5.5907791449
 11
3.9888280531
 21
5.5907838772
  0
LINE
  5
391
100
AcDbEntity
  8
ALL_ASSEMBLY_MEMBERS
100
AcDbLine
 62
9
  6
CONTINUOUS
 10
3.9776943432
 20
5.6019175871
 11
3.9300144167
 21
5.6495975709
  0
LINE
  5
392
100
AcDbEntity
  8
ALL_ASSEMBLY_MEMBERS
100
AcDbLine
 62
9
  6
CONTINUOUS
 10
4.4235374613
 20
5.156074469
 11
4.4051177951
 21
5.1744941352
  0
LINE
  5
393
100
AcDbEntity
  8
ALL_ASSEMBLY_MEMBERS
100
AcDbLine
 62
9
  6
CONTINUOUS
 10
4.1167443643
 20
5.4628675936
 11
4.1107564956
 21
5.4688554347
  0
LINE
  5
394
100
AcDbEntity
  8
ALL_ASSEMBLY_MEMBERS
100
AcDbLine
 62
9
  6
CONTINUOUS
 10
4.4261433171
 20
5.1534686822
 11
4.4235374613
 21
5.156074469
  0
LINE
  5
395
100
AcDbEntity
  8
ALL_ASSEMBLY_MEMBERS
100
AcDbLine
 62
9
  6
CONTINUOUS
 10
4.5246230179
 20
5.0549889814
 11
4.5229877135
 21
5.0566242168
  0
LINE
  5
396
100
AcDbEntity
  8
ALL_ASSEMBLY_MEMBERS
100
AcDbLine
 62
9
  6
CONTINUOUS
 10
3.9905577172
 20
5.5890542637
 11
3.9888327854
 21
5.5907791449
  0
LINE
  5
397
100
AcDbEntity
  8
ALL_ASSEMBLY_MEMBERS
100
AcDbLine
 62
9
  6
CONTINUOUS
 10
4.2787415784
 20
5.3008704761
 11
4.2744223173
 21
5.305189613
  0
LINE
  5
398
100
AcDbEntity
  8
ALL_ASSEMBLY_MEMBERS
100
AcDbLine
 62
9
  6
CONTINUOUS
 10
4.4273346413
 20
5.1522774132
 11
4.4261433171
 21
5.1534686822
  0
LINE
  5
399
100
AcDbEntity
  8
ALL_ASSEMBLY_MEMBERS
100
AcDbLine
 62
9
  6
CONTINUOUS
 10
4.1192815802
 20
5.4603304743
 11
4.1167443643
 21
5.4628675936
  0
LINE
  5
39A
100
AcDbEntity
  8
ALL_ASSEMBLY_MEMBERS
100
AcDbLine
 62
9
  6
CONTINUOUS
 10
4.5252453776
 20
5.0543666769
 11
4.5246230179
 21
5.0549889814
  0
LINE
  5
39B
100
AcDbEntity
  8
ALL_ASSEMBLY_MEMBERS
100
AcDbLine
 62
9
  6
CONTINUOUS
 10
3.9916818243
 20
5.5879302301
 11
3.9905577172
 21
5.5890542637
  0
LINE
  5
39C
100
AcDbEntity
  8
ALL_ASSEMBLY_MEMBERS
100
AcDbLine
 62
9
  6
CONTINUOUS
 10
4.4993208238
 20
5.083589651
 11
4.4901865134
 21
5.0927239614
  0
LINE
  5
39D
100
AcDbEntity
  8
ALL_ASSEMBLY_MEMBERS
100
AcDbLine
 62
9
  6
CONTINUOUS
 10
4.4605674235
 20
5.1223430513
 11
4.4353919858
 21
5.147518489
  0
LINE
  5
39E
100
AcDbEntity
  8
ALL_ASSEMBLY_MEMBERS
100
AcDbLine
 62
9
  6
CONTINUOUS
 10
4.4057618393
 20
5.1771486355
 11
4.3682691276
 21
5.2146413472
  0
LINE
  5
39F
100
AcDbEntity
  8
ALL_ASSEMBLY_MEMBERS
100
AcDbLine
 62
9
  6
CONTINUOUS
 10
4.338638981
 20
5.2442714938
 11
4.2934033072
 21
5.2895071676
  0
LINE
  5
3A0
100
AcDbEntity
  8
ALL_ASSEMBLY_MEMBERS
100
AcDbLine
 62
9
  6
CONTINUOUS
 10
4.2637731607
 20
5.3191373141
 11
4.2158965067
 21
5.3670139681
  0
LINE
  5
3A1
100
AcDbEntity
  8
ALL_ASSEMBLY_MEMBERS
100
AcDbLine
 62
9
  6
CONTINUOUS
 10
4.1862663601
 20
5.3966441147
 11
4.1410306863
 21
5.4418797885
  0
LINE
  5
3A2
100
AcDbEntity
  8
ALL_ASSEMBLY_MEMBERS
100
AcDbLine
 62
9
  6
CONTINUOUS
 10
4.1114005398
 20
5.471509935
 11
4.0739078281
 21
5.5090026467
  0
LINE
  5
3A3
100
AcDbEntity
  8
ALL_ASSEMBLY_MEMBERS
100
AcDbLine
 62
9
  6
CONTINUOUS
 10
4.0442776815
 20
5.5386327933
 11
4.0191022438
 21
5.563808231
  0
LINE
  5
3A4
100
AcDbEntity
  8
ALL_ASSEMBLY_MEMBERS
100
AcDbLine
 62
9
  6
CONTINUOUS
 10
3.9894831539
 20
5.5934273209
 11
3.9803488435
 21
5.6025616313
  0
LINE
  5
3A5
100
AcDbEntity
  8
ALL_ASSEMBLY_MEMBERS
100
AcDbLine
 62
9
  6
CONTINUOUS
 10
4.5505326577
 20
5.0349849086
 11
4.500406464
 21
5.0851111023
  0
LINE
  5
3A6
100
AcDbEntity
  8
ALL_ASSEMBLY_MEMBERS
100
AcDbLine
 62
9
  6
CONTINUOUS
 10
4.4917190214
 20
5.0937985449
 11
4.4616530637
 21
5.1238645026
  0
LINE
  5
3A7
100
AcDbEntity
  8
ALL_ASSEMBLY_MEMBERS
100
AcDbLine
 62
9
  6
CONTINUOUS
 10
4.4369134371
 20
5.1486041292
 11
4.4068474795
 21
5.1786700868
  0
LINE
  5
3A8
100
AcDbEntity
  8
ALL_ASSEMBLY_MEMBERS
100
AcDbLine
 62
9
  6
CONTINUOUS
 10
4.3697905789
 20
5.2157269874
 11
4.3397246212
 21
5.2457929451
  0
LINE
  5
3A9
100
AcDbEntity
  8
ALL_ASSEMBLY_MEMBERS
100
AcDbLine
 62
9
  6
CONTINUOUS
 10
4.2949247585
 20
5.2905928078
 11
4.2648588009
 21
5.3206587654
  0
LINE
  5
3AA
100
AcDbEntity
  8
ALL_ASSEMBLY_MEMBERS
100
AcDbLine
 62
9
  6
CONTINUOUS
 10
4.217417958
 20
5.3680996083
 11
4.1873520003
 21
5.398165566
  0
LINE
  5
3AB
100
AcDbEntity
  8
ALL_ASSEMBLY_MEMBERS
100
AcDbLine
 62
9
  6
CONTINUOUS
 10
4.1425521376
 20
5.4429654287
 11
4.11248618
 21
5.4730313863
  0
LINE
  5
3AC
100
AcDbEntity
  8
ALL_ASSEMBLY_MEMBERS
100
AcDbLine
 62
9
  6
CONTINUOUS
 10
4.0754292794
 20
5.5100882869
 11
4.0453633217
 21
5.5401542446
  0
LINE
  5
3AD
100
AcDbEntity
  8
ALL_ASSEMBLY_MEMBERS
100
AcDbLine
 62
9
  6
CONTINUOUS
 10
4.0206236951
 20
5.5648938712
 11
3.9905577375
 21
5.5949598288
  0
LINE
  5
3AE
100
AcDbEntity
  8
ALL_ASSEMBLY_MEMBERS
100
AcDbLine
 62
9
  6
CONTINUOUS
 10
3.9818702948
 20
5.6036472715
 11
3.9317441011
 21
5.6537734652
  0
LINE
  5
3AF
100
AcDbEntity
  8
ALL_ASSEMBLY_MEMBERS
100
AcDbLine
 62
7
  6
CONTINUOUS
 10
3.9843100028
 20
5.6060869802
 11
3.9929974458
 21
5.5973995372
  0
LINE
  5
3B0
100
AcDbEntity
  8
ALL_ASSEMBLY_MEMBERS
100
AcDbLine
 62
7
  6
CONTINUOUS
 10
4.0230634035
 20
5.5673335795
 11
4.0478030301
 21
5.5425939529
  0
LINE
  5
3B1
100
AcDbEntity
  8
ALL_ASSEMBLY_MEMBERS
100
AcDbLine
 62
7
  6
CONTINUOUS
 10
4.0781856442
 20
5.5122113388
 11
4.1149258883
 21
5.4754710947
  0
LINE
  5
3B2
100
AcDbEntity
  8
ALL_ASSEMBLY_MEMBERS
100
AcDbLine
 62
7
  6
CONTINUOUS
 10
4.1449846973
 20
5.4454122857
 11
4.1897917087
 21
5.4006052743
  0
LINE
  5
3B3
100
AcDbEntity
  8
ALL_ASSEMBLY_MEMBERS
100
AcDbLine
 62
7
  6
CONTINUOUS
 10
4.2198576602
 20
5.3705393228
 11
4.2672985099
 21
5.3230984731
  0
LINE
  5
3B4
100
AcDbEntity
  8
ALL_ASSEMBLY_MEMBERS
100
AcDbLine
 62
7
  6
CONTINUOUS
 10
4.2973644668
 20
5.2930325161
 11
4.3421643298
 21
5.2482326531
  0
LINE
  5
3B5
100
AcDbEntity
  8
ALL_ASSEMBLY_MEMBERS
100
AcDbLine
 62
7
  6
CONTINUOUS
 10
4.3722302872
 20
5.2181666958
 11
4.4089705315
 21
5.1814264515
  0
LINE
  5
3B6
100
AcDbEntity
  8
ALL_ASSEMBLY_MEMBERS
100
AcDbLine
 62
7
  6
CONTINUOUS
 10
4.4393531454
 20
5.1510438375
 11
4.4640927721
 21
5.1263042109
  0
LINE
  5
3B7
100
AcDbEntity
  8
ALL_ASSEMBLY_MEMBERS
100
AcDbLine
 62
7
  6
CONTINUOUS
 10
4.4941587297
 20
5.0962382533
 11
4.5028461777
 21
5.0875508053
  0
LINE
  5
3B8
100
AcDbEntity
  8
ALL_ASSEMBLY_MEMBERS
100
AcDbLine
 62
7
  6
CONTINUOUS
 10
3.8899956049
 20
5.7013379084
 11
3.9249275286
 21
5.6664059847
  0
LINE
  5
3B9
100
AcDbEntity
  8
ALL_ASSEMBLY_MEMBERS
100
AcDbLine
 62
7
  6
CONTINUOUS
 10
3.9358767754
 20
5.6554567379
 11
3.9591308156
 21
5.6322026978
  0
LINE
  5
3BA
100
AcDbEntity
  8
ALL_ASSEMBLY_MEMBERS
100
AcDbLine
 62
7
  6
CONTINUOUS
 10
3.990287924
 20
5.6010455894
 11
4.0135528134
 21
5.5777806999
  0
LINE
  5
3BB
100
AcDbEntity
  8
ALL_ASSEMBLY_MEMBERS
100
AcDbLine
 62
7
  6
CONTINUOUS
 10
4.0612046967
 20
5.5301288166
 11
4.0844701584
 21
5.5068633549
  0
LINE
  5
3BC
100
AcDbEntity
  8
ALL_ASSEMBLY_MEMBERS
100
AcDbLine
 62
7
  6
CONTINUOUS
 10
4.1437918275
 20
5.4475416859
 11
4.1670523561
 21
5.4242811572
  0
LINE
  5
3BD
100
AcDbEntity
  8
ALL_ASSEMBLY_MEMBERS
100
AcDbLine
 62
7
  6
CONTINUOUS
 10
4.2324178616
 20
5.3589156517
 11
4.2556748443
 21
5.335658669
  0
LINE
  5
3BE
100
AcDbEntity
  8
ALL_ASSEMBLY_MEMBERS
100
AcDbLine
 62
7
  6
CONTINUOUS
 10
4.3210404211
 20
5.2702930922
 11
4.344300807
 21
5.2470327063
  0
LINE
  5
3BF
100
AcDbEntity
  8
ALL_ASSEMBLY_MEMBERS
100
AcDbLine
 62
7
  6
CONTINUOUS
 10
4.4036226064
 20
5.1877109069
 11
4.4268879502
 21
5.1644455632
  0
LINE
  5
3C0
100
AcDbEntity
  8
ALL_ASSEMBLY_MEMBERS
100
AcDbLine
 62
7
  6
CONTINUOUS
 10
4.4745398497
 20
5.1167936636
 11
4.4978048246
 21
5.0935286887
  0
LINE
  5
3C1
100
AcDbEntity
  8
ALL_ASSEMBLY_MEMBERS
100
AcDbLine
 62
7
  6
CONTINUOUS
 10
4.5289606817
 20
5.0623728316
 11
4.5522171391
 21
5.0391163743
  0
LINE
  5
3C2
100
AcDbEntity
  8
ALL_ASSEMBLY_MEMBERS
100
AcDbLine
 62
7
  6
CONTINUOUS
 10
4.5631660213
 20
5.028167492
 11
4.5864271753
 21
5.004906338
  0
LINE
  5
3C3
100
AcDbEntity
  8
ALL_ASSEMBLY_MEMBERS
100
AcDbLine
 62
9
  6
CONTINUOUS
 10
4.5906052714
 20
5.0031742672
 11
4.5614339505
 21
5.0323455881
  0
LINE
  5
3C4
100
AcDbEntity
  8
ALL_ASSEMBLY_MEMBERS
100
AcDbLine
 62
9
  6
CONTINUOUS
 10
4.5563975835
 20
5.0373819551
 11
4.5272262625
 21
5.066553276
  0
LINE
  5
3C5
100
AcDbEntity
  8
ALL_ASSEMBLY_MEMBERS
100
AcDbLine
 62
9
  6
CONTINUOUS
 10
4.5019810103
 20
5.0917985283
 11
4.4728096894
 21
5.1209698492
  0
LINE
  5
3C6
100
AcDbEntity
  8
ALL_ASSEMBLY_MEMBERS
100
AcDbLine
 62
9
  6
CONTINUOUS
 10
4.4310639514
 20
5.1627155872
 11
4.4018926305
 21
5.1918869081
  0
LINE
  5
3C7
100
AcDbEntity
  8
ALL_ASSEMBLY_MEMBERS
100
AcDbLine
 62
9
  6
CONTINUOUS
 10
4.3484792872
 20
5.2453002514
 11
4.3193079663
 21
5.2744715723
  0
LINE
  5
3C8
100
AcDbEntity
  8
ALL_ASSEMBLY_MEMBERS
100
AcDbLine
 62
9
  6
CONTINUOUS
 10
4.259855026
 20
5.3339245126
 11
4.2306837051
 21
5.3630958335
  0
LINE
  5
3C9
100
AcDbEntity
  8
ALL_ASSEMBLY_MEMBERS
100
AcDbLine
 62
9
  6
CONTINUOUS
 10
4.1712307649
 20
5.4225487737
 11
4.1420594439
 21
5.4517200946
  0
LINE
  5
3CA
100
AcDbEntity
  8
ALL_ASSEMBLY_MEMBERS
100
AcDbLine
 62
9
  6
CONTINUOUS
 10
4.0886461006
 20
5.5051334379
 11
4.0594747797
 21
5.5343047588
  0
LINE
  5
3CB
100
AcDbEntity
  8
ALL_ASSEMBLY_MEMBERS
100
AcDbLine
 62
9
  6
CONTINUOUS
 10
4.0177290418
 20
5.5760504968
 11
3.9885577208
 21
5.6052218177
  0
LINE
  5
3CC
100
AcDbEntity
  8
ALL_ASSEMBLY_MEMBERS
100
AcDbLine
 62
9
  6
CONTINUOUS
 10
3.9633124686
 20
5.63046707
 11
3.9341411477
 21
5.6596383909
  0
LINE
  5
3CD
100
AcDbEntity
  8
ALL_ASSEMBLY_MEMBERS
100
AcDbLine
 62
9
  6
CONTINUOUS
 10
3.9291047806
 20
5.664674758
 11
3.8999334597
 21
5.6938460789
  0
LINE
  5
3CE
100
AcDbEntity
  8
ALL_ASSEMBLY_MEMBERS
100
AcDbLine
 62
9
  6
CONTINUOUS
 10
3.8882658544
 20
5.7055136952
 11
3.8998189898
 21
5.6939605597
  0
LINE
  5
3CF
100
AcDbEntity
  8
ALL_ASSEMBLY_MEMBERS
100
AcDbLine
 62
9
  6
CONTINUOUS
 10
4.5940645046
 20
5.0031742672
 11
4.593508575
 21
5.0037301967
  0
LINE
  5
3D0
100
AcDbEntity
  8
ALL_ASSEMBLY_MEMBERS
100
AcDbLine
 62
9
  6
CONTINUOUS
 10
4.5904285625
 20
5.0068101904
 11
4.5614339505
 21
5.0358048212
  0
LINE
  5
3D1
100
AcDbEntity
  8
ALL_ASSEMBLY_MEMBERS
100
AcDbLine
 62
9
  6
CONTINUOUS
 10
4.5598568166
 20
5.0373819551
 11
4.5576709839
 21
5.0395677878
  0
LINE
  5
3D2
100
AcDbEntity
  8
ALL_ASSEMBLY_MEMBERS
100
AcDbLine
 62
9
  6
CONTINUOUS
 10
4.5531314039
 20
5.044107349
 11
4.5272262625
 21
5.0700125092
  0
LINE
  5
3D3
100
AcDbEntity
  8
ALL_ASSEMBLY_MEMBERS
100
AcDbLine
 62
9
  6
CONTINUOUS
 10
4.5054402434
 20
5.0917985283
 11
4.5006616094
 21
5.0965771623
  0
LINE
  5
3D4
100
AcDbEntity
  8
ALL_ASSEMBLY_MEMBERS
100
AcDbLine
 62
9
  6
CONTINUOUS
 10
4.4965319471
 20
5.1007068246
 11
4.4728096894
 21
5.1244290824
  0
LINE
  5
3D5
100
AcDbEntity
  8
ALL_ASSEMBLY_MEMBERS
100
AcDbLine
 62
9
  6
CONTINUOUS
 10
4.4345231845
 20
5.1627155872
 11
4.426365546
 21
5.1708732257
  0
LINE
  5
3D6
100
AcDbEntity
  8
ALL_ASSEMBLY_MEMBERS
100
AcDbLine
 62
9
  6
CONTINUOUS
 10
4.4216000443
 20
5.1756387274
 11
4.4018926305
 21
5.1953461412
  0
LINE
  5
3D7
100
AcDbEntity
  8
ALL_ASSEMBLY_MEMBERS
100
AcDbLine
 62
9
  6
CONTINUOUS
 10
4.3519385203
 20
5.2453002514
 11
4.3398459477
 21
5.257392824
  0
LINE
  5
3D8
100
AcDbEntity
  8
ALL_ASSEMBLY_MEMBERS
100
AcDbLine
 62
9
  6
CONTINUOUS
 10
4.3330709637
 20
5.2641677892
 11
4.3193079663
 21
5.2779308055
  0
LINE
  5
3D9
100
AcDbEntity
  8
ALL_ASSEMBLY_MEMBERS
100
AcDbLine
 62
9
  6
CONTINUOUS
 10
4.2633142592
 20
5.3339245126
 11
4.2469989822
 21
5.3502397896
  0
LINE
  5
3DA
100
AcDbEntity
  8
ALL_ASSEMBLY_MEMBERS
100
AcDbLine
 62
9
  6
CONTINUOUS
 10
4.174689998
 20
5.4225487737
 11
4.1541520166
 21
5.4430867552
  0
LINE
  5
3DB
100
AcDbEntity
  8
ALL_ASSEMBLY_MEMBERS
100
AcDbLine
 62
9
  6
CONTINUOUS
 10
4.148107181
 20
5.449131572
 11
4.1420594439
 21
5.4551793278
  0
LINE
  5
3DC
100
AcDbEntity
  8
ALL_ASSEMBLY_MEMBERS
100
AcDbLine
 62
9
  6
CONTINUOUS
 10
4.0921053338
 20
5.5051334379
 11
4.0676324182
 21
5.5296063535
  0
LINE
  5
3DD
100
AcDbEntity
  8
ALL_ASSEMBLY_MEMBERS
100
AcDbLine
 62
9
  6
CONTINUOUS
 10
4.0625907186
 20
5.5346480343
 11
4.0594747797
 21
5.537763992
  0
LINE
  5
3DE
100
AcDbEntity
  8
ALL_ASSEMBLY_MEMBERS
100
AcDbLine
 62
9
  6
CONTINUOUS
 10
4.0211882749
 20
5.5760504968
 11
3.9933363549
 21
5.6039024169
  0
LINE
  5
3DF
100
AcDbEntity
  8
ALL_ASSEMBLY_MEMBERS
100
AcDbLine
 62
9
  6
CONTINUOUS
 10
3.9902873134
 20
5.606951457
 11
3.9885577208
 21
5.6086810509
  0
LINE
  5
3E0
100
AcDbEntity
  8
ALL_ASSEMBLY_MEMBERS
100
AcDbLine
 62
9
  6
CONTINUOUS
 10
3.9667716923
 20
5.63046707
 11
3.9363269803
 21
5.6609117914
  0
LINE
  5
3E1
100
AcDbEntity
  8
ALL_ASSEMBLY_MEMBERS
100
AcDbLine
 62
9
  6
CONTINUOUS
 10
3.8882658544
 20
5.7089730653
 11
3.932363127
 21
5.664875626
  0
LINE
  5
3E2
100
AcDbEntity
  8
ALL_ASSEMBLY_MEMBERS
100
AcDbLine
 62
9
  6
CONTINUOUS
 10
4.2436068676
 20
5.3536319605
 11
4.2306837051
 21
5.3665550667
  0
LINE
  5
3E3
100
AcDbEntity
  8
ALL_ASSEMBLY_MEMBERS
100
AcDbLine
 62
9
  6
CONTINUOUS
 10
4.3364771485
 20
5.2607616795
 11
4.3330709637
 21
5.2641677892
  0
LINE
  5
3E4
100
AcDbEntity
  8
ALL_ASSEMBLY_MEMBERS
100
AcDbLine
 62
9
  6
CONTINUOUS
 10
4.592286299
 20
5.004952529
 11
4.5904285625
 21
5.0068101904
  0
LINE
  5
3E5
100
AcDbEntity
  8
ALL_ASSEMBLY_MEMBERS
100
AcDbLine
 62
9
  6
CONTINUOUS
 10
4.4232496422
 20
5.1739891858
 11
4.4216000443
 21
5.1756387274
  0
LINE
  5
3E6
100
AcDbEntity
  8
ALL_ASSEMBLY_MEMBERS
100
AcDbLine
 62
9
  6
CONTINUOUS
 10
4.4980109466
 20
5.0992278814
 11
4.4965319471
 21
5.1007068246
  0
LINE
  5
3E7
100
AcDbEntity
  8
ALL_ASSEMBLY_MEMBERS
100
AcDbLine
 62
9
  6
CONTINUOUS
 10
4.5567410033
 20
5.0404979092
 11
4.5531314039
 21
5.044107349
  0
LINE
  5
3E8
100
AcDbEntity
  8
ALL_ASSEMBLY_MEMBERS
100
AcDbLine
 62
9
  6
CONTINUOUS
 10
4.0648730149
 20
5.5323658132
 11
4.0625907186
 21
5.5346480343
  0
LINE
  5
3E9
100
AcDbEntity
  8
ALL_ASSEMBLY_MEMBERS
100
AcDbLine
 62
9
  6
CONTINUOUS
 10
4.4248440275
 20
5.172394885
 11
4.4232496422
 21
5.1739891858
  0
LINE
  5
3EA
100
AcDbEntity
  8
ALL_ASSEMBLY_MEMBERS
100
AcDbLine
 62
9
  6
CONTINUOUS
 10
4.3381755963
 20
5.2590633162
 11
4.3364771485
 21
5.2607616795
  0
LINE
  5
3EB
100
AcDbEntity
  8
ALL_ASSEMBLY_MEMBERS
100
AcDbLine
 62
9
  6
CONTINUOUS
 10
4.1541521105
 20
5.4430869147
 11
4.148107181
 21
5.449131572
  0
LINE
  5
3EC
100
AcDbEntity
  8
ALL_ASSEMBLY_MEMBERS
100
AcDbLine
 62
9
  6
CONTINUOUS
 10
4.5006618257
 20
5.0965771994
 11
4.4980109466
 21
5.0992278814
  0
LINE
  5
3ED
100
AcDbEntity
  8
ALL_ASSEMBLY_MEMBERS
100
AcDbLine
 62
9
  6
CONTINUOUS
 10
4.2469991088
 20
5.3502399163
 11
4.2436068676
 21
5.3536319605
  0
LINE
  5
3EE
100
AcDbEntity
  8
ALL_ASSEMBLY_MEMBERS
100
AcDbLine
 62
9
  6
CONTINUOUS
 10
4.4263657361
 20
5.1708732891
 11
4.4248440275
 21
5.172394885
  0
LINE
  5
3EF
100
AcDbEntity
  8
ALL_ASSEMBLY_MEMBERS
100
AcDbLine
 62
9
  6
CONTINUOUS
 10
4.3398461072
 20
5.2573929179
 11
4.3381755963
 21
5.2590633162
  0
LINE
  5
3F0
100
AcDbEntity
  8
ALL_ASSEMBLY_MEMBERS
100
AcDbLine
 62
9
  6
CONTINUOUS
 10
4.5576712204
 20
5.0395678047
 11
4.5567410033
 21
5.0404979092
  0
LINE
  5
3F1
100
AcDbEntity
  8
ALL_ASSEMBLY_MEMBERS
100
AcDbLine
 62
9
  6
CONTINUOUS
 10
4.0676324816
 20
5.5296065435
 11
4.0648730149
 21
5.5323658132
  0
LINE
  5
3F2
100
AcDbEntity
  8
ALL_ASSEMBLY_MEMBERS
100
AcDbLine
 62
9
  6
CONTINUOUS
 10
4.5935088241
 20
5.0037302011
 11
4.592286299
 21
5.004952529
  0
LINE
  5
3F3
100
AcDbEntity
  8
ALL_ASSEMBLY_MEMBERS
100
AcDbLine
 62
9
  6
CONTINUOUS
 10
3.993336392
 20
5.6039026332
 11
3.9902873134
 21
5.606951457
  0
LINE
  5
3F4
100
AcDbEntity
  8
ALL_ASSEMBLY_MEMBERS
100
AcDbLine
 62
9
  6
CONTINUOUS
 10
3.9325640384
 20
5.664674758
 11
3.932363127
 21
5.664875626
  0
LINE
  5
3F5
100
AcDbEntity
  8
ALL_ASSEMBLY_MEMBERS
100
AcDbLine
 62
9
  6
CONTINUOUS
 10
4.5982405854
 20
5.0049039515
 11
4.5289559469
 21
5.07418859
  0
LINE
  5
3F6
100
AcDbEntity
  8
ALL_ASSEMBLY_MEMBERS
100
AcDbLine
 62
9
  6
CONTINUOUS
 10
4.5096163243
 20
5.0935282127
 11
4.4745393737
 21
5.1286051632
  0
LINE
  5
3F7
100
AcDbEntity
  8
ALL_ASSEMBLY_MEMBERS
100
AcDbLine
 62
9
  6
CONTINUOUS
 10
4.4386992654
 20
5.1644452716
 11
4.4036223148
 21
5.1995222221
  0
LINE
  5
3F8
100
AcDbEntity
  8
ALL_ASSEMBLY_MEMBERS
100
AcDbLine
 62
9
  6
CONTINUOUS
 10
4.3561146012
 20
5.2470299358
 11
4.3210376506
 21
5.2821068863
  0
LINE
  5
3F9
100
AcDbEntity
  8
ALL_ASSEMBLY_MEMBERS
100
AcDbLine
 62
9
  6
CONTINUOUS
 10
4.26749034
 20
5.3356541969
 11
4.2324133895
 21
5.3707311475
  0
LINE
  5
3FA
100
AcDbEntity
  8
ALL_ASSEMBLY_MEMBERS
100
AcDbLine
 62
9
  6
CONTINUOUS
 10
4.1788660789
 20
5.4242784581
 11
4.1437891283
 21
5.4593554086
  0
LINE
  5
3FB
100
AcDbEntity
  8
ALL_ASSEMBLY_MEMBERS
100
AcDbLine
 62
9
  6
CONTINUOUS
 10
4.0962814147
 20
5.5068631223
 11
4.0612044641
 21
5.5419400729
  0
LINE
  5
3FC
100
AcDbEntity
  8
ALL_ASSEMBLY_MEMBERS
100
AcDbLine
 62
9
  6
CONTINUOUS
 10
4.0253643558
 20
5.5777801812
 11
3.9902874052
 21
5.6128571317
  0
LINE
  5
3FD
100
AcDbEntity
  8
ALL_ASSEMBLY_MEMBERS
100
AcDbLine
 62
9
  6
CONTINUOUS
 10
3.9709477826
 20
5.6321967544
 11
3.8899955387
 21
5.7131489982
  0
LINE
  5
3FE
100
AcDbEntity
  8
ALL_ASSEMBLY_MEMBERS
100
AcDbLine
 62
7
  6
CONTINUOUS
 10
3.8826454411
 20
5.7353143193
 11
4.6314976322
 21
4.9864621282
  0
LINE
  5
3FF
100
AcDbEntity
  8
ALL_ASSEMBLY_MEMBERS
100
AcDbLine
 62
7
  6
CONTINUOUS
 10
3.8822848368
 20
5.7357782868
 11
4.6319654116
 21
4.9860977119
  0
LINE
  5
400
100
AcDbEntity
  8
ALL_ASSEMBLY_MEMBERS
100
AcDbLine
 62
7
  6
CONTINUOUS
 10
4.6599029446
 20
4.966800095
 11
3.8635592876
 21
5.763143752
  0
LINE
  5
401
100
AcDbEntity
  8
ALL_ASSEMBLY_MEMBERS
100
AcDbLine
 62
9
  6
CONTINUOUS
 10
4.6929438562
 20
4.9370499245
 11
3.8338091171
 21
5.7961846637
  0
LINE
  5
402
100
AcDbEntity
  8
ALL_ASSEMBLY_MEMBERS
100
AcDbLine
 62
7
  6
CONTINUOUS
 10
4.7427225105
 20
4.9338222389
 11
3.8305814314
 21
5.845963318
  0
LINE
  5
403
100
AcDbEntity
  8
ALL_ASSEMBLY_MEMBERS
100
AcDbLine
 62
9
  6
CONTINUOUS
 10
3.8559097036
 20
5.8505643666
 11
4.7473235592
 21
4.9591505111
  0
LINE
  5
404
100
AcDbEntity
  8
ALL_ASSEMBLY_MEMBERS
100
AcDbLine
 62
9
  6
CONTINUOUS
 10
3.8928187333
 20
5.8455360974
 11
4.7422952899
 21
4.9960595407
  0
LINE
  5
405
100
AcDbEntity
  8
ALL_ASSEMBLY_MEMBERS
100
AcDbLine
 62
9
  6
CONTINUOUS
 10
3.9300144167
 20
5.6461381322
 11
3.9742349619
 21
5.6019175871
  0
LINE
  5
406
100
AcDbEntity
  8
ALL_ASSEMBLY_MEMBERS
100
AcDbLine
 62
9
  6
CONTINUOUS
 10
3.9363269973
 20
5.6609120279
 11
3.9341411477
 21
5.6630976147
  0
LINE
  5
407
100
AcDbEntity
  8
ALL_ASSEMBLY_MEMBERS
100
AcDbLine
 62
9
  6
CONTINUOUS
 10
4.4986767796
 20
5.0774757693
 11
4.5428973942
 21
5.0332552242
  0
LINE
  5
408
100
AcDbEntity
  8
ALL_ASSEMBLY_MEMBERS
100
AcDbLine
 62
7
  6
CONTINUOUS
 10
4.8832264559
 20
6.1586286007
 11
4.8858001635
 21
6.1490029835
  0
LINE
  5
409
100
AcDbEntity
  8
ALL_ASSEMBLY_MEMBERS
100
AcDbLine
 62
7
  6
CONTINUOUS
 10
4.8983628522
 20
6.1728439078
 11
4.900588784
 21
6.1645187748
  0
LINE
  5
40A
100
AcDbEntity
  8
ALL_ASSEMBLY_MEMBERS
100
AcDbLine
 62
7
  6
CONTINUOUS
 10
4.8981689235
 20
6.1735691104
 11
4.8983628522
 21
6.1728439078
  0
LINE
  5
40B
100
AcDbEntity
  8
ALL_ASSEMBLY_MEMBERS
100
AcDbLine
 62
7
  6
CONTINUOUS
 10
5.4821232998
 20
3.175376987
 11
5.4821232998
 21
3.037376987
  0
LINE
  5
40C
100
AcDbEntity
  8
ALL_ASSEMBLY_MEMBERS
100
AcDbLine
 62
7
  6
CONTINUOUS
 10
5.4821232998
 20
2.793776987
 11
5.4821232998
 21
2.017376987
  0
LINE
  5
40D
100
AcDbEntity
  8
ALL_ASSEMBLY_MEMBERS
100
AcDbLine
 62
7
  6
CONTINUOUS
 10
4.4304122097
 20
5.1202243381
 11
4.4304106505
 21
5.1202252449
  0
LINE
  5
40E
100
AcDbEntity
  8
ALL_ASSEMBLY_MEMBERS
100
AcDbLine
 62
7
  6
CONTINUOUS
 10
4.0657935952
 20
5.4763548569
 11
4.0658145036
 21
5.4763414955
  0
LINE
  5
40F
100
AcDbEntity
  8
ALL_ASSEMBLY_MEMBERS
100
AcDbLine
 62
9
  6
CONTINUOUS
 10
4.7809354976
 20
5.0759532542
 11
3.9727124467
 21
5.8841763051
  0
LINE
  5
410
100
AcDbEntity
  8
ALL_ASSEMBLY_MEMBERS
100
AcDbLine
 62
9
  6
CONTINUOUS
 10
4.8197660178
 20
5.1147837743
 11
4.0115429669
 21
5.9230068252
  0
LINE
  5
411
100
AcDbEntity
  8
ALL_ASSEMBLY_MEMBERS
100
AcDbLine
 62
9
  6
CONTINUOUS
 10
4.8248616748
 20
5.1387569558
 11
4.0355161483
 21
5.9281024823
  0
LINE
  5
412
100
AcDbEntity
  8
ALL_ASSEMBLY_MEMBERS
100
AcDbLine
 62
9
  6
CONTINUOUS
 10
4.1056124339
 20
5.9011950392
 11
4.7979542318
 21
5.2088532414
  0
LINE
  5
413
100
AcDbEntity
  8
ALL_ASSEMBLY_MEMBERS
100
AcDbLine
 62
9
  6
CONTINUOUS
 10
4.1120052823
 20
5.9025538811
 11
4.7993130736
 21
5.2152460898
  0
LINE
  5
414
100
AcDbEntity
  8
ALL_ASSEMBLY_MEMBERS
100
AcDbLine
 62
9
  6
CONTINUOUS
 10
4.806523109
 20
5.2224561251
 11
4.1192153177
 21
5.9097639164
  0
LINE
  5
415
100
AcDbEntity
  8
ALL_ASSEMBLY_MEMBERS
100
AcDbLine
 62
9
  6
CONTINUOUS
 10
4.8073384384
 20
5.229926294
 11
4.1266854865
 21
5.9105792459
  0
LINE
  5
416
100
AcDbEntity
  8
ALL_ASSEMBLY_MEMBERS
100
AcDbLine
 62
7
  6
CONTINUOUS
 10
4.9411965476
 20
6.2073361751
 11
4.9391977402
 21
6.2147958256
  0
LINE
  5
417
100
AcDbEntity
  8
ALL_ASSEMBLY_MEMBERS
100
AcDbLine
 62
7
  6
CONTINUOUS
 10
4.9130632458
 20
6.1884647135
 11
4.9153515552
 21
6.179906571
  0
LINE
  5
418
100
AcDbEntity
  8
ALL_ASSEMBLY_MEMBERS
100
AcDbLine
 62
7
  6
CONTINUOUS
 10
4.9279965691
 20
6.2033987505
 11
4.9301245534
 21
6.1954403539
  0
LINE
  5
419
100
AcDbEntity
  8
ALL_ASSEMBLY_MEMBERS
100
AcDbLine
 62
7
  6
CONTINUOUS
 10
5.0519969187
 20
5.9846806522
 11
5.0498479868
 21
5.9927188275
  0
LINE
  5
41A
100
AcDbEntity
  8
ALL_ASSEMBLY_MEMBERS
100
AcDbLine
 62
7
  6
CONTINUOUS
 10
5.0523327407
 20
5.9834246905
 11
5.0519969187
 21
5.9846806522
  0
LINE
  5
41B
100
AcDbEntity
  8
ALL_ASSEMBLY_MEMBERS
100
AcDbLine
 62
7
  6
CONTINUOUS
 10
5.0677154534
 20
5.9988089655
 11
5.0653990549
 21
6.0074734225
  0
LINE
  5
41C
100
AcDbEntity
  8
ALL_ASSEMBLY_MEMBERS
100
AcDbLine
 62
7
  6
CONTINUOUS
 10
5.0827778236
 20
6.0153649038
 11
5.0808844352
 21
6.0224470358
  0
LINE
  5
41D
100
AcDbEntity
  8
ALL_ASSEMBLY_MEMBERS
100
AcDbLine
 62
7
  6
CONTINUOUS
 10
5.0830933387
 20
6.0141848952
 11
5.0827778236
 21
6.0153649038
  0
LINE
  5
41E
100
AcDbEntity
  8
ALL_ASSEMBLY_MEMBERS
100
AcDbLine
 62
7
  6
CONTINUOUS
 10
5.098333035
 20
6.0301133159
 11
5.096439405
 21
6.0371962259
  0
LINE
  5
41F
100
AcDbEntity
  8
ALL_ASSEMBLY_MEMBERS
100
AcDbLine
 62
7
  6
CONTINUOUS
 10
5.098478261
 20
6.0295701823
 11
5.098333035
 21
6.0301133159
  0
LINE
  5
420
100
AcDbEntity
  8
ALL_ASSEMBLY_MEMBERS
100
AcDbLine
 62
9
  6
CONTINUOUS
 10
5.6297982998
 20
6.393701987
 11
5.6297982998
 21
6.637451987
  0
LINE
  5
421
100
AcDbEntity
  8
ALL_ASSEMBLY_MEMBERS
100
AcDbLine
 62
7
  6
CONTINUOUS
 10
5.6867232998
 20
2.821826987
 11
5.6867232998
 21
3.009326987
  0
LINE
  5
422
100
AcDbEntity
  8
ALL_ASSEMBLY_MEMBERS
100
AcDbLine
 62
7
  6
CONTINUOUS
 10
5.6960982998
 20
3.032426987
 11
5.6960982998
 21
2.798726987
  0
LINE
  5
423
100
AcDbEntity
  8
ALL_ASSEMBLY_MEMBERS
100
AcDbLine
 62
7
  6
CONTINUOUS
 10
5.7020982998
 20
3.038426987
 11
5.7020982998
 21
2.792726987
  0
LINE
  5
424
100
AcDbEntity
  8
ALL_ASSEMBLY_MEMBERS
100
AcDbLine
 62
7
  6
CONTINUOUS
 10
4.4171536642
 20
5.1327733605
 11
4.4171628672
 21
5.1327695399
  0
LINE
  5
425
100
AcDbEntity
  8
ALL_ASSEMBLY_MEMBERS
100
AcDbLine
 62
7
  6
CONTINUOUS
 10
4.7261523949
 20
5.585443238
 11
4.4822024305
 21
5.8293932024
  0
LINE
  5
426
100
AcDbEntity
  8
ALL_ASSEMBLY_MEMBERS
100
AcDbLine
 62
7
  6
CONTINUOUS
 10
4.5940645046
 20
5.0031742672
 11
4.5906052714
 21
5.0031742672
  0
LINE
  5
427
100
AcDbEntity
  8
ALL_ASSEMBLY_MEMBERS
100
AcDbLine
 62
7
  6
CONTINUOUS
 10
4.5463567061
 20
5.0332552242
 11
4.5428974102
 21
5.0332552242
  0
LINE
  5
428
100
AcDbEntity
  8
ALL_ASSEMBLY_MEMBERS
100
AcDbLine
 62
7
  6
CONTINUOUS
 10
4.5598568166
 20
5.0373819551
 11
4.5563975835
 21
5.0373819551
  0
LINE
  5
429
100
AcDbEntity
  8
ALL_ASSEMBLY_MEMBERS
100
AcDbLine
 62
7
  6
CONTINUOUS
 10
4.52629647
 20
5.0533154603
 11
4.5228370887
 21
5.0533154603
  0
LINE
  5
42A
100
AcDbEntity
  8
ALL_ASSEMBLY_MEMBERS
100
AcDbLine
 62
7
  6
CONTINUOUS
 10
4.5054402434
 20
5.0917985283
 11
4.5019810103
 21
5.0917985283
  0
LINE
  5
42B
100
AcDbEntity
  8
ALL_ASSEMBLY_MEMBERS
100
AcDbLine
 62
7
  6
CONTINUOUS
 10
4.4875430697
 20
5.0920688606
 11
4.4840836884
 21
5.0920688606
  0
LINE
  5
42C
100
AcDbEntity
  8
ALL_ASSEMBLY_MEMBERS
100
AcDbLine
 62
7
  6
CONTINUOUS
 10
4.6460816729
 20
5.9158297605
 11
4.6105060493
 21
5.9514053842
  0
LINE
  5
42D
100
AcDbEntity
  8
ALL_ASSEMBLY_MEMBERS
100
AcDbLine
 62
7
  6
CONTINUOUS
 10
6.0899982998
 20
3.159326987
 11
6.0899982998
 21
2.671826987
  0
LINE
  5
42E
100
AcDbEntity
  8
ALL_ASSEMBLY_MEMBERS
100
AcDbLine
 62
7
  6
CONTINUOUS
 10
6.1160982998
 20
3.1594777892
 11
6.1160982998
 21
2.6716761849
  0
LINE
  5
42F
100
AcDbEntity
  8
ALL_ASSEMBLY_MEMBERS
100
AcDbLine
 62
7
  6
CONTINUOUS
 10
5.2913232998
 20
3.181376987
 11
5.2853232998
 21
3.175376987
  0
LWPOLYLINE
  5
430
100
AcDbEntity
  8
ALL_ASSEMBLY_MEMBERS
100
AcDbPolyline
 62
7
  6
CONTINUOUS
 90
12
 70
0
 10
4.4279286619
 20
5.1204833429
 10
4.4283440915
 20
5.1205690133
 10
4.4287424746
 20
5.1206035492
 10
4.4290949068
 20
5.1205961369
 10
4.4294177023
 20
5.1205578714
 10
4.4297209661
 20
5.1204932676
 10
4.4299731466
 20
5.1204168973
 10
4.4301506597
 20
5.1203494387
 10
4.4302678833
 20
5.1202978496
 10
4.4303499768
 20
5.1202577503
 10
4.4303991024
 20
5.1202317168
 10
4.4304122097
 20
5.1202243381
  0
LINE
  5
431
100
AcDbEntity
  8
ALL_ASSEMBLY_MEMBERS
100
AcDbLine
 62
7
  6
CONTINUOUS
 10
4.4182521551
 20
5.1129384272
 11
4.4128358838
 21
5.1129384272
  0
LINE
  5
432
100
AcDbEntity
  8
ALL_ASSEMBLY_MEMBERS
100
AcDbLine
 62
7
  6
CONTINUOUS
 10
4.4057402435
 20
5.1254503388
 11
4.4003239633
 21
5.1254503388
  0
LINE
  5
433
100
AcDbEntity
  8
ALL_ASSEMBLY_MEMBERS
100
AcDbLine
 62
7
  6
CONTINUOUS
 10
4.4327374855
 20
5.1468744448
 11
4.4292781041
 21
5.1468744448
  0
LINE
  5
434
100
AcDbEntity
  8
ALL_ASSEMBLY_MEMBERS
100
AcDbLine
 62
7
  6
CONTINUOUS
 10
4.382685321
 20
5.1485052613
 11
4.3772690407
 21
5.1485052613
  0
LINE
  5
435
100
AcDbEntity
  8
ALL_ASSEMBLY_MEMBERS
100
AcDbLine
 62
7
  6
CONTINUOUS
 10
4.4345231845
 20
5.1627155872
 11
4.4310639514
 21
5.1627155872
  0
LINE
  5
436
100
AcDbEntity
  8
ALL_ASSEMBLY_MEMBERS
100
AcDbLine
 62
7
  6
CONTINUOUS
 10
4.3102009034
 20
5.1753943102
 11
4.3067415209
 21
5.1753943102
  0
LINE
  5
437
100
AcDbEntity
  8
ALL_ASSEMBLY_MEMBERS
100
AcDbLine
 62
7
  6
CONTINUOUS
 10
4.3656146272
 20
5.2139973031
 11
4.3621552459
 21
5.2139973031
  0
LINE
  5
438
100
AcDbEntity
  8
ALL_ASSEMBLY_MEMBERS
100
AcDbLine
 62
7
  6
CONTINUOUS
 10
4.2566402898
 20
5.2289549244
 11
4.2531809066
 21
5.2289549244
  0
LINE
  5
439
100
AcDbEntity
  8
ALL_ASSEMBLY_MEMBERS
100
AcDbLine
 62
7
  6
CONTINUOUS
 10
4.3519385203
 20
5.2453002514
 11
4.3484792872
 21
5.2453002514
  0
LINE
  5
43A
100
AcDbEntity
  8
ALL_ASSEMBLY_MEMBERS
100
AcDbLine
 62
7
  6
CONTINUOUS
 10
4.2599776889
 20
5.2712128934
 11
4.2545614086
 21
5.2712128934
  0
LINE
  5
43B
100
AcDbEntity
  8
ALL_ASSEMBLY_MEMBERS
100
AcDbLine
 62
7
  6
CONTINUOUS
 10
4.2907488069
 20
5.2888631234
 11
4.2872894255
 21
5.2888631234
  0
LINE
  5
43C
100
AcDbEntity
  8
ALL_ASSEMBLY_MEMBERS
100
AcDbLine
 62
7
  6
CONTINUOUS
 10
4.9255563989
 20
5.7848474586
 11
4.6816066511
 21
6.0287972064
  0
LINE
  5
43D
100
AcDbEntity
  8
ALL_ASSEMBLY_MEMBERS
100
AcDbLine
 62
9
  6
CONTINUOUS
 10
4.90021835
 20
5.8568253342
 11
4.7535845268
 21
6.0034591575
  0
LINE
  5
43E
100
AcDbEntity
  8
ALL_ASSEMBLY_MEMBERS
100
AcDbLine
 62
9
  6
CONTINUOUS
 10
4.9242183476
 20
5.8808361583
 11
4.7775953508
 21
6.027459155
  0
LINE
  5
43F
100
AcDbEntity
  8
ALL_ASSEMBLY_MEMBERS
100
AcDbLine
 62
9
  6
CONTINUOUS
 10
4.7775953508
 20
6.0494540042
 11
4.9462131967
 21
5.8808361583
  0
LINE
  5
440
100
AcDbEntity
  8
ALL_ASSEMBLY_MEMBERS
100
AcDbLine
 62
9
  6
CONTINUOUS
 10
4.7941145284
 20
6.0893348269
 11
4.7969712535
 21
6.0864781018
  0
LINE
  5
441
100
AcDbEntity
  8
ALL_ASSEMBLY_MEMBERS
100
AcDbLine
 62
9
  6
CONTINUOUS
 10
4.8234080886
 20
6.0600412667
 11
4.9860940194
 21
5.8973553358
  0
LINE
  5
442
100
AcDbEntity
  8
ALL_ASSEMBLY_MEMBERS
100
AcDbLine
 62
7
  6
CONTINUOUS
 10
6.1724982998
 20
3.215576987
 11
6.1724982998
 21
2.615576987
  0
LINE
  5
443
100
AcDbEntity
  8
ALL_ASSEMBLY_MEMBERS
100
AcDbLine
 62
7
  6
CONTINUOUS
 10
6.2285982998
 20
3.7426286089
 11
6.2285982998
 21
2.0885253651
  0
LINE
  5
444
100
AcDbEntity
  8
ALL_ASSEMBLY_MEMBERS
100
AcDbLine
 62
9
  6
CONTINUOUS
 10
6.2663982998
 20
2.0234011761
 11
6.2663982998
 21
3.807752798
  0
LINE
  5
445
100
AcDbEntity
  8
ALL_ASSEMBLY_MEMBERS
100
AcDbLine
 62
7
  6
CONTINUOUS
 10
6.3041982914
 20
3.8684921918
 11
6.3041982914
 21
1.9605588514
  0
LINE
  5
446
100
AcDbEntity
  8
ALL_ASSEMBLY_MEMBERS
100
AcDbLine
 62
9
  6
CONTINUOUS
 10
6.3041982914
 20
1.9605588514
 11
6.3041982956
 21
1.9583021337
  0
LINE
  5
447
100
AcDbEntity
  8
ALL_ASSEMBLY_MEMBERS
100
AcDbLine
 62
9
  6
CONTINUOUS
 10
6.3041982914
 20
3.8684921918
 11
6.3041982956
 21
3.8728518404
  0
LINE
  5
448
100
AcDbEntity
  8
ALL_ASSEMBLY_MEMBERS
100
AcDbLine
 62
7
  6
CONTINUOUS
 10
6.3297411691
 20
6.6497414772
 11
6.3297411691
 21
6.3814124968
  0
LINE
  5
449
100
AcDbEntity
  8
ALL_ASSEMBLY_MEMBERS
100
AcDbLine
 62
9
  6
CONTINUOUS
 10
6.3297975116
 20
6.3804070166
 11
6.3297975116
 21
6.6507469574
  0
LINE
  5
44A
100
AcDbEntity
  8
ALL_ASSEMBLY_MEMBERS
100
AcDbLine
 62
9
  6
CONTINUOUS
 10
6.3419991255
 20
1.8932007044
 11
6.3419991255
 21
3.9379532696
  0
LINE
  5
44B
100
AcDbEntity
  8
ALL_ASSEMBLY_MEMBERS
100
AcDbLine
 62
7
  6
CONTINUOUS
 10
6.3297411691
 20
6.6497414772
 11
6.3297975116
 21
6.6507469575
  0
LINE
  5
44C
100
AcDbEntity
  8
ALL_ASSEMBLY_MEMBERS
100
AcDbLine
 62
7
  6
CONTINUOUS
 10
4.180894142
 20
5.3047010715
 11
4.1774347595
 21
5.3047010715
  0
LINE
  5
44D
100
AcDbEntity
  8
ALL_ASSEMBLY_MEMBERS
100
AcDbLine
 62
7
  6
CONTINUOUS
 10
4.2132029584
 20
5.317987624
 11
4.2077866781
 21
5.317987624
  0
LINE
  5
44E
100
AcDbEntity
  8
ALL_ASSEMBLY_MEMBERS
100
AcDbLine
 62
7
  6
CONTINUOUS
 10
4.2633142592
 20
5.3339245126
 11
4.259855026
 21
5.3339245126
  0
LINE
  5
44F
100
AcDbEntity
  8
ALL_ASSEMBLY_MEMBERS
100
AcDbLine
 62
7
  6
CONTINUOUS
 10
4.125714117
 20
5.3582616858
 11
4.1238741453
 21
5.3582616858
  0
LINE
  5
450
100
AcDbEntity
  8
ALL_ASSEMBLY_MEMBERS
100
AcDbLine
 62
7
  6
CONTINUOUS
 10
4.1673235773
 20
5.363867005
 11
4.1619072972
 21
5.363867005
  0
LINE
  5
451
100
AcDbEntity
  8
ALL_ASSEMBLY_MEMBERS
100
AcDbLine
 62
7
  6
CONTINUOUS
 10
4.2132420063
 20
5.366369924
 11
4.209782625
 21
5.366369924
  0
LINE
  5
452
100
AcDbEntity
  8
ALL_ASSEMBLY_MEMBERS
100
AcDbLine
 62
7
  6
CONTINUOUS
 10
4.174689998
 20
5.4225487737
 11
4.1712307649
 21
5.4225487737
  0
LINE
  5
453
100
AcDbEntity
  8
ALL_ASSEMBLY_MEMBERS
100
AcDbLine
 62
7
  6
CONTINUOUS
 10
4.138376186
 20
5.4412357443
 11
4.1349168046
 21
5.4412357443
  0
LINE
  5
454
100
AcDbEntity
  8
ALL_ASSEMBLY_MEMBERS
100
AcDbLine
 62
7
  6
CONTINUOUS
 10
4.0578898216
 20
5.4733007607
 11
4.0524735413
 21
5.4733007607
  0
LINE
  5
455
100
AcDbEntity
  8
ALL_ASSEMBLY_MEMBERS
100
AcDbLine
 62
7
  6
CONTINUOUS
 10
4.1056124339
 20
5.9011950392
 11
4.0355161483
 21
5.9281024823
  0
LINE
  5
456
100
AcDbEntity
  8
ALL_ASSEMBLY_MEMBERS
100
AcDbLine
 62
7
  6
CONTINUOUS
 10
4.8387883854
 20
6.1282952337
 11
4.8652252205
 21
6.1018583986
  0
LINE
  5
457
100
AcDbEntity
  8
ALL_ASSEMBLY_MEMBERS
100
AcDbLine
 62
7
  6
CONTINUOUS
 10
5.0544265758
 20
5.9656900519
 11
4.8624492444
 21
6.1576673833
  0
LINE
  5
458
100
AcDbEntity
  8
ALL_ASSEMBLY_MEMBERS
100
AcDbLine
 62
7
  6
CONTINUOUS
 10
4.9299482189
 20
6.2055463043
 11
4.9570583484
 21
6.1784361747
  0
LINE
  5
459
100
AcDbEntity
  8
ALL_ASSEMBLY_MEMBERS
100
AcDbLine
 62
7
  6
CONTINUOUS
 10
5.1002796606
 20
6.0406757058
 11
4.9374078694
 21
6.2035474969
  0
LINE
  5
45A
100
AcDbEntity
  8
ALL_ASSEMBLY_MEMBERS
100
AcDbLine
 62
7
  6
CONTINUOUS
 10
5.1040953676
 20
6.044437355
 11
4.9411965476
 21
6.2073361751
  0
LINE
  5
45B
100
AcDbEntity
  8
ALL_ASSEMBLY_MEMBERS
100
AcDbLine
 62
7
  6
CONTINUOUS
 10
5.1115550182
 20
6.0424385477
 11
4.9391977402
 21
6.2147958256
  0
LINE
  5
45C
100
AcDbEntity
  8
ALL_ASSEMBLY_MEMBERS
100
AcDbLine
 62
7
  6
CONTINUOUS
 10
6.3297411691
 20
6.3814124968
 11
6.3297975116
 21
6.3804070166
  0
LINE
  5
45D
100
AcDbEntity
  8
ALL_ASSEMBLY_MEMBERS
100
AcDbLine
 62
9
  6
CONTINUOUS
 10
6.3706946424
 20
6.1695584236
 11
6.3706946424
 21
6.8615955505
  0
LINE
  5
45E
100
AcDbEntity
  8
ALL_ASSEMBLY_MEMBERS
100
AcDbLine
 62
7
  6
CONTINUOUS
 10
6.3797982998
 20
4.003076987
 11
6.3797982998
 21
1.828076987
  0
LINE
  5
45F
100
AcDbEntity
  8
ALL_ASSEMBLY_MEMBERS
100
AcDbLine
 62
9
  6
CONTINUOUS
 10
6.3851463256
 20
6.158576987
 11
6.3851463256
 21
6.872576987
  0
LINE
  5
460
100
AcDbEntity
  8
ALL_ASSEMBLY_MEMBERS
100
AcDbLine
 62
7
  6
CONTINUOUS
 10
6.4547982998
 20
1.7530787544
 11
6.4547982998
 21
4.0780752196
  0
LINE
  5
461
100
AcDbEntity
  8
ALL_ASSEMBLY_MEMBERS
100
AcDbLine
 62
7
  6
CONTINUOUS
 10
6.4547982998
 20
6.158576987
 11
6.4547982998
 21
6.872576987
  0
LINE
  5
462
100
AcDbEntity
  8
ALL_ASSEMBLY_MEMBERS
100
AcDbLine
 62
7
  6
CONTINUOUS
 10
6.5177982998
 20
6.393701987
 11
6.5177982998
 21
6.4046748969
  0
LINE
  5
463
100
AcDbEntity
  8
ALL_ASSEMBLY_MEMBERS
100
AcDbLine
 62
7
  6
CONTINUOUS
 10
6.5297982998
 20
6.405701987
 11
6.5297982998
 21
6.625451987
  0
LINE
  5
464
100
AcDbEntity
  8
ALL_ASSEMBLY_MEMBERS
100
AcDbLine
 62
7
  6
CONTINUOUS
 10
5.6960982998
 20
3.032426987
 11
5.7020982998
 21
3.038426987
  0
LWPOLYLINE
  5
465
100
AcDbEntity
  8
ALL_ASSEMBLY_MEMBERS
100
AcDbPolyline
 62
7
  6
CONTINUOUS
 90
9
 70
0
 10
4.0634615522
 20
5.4766713388
 10
4.0639503492
 20
5.4767486405
 10
4.0643850294
 20
5.4767573946
 10
4.0647848158
 20
5.4767152265
 10
4.0651311651
 20
5.4766373529
 10
4.0653901799
 20
5.4765510733
 10
4.0655755739
 20
5.4764720759
 10
4.0657099793
 20
5.4764037239
 10
4.0657935952
 20
5.4763548569
  0
LINE
  5
466
100
AcDbEntity
  8
ALL_ASSEMBLY_MEMBERS
100
AcDbLine
 62
7
  6
CONTINUOUS
 10
4.0921053338
 20
5.5051334379
 11
4.0886461006
 21
5.5051334379
  0
LINE
  5
467
100
AcDbEntity
  8
ALL_ASSEMBLY_MEMBERS
100
AcDbLine
 62
7
  6
CONTINUOUS
 10
4.0712533277
 20
5.5083586026
 11
4.0677939464
 21
5.5083586026
  0
LINE
  5
468
100
AcDbEntity
  8
ALL_ASSEMBLY_MEMBERS
100
AcDbLine
 62
7
  6
CONTINUOUS
 10
4.0164477435
 20
5.5631641868
 11
4.0129883621
 21
5.5631641868
  0
LINE
  5
469
100
AcDbEntity
  8
ALL_ASSEMBLY_MEMBERS
100
AcDbLine
 62
7
  6
CONTINUOUS
 10
4.0211882749
 20
5.5760504968
 11
4.0177290418
 21
5.5760504968
  0
LINE
  5
46A
100
AcDbEntity
  8
ALL_ASSEMBLY_MEMBERS
100
AcDbLine
 62
7
  6
CONTINUOUS
 10
3.9776943432
 20
5.6019175871
 11
3.9742349619
 21
5.6019175871
  0
LINE
  5
46B
100
AcDbEntity
  8
ALL_ASSEMBLY_MEMBERS
100
AcDbLine
 62
7
  6
CONTINUOUS
 10
3.9667717017
 20
5.63046707
 11
3.9633124686
 21
5.63046707
  0
LINE
  5
46C
100
AcDbEntity
  8
ALL_ASSEMBLY_MEMBERS
100
AcDbLine
 62
7
  6
CONTINUOUS
 10
3.932564056
 20
5.664674758
 11
3.9291047806
 21
5.664674758
  0
LINE
  5
46D
100
AcDbEntity
  8
ALL_ASSEMBLY_MEMBERS
100
AcDbLine
 62
7
  6
CONTINUOUS
 10
4.9462131964
 20
5.8808361583
 11
4.9242183476
 21
5.8808361583
  0
LINE
  5
46E
100
AcDbEntity
  8
ALL_ASSEMBLY_MEMBERS
100
AcDbLine
 62
9
  6
CONTINUOUS
 10
5.3447458786
 20
6.2756294082
 11
5.1723886007
 21
6.4479866861
  0
LINE
  5
46F
100
AcDbEntity
  8
ALL_ASSEMBLY_MEMBERS
100
AcDbLine
 62
7
  6
CONTINUOUS
 10
5.0479241516
 20
5.9790040602
 11
5.048135827
 21
5.9790193565
  0
LINE
  5
470
100
AcDbEntity
  8
ALL_ASSEMBLY_MEMBERS
100
AcDbLine
 62
7
  6
CONTINUOUS
 10
5.0628463498
 20
5.9939257558
 11
5.0630574849
 21
5.9939410144
  0
LINE
  5
471
100
AcDbEntity
  8
ALL_ASSEMBLY_MEMBERS
100
AcDbLine
 62
7
  6
CONTINUOUS
 10
5.0777706864
 20
6.0088484734
 11
5.0779800789
 21
6.0088636085
  0
LINE
  5
472
100
AcDbEntity
  8
ALL_ASSEMBLY_MEMBERS
100
AcDbLine
 62
7
  6
CONTINUOUS
 10
5.0926956454
 20
6.023775455
 11
5.092907214
 21
6.0237907435
  0
LINE
  5
473
100
AcDbEntity
  8
ALL_ASSEMBLY_MEMBERS
100
AcDbLine
 62
7
  6
CONTINUOUS
 10
5.1002796606
 20
6.0406757058
 11
5.1002245603
 21
6.0406722747
  0
LINE
  5
474
100
AcDbEntity
  8
ALL_ASSEMBLY_MEMBERS
100
AcDbLine
 62
7
  6
CONTINUOUS
 10
5.0386265704
 20
5.9814900573
 11
5.0479241515
 21
5.9790040601
  0
LINE
  5
475
100
AcDbEntity
  8
ALL_ASSEMBLY_MEMBERS
100
AcDbLine
 62
7
  6
CONTINUOUS
 10
5.0533282425
 20
5.9964707239
 11
5.0628463497
 21
5.9939257558
  0
LINE
  5
476
100
AcDbEntity
  8
ALL_ASSEMBLY_MEMBERS
100
AcDbLine
 62
7
  6
CONTINUOUS
 10
5.0688808717
 20
6.0112255089
 11
5.0777706823
 21
6.0088484693
  0
LINE
  5
477
100
AcDbEntity
  8
ALL_ASSEMBLY_MEMBERS
100
AcDbLine
 62
7
  6
CONTINUOUS
 10
5.0844244117
 20
6.0259870678
 11
5.0926956452
 21
6.0237754547
  0
LINE
  5
478
100
AcDbEntity
  8
ALL_ASSEMBLY_MEMBERS
100
AcDbLine
 62
7
  6
CONTINUOUS
 10
4.8740686873
 20
6.1474572534
 11
4.8724897204
 21
6.1478794393
  0
LINE
  5
479
100
AcDbEntity
  8
ALL_ASSEMBLY_MEMBERS
100
AcDbLine
 62
7
  6
CONTINUOUS
 10
4.8823206571
 20
6.1452511968
 11
4.8740686873
 21
6.1474572534
  0
LINE
  5
47A
100
AcDbEntity
  8
ALL_ASSEMBLY_MEMBERS
100
AcDbLine
 62
7
  6
CONTINUOUS
 10
4.8971080179
 20
6.1607668343
 11
4.8878504572
 21
6.1632418583
  0
LINE
  5
47B
100
AcDbEntity
  8
ALL_ASSEMBLY_MEMBERS
100
AcDbLine
 62
7
  6
CONTINUOUS
 10
4.9118120704
 20
6.1763671379
 11
4.9032624508
 21
6.1786528977
  0
LINE
  5
47C
100
AcDbEntity
  8
ALL_ASSEMBLY_MEMBERS
100
AcDbLine
 62
7
  6
CONTINUOUS
 10
4.9265839098
 20
6.1918997689
 11
4.9186351969
 21
6.1940248798
  0
LINE
  5
47D
100
AcDbEntity
  8
ALL_ASSEMBLY_MEMBERS
100
AcDbLine
 62
7
  6
CONTINUOUS
 10
5.1040953676
 20
6.044437355
 11
5.1115550182
 21
6.0424385477
  0
LINE
  5
47E
100
AcDbEntity
  8
ALL_ASSEMBLY_MEMBERS
100
AcDbLine
 62
7
  6
CONTINUOUS
 10
5.4821232998
 20
2.017376987
 11
5.4761232998
 21
2.011376987
  0
LINE
  5
47F
100
AcDbEntity
  8
ALL_ASSEMBLY_MEMBERS
100
AcDbLine
 62
7
  6
CONTINUOUS
 10
4.8724897206
 20
6.1478794394
 11
4.8722651159
 21
6.1478632012
  0
LINE
  5
480
100
AcDbEntity
  8
ALL_ASSEMBLY_MEMBERS
100
AcDbLine
 62
7
  6
CONTINUOUS
 10
4.8878504591
 20
6.1632418603
 11
4.8876276906
 21
6.1632257759
  0
LINE
  5
481
100
AcDbEntity
  8
ALL_ASSEMBLY_MEMBERS
100
AcDbLine
 62
7
  6
CONTINUOUS
 10
4.9032624499
 20
6.1786528968
 11
4.9030386293
 21
6.1786367147
  0
LINE
  5
482
100
AcDbEntity
  8
ALL_ASSEMBLY_MEMBERS
100
AcDbLine
 62
7
  6
CONTINUOUS
 10
4.9186351969
 20
6.1940248798
 11
4.9184105534
 21
6.1940086388
  0
LINE
  5
483
100
AcDbEntity
  8
ALL_ASSEMBLY_MEMBERS
100
AcDbLine
 62
7
  6
CONTINUOUS
 10
6.3851463256
 20
6.158576987
 11
6.4547982998
 21
6.158576987
  0
LINE
  5
484
100
AcDbEntity
  8
ALL_ASSEMBLY_MEMBERS
100
AcDbLine
 62
7
  6
CONTINUOUS
 10
4.9299482189
 20
6.2055463043
 11
4.9374078694
 21
6.2035474969
  0
LINE
  5
485
100
AcDbEntity
  8
ALL_ASSEMBLY_MEMBERS
100
AcDbLine
 62
7
  6
CONTINUOUS
 10
6.5177982998
 20
6.393701987
 11
6.5159217501
 21
6.393701987
  0
LINE
  5
486
100
AcDbEntity
  8
ALL_ASSEMBLY_MEMBERS
100
AcDbLine
 62
7
  6
CONTINUOUS
 10
6.4981380568
 20
6.393701987
 11
6.4941686489
 21
6.393701987
  0
LINE
  5
487
100
AcDbEntity
  8
ALL_ASSEMBLY_MEMBERS
100
AcDbLine
 62
7
  6
CONTINUOUS
 10
6.4770331567
 20
6.393701987
 11
6.472422517
 21
6.393701987
  0
LINE
  5
488
100
AcDbEntity
  8
ALL_ASSEMBLY_MEMBERS
100
AcDbLine
 62
7
  6
CONTINUOUS
 10
6.4559213006
 20
6.393701987
 11
6.4547982998
 21
6.393701987
  0
LINE
  5
489
100
AcDbEntity
  8
ALL_ASSEMBLY_MEMBERS
100
AcDbLine
 62
7
  6
CONTINUOUS
 10
6.3297411691
 20
6.393701987
 11
5.6297982998
 21
6.393701987
  0
LINE
  5
48A
100
AcDbEntity
  8
ALL_ASSEMBLY_MEMBERS
100
AcDbLine
 62
7
  6
CONTINUOUS
 10
6.4614892179
 20
6.4033522298
 11
6.4668472179
 21
6.4033522298
  0
LINE
  5
48B
100
AcDbEntity
  8
ALL_ASSEMBLY_MEMBERS
100
AcDbLine
 62
7
  6
CONTINUOUS
 10
6.4829190912
 20
6.4039015565
 11
6.4882770912
 21
6.4039015565
  0
LINE
  5
48C
100
AcDbEntity
  8
ALL_ASSEMBLY_MEMBERS
100
AcDbLine
 62
7
  6
CONTINUOUS
 10
6.5043483629
 20
6.4044629299
 11
6.5097063629
 21
6.4044629299
  0
LINE
  5
48D
100
AcDbEntity
  8
ALL_ASSEMBLY_MEMBERS
100
AcDbLine
 62
7
  6
CONTINUOUS
 10
6.5257761497
 20
6.4050528467
 11
6.5291490923
 21
6.4050528467
  0
LINE
  5
48E
100
AcDbEntity
  8
ALL_ASSEMBLY_MEMBERS
100
AcDbLine
 62
7
  6
CONTINUOUS
 10
6.520420734
 20
6.6264352355
 11
6.515062734
 21
6.6264352355
  0
LINE
  5
48F
100
AcDbEntity
  8
ALL_ASSEMBLY_MEMBERS
100
AcDbLine
 62
7
  6
CONTINUOUS
 10
6.4989916403
 20
6.6269645436
 11
6.4936336403
 21
6.6269645436
  0
LINE
  5
490
100
AcDbEntity
  8
ALL_ASSEMBLY_MEMBERS
100
AcDbLine
 62
7
  6
CONTINUOUS
 10
6.4775643396
 20
6.6275000669
 11
6.4722063396
 21
6.6275000669
  0
LINE
  5
491
100
AcDbEntity
  8
ALL_ASSEMBLY_MEMBERS
100
AcDbLine
 62
7
  6
CONTINUOUS
 10
6.4561338886
 20
6.628116346
 11
6.4547982998
 21
6.628116346
  0
LINE
  5
492
100
AcDbEntity
  8
ALL_ASSEMBLY_MEMBERS
100
AcDbLine
 62
7
  6
CONTINUOUS
 10
6.5087048637
 20
6.637451987
 11
6.5050493537
 21
6.637451987
  0
LINE
  5
493
100
AcDbEntity
  8
ALL_ASSEMBLY_MEMBERS
100
AcDbLine
 62
7
  6
CONTINUOUS
 10
6.487581455
 20
6.637451987
 11
6.4833111567
 21
6.637451987
  0
LINE
  5
494
100
AcDbEntity
  8
ALL_ASSEMBLY_MEMBERS
100
AcDbLine
 62
7
  6
CONTINUOUS
 10
6.4664616629
 20
6.637451987
 11
6.4615263605
 21
6.637451987
  0
LINE
  5
495
100
AcDbEntity
  8
ALL_ASSEMBLY_MEMBERS
100
AcDbLine
 62
7
  6
CONTINUOUS
 10
6.3297411691
 20
6.637451987
 11
5.6297982998
 21
6.637451987
  0
LINE
  5
496
100
AcDbEntity
  8
ALL_ASSEMBLY_MEMBERS
100
AcDbLine
 62
7
  6
CONTINUOUS
 10
6.466667894
 20
6.4035073377
 11
6.4722504974
 21
6.3938508043
  0
LINE
  5
497
100
AcDbEntity
  8
ALL_ASSEMBLY_MEMBERS
100
AcDbLine
 62
7
  6
CONTINUOUS
 10
6.4880968715
 20
6.4040574405
 11
6.4939982879
 21
6.3938493749
  0
LINE
  5
498
100
AcDbEntity
  8
ALL_ASSEMBLY_MEMBERS
100
AcDbLine
 62
7
  6
CONTINUOUS
 10
6.5095252271
 20
6.4046196053
 11
6.5157519096
 21
6.3938489349
  0
LINE
  5
499
100
AcDbEntity
  8
ALL_ASSEMBLY_MEMBERS
100
AcDbLine
 62
7
  6
CONTINUOUS
 10
6.4723862826
 20
6.6273444089
 11
6.4666250081
 21
6.6373106268
  0
LINE
  5
49A
100
AcDbEntity
  8
ALL_ASSEMBLY_MEMBERS
100
AcDbLine
 62
7
  6
CONTINUOUS
 10
6.4938143592
 20
6.6268082108
 11
6.4877416291
 21
6.637313403
  0
LINE
  5
49B
100
AcDbEntity
  8
ALL_ASSEMBLY_MEMBERS
100
AcDbLine
 62
7
  6
CONTINUOUS
 10
6.5152442971
 20
6.6262781743
 11
6.5088652024
 21
6.6373132664
  0
LINE
  5
49C
100
AcDbEntity
  8
ALL_ASSEMBLY_MEMBERS
100
AcDbLine
 62
7
  6
CONTINUOUS
 10
6.472250491
 20
6.3938508043
 11
6.472422517
 21
6.393701987
  0
LINE
  5
49D
100
AcDbEntity
  8
ALL_ASSEMBLY_MEMBERS
100
AcDbLine
 62
7
  6
CONTINUOUS
 10
6.5159217786
 20
6.393701987
 11
6.5157519096
 21
6.3938489349
  0
LINE
  5
49E
100
AcDbEntity
  8
ALL_ASSEMBLY_MEMBERS
100
AcDbLine
 62
7
  6
CONTINUOUS
 10
6.4939982878
 20
6.3938493749
 11
6.4941686489
 21
6.393701987
  0
LINE
  5
49F
100
AcDbEntity
  8
ALL_ASSEMBLY_MEMBERS
100
AcDbLine
 62
7
  6
CONTINUOUS
 10
6.3851463256
 20
6.872576987
 11
6.4547982998
 21
6.872576987
  0
LINE
  5
4A0
100
AcDbEntity
  8
ALL_ASSEMBLY_MEMBERS
100
AcDbLine
 62
7
  6
CONTINUOUS
 10
6.4877416288
 20
6.637313403
 11
6.487581455
 21
6.637451987
  0
LINE
  5
4A1
100
AcDbEntity
  8
ALL_ASSEMBLY_MEMBERS
100
AcDbLine
 62
7
  6
CONTINUOUS
 10
6.5088652039
 20
6.6373132664
 11
6.5087048637
 21
6.637451987
  0
LINE
  5
4A2
100
AcDbEntity
  8
ALL_ASSEMBLY_MEMBERS
100
AcDbLine
 62
7
  6
CONTINUOUS
 10
6.4666250045
 20
6.6373106268
 11
6.4664616629
 21
6.637451987
  0
LINE
  5
4A3
100
AcDbEntity
  8
ALL_ASSEMBLY_MEMBERS
100
AcDbLine
 62
7
  6
CONTINUOUS
 10
6.5297982998
 20
6.625451987
 11
6.523494975
 21
6.6317553118
  0
ARC
  5
4A4
100
AcDbEntity
  8
ALL_ASSEMBLY_MEMBERS
100
AcDbCircle
 62
9
  6
CONTINUOUS
 10
3.6683136127
 20
4.1775768659
 40
1.2124981748
100
AcDbArc
 50
51.7812560082
 51
51.9811552471
  0
ARC
  5
4A5
100
AcDbEntity
  8
ALL_ASSEMBLY_MEMBERS
100
AcDbCircle
 62
7
  6
CONTINUOUS
 10
5.4800232998
 20
2.818136987
 40
0.0282
100
AcDbArc
 50
300.2506503162
 51
359.8780939942
  0
ARC
  5
4A6
100
AcDbEntity
  8
ALL_ASSEMBLY_MEMBERS
100
AcDbCircle
 62
7
  6
CONTINUOUS
 10
5.4800232998
 20
3.013016987
 40
0.0282
100
AcDbArc
 50
0.1219060058
 51
59.7493496838
  0
ARC
  5
4A7
100
AcDbEntity
  8
ALL_ASSEMBLY_MEMBERS
100
AcDbCircle
 62
7
  6
CONTINUOUS
 10
5.2874232998
 20
2.818136987
 40
0.0282
100
AcDbArc
 50
120.2506503162
 51
239.7493496838
  0
ARC
  5
4A8
100
AcDbEntity
  8
ALL_ASSEMBLY_MEMBERS
100
AcDbCircle
 62
7
  6
CONTINUOUS
 10
5.2874232998
 20
2.866856987
 40
0.0282
100
AcDbArc
 50
120.2506503162
 51
239.7493496838
  0
ARC
  5
4A9
100
AcDbEntity
  8
ALL_ASSEMBLY_MEMBERS
100
AcDbCircle
 62
7
  6
CONTINUOUS
 10
5.2874232998
 20
2.915576987
 40
0.0282
100
AcDbArc
 50
120.2506503162
 51
239.7493496838
  0
ARC
  5
4AA
100
AcDbEntity
  8
ALL_ASSEMBLY_MEMBERS
100
AcDbCircle
 62
7
  6
CONTINUOUS
 10
5.2874232998
 20
3.013016987
 40
0.0282
100
AcDbArc
 50
120.2506503162
 51
239.7493496838
  0
ARC
  5
4AB
100
AcDbEntity
  8
ALL_ASSEMBLY_MEMBERS
100
AcDbCircle
 62
7
  6
CONTINUOUS
 10
5.2874232998
 20
2.964296987
 40
0.0282
100
AcDbArc
 50
120.2506503162
 51
239.7493496838
  0
ARC
  5
4AC
100
AcDbEntity
  8
ALL_ASSEMBLY_MEMBERS
100
AcDbCircle
 62
9
  6
CONTINUOUS
 10
3.3610890312
 20
4.9857472761
 40
0.8554758466
100
AcDbArc
 50
37.9155442767
 51
38.0775594545
  0
ARC
  5
4AD
100
AcDbEntity
  8
ALL_ASSEMBLY_MEMBERS
100
AcDbCircle
 62
9
  6
CONTINUOUS
 10
3.5249527229
 20
5.1298285945
 40
0.6342459163
100
AcDbArc
 50
36.6147372642
 51
36.7873314775
  0
ARC
  5
4AE
100
AcDbEntity
  8
ALL_ASSEMBLY_MEMBERS
100
AcDbCircle
 62
9
  6
CONTINUOUS
 10
3.5267650799
 20
5.1311854063
 40
0.6319819432
100
AcDbArc
 50
36.7872138224
 51
36.9773471013
  0
ARC
  5
4AF
100
AcDbEntity
  8
ALL_ASSEMBLY_MEMBERS
100
AcDbCircle
 62
9
  6
CONTINUOUS
 10
3.8919508099
 20
4.4362495167
 40
0.8676828684
100
AcDbArc
 50
52.873436649
 51
53.0159493769
  0
ARC
  5
4B0
100
AcDbEntity
  8
ALL_ASSEMBLY_MEMBERS
100
AcDbCircle
 62
9
  6
CONTINUOUS
 10
4.131923698
 20
4.8111949324
 40
0.4306591882
100
AcDbArc
 50
52.5483609636
 51
52.8492115709
  0
ARC
  5
4B1
100
AcDbEntity
  8
ALL_ASSEMBLY_MEMBERS
100
AcDbCircle
 62
9
  6
CONTINUOUS
 10
4.1526331031
 20
4.8385314549
 40
0.3963639275
100
AcDbArc
 50
52.848847262
 51
53.0327092736
  0
ARC
  5
4B2
100
AcDbEntity
  8
ALL_ASSEMBLY_MEMBERS
100
AcDbCircle
 62
9
  6
CONTINUOUS
 10
4.2258358194
 20
4.922541714
 40
0.2815448658
100
AcDbArc
 50
53.8796163228
 51
54.7136671047
  0
ARC
  5
4B3
100
AcDbEntity
  8
ALL_ASSEMBLY_MEMBERS
100
AcDbCircle
 62
7
  6
CONTINUOUS
 10
4.0533837081
 20
5.3959815216
 40
0.1106196898
100
AcDbArc
 50
41.357076317
 51
43.7576514794
  0
ARC
  5
4B4
100
AcDbEntity
  8
ALL_ASSEMBLY_MEMBERS
100
AcDbCircle
 62
7
  6
CONTINUOUS
 10
4.1350091304
 20
5.3197556307
 40
0.106796856
100
AcDbArc
 50
42.5439871335
 51
44.7021225732
  0
ARC
  5
4B5
100
AcDbEntity
  8
ALL_ASSEMBLY_MEMBERS
100
AcDbCircle
 62
7
  6
CONTINUOUS
 10
4.1387362372
 20
5.3234092787
 40
0.1015776778
100
AcDbArc
 50
44.7161165675
 51
44.9995857783
  0
ARC
  5
4B6
100
AcDbEntity
  8
ALL_ASSEMBLY_MEMBERS
100
AcDbCircle
 62
7
  6
CONTINUOUS
 10
4.1410252126
 20
5.3257138957
 40
0.0983295181
100
AcDbArc
 50
44.993127358
 51
47.4999201317
  0
ARC
  5
4B7
100
AcDbEntity
  8
ALL_ASSEMBLY_MEMBERS
100
AcDbCircle
 62
7
  6
CONTINUOUS
 10
4.0646092325
 20
5.4066436518
 40
0.0951378022
100
AcDbArc
 50
43.7954273801
 51
44.9789517506
  0
ARC
  5
4B8
100
AcDbEntity
  8
ALL_ASSEMBLY_MEMBERS
100
AcDbCircle
 62
7
  6
CONTINUOUS
 10
4.0691592964
 20
5.4076576105
 40
0.0910053405
100
AcDbArc
 50
35.3845880729
 51
36.7231303912
  0
ARC
  5
4B9
100
AcDbEntity
  8
ALL_ASSEMBLY_MEMBERS
100
AcDbCircle
 62
7
  6
CONTINUOUS
 10
4.0769018228
 20
5.4131569059
 40
0.0815085534
100
AcDbArc
 50
34.6492583196
 51
35.3845294794
  0
ARC
  5
4BA
100
AcDbEntity
  8
ALL_ASSEMBLY_MEMBERS
100
AcDbCircle
 62
9
  6
CONTINUOUS
 10
4.1644535645
 20
5.3633360544
 40
0.0141516976
100
AcDbArc
 50
26.7665726712
 51
27.2869906581
  0
ARC
  5
4BB
100
AcDbEntity
  8
ALL_ASSEMBLY_MEMBERS
100
AcDbCircle
 62
7
  6
CONTINUOUS
 10
4.1774350239
 20
5.3106065833
 40
0.0059055118
100
AcDbArc
 50
224.9972642495
 51
269.9974348102
  0
ARC
  5
4BC
100
AcDbEntity
  8
ALL_ASSEMBLY_MEMBERS
100
AcDbCircle
 62
7
  6
CONTINUOUS
 10
4.1316196288
 20
5.3564219785
 40
0.0059055118
100
AcDbArc
 50
180.0025651901
 51
225.002735751
  0
ARC
  5
4BD
100
AcDbEntity
  8
ALL_ASSEMBLY_MEMBERS
100
AcDbCircle
 62
7
  6
CONTINUOUS
 10
4.1808943927
 20
5.2987955597
 40
0.0059055118
100
AcDbArc
 50
45.00392895
 51
90.0024317524
  0
ARC
  5
4BE
100
AcDbEntity
  8
ALL_ASSEMBLY_MEMBERS
100
AcDbCircle
 62
7
  6
CONTINUOUS
 10
4.1198086052
 20
5.3598813472
 40
0.0059055118
100
AcDbArc
 50
359.9975682479
 51
44.9960710504
  0
ARC
  5
4BF
100
AcDbEntity
  8
ALL_ASSEMBLY_MEMBERS
100
AcDbCircle
 62
7
  6
CONTINUOUS
 10
4.1238744097
 20
5.3641671976
 40
0.0059055118
100
AcDbArc
 50
224.9972643243
 51
269.9974348681
  0
ARC
  5
4C0
100
AcDbEntity
  8
ALL_ASSEMBLY_MEMBERS
100
AcDbCircle
 62
7
  6
CONTINUOUS
 10
4.0780590145
 20
5.4099825927
 40
0.0059055118
100
AcDbArc
 50
180.0025651318
 51
225.0027356757
  0
ARC
  5
4C1
100
AcDbEntity
  8
ALL_ASSEMBLY_MEMBERS
100
AcDbCircle
 62
7
  6
CONTINUOUS
 10
4.0662479909
 20
5.4134419615
 40
0.0059055118
100
AcDbArc
 50
359.9975750784
 51
44.9960818714
  0
ARC
  5
4C2
100
AcDbEntity
  8
ALL_ASSEMBLY_MEMBERS
100
AcDbCircle
 62
7
  6
CONTINUOUS
 10
4.1619073127
 20
5.3674103121
 40
0.0035433071
100
AcDbArc
 50
224.9997435846
 51
269.9997499651
  0
ARC
  5
4C3
100
AcDbEntity
  8
ALL_ASSEMBLY_MEMBERS
100
AcDbCircle
 62
7
  6
CONTINUOUS
 10
4.1673235959
 20
5.3674103121
 40
0.0035433071
100
AcDbArc
 50
269.9996996385
 51
315.0
  0
ARC
  5
4C4
100
AcDbEntity
  8
ALL_ASSEMBLY_MEMBERS
100
AcDbCircle
 62
7
  6
CONTINUOUS
 10
4.1422686312
 20
5.3924652768
 40
0.0035433071
100
AcDbArc
 50
135.0
 51
180.0003003629
  0
ARC
  5
4C5
100
AcDbEntity
  8
ALL_ASSEMBLY_MEMBERS
100
AcDbCircle
 62
7
  6
CONTINUOUS
 10
4.1422686312
 20
5.3870489936
 40
0.0035433071
100
AcDbArc
 50
180.0002500349
 51
225.0002564154
  0
ARC
  5
4C6
100
AcDbEntity
  8
ALL_ASSEMBLY_MEMBERS
100
AcDbCircle
 62
7
  6
CONTINUOUS
 10
4.2942665682
 20
5.1582803788
 40
0.1083684502
100
AcDbArc
 50
46.2842439253
 51
48.5852420821
  0
ARC
  5
4C7
100
AcDbEntity
  8
ALL_ASSEMBLY_MEMBERS
100
AcDbCircle
 62
7
  6
CONTINUOUS
 10
4.2162448132
 20
5.2379558851
 40
0.1071960397
100
AcDbArc
 50
46.2172186542
 51
47.4010162394
  0
ARC
  5
4C8
100
AcDbEntity
  8
ALL_ASSEMBLY_MEMBERS
100
AcDbCircle
 62
7
  6
CONTINUOUS
 10
4.2187736768
 20
5.2405745993
 40
0.1035556251
100
AcDbArc
 50
45.0033995786
 51
46.2248550895
  0
ARC
  5
4C9
100
AcDbEntity
  8
ALL_ASSEMBLY_MEMBERS
100
AcDbCircle
 62
7
  6
CONTINUOUS
 10
4.2238301493
 20
5.2455651989
 40
0.0964512865
100
AcDbArc
 50
42.418001692
 51
45.0313198202
  0
ARC
  5
4CA
100
AcDbEntity
  8
ALL_ASSEMBLY_MEMBERS
100
AcDbCircle
 62
7
  6
CONTINUOUS
 10
4.3047024892
 20
5.1691799792
 40
0.0932784001
100
AcDbArc
 50
45.0083098767
 51
46.2905928537
  0
ARC
  5
4CB
100
AcDbEntity
  8
ALL_ASSEMBLY_MEMBERS
100
AcDbCircle
 62
7
  6
CONTINUOUS
 10
4.253181171
 20
5.2348604362
 40
0.0059055118
100
AcDbArc
 50
224.9972643243
 51
269.9974348682
  0
ARC
  5
4CC
100
AcDbEntity
  8
ALL_ASSEMBLY_MEMBERS
100
AcDbCircle
 62
7
  6
CONTINUOUS
 10
4.2073657759
 20
5.2806758314
 40
0.0059055118
100
AcDbArc
 50
180.0025651318
 51
225.0027356756
  0
ARC
  5
4CD
100
AcDbEntity
  8
ALL_ASSEMBLY_MEMBERS
100
AcDbCircle
 62
7
  6
CONTINUOUS
 10
4.2566405397
 20
5.2230494126
 40
0.0059055118
100
AcDbArc
 50
45.0039181287
 51
90.0024249216
  0
ARC
  5
4CE
100
AcDbEntity
  8
ALL_ASSEMBLY_MEMBERS
100
AcDbCircle
 62
7
  6
CONTINUOUS
 10
4.1955547522
 20
5.2841352001
 40
0.0059055118
100
AcDbArc
 50
359.9975750785
 51
44.9960818716
  0
ARC
  5
4CF
100
AcDbEntity
  8
ALL_ASSEMBLY_MEMBERS
100
AcDbCircle
 62
7
  6
CONTINUOUS
 10
4.3067417853
 20
5.181299822
 40
0.0059055118
100
AcDbArc
 50
224.9972642494
 51
269.9974348102
  0
ARC
  5
4D0
100
AcDbEntity
  8
ALL_ASSEMBLY_MEMBERS
100
AcDbCircle
 62
7
  6
CONTINUOUS
 10
4.2609263901
 20
5.2271152171
 40
0.0059055118
100
AcDbArc
 50
180.0025651901
 51
225.002735751
  0
ARC
  5
4D1
100
AcDbEntity
  8
ALL_ASSEMBLY_MEMBERS
100
AcDbCircle
 62
7
  6
CONTINUOUS
 10
4.310201154
 20
5.1694887984
 40
0.0059055118
100
AcDbArc
 50
45.00392895
 51
90.0024317524
  0
ARC
  5
4D2
100
AcDbEntity
  8
ALL_ASSEMBLY_MEMBERS
100
AcDbCircle
 62
7
  6
CONTINUOUS
 10
4.2545614243
 20
5.2747562005
 40
0.0035433071
100
AcDbArc
 50
224.999740368
 51
269.9997468357
  0
ARC
  5
4D3
100
AcDbEntity
  8
ALL_ASSEMBLY_MEMBERS
100
AcDbCircle
 62
7
  6
CONTINUOUS
 10
4.2599777074
 20
5.2747562005
 40
0.0035433071
100
AcDbArc
 50
269.9997000107
 51
315.0
  0
ARC
  5
4D4
100
AcDbEntity
  8
ALL_ASSEMBLY_MEMBERS
100
AcDbCircle
 62
9
  6
CONTINUOUS
 10
4.2323892666
 20
5.3416594917
 40
0.0217337524
100
AcDbArc
 50
237.4159120696
 51
238.5584560559
  0
ARC
  5
4D5
100
AcDbEntity
  8
ALL_ASSEMBLY_MEMBERS
100
AcDbCircle
 62
7
  6
CONTINUOUS
 10
4.2633145126
 20
5.3398300244
 40
0.0059055118
100
AcDbArc
 50
269.9975417674
 51
315.0
  0
ARC
  5
4D6
100
AcDbEntity
  8
ALL_ASSEMBLY_MEMBERS
100
AcDbCircle
 62
7
  6
CONTINUOUS
 10
4.2365892169
 20
5.36655532
 40
0.0059055118
100
AcDbArc
 50
135.0
 51
180.0024582326
  0
ARC
  5
4D7
100
AcDbEntity
  8
ALL_ASSEMBLY_MEMBERS
100
AcDbCircle
 62
7
  6
CONTINUOUS
 10
4.2365892169
 20
5.3630959513
 40
0.0059055118
100
AcDbArc
 50
180.0011432897
 51
225.0010067374
  0
ARC
  5
4D8
100
AcDbEntity
  8
ALL_ASSEMBLY_MEMBERS
100
AcDbCircle
 62
7
  6
CONTINUOUS
 10
4.2598551439
 20
5.3398300244
 40
0.0059055118
100
AcDbArc
 50
224.9989932627
 51
269.9988567103
  0
ARC
  5
4D9
100
AcDbEntity
  8
ALL_ASSEMBLY_MEMBERS
100
AcDbCircle
 62
7
  6
CONTINUOUS
 10
4.2690346283
 20
5.316482938
 40
0.0059055118
100
AcDbArc
 50
135.0
 51
180.0012049649
  0
ARC
  5
4DA
100
AcDbEntity
  8
ALL_ASSEMBLY_MEMBERS
100
AcDbCircle
 62
7
  6
CONTINUOUS
 10
4.2907489311
 20
5.2947686352
 40
0.0059055118
100
AcDbArc
 50
269.9987950343
 51
315.0
  0
ARC
  5
4DB
100
AcDbEntity
  8
ALL_ASSEMBLY_MEMBERS
100
AcDbCircle
 62
7
  6
CONTINUOUS
 10
4.2872895623
 20
5.2947686352
 40
0.0059055118
100
AcDbArc
 50
224.9989177854
 51
269.9986727936
  0
ARC
  5
4DC
100
AcDbEntity
  8
ALL_ASSEMBLY_MEMBERS
100
AcDbCircle
 62
7
  6
CONTINUOUS
 10
4.2690346283
 20
5.3130235692
 40
0.0059055118
100
AcDbArc
 50
180.0013272063
 51
225.0010822146
  0
ARC
  5
4DD
100
AcDbEntity
  8
ALL_ASSEMBLY_MEMBERS
100
AcDbCircle
 62
7
  6
CONTINUOUS
 10
4.2097827618
 20
5.3722754358
 40
0.0059055118
100
AcDbArc
 50
224.998917781
 51
269.9986727884
  0
ARC
  5
4DE
100
AcDbEntity
  8
ALL_ASSEMBLY_MEMBERS
100
AcDbCircle
 62
7
  6
CONTINUOUS
 10
4.2132421305
 20
5.3722754358
 40
0.0059055118
100
AcDbArc
 50
269.9987952044
 51
315.0
  0
ARC
  5
4DF
100
AcDbEntity
  8
ALL_ASSEMBLY_MEMBERS
100
AcDbCircle
 62
7
  6
CONTINUOUS
 10
4.1915278278
 20
5.3939897385
 40
0.0059055118
100
AcDbArc
 50
135.0
 51
180.0012047956
  0
ARC
  5
4E0
100
AcDbEntity
  8
ALL_ASSEMBLY_MEMBERS
100
AcDbCircle
 62
7
  6
CONTINUOUS
 10
4.1915278278
 20
5.3905303698
 40
0.0059055118
100
AcDbArc
 50
180.0013272117
 51
225.001082219
  0
ARC
  5
4E1
100
AcDbEntity
  8
ALL_ASSEMBLY_MEMBERS
100
AcDbCircle
 62
7
  6
CONTINUOUS
 10
4.2077866937
 20
5.3215309311
 40
0.0035433071
100
AcDbArc
 50
224.999740367
 51
269.999746835
  0
ARC
  5
4E2
100
AcDbEntity
  8
ALL_ASSEMBLY_MEMBERS
100
AcDbCircle
 62
7
  6
CONTINUOUS
 10
4.2132029769
 20
5.3215309311
 40
0.0035433071
100
AcDbArc
 50
269.9997000112
 51
315.0
  0
ARC
  5
4E3
100
AcDbEntity
  8
ALL_ASSEMBLY_MEMBERS
100
AcDbCircle
 62
7
  6
CONTINUOUS
 10
4.1881480122
 20
5.3465858958
 40
0.0035433071
100
AcDbArc
 50
135.0
 51
180.0002999888
  0
ARC
  5
4E4
100
AcDbEntity
  8
ALL_ASSEMBLY_MEMBERS
100
AcDbCircle
 62
7
  6
CONTINUOUS
 10
4.1881480122
 20
5.3411696126
 40
0.0035433071
100
AcDbArc
 50
180.0002531649
 51
225.0002596329
  0
ARC
  5
4E5
100
AcDbEntity
  8
ALL_ASSEMBLY_MEMBERS
100
AcDbCircle
 62
7
  6
CONTINUOUS
 10
4.2349227428
 20
5.2998111652
 40
0.0035433071
100
AcDbArc
 50
135.0
 51
180.000299988
  0
ARC
  5
4E6
100
AcDbEntity
  8
ALL_ASSEMBLY_MEMBERS
100
AcDbCircle
 62
7
  6
CONTINUOUS
 10
4.2349227428
 20
5.294394882
 40
0.0035433071
100
AcDbArc
 50
180.0002531656
 51
225.0002596339
  0
ARC
  5
4E7
100
AcDbEntity
  8
ALL_ASSEMBLY_MEMBERS
100
AcDbCircle
 62
7
  6
CONTINUOUS
 10
3.7148350049
 20
5.5527331626
 40
0.2555554769
100
AcDbArc
 50
29.5802845714
 51
30.8148825966
  0
ARC
  5
4E8
100
AcDbEntity
  8
ALL_ASSEMBLY_MEMBERS
100
AcDbCircle
 62
7
  6
CONTINUOUS
 10
3.8647311964
 20
5.5443591746
 40
0.1376398345
100
AcDbArc
 50
30.7398694105
 51
31.4619434953
  0
ARC
  5
4E9
100
AcDbEntity
  8
ALL_ASSEMBLY_MEMBERS
100
AcDbCircle
 62
7
  6
CONTINUOUS
 10
3.8925027216
 20
5.560831167
 40
0.1053507914
100
AcDbArc
 50
29.9052563577
 51
30.7602878988
  0
ARC
  5
4EA
100
AcDbEntity
  8
ALL_ASSEMBLY_MEMBERS
100
AcDbCircle
 62
7
  6
CONTINUOUS
 10
3.8899169605
 20
5.6014640952
 40
0.0935032326
100
AcDbArc
 50
27.3095055535
 51
28.1814921147
  0
ARC
  5
4EB
100
AcDbEntity
  8
ALL_ASSEMBLY_MEMBERS
100
AcDbCircle
 62
7
  6
CONTINUOUS
 10
3.9400466595
 20
5.6630978775
 40
0.0059055118
100
AcDbArc
 50
135.0
 51
180.0024588144
  0
ARC
  5
4EC
100
AcDbEntity
  8
ALL_ASSEMBLY_MEMBERS
100
AcDbCircle
 62
7
  6
CONTINUOUS
 10
3.9400466595
 20
5.6596385088
 40
0.0059055118
100
AcDbArc
 50
180.0011432902
 51
225.001006738
  0
ARC
  5
4ED
100
AcDbEntity
  8
ALL_ASSEMBLY_MEMBERS
100
AcDbCircle
 62
7
  6
CONTINUOUS
 10
3.9325642672
 20
5.6705802698
 40
0.0059055118
100
AcDbArc
 50
269.9975411863
 51
288.8750990227
  0
ARC
  5
4EE
100
AcDbEntity
  8
ALL_ASSEMBLY_MEMBERS
100
AcDbCircle
 62
7
  6
CONTINUOUS
 10
3.9058389715
 20
5.6973055654
 40
0.0059055118
100
AcDbArc
 50
135.0
 51
180.0024588147
  0
ARC
  5
4EF
100
AcDbEntity
  8
ALL_ASSEMBLY_MEMBERS
100
AcDbCircle
 62
7
  6
CONTINUOUS
 10
3.9058389715
 20
5.6938461967
 40
0.0059055118
100
AcDbArc
 50
180.0011432896
 51
225.0010067372
  0
ARC
  5
4F0
100
AcDbEntity
  8
ALL_ASSEMBLY_MEMBERS
100
AcDbCircle
 62
7
  6
CONTINUOUS
 10
3.9291048984
 20
5.6705802698
 40
0.0059055118
100
AcDbArc
 50
224.9989932615
 51
269.9988567095
  0
ARC
  5
4F1
100
AcDbEntity
  8
ALL_ASSEMBLY_MEMBERS
100
AcDbCircle
 62
7
  6
CONTINUOUS
 10
3.9359199286
 20
5.6495976377
 40
0.0059055118
100
AcDbArc
 50
135.0
 51
180.0012049649
  0
ARC
  5
4F2
100
AcDbEntity
  8
ALL_ASSEMBLY_MEMBERS
100
AcDbCircle
 62
7
  6
CONTINUOUS
 10
3.9359199286
 20
5.646138269
 40
0.0059055118
100
AcDbArc
 50
180.0013272064
 51
225.0010822146
  0
ARC
  5
4F3
100
AcDbEntity
  8
ALL_ASSEMBLY_MEMBERS
100
AcDbCircle
 62
7
  6
CONTINUOUS
 10
3.8772530312
 20
5.9796357205
 40
0.135
100
AcDbArc
 50
276.6210152008
 51
315.0
  0
ARC
  5
4F4
100
AcDbEntity
  8
ALL_ASSEMBLY_MEMBERS
100
AcDbCircle
 62
7
  6
CONTINUOUS
 10
3.884171121
 20
5.920035888
 40
0.075
100
AcDbArc
 50
247.8632234306
 51
276.6210152008
  0
ARC
  5
4F5
100
AcDbEntity
  8
ALL_ASSEMBLY_MEMBERS
100
AcDbCircle
 62
7
  6
CONTINUOUS
 10
3.8468660501
 20
5.8283334798
 40
0.024
100
AcDbArc
 50
67.8632234306
 51
132.7285491583
  0
ARC
  5
4F6
100
AcDbEntity
  8
ALL_ASSEMBLY_MEMBERS
100
AcDbCircle
 62
7
  6
CONTINUOUS
 10
3.8941713662
 20
5.7089731708
 40
0.0059055118
100
AcDbArc
 50
135.0
 51
180.0010232871
  0
ARC
  5
4F7
100
AcDbEntity
  8
ALL_ASSEMBLY_MEMBERS
100
AcDbCircle
 62
7
  6
CONTINUOUS
 10
3.8941713662
 20
5.705513802
 40
0.0059055118
100
AcDbArc
 50
180.0010369649
 51
225.0000000002
  0
ARC
  5
4F8
100
AcDbEntity
  8
ALL_ASSEMBLY_MEMBERS
100
AcDbCircle
 62
7
  6
CONTINUOUS
 10
3.8843157721
 20
5.7369846503
 40
0.0023622047
100
AcDbArc
 50
218.984221312
 51
225.0
  0
ARC
  5
4F9
100
AcDbEntity
  8
ALL_ASSEMBLY_MEMBERS
100
AcDbCircle
 62
7
  6
CONTINUOUS
 10
4.0091230232
 20
5.492217834
 40
0.0738624013
100
AcDbArc
 50
43.7111035605
 51
44.9633319433
  0
ARC
  5
4FA
100
AcDbEntity
  8
ALL_ASSEMBLY_MEMBERS
100
AcDbCircle
 62
9
  6
CONTINUOUS
 10
4.012021661
 20
5.4440026633
 40
0.0636815593
100
AcDbArc
 50
32.744999173
 51
33.8407466364
  0
ARC
  5
4FB
100
AcDbEntity
  8
ALL_ASSEMBLY_MEMBERS
100
AcDbCircle
 62
7
  6
CONTINUOUS
 10
4.0198015766
 20
5.5028515349
 40
0.0587923486
100
AcDbArc
 50
44.9848411767
 51
46.6256784979
  0
ARC
  5
4FC
100
AcDbEntity
  8
ALL_ASSEMBLY_MEMBERS
100
AcDbCircle
 62
7
  6
CONTINUOUS
 10
4.0545361914
 20
5.4663655931
 40
0.0118110236
100
AcDbArc
 50
334.9999167392
 51
39.208519173
  0
ARC
  5
4FD
100
AcDbEntity
  8
ALL_ASSEMBLY_MEMBERS
100
AcDbCircle
 62
7
  6
CONTINUOUS
 10
4.0600735848
 20
5.4363196774
 40
0.0059055118
100
AcDbArc
 50
155.0000948195
 51
225.0002417934
  0
ARC
  5
4FE
100
AcDbEntity
  8
ALL_ASSEMBLY_MEMBERS
100
AcDbCircle
 62
7
  6
CONTINUOUS
 10
4.0111383194
 20
5.5235955885
 40
0.0035433071
100
AcDbArc
 50
135.0
 51
180.0002999879
  0
ARC
  5
4FF
100
AcDbEntity
  8
ALL_ASSEMBLY_MEMBERS
100
AcDbCircle
 62
7
  6
CONTINUOUS
 10
4.0111383194
 20
5.5181793053
 40
0.0035433071
100
AcDbArc
 50
180.0002531656
 51
225.0002596339
  0
ARC
  5
500
100
AcDbEntity
  8
ALL_ASSEMBLY_MEMBERS
100
AcDbCircle
 62
7
  6
CONTINUOUS
 10
4.0164384138
 20
5.5182954942
 40
0.0035433071
100
AcDbArc
 50
135.0
 51
180.0002999879
  0
ARC
  5
501
100
AcDbEntity
  8
ALL_ASSEMBLY_MEMBERS
100
AcDbCircle
 62
7
  6
CONTINUOUS
 10
4.0164384138
 20
5.512879211
 40
0.0035433071
100
AcDbArc
 50
180.0002531652
 51
225.0002596333
  0
ARC
  5
502
100
AcDbEntity
  8
ALL_ASSEMBLY_MEMBERS
100
AcDbCircle
 62
7
  6
CONTINUOUS
 10
4.0524735569
 20
5.4768440678
 40
0.0035433071
100
AcDbArc
 50
224.9997403663
 51
269.9997468346
  0
ARC
  5
503
100
AcDbEntity
  8
ALL_ASSEMBLY_MEMBERS
100
AcDbCircle
 62
7
  6
CONTINUOUS
 10
4.0578898401
 20
5.4768440678
 40
0.0035433071
100
AcDbArc
 50
269.9997000108
 51
315.0
  0
ARC
  5
504
100
AcDbEntity
  8
ALL_ASSEMBLY_MEMBERS
100
AcDbCircle
 62
7
  6
CONTINUOUS
 10
4.0328348755
 20
5.5018990325
 40
0.0035433071
100
AcDbArc
 50
135.0
 51
180.0002999885
  0
ARC
  5
505
100
AcDbEntity
  8
ALL_ASSEMBLY_MEMBERS
100
AcDbCircle
 62
7
  6
CONTINUOUS
 10
4.0328348755
 20
5.4964827493
 40
0.0035433071
100
AcDbArc
 50
180.0002531654
 51
225.0002596337
  0
ARC
  5
506
100
AcDbEntity
  8
ALL_ASSEMBLY_MEMBERS
100
AcDbCircle
 62
7
  6
CONTINUOUS
 10
3.961997408
 20
5.5418013049
 40
0.0699064059
100
AcDbArc
 50
29.2346095077
 51
29.5434897532
  0
ARC
  5
507
100
AcDbEntity
  8
ALL_ASSEMBLY_MEMBERS
100
AcDbCircle
 62
7
  6
CONTINUOUS
 10
3.9735454277
 20
5.548198736
 40
0.0567048972
100
AcDbArc
 50
27.7598662873
 51
29.292535395
  0
ARC
  5
508
100
AcDbEntity
  8
ALL_ASSEMBLY_MEMBERS
100
AcDbCircle
 62
7
  6
CONTINUOUS
 10
4.0211885283
 20
5.5819560086
 40
0.0059055118
100
AcDbArc
 50
269.9975411859
 51
315.0
  0
ARC
  5
509
100
AcDbEntity
  8
ALL_ASSEMBLY_MEMBERS
100
AcDbCircle
 62
7
  6
CONTINUOUS
 10
3.9944632327
 20
5.6086813043
 40
0.0059055118
100
AcDbArc
 50
135.0
 51
180.0024588136
  0
ARC
  5
50A
100
AcDbEntity
  8
ALL_ASSEMBLY_MEMBERS
100
AcDbCircle
 62
7
  6
CONTINUOUS
 10
3.9944632327
 20
5.6052219356
 40
0.0059055118
100
AcDbArc
 50
180.0011432902
 51
225.001006738
  0
ARC
  5
50B
100
AcDbEntity
  8
ALL_ASSEMBLY_MEMBERS
100
AcDbCircle
 62
7
  6
CONTINUOUS
 10
4.0177291596
 20
5.5819560086
 40
0.0059055118
100
AcDbArc
 50
224.998993262
 51
269.9988567098
  0
ARC
  5
50C
100
AcDbEntity
  8
ALL_ASSEMBLY_MEMBERS
100
AcDbCircle
 62
7
  6
CONTINUOUS
 10
3.9667719551
 20
5.6363725818
 40
0.0059055118
100
AcDbArc
 50
269.9975411863
 51
315.0
  0
ARC
  5
50D
100
AcDbEntity
  8
ALL_ASSEMBLY_MEMBERS
100
AcDbCircle
 62
7
  6
CONTINUOUS
 10
3.9633125864
 20
5.6363725818
 40
0.0059055118
100
AcDbArc
 50
224.998993262
 51
269.9988567098
  0
ARC
  5
50E
100
AcDbEntity
  8
ALL_ASSEMBLY_MEMBERS
100
AcDbCircle
 62
7
  6
CONTINUOUS
 10
3.9947335649
 20
5.5907840014
 40
0.0059055118
100
AcDbArc
 50
135.0
 51
180.0012047959
  0
ARC
  5
50F
100
AcDbEntity
  8
ALL_ASSEMBLY_MEMBERS
100
AcDbCircle
 62
7
  6
CONTINUOUS
 10
4.0164478677
 20
5.5690696986
 40
0.0059055118
100
AcDbArc
 50
269.9987952046
 51
315.0
  0
ARC
  5
510
100
AcDbEntity
  8
ALL_ASSEMBLY_MEMBERS
100
AcDbCircle
 62
7
  6
CONTINUOUS
 10
4.0129884989
 20
5.5690696986
 40
0.0059055118
100
AcDbArc
 50
224.9989177866
 51
269.9986727949
  0
ARC
  5
511
100
AcDbEntity
  8
ALL_ASSEMBLY_MEMBERS
100
AcDbCircle
 62
7
  6
CONTINUOUS
 10
3.9947335649
 20
5.5873246326
 40
0.0059055118
100
AcDbArc
 50
180.0013272051
 51
225.0010822135
  0
ARC
  5
512
100
AcDbEntity
  8
ALL_ASSEMBLY_MEMBERS
100
AcDbCircle
 62
7
  6
CONTINUOUS
 10
3.9541748626
 20
5.627883335
 40
0.0059055118
100
AcDbArc
 50
224.9989177854
 51
237.5062037105
  0
ARC
  5
513
100
AcDbEntity
  8
ALL_ASSEMBLY_MEMBERS
100
AcDbCircle
 62
7
  6
CONTINUOUS
 10
3.9742350987
 20
5.6078230989
 40
0.0059055118
100
AcDbArc
 50
224.9989177867
 51
269.998672795
  0
ARC
  5
514
100
AcDbEntity
  8
ALL_ASSEMBLY_MEMBERS
100
AcDbCircle
 62
7
  6
CONTINUOUS
 10
3.9776944674
 20
5.6078230989
 40
0.0059055118
100
AcDbArc
 50
269.9987952045
 51
315.0
  0
ARC
  5
515
100
AcDbEntity
  8
ALL_ASSEMBLY_MEMBERS
100
AcDbCircle
 62
7
  6
CONTINUOUS
 10
3.9559801647
 20
5.6295374016
 40
0.0059055118
100
AcDbArc
 50
135.0
 51
180.0012047948
  0
ARC
  5
516
100
AcDbEntity
  8
ALL_ASSEMBLY_MEMBERS
100
AcDbCircle
 62
7
  6
CONTINUOUS
 10
3.9559801647
 20
5.6260780329
 40
0.0059055118
100
AcDbArc
 50
180.0013272052
 51
225.0010822136
  0
ARC
  5
517
100
AcDbEntity
  8
ALL_ASSEMBLY_MEMBERS
100
AcDbCircle
 62
7
  6
CONTINUOUS
 10
4.0495391492
 20
5.5359784171
 40
0.0059055118
100
AcDbArc
 50
135.0
 51
180.0012047956
  0
ARC
  5
518
100
AcDbEntity
  8
ALL_ASSEMBLY_MEMBERS
100
AcDbCircle
 62
7
  6
CONTINUOUS
 10
4.0495391492
 20
5.5325190484
 40
0.0059055118
100
AcDbArc
 50
180.0013272052
 51
225.0010822137
  0
ARC
  5
519
100
AcDbEntity
  8
ALL_ASSEMBLY_MEMBERS
100
AcDbCircle
 62
7
  6
CONTINUOUS
 10
3.9683511956
 20
5.6064948456
 40
0.0023622047
100
AcDbArc
 50
154.9760691895
 51
214.8534612382
  0
ARC
  5
51A
100
AcDbEntity
  8
ALL_ASSEMBLY_MEMBERS
100
AcDbCircle
 62
7
  6
CONTINUOUS
 10
4.1746902514
 20
5.4284542855
 40
0.0059055118
100
AcDbArc
 50
269.9975411861
 51
315.0
  0
ARC
  5
51B
100
AcDbEntity
  8
ALL_ASSEMBLY_MEMBERS
100
AcDbCircle
 62
7
  6
CONTINUOUS
 10
4.1479649558
 20
5.4551795812
 40
0.0059055118
100
AcDbArc
 50
135.0
 51
180.0024588139
  0
ARC
  5
51C
100
AcDbEntity
  8
ALL_ASSEMBLY_MEMBERS
100
AcDbCircle
 62
7
  6
CONTINUOUS
 10
4.1479649558
 20
5.4517202125
 40
0.0059055118
100
AcDbArc
 50
180.0011432895
 51
225.0010067371
  0
ARC
  5
51D
100
AcDbEntity
  8
ALL_ASSEMBLY_MEMBERS
100
AcDbCircle
 62
7
  6
CONTINUOUS
 10
4.1712308827
 20
5.4284542855
 40
0.0059055118
100
AcDbArc
 50
224.9989932615
 51
269.9988567095
  0
ARC
  5
51E
100
AcDbEntity
  8
ALL_ASSEMBLY_MEMBERS
100
AcDbCircle
 62
7
  6
CONTINUOUS
 10
4.0921055872
 20
5.5110389497
 40
0.0059055118
100
AcDbArc
 50
269.9975411859
 51
315.0
  0
ARC
  5
51F
100
AcDbEntity
  8
ALL_ASSEMBLY_MEMBERS
100
AcDbCircle
 62
7
  6
CONTINUOUS
 10
4.0886462185
 20
5.5110389497
 40
0.0059055118
100
AcDbArc
 50
224.9989932622
 51
269.99885671
  0
ARC
  5
520
100
AcDbEntity
  8
ALL_ASSEMBLY_MEMBERS
100
AcDbCircle
 62
7
  6
CONTINUOUS
 10
4.1166620074
 20
5.4688555589
 40
0.0059055118
100
AcDbArc
 50
135.0
 51
180.0012047948
  0
ARC
  5
521
100
AcDbEntity
  8
ALL_ASSEMBLY_MEMBERS
100
AcDbCircle
 62
7
  6
CONTINUOUS
 10
4.1383763102
 20
5.4471412561
 40
0.0059055118
100
AcDbArc
 50
269.9987952044
 51
315.0
  0
ARC
  5
522
100
AcDbEntity
  8
ALL_ASSEMBLY_MEMBERS
100
AcDbCircle
 62
7
  6
CONTINUOUS
 10
4.1349169414
 20
5.4471412561
 40
0.0059055118
100
AcDbArc
 50
224.9989177866
 51
269.998672795
  0
ARC
  5
523
100
AcDbEntity
  8
ALL_ASSEMBLY_MEMBERS
100
AcDbCircle
 62
7
  6
CONTINUOUS
 10
4.1166620074
 20
5.4653961901
 40
0.0059055118
100
AcDbArc
 50
180.0013272057
 51
225.0010822143
  0
ARC
  5
524
100
AcDbEntity
  8
ALL_ASSEMBLY_MEMBERS
100
AcDbCircle
 62
7
  6
CONTINUOUS
 10
4.0677940832
 20
5.5142641144
 40
0.0059055118
100
AcDbArc
 50
224.9989177863
 51
269.9986727948
  0
ARC
  5
525
100
AcDbEntity
  8
ALL_ASSEMBLY_MEMBERS
100
AcDbCircle
 62
7
  6
CONTINUOUS
 10
4.0712534519
 20
5.5142641144
 40
0.0059055118
100
AcDbArc
 50
269.9987952051
 51
315.0
  0
ARC
  5
526
100
AcDbEntity
  8
ALL_ASSEMBLY_MEMBERS
100
AcDbCircle
 62
7
  6
CONTINUOUS
 10
4.066212171
 20
5.4631054538
 40
0.0035433071
100
AcDbArc
 50
180.0002531639
 51
225.0002596315
  0
ARC
  5
527
100
AcDbEntity
  8
ALL_ASSEMBLY_MEMBERS
100
AcDbCircle
 62
7
  6
CONTINUOUS
 10
4.066212171
 20
5.468521737
 40
0.0035433071
100
AcDbArc
 50
135.0
 51
180.0002999894
  0
ARC
  5
528
100
AcDbEntity
  8
ALL_ASSEMBLY_MEMBERS
100
AcDbCircle
 62
7
  6
CONTINUOUS
 10
4.0653802915
 20
5.5377642454
 40
0.0059055118
100
AcDbArc
 50
135.0
 51
180.0024588141
  0
ARC
  5
529
100
AcDbEntity
  8
ALL_ASSEMBLY_MEMBERS
100
AcDbCircle
 62
7
  6
CONTINUOUS
 10
4.0653802915
 20
5.5343048767
 40
0.0059055118
100
AcDbArc
 50
180.00114329
 51
225.0010067378
  0
ARC
  5
52A
100
AcDbEntity
  8
ALL_ASSEMBLY_MEMBERS
100
AcDbCircle
 62
7
  6
CONTINUOUS
 10
4.0274528695
 20
5.9070969227
 40
0.0225
100
AcDbArc
 50
69.0
 51
135.0
  0
ARC
  5
52B
100
AcDbEntity
  8
ALL_ASSEMBLY_MEMBERS
100
AcDbCircle
 62
7
  6
CONTINUOUS
 10
4.1234579584
 20
5.9055212757
 40
0.006
100
AcDbArc
 50
57.4577510794
 51
135.0
  0
ARC
  5
52C
100
AcDbEntity
  8
ALL_ASSEMBLY_MEMBERS
100
AcDbCircle
 62
7
  6
CONTINUOUS
 10
4.1077626416
 20
5.9067965218
 40
0.006
100
AcDbArc
 50
249.0
 51
315.0
  0
ARC
  5
52D
100
AcDbEntity
  8
ALL_ASSEMBLY_MEMBERS
100
AcDbCircle
 62
7
  6
CONTINUOUS
 10
4.4362093977
 20
4.7953391928
 40
0.2818867476
100
AcDbArc
 50
59.2329466691
 51
60.2435696445
  0
ARC
  5
52E
100
AcDbEntity
  8
ALL_ASSEMBLY_MEMBERS
100
AcDbCircle
 62
7
  6
CONTINUOUS
 10
4.3817370537
 20
4.8707855944
 40
0.251477266
100
AcDbArc
 50
54.0882027458
 51
54.4546351358
  0
ARC
  5
52F
100
AcDbEntity
  8
ALL_ASSEMBLY_MEMBERS
100
AcDbCircle
 62
7
  6
CONTINUOUS
 10
4.5715593349
 20
4.8439767269
 40
0.1417322835
100
AcDbArc
 50
34.4249168973
 51
56.7360171931
  0
ARC
  5
530
100
AcDbEntity
  8
ALL_ASSEMBLY_MEMBERS
100
AcDbCircle
 62
7
  6
CONTINUOUS
 10
4.4519923685
 20
4.9861981547
 40
0.1164163568
100
AcDbArc
 50
59.105961602
 51
59.9257346648
  0
ARC
  5
531
100
AcDbEntity
  8
ALL_ASSEMBLY_MEMBERS
100
AcDbCircle
 62
7
  6
CONTINUOUS
 10
4.4939332653
 20
4.985094063
 40
0.1026369669
100
AcDbArc
 50
61.8314039394
 51
62.0373630074
  0
ARC
  5
532
100
AcDbEntity
  8
ALL_ASSEMBLY_MEMBERS
100
AcDbCircle
 62
7
  6
CONTINUOUS
 10
4.5174816457
 20
5.0318738556
 40
0.0502583279
100
AcDbArc
 50
64.9389833026
 51
65.1435923462
  0
ARC
  5
533
100
AcDbEntity
  8
ALL_ASSEMBLY_MEMBERS
100
AcDbCircle
 62
7
  6
CONTINUOUS
 10
4.594064758
 20
5.009079779
 40
0.0059055118
100
AcDbArc
 50
269.9975411861
 51
315.0
  0
ARC
  5
534
100
AcDbEntity
  8
ALL_ASSEMBLY_MEMBERS
100
AcDbCircle
 62
7
  6
CONTINUOUS
 10
4.5673394623
 20
5.0358050746
 40
0.0059055118
100
AcDbArc
 50
161.1249009773
 51
180.0024588138
  0
ARC
  5
535
100
AcDbEntity
  8
ALL_ASSEMBLY_MEMBERS
100
AcDbCircle
 62
7
  6
CONTINUOUS
 10
4.5673394623
 20
5.0323457059
 40
0.0059055118
100
AcDbArc
 50
180.0011432895
 51
225.0007515554
  0
ARC
  5
536
100
AcDbEntity
  8
ALL_ASSEMBLY_MEMBERS
100
AcDbCircle
 62
7
  6
CONTINUOUS
 10
4.5906053893
 20
5.009079779
 40
0.0059055118
100
AcDbArc
 50
224.9992484431
 51
269.9988567094
  0
ARC
  5
537
100
AcDbEntity
  8
ALL_ASSEMBLY_MEMBERS
100
AcDbCircle
 62
7
  6
CONTINUOUS
 10
4.3908870566
 20
5.1143180923
 40
0.0711299211
100
AcDbArc
 50
45.012883175
 51
46.3142004853
  0
ARC
  5
538
100
AcDbEntity
  8
ALL_ASSEMBLY_MEMBERS
100
AcDbCircle
 62
7
  6
CONTINUOUS
 10
4.4013595943
 20
5.1247428867
 40
0.056353296
100
AcDbArc
 50
43.3022527355
 51
45.0505855852
  0
ARC
  5
539
100
AcDbEntity
  8
ALL_ASSEMBLY_MEMBERS
100
AcDbCircle
 62
9
  6
CONTINUOUS
 10
4.3715470171
 20
5.1372027244
 40
0.0298149008
100
AcDbArc
 50
41.6540766083
 51
42.8653154489
  0
ARC
  5
53A
100
AcDbEntity
  8
ALL_ASSEMBLY_MEMBERS
100
AcDbCircle
 62
9
  6
CONTINUOUS
 10
4.4014737742
 20
5.1179698723
 40
0.0222662561
100
AcDbArc
 50
43.9360552199
 51
45.0768241498
  0
ARC
  5
53B
100
AcDbEntity
  8
ALL_ASSEMBLY_MEMBERS
100
AcDbCircle
 62
7
  6
CONTINUOUS
 10
4.4327376097
 20
5.1527799566
 40
0.0059055118
100
AcDbArc
 50
269.9987952047
 51
315.0
  0
ARC
  5
53C
100
AcDbEntity
  8
ALL_ASSEMBLY_MEMBERS
100
AcDbCircle
 62
7
  6
CONTINUOUS
 10
4.4292782409
 20
5.1527799566
 40
0.0059055118
100
AcDbArc
 50
224.9989177866
 51
269.9986727949
  0
ARC
  5
53D
100
AcDbEntity
  8
ALL_ASSEMBLY_MEMBERS
100
AcDbCircle
 62
9
  6
CONTINUOUS
 10
4.4287184214
 20
5.1172570532
 40
0.003544095
100
AcDbArc
 50
126.2059956598
 51
135.0496061172
  0
ARC
  5
53E
100
AcDbEntity
  8
ALL_ASSEMBLY_MEMBERS
100
AcDbCircle
 62
7
  6
CONTINUOUS
 10
4.4128358905
 20
5.1164817343
 40
0.0035433071
100
AcDbArc
 50
224.9998901668
 51
269.9997468347
  0
ARC
  5
53F
100
AcDbEntity
  8
ALL_ASSEMBLY_MEMBERS
100
AcDbCircle
 62
7
  6
CONTINUOUS
 10
4.4182521737
 20
5.1164817343
 40
0.0035433071
100
AcDbArc
 50
269.9996999689
 51
315.0
  0
ARC
  5
540
100
AcDbEntity
  8
ALL_ASSEMBLY_MEMBERS
100
AcDbCircle
 62
7
  6
CONTINUOUS
 10
4.4003239789
 20
5.1289936459
 40
0.0035433071
100
AcDbArc
 50
224.9997407937
 51
269.9997472495
  0
ARC
  5
541
100
AcDbEntity
  8
ALL_ASSEMBLY_MEMBERS
100
AcDbCircle
 62
7
  6
CONTINUOUS
 10
4.4057402621
 20
5.1289936459
 40
0.0035433071
100
AcDbArc
 50
269.9997000847
 51
315.0
  0
ARC
  5
542
100
AcDbEntity
  8
ALL_ASSEMBLY_MEMBERS
100
AcDbCircle
 62
7
  6
CONTINUOUS
 10
4.3806852974
 20
5.1486323274
 40
0.0035433071
100
AcDbArc
 50
180.0002527504
 51
225.0002592062
  0
ARC
  5
543
100
AcDbEntity
  8
ALL_ASSEMBLY_MEMBERS
100
AcDbCircle
 62
7
  6
CONTINUOUS
 10
4.3772690564
 20
5.1520485684
 40
0.0035433071
100
AcDbArc
 50
224.9997401928
 51
269.9997466605
  0
ARC
  5
544
100
AcDbEntity
  8
ALL_ASSEMBLY_MEMBERS
100
AcDbCircle
 62
7
  6
CONTINUOUS
 10
4.3826853396
 20
5.1520485684
 40
0.0035433071
100
AcDbArc
 50
269.9997000109
 51
315.0
  0
ARC
  5
545
100
AcDbEntity
  8
ALL_ASSEMBLY_MEMBERS
100
AcDbCircle
 62
7
  6
CONTINUOUS
 10
4.3792396221
 20
5.1500780027
 40
0.0035433071
100
AcDbArc
 50
224.9997403666
 51
241.7972340462
  0
ARC
  5
546
100
AcDbEntity
  8
ALL_ASSEMBLY_MEMBERS
100
AcDbCircle
 62
7
  6
CONTINUOUS
 10
4.3318959666
 20
5.1948018282
 40
0.0559069643
100
AcDbArc
 50
40.2356578937
 51
42.0808313853
  0
ARC
  5
547
100
AcDbEntity
  8
ALL_ASSEMBLY_MEMBERS
100
AcDbCircle
 62
7
  6
CONTINUOUS
 10
4.3330788699
 20
5.1633143922
 40
0.0059055118
100
AcDbArc
 50
224.9997582066
 51
294.9999051805
  0
ARC
  5
548
100
AcDbEntity
  8
ALL_ASSEMBLY_MEMBERS
100
AcDbCircle
 62
7
  6
CONTINUOUS
 10
4.4345234379
 20
5.168621099
 40
0.0059055118
100
AcDbArc
 50
269.9975411864
 51
315.0
  0
ARC
  5
549
100
AcDbEntity
  8
ALL_ASSEMBLY_MEMBERS
100
AcDbCircle
 62
7
  6
CONTINUOUS
 10
4.4077981423
 20
5.1953463947
 40
0.0059055118
100
AcDbArc
 50
135.0
 51
180.0024588143
  0
ARC
  5
54A
100
AcDbEntity
  8
ALL_ASSEMBLY_MEMBERS
100
AcDbCircle
 62
7
  6
CONTINUOUS
 10
4.4077981423
 20
5.1918870259
 40
0.0059055118
100
AcDbArc
 50
180.0011432902
 51
225.001006738
  0
ARC
  5
54B
100
AcDbEntity
  8
ALL_ASSEMBLY_MEMBERS
100
AcDbCircle
 62
7
  6
CONTINUOUS
 10
4.4310640692
 20
5.168621099
 40
0.0059055118
100
AcDbArc
 50
224.998993262
 51
269.9988567098
  0
ARC
  5
54C
100
AcDbEntity
  8
ALL_ASSEMBLY_MEMBERS
100
AcDbCircle
 62
7
  6
CONTINUOUS
 10
4.3519387737
 20
5.2512057632
 40
0.0059055118
100
AcDbArc
 50
269.9975411863
 51
315.0
  0
ARC
  5
54D
100
AcDbEntity
  8
ALL_ASSEMBLY_MEMBERS
100
AcDbCircle
 62
7
  6
CONTINUOUS
 10
4.3252134781
 20
5.2779310589
 40
0.0059055118
100
AcDbArc
 50
135.0
 51
180.0024588147
  0
ARC
  5
54E
100
AcDbEntity
  8
ALL_ASSEMBLY_MEMBERS
100
AcDbCircle
 62
7
  6
CONTINUOUS
 10
4.3252134781
 20
5.2744716902
 40
0.0059055118
100
AcDbArc
 50
180.0011432896
 51
225.0010067372
  0
ARC
  5
54F
100
AcDbEntity
  8
ALL_ASSEMBLY_MEMBERS
100
AcDbCircle
 62
7
  6
CONTINUOUS
 10
4.348479405
 20
5.2512057632
 40
0.0059055118
100
AcDbArc
 50
224.9989932615
 51
269.9988567095
  0
ARC
  5
550
100
AcDbEntity
  8
ALL_ASSEMBLY_MEMBERS
100
AcDbCircle
 62
7
  6
CONTINUOUS
 10
4.4110233069
 20
5.1744942594
 40
0.0059055118
100
AcDbArc
 50
135.0
 51
180.0012047959
  0
ARC
  5
551
100
AcDbEntity
  8
ALL_ASSEMBLY_MEMBERS
100
AcDbCircle
 62
7
  6
CONTINUOUS
 10
4.4110233069
 20
5.1710348906
 40
0.0059055118
100
AcDbArc
 50
180.0013272051
 51
225.0010822134
  0
ARC
  5
552
100
AcDbEntity
  8
ALL_ASSEMBLY_MEMBERS
100
AcDbCircle
 62
7
  6
CONTINUOUS
 10
4.3621553827
 20
5.2199028149
 40
0.0059055118
100
AcDbArc
 50
224.9989177867
 51
269.998672795
  0
ARC
  5
553
100
AcDbEntity
  8
ALL_ASSEMBLY_MEMBERS
100
AcDbCircle
 62
7
  6
CONTINUOUS
 10
4.3656147514
 20
5.2199028149
 40
0.0059055118
100
AcDbArc
 50
269.9987952045
 51
315.0
  0
ARC
  5
554
100
AcDbEntity
  8
ALL_ASSEMBLY_MEMBERS
100
AcDbCircle
 62
7
  6
CONTINUOUS
 10
4.3439004487
 20
5.2416171176
 40
0.0059055118
100
AcDbArc
 50
135.0
 51
180.0012047948
  0
ARC
  5
555
100
AcDbEntity
  8
ALL_ASSEMBLY_MEMBERS
100
AcDbCircle
 62
7
  6
CONTINUOUS
 10
4.3439004487
 20
5.2381577489
 40
0.0059055118
100
AcDbArc
 50
180.0013272052
 51
225.0010822136
  0
ARC
  5
556
100
AcDbEntity
  8
ALL_ASSEMBLY_MEMBERS
100
AcDbCircle
 62
7
  6
CONTINUOUS
 10
4.3576303749
 20
5.1771035331
 40
0.0035433071
100
AcDbArc
 50
135.0
 51
180.0002999879
  0
ARC
  5
557
100
AcDbEntity
  8
ALL_ASSEMBLY_MEMBERS
100
AcDbCircle
 62
7
  6
CONTINUOUS
 10
4.3576303749
 20
5.1716872499
 40
0.0035433071
100
AcDbArc
 50
180.0002533395
 51
225.0002598072
  0
ARC
  5
558
100
AcDbEntity
  8
ALL_ASSEMBLY_MEMBERS
100
AcDbCircle
 62
7
  6
CONTINUOUS
 10
4.55985707
 20
5.0432874669
 40
0.0059055118
100
AcDbArc
 50
269.9975411858
 51
315.0
  0
ARC
  5
559
100
AcDbEntity
  8
ALL_ASSEMBLY_MEMBERS
100
AcDbCircle
 62
7
  6
CONTINUOUS
 10
4.5331317744
 20
5.0700127626
 40
0.0059055118
100
AcDbArc
 50
135.0
 51
180.0024588142
  0
ARC
  5
55A
100
AcDbEntity
  8
ALL_ASSEMBLY_MEMBERS
100
AcDbCircle
 62
7
  6
CONTINUOUS
 10
4.5331317744
 20
5.0665533939
 40
0.0059055118
100
AcDbArc
 50
180.00114329
 51
225.0010067377
  0
ARC
  5
55B
100
AcDbEntity
  8
ALL_ASSEMBLY_MEMBERS
100
AcDbCircle
 62
7
  6
CONTINUOUS
 10
4.5563977013
 20
5.0432874669
 40
0.0059055118
100
AcDbArc
 50
224.9989932623
 51
269.99885671
  0
ARC
  5
55C
100
AcDbEntity
  8
ALL_ASSEMBLY_MEMBERS
100
AcDbCircle
 62
7
  6
CONTINUOUS
 10
4.5054404968
 20
5.0977040401
 40
0.0059055118
100
AcDbArc
 50
269.9975411859
 51
315.0
  0
ARC
  5
55D
100
AcDbEntity
  8
ALL_ASSEMBLY_MEMBERS
100
AcDbCircle
 62
7
  6
CONTINUOUS
 10
4.4787152012
 20
5.1244293358
 40
0.0059055118
100
AcDbArc
 50
135.0
 51
180.0024588136
  0
ARC
  5
55E
100
AcDbEntity
  8
ALL_ASSEMBLY_MEMBERS
100
AcDbCircle
 62
7
  6
CONTINUOUS
 10
4.4787152012
 20
5.1209699671
 40
0.0059055118
100
AcDbArc
 50
180.0011432902
 51
225.001006738
  0
ARC
  5
55F
100
AcDbEntity
  8
ALL_ASSEMBLY_MEMBERS
100
AcDbCircle
 62
7
  6
CONTINUOUS
 10
4.5019811281
 20
5.0977040401
 40
0.0059055118
100
AcDbArc
 50
224.998993262
 51
269.9988567098
  0
ARC
  5
560
100
AcDbEntity
  8
ALL_ASSEMBLY_MEMBERS
100
AcDbCircle
 62
7
  6
CONTINUOUS
 10
4.5045822914
 20
5.0809352748
 40
0.0059055118
100
AcDbArc
 50
135.0
 51
180.0012047948
  0
ARC
  5
561
100
AcDbEntity
  8
ALL_ASSEMBLY_MEMBERS
100
AcDbCircle
 62
7
  6
CONTINUOUS
 10
4.5262965942
 20
5.0592209721
 40
0.0059055118
100
AcDbArc
 50
269.9987952044
 51
315.0
  0
ARC
  5
562
100
AcDbEntity
  8
ALL_ASSEMBLY_MEMBERS
100
AcDbCircle
 62
7
  6
CONTINUOUS
 10
4.5228372254
 20
5.0592209721
 40
0.0059055118
100
AcDbArc
 50
224.9989177867
 51
269.998672795
  0
ARC
  5
563
100
AcDbEntity
  8
ALL_ASSEMBLY_MEMBERS
100
AcDbCircle
 62
7
  6
CONTINUOUS
 10
4.5045822914
 20
5.0774759061
 40
0.0059055118
100
AcDbArc
 50
180.0013272057
 51
225.0010822143
  0
ARC
  5
564
100
AcDbEntity
  8
ALL_ASSEMBLY_MEMBERS
100
AcDbCircle
 62
7
  6
CONTINUOUS
 10
4.4840838252
 20
5.0979743724
 40
0.0059055118
100
AcDbArc
 50
224.9989177863
 51
269.9986727947
  0
ARC
  5
565
100
AcDbEntity
  8
ALL_ASSEMBLY_MEMBERS
100
AcDbCircle
 62
7
  6
CONTINUOUS
 10
4.4875431939
 20
5.0979743724
 40
0.0059055118
100
AcDbArc
 50
269.9987952051
 51
315.0
  0
ARC
  5
566
100
AcDbEntity
  8
ALL_ASSEMBLY_MEMBERS
100
AcDbCircle
 62
7
  6
CONTINUOUS
 10
4.4658288912
 20
5.1196886751
 40
0.0059055118
100
AcDbArc
 50
135.0
 51
180.0012047956
  0
ARC
  5
567
100
AcDbEntity
  8
ALL_ASSEMBLY_MEMBERS
100
AcDbCircle
 62
7
  6
CONTINUOUS
 10
4.4658288912
 20
5.1162293064
 40
0.0059055118
100
AcDbArc
 50
180.0013272053
 51
225.0010822137
  0
ARC
  5
568
100
AcDbEntity
  8
ALL_ASSEMBLY_MEMBERS
100
AcDbCircle
 62
7
  6
CONTINUOUS
 10
4.5428974616
 20
5.039160736
 40
0.0059055118
100
AcDbArc
 50
224.999596048
 51
269.9986727884
  0
ARC
  5
569
100
AcDbEntity
  8
ALL_ASSEMBLY_MEMBERS
100
AcDbCircle
 62
7
  6
CONTINUOUS
 10
4.5463568303
 20
5.039160736
 40
0.0059055118
100
AcDbArc
 50
269.9987952044
 51
315.0
  0
ARC
  5
56A
100
AcDbEntity
  8
ALL_ASSEMBLY_MEMBERS
100
AcDbCircle
 62
7
  6
CONTINUOUS
 10
4.5246425276
 20
5.05741567
 40
0.0059055118
100
AcDbArc
 50
212.4937962888
 51
225.000403952
  0
ARC
  5
56B
100
AcDbEntity
  8
ALL_ASSEMBLY_MEMBERS
100
AcDbCircle
 62
7
  6
CONTINUOUS
 10
4.5032540381
 20
5.0715920031
 40
0.0023622047
100
AcDbArc
 50
235.1465387618
 51
293.3658975008
  0
ARC
  5
56C
100
AcDbEntity
  8
ALL_ASSEMBLY_MEMBERS
100
AcDbCircle
 62
7
  6
CONTINUOUS
 10
4.6933518491
 20
5.0059477593
 40
0.1535433071
100
AcDbArc
 50
169.7104970544
 51
249.6710480595
  0
ARC
  5
56D
100
AcDbEntity
  8
ALL_ASSEMBLY_MEMBERS
100
AcDbCircle
 62
9
  6
CONTINUOUS
 10
4.697987901
 20
5.005114959
 40
0.1382619099
100
AcDbArc
 50
169.7051136871
 51
170.2842594791
  0
ARC
  5
56E
100
AcDbEntity
  8
ALL_ASSEMBLY_MEMBERS
100
AcDbCircle
 62
9
  6
CONTINUOUS
 10
4.6975554958
 20
5.0051881336
 40
0.137823355
100
AcDbArc
 50
170.5375515948
 51
171.0060108882
  0
ARC
  5
56F
100
AcDbEntity
  8
ALL_ASSEMBLY_MEMBERS
100
AcDbCircle
 62
7
  6
CONTINUOUS
 10
4.8763949131
 20
4.9804938387
 40
0.135
100
AcDbArc
 50
135.0
 51
173.3789847992
  0
ARC
  5
570
100
AcDbEntity
  8
ALL_ASSEMBLY_MEMBERS
100
AcDbCircle
 62
7
  6
CONTINUOUS
 10
4.8167950806
 20
4.9874119285
 40
0.075
100
AcDbArc
 50
173.3789847992
 51
202.1367765694
  0
ARC
  5
571
100
AcDbEntity
  8
ALL_ASSEMBLY_MEMBERS
100
AcDbCircle
 62
7
  6
CONTINUOUS
 10
4.6543708586
 20
4.9007318738
 40
0.0413385827
100
AcDbArc
 50
249.6710480599
 51
34.4249168912
  0
ARC
  5
572
100
AcDbEntity
  8
ALL_ASSEMBLY_MEMBERS
100
AcDbCircle
 62
7
  6
CONTINUOUS
 10
4.7250926723
 20
4.9501068575
 40
0.024
100
AcDbArc
 50
317.2714508417
 51
22.1367765694
  0
ARC
  5
573
100
AcDbEntity
  8
ALL_ASSEMBLY_MEMBERS
100
AcDbCircle
 62
7
  6
CONTINUOUS
 10
4.8038561152
 20
5.1306936769
 40
0.0225
100
AcDbArc
 50
315.0
 51
21.0
  0
ARC
  5
574
100
AcDbEntity
  8
ALL_ASSEMBLY_MEMBERS
100
AcDbCircle
 62
7
  6
CONTINUOUS
 10
4.8022804683
 20
5.2266987658
 40
0.006
100
AcDbArc
 50
315.0
 51
32.5422489206
  0
ARC
  5
575
100
AcDbEntity
  8
ALL_ASSEMBLY_MEMBERS
100
AcDbCircle
 62
7
  6
CONTINUOUS
 10
4.8035557143
 20
5.2110034491
 40
0.006
100
AcDbArc
 50
135.0
 51
201.0
  0
ARC
  5
576
100
AcDbEntity
  8
ALL_ASSEMBLY_MEMBERS
100
AcDbCircle
 62
7
  6
CONTINUOUS
 10
4.7304305252
 20
5.8336713327
 40
0.7677165354
100
AcDbArc
 50
222.2123686108
 51
227.7876313573
  0
ARC
  5
577
100
AcDbEntity
  8
ALL_ASSEMBLY_MEMBERS
100
AcDbCircle
 62
7
  6
CONTINUOUS
 10
5.2878456004
 20
5.5365414718
 40
0.57
100
AcDbArc
 50
174.5106408226
 51
212.5422489206
  0
ARC
  5
578
100
AcDbEntity
  8
ALL_ASSEMBLY_MEMBERS
100
AcDbCircle
 62
7
  6
CONTINUOUS
 10
4.4333006643
 20
6.3910864079
 40
0.57
100
AcDbArc
 50
237.4577510794
 51
275.4893591774
  0
ARC
  5
579
100
AcDbEntity
  8
ALL_ASSEMBLY_MEMBERS
100
AcDbCircle
 62
7
  6
CONTINUOUS
 10
4.7535183649
 20
5.8567591724
 40
0.1467
100
AcDbArc
 50
89.9741595356
 51
106.1384674987
  0
ARC
  5
57A
100
AcDbEntity
  8
ALL_ASSEMBLY_MEMBERS
100
AcDbCircle
 62
7
  6
CONTINUOUS
 10
4.7535183649
 20
5.8567591724
 40
0.1467
100
AcDbArc
 50
343.8615325013
 51
0.0258404644
  0
ARC
  5
57B
100
AcDbEntity
  8
ALL_ASSEMBLY_MEMBERS
100
AcDbCircle
 62
7
  6
CONTINUOUS
 10
4.8339953508
 20
6.0494540044
 40
0.0564
100
AcDbArc
 50
135.0
 51
180.0000006034
  0
ARC
  5
57C
100
AcDbEntity
  8
ALL_ASSEMBLY_MEMBERS
100
AcDbCircle
 62
7
  6
CONTINUOUS
 10
4.946213197
 20
5.9372361583
 40
0.0564
100
AcDbArc
 50
269.9999993966
 51
315.0
  0
ARC
  5
57D
100
AcDbEntity
  8
ALL_ASSEMBLY_MEMBERS
100
AcDbCircle
 62
7
  6
CONTINUOUS
 10
4.7535953508
 20
6.027459155
 40
0.024
100
AcDbArc
 50
269.9741595356
 51
360.0
  0
ARC
  5
57E
100
AcDbEntity
  8
ALL_ASSEMBLY_MEMBERS
100
AcDbCircle
 62
7
  6
CONTINUOUS
 10
4.9242183476
 20
5.8568361583
 40
0.024
100
AcDbArc
 50
90.0
 51
180.0258404644
  0
ARC
  5
57F
100
AcDbEntity
  8
ALL_ASSEMBLY_MEMBERS
100
AcDbCircle
 62
7
  6
CONTINUOUS
 10
5.6351558428
 20
3.9359339271
 40
0.9
100
AcDbArc
 50
274.2656285905
 51
300.3566145709
  0
ARC
  5
580
100
AcDbEntity
  8
ALL_ASSEMBLY_MEMBERS
100
AcDbCircle
 62
7
  6
CONTINUOUS
 10
5.6351558428
 20
1.8952200469
 40
0.9
100
AcDbArc
 50
59.6433854291
 51
85.7343714095
  0
ARC
  5
581
100
AcDbEntity
  8
ALL_ASSEMBLY_MEMBERS
100
AcDbCircle
 62
7
  6
CONTINUOUS
 10
6.3792015846
 20
3.8728266926
 40
0.0750032932
100
AcDbArc
 50
119.7364395186
 51
179.9807893772
  0
ARC
  5
582
100
AcDbEntity
  8
ALL_ASSEMBLY_MEMBERS
100
AcDbCircle
 62
7
  6
CONTINUOUS
 10
6.3792015846
 20
1.9583272814
 40
0.0750032932
100
AcDbArc
 50
180.0192106228
 51
240.2635604814
  0
ARC
  5
583
100
AcDbEntity
  8
ALL_ASSEMBLY_MEMBERS
100
AcDbCircle
 62
7
  6
CONTINUOUS
 10
6.3035982998
 20
3.7426286089
 40
0.075
100
AcDbArc
 50
119.7357131076
 51
180.0
  0
ARC
  5
584
100
AcDbEntity
  8
ALL_ASSEMBLY_MEMBERS
100
AcDbCircle
 62
7
  6
CONTINUOUS
 10
6.2291982998
 20
3.872876987
 40
0.075
100
AcDbArc
 50
299.7357131076
 51
359.9807893772
  0
ARC
  5
585
100
AcDbEntity
  8
ALL_ASSEMBLY_MEMBERS
100
AcDbCircle
 62
7
  6
CONTINUOUS
 10
6.3047982998
 20
4.003076987
 40
0.075
100
AcDbArc
 50
299.7364395186
 51
360.0
  0
ARC
  5
586
100
AcDbEntity
  8
ALL_ASSEMBLY_MEMBERS
100
AcDbCircle
 62
7
  6
CONTINUOUS
 10
6.4547982998
 20
4.003076987
 40
0.075
100
AcDbArc
 50
90.0
 51
180.0
  0
ARC
  5
587
100
AcDbEntity
  8
ALL_ASSEMBLY_MEMBERS
100
AcDbCircle
 62
7
  6
CONTINUOUS
 10
6.3035982998
 20
2.0885253651
 40
0.075
100
AcDbArc
 50
180.0
 51
240.2642868924
  0
ARC
  5
588
100
AcDbEntity
  8
ALL_ASSEMBLY_MEMBERS
100
AcDbCircle
 62
7
  6
CONTINUOUS
 10
6.2291982998
 20
1.958276987
 40
0.075
100
AcDbArc
 50
0.0192106228
 51
60.2642868924
  0
ARC
  5
589
100
AcDbEntity
  8
ALL_ASSEMBLY_MEMBERS
100
AcDbCircle
 62
7
  6
CONTINUOUS
 10
6.3047982998
 20
1.828076987
 40
0.075
100
AcDbArc
 50
0.0
 51
60.2635604814
  0
ARC
  5
58A
100
AcDbEntity
  8
ALL_ASSEMBLY_MEMBERS
100
AcDbCircle
 62
7
  6
CONTINUOUS
 10
6.4547982998
 20
1.828076987
 40
0.075
100
AcDbArc
 50
180.0
 51
270.0
  0
ARC
  5
58B
100
AcDbEntity
  8
ALL_ASSEMBLY_MEMBERS
100
AcDbCircle
 62
7
  6
CONTINUOUS
 10
6.2285982998
 20
2.6177178203
 40
0.0561408333
100
AcDbArc
 50
182.1854050713
 51
269.8359412599
  0
ARC
  5
58C
100
AcDbEntity
  8
ALL_ASSEMBLY_MEMBERS
100
AcDbCircle
 62
7
  6
CONTINUOUS
 10
6.2285982998
 20
3.2134361537
 40
0.0561408333
100
AcDbArc
 50
90.0
 51
177.8145949287
  0
ARC
  5
58D
100
AcDbEntity
  8
ALL_ASSEMBLY_MEMBERS
100
AcDbCircle
 62
7
  6
CONTINUOUS
 10
6.1721982998
 20
2.6716761849
 40
0.0561
100
AcDbArc
 50
180.0
 51
270.3063960032
  0
ARC
  5
58E
100
AcDbEntity
  8
ALL_ASSEMBLY_MEMBERS
100
AcDbCircle
 62
7
  6
CONTINUOUS
 10
6.1721982998
 20
3.1594777892
 40
0.0561
100
AcDbArc
 50
89.6936039968
 51
180.0
  0
ARC
  5
58F
100
AcDbEntity
  8
ALL_ASSEMBLY_MEMBERS
100
AcDbCircle
 62
7
  6
CONTINUOUS
 10
5.6297982998
 20
5.990576987
 40
0.646875
100
AcDbArc
 50
90.0
 51
135.0
  0
ARC
  5
590
100
AcDbEntity
  8
ALL_ASSEMBLY_MEMBERS
100
AcDbCircle
 62
7
  6
CONTINUOUS
 10
5.6297982998
 20
5.990576987
 40
0.403125
100
AcDbArc
 50
90.0
 51
135.0
  0
ARC
  5
591
100
AcDbEntity
  8
ALL_ASSEMBLY_MEMBERS
100
AcDbCircle
 62
7
  6
CONTINUOUS
 10
6.3851463256
 20
6.173576987
 40
0.015
100
AcDbArc
 50
195.5395943691
 51
269.9999999739
  0
ARC
  5
592
100
AcDbEntity
  8
ALL_ASSEMBLY_MEMBERS
100
AcDbCircle
 62
9
  6
CONTINUOUS
 10
5.6914642214
 20
6.7677263432
 40
2.0787119273
100
AcDbArc
 50
239.2612727096
 51
240.0307896574
  0
ARC
  5
593
100
AcDbEntity
  8
ALL_ASSEMBLY_MEMBERS
100
AcDbCircle
 62
9
  6
CONTINUOUS
 10
5.6913922416
 20
6.7676043713
 40
2.0785703011
100
AcDbArc
 50
239.2612596007
 51
240.0308290301
  0
ARC
  5
594
100
AcDbEntity
  8
ALL_ASSEMBLY_MEMBERS
100
AcDbCircle
 62
7
  6
CONTINUOUS
 10
5.7301717474
 20
6.8334184238
 40
2.1507318269
100
AcDbArc
 50
219.1377478374
 51
219.2089899485
  0
ARC
  5
595
100
AcDbEntity
  8
ALL_ASSEMBLY_MEMBERS
100
AcDbCircle
 62
7
  6
CONTINUOUS
 10
5.7301717474
 20
6.8334184238
 40
2.1507318269
100
AcDbArc
 50
215.6769243224
 51
217.0906482006
  0
ARC
  5
596
100
AcDbEntity
  8
ALL_ASSEMBLY_MEMBERS
100
AcDbCircle
 62
7
  6
CONTINUOUS
 10
5.7301776163
 20
6.8334125549
 40
2.1507318269
100
AcDbArc
 50
232.8130142625
 51
234.3230756776
  0
ARC
  5
597
100
AcDbEntity
  8
ALL_ASSEMBLY_MEMBERS
100
AcDbCircle
 62
7
  6
CONTINUOUS
 10
5.7301792378
 20
6.8334259142
 40
2.1493145041
100
AcDbArc
 50
214.8532182276
 51
215.5750931399
  0
ARC
  5
598
100
AcDbEntity
  8
ALL_ASSEMBLY_MEMBERS
100
AcDbCircle
 62
7
  6
CONTINUOUS
 10
5.7301851067
 20
6.8334200452
 40
2.1493145041
100
AcDbArc
 50
234.4249068601
 51
235.1467817724
  0
ARC
  5
599
100
AcDbEntity
  8
ALL_ASSEMBLY_MEMBERS
100
AcDbCircle
 62
7
  6
CONTINUOUS
 10
5.7301792378
 20
6.8334259142
 40
2.1493145041
100
AcDbArc
 50
210.0673069192
 51
210.7102731772
  0
ARC
  5
59A
100
AcDbEntity
  8
ALL_ASSEMBLY_MEMBERS
100
AcDbCircle
 62
7
  6
CONTINUOUS
 10
5.7300601869
 20
6.8333344011
 40
2.1489775069
100
AcDbArc
 50
239.2705214071
 51
239.9171364806
  0
ARC
  5
59B
100
AcDbEntity
  8
ALL_ASSEMBLY_MEMBERS
100
AcDbCircle
 62
9
  6
CONTINUOUS
 10
5.7306956777
 20
6.8343199246
 40
2.1441893832
100
AcDbArc
 50
238.2878224637
 51
238.6209181189
  0
ARC
  5
59C
100
AcDbEntity
  8
ALL_ASSEMBLY_MEMBERS
100
AcDbCircle
 62
7
  6
CONTINUOUS
 10
6.3851463256
 20
6.857576987
 40
0.015
100
AcDbArc
 50
90.0000000261
 51
164.4604056309
  0
ARC
  5
59D
100
AcDbEntity
  8
ALL_ASSEMBLY_MEMBERS
100
AcDbCircle
 62
7
  6
CONTINUOUS
 10
7.6713461245
 20
6.4999248134
 40
1.35
100
AcDbArc
 50
164.460404522
 51
173.5855183039
  0
ARC
  5
59E
100
AcDbEntity
  8
ALL_ASSEMBLY_MEMBERS
100
AcDbCircle
 62
7
  6
CONTINUOUS
 10
7.6713461245
 20
6.5312291607
 40
1.35
100
AcDbArc
 50
186.4144816961
 51
195.539595478
  0
SPLINE
  5
59F
100
AcDbEntity
  8
ALL_ASSEMBLY_MEMBERS
100
AcDbSpline
 62
7
  6
CONTINUOUS
 70
0
 71
3
 72
15
 73
11
 74
0
 42
0.0000001
 43
0.0000001
 44
0.0000000001
 40
0.0
 40
0.0
 40
0.0
 40
0.0
 40
0.0649157335
 40
0.1465369617
 40
0.2610067434
 40
0.407199315
 40
0.5823164713
 40
0.7817791292
 40
0.8889722098
 40
1.0
 40
1.0
 40
1.0
 40
1.0
 10
5.508223236
 20
2.818076987
 30
0.0
 10
5.507649345
 20
2.8188117663
 30
0.0
 10
5.5063176139
 20
2.8204418217
 30
0.0
 10
5.5038103208
 20
2.8232301486
 30
0.0
 10
5.5003081707
 20
2.8266845675
 30
0.0
 10
5.4955271208
 20
2.8307338249
 30
0.0
 10
5.4893977521
 20
2.835038571
 30
0.0
 10
5.4833400497
 20
2.8384133094
 30
0.0
 10
5.4778665655
 20
2.840873409
 30
0.0
 10
5.4749325232
 20
2.8419815351
 30
0.0
 10
5.4734237331
 20
2.842496987
 30
0.0
  0
SPLINE
  5
5A0
100
AcDbEntity
  8
ALL_ASSEMBLY_MEMBERS
100
AcDbSpline
 62
7
  6
CONTINUOUS
 70
0
 71
3
 72
28
 73
24
 74
0
 42
0.0000001
 43
0.0000001
 44
0.0000000001
 40
0.0
 40
0.0
 40
0.0
 40
0.0
 40
0.0696108159
 40
0.1391107058
 40
0.2083903351
 40
0.2773070655
 40
0.4132536205
 40
0.4467406907
 40
0.4799302511
 40
0.5452209301
 40
0.6087746142
 40
0.6702180641
 40
0.7292414562
 40
0.757811504
 40
0.7857464167
 40
0.8130787441
 40
0.839874654
 40
0.8662499098
 40
0.8923668744
 40
0.9184665887
 40
0.9448569125
 40
0.9719250288
 40
1.0
 40
1.0
 40
1.0
 40
1.0
 10
5.4411592722
 20
2.939936987
 30
0.0
 10
5.4427188288
 20
2.9403558654
 30
0.0
 10
5.4458113406
 20
2.9412869041
 30
0.0
 10
5.4503406603
 20
2.9429871822
 30
0.0
 10
5.4547180892
 20
2.9450133277
 30
0.0
 10
5.4602605583
 20
2.9481406007
 30
0.0
 10
5.4647163673
 20
2.951480983
 30
0.0
 10
5.4681028977
 20
2.954742237
 30
0.0
 10
5.4701998764
 20
2.9569742593
 30
0.0
 10
5.4725597929
 20
2.9599096495
 30
0.0
 10
5.474937794
 20
2.9636399183
 30
0.0
 10
5.4767960872
 20
2.9674947114
 30
0.0
 10
5.4778831532
 20
2.9707899336
 30
0.0
 10
5.4784306075
 20
2.973415907
 30
0.0
 10
5.4786728609
 20
2.9753479772
 30
0.0
 10
5.4787429488
 20
2.9772530753
 30
0.0
 10
5.4786305433
 20
2.9791203994
 30
0.0
 10
5.4783257234
 20
2.9809381501
 30
0.0
 10
5.4778144106
 20
2.9826929218
 30
0.0
 10
5.4770830458
 20
2.9843691933
 30
0.0
 10
5.4761155984
 20
2.9859483688
 30
0.0
 10
5.4748988151
 20
2.9874049699
 30
0.0
 10
5.4739396147
 20
2.9882594509
 30
0.0
 10
5.4734237331
 20
2.988656987
 30
0.0
  0
SPLINE
  5
5A1
100
AcDbEntity
  8
ALL_ASSEMBLY_MEMBERS
100
AcDbSpline
 62
7
  6
CONTINUOUS
 70
0
 71
3
 72
29
 73
25
 74
0
 42
0.0000001
 43
0.0000001
 44
0.0000000001
 40
0.0
 40
0.0
 40
0.0
 40
0.0
 40
0.0624950271
 40
0.1249204489
 40
0.1872486652
 40
0.249558718
 40
0.2807526697
 40
0.3119768497
 40
0.3432314906
 40
0.3745286356
 40
0.4058671613
 40
0.4372421678
 40
0.5000000014
 40
0.5627578552
 40
0.5941328807
 40
0.625471425
 40
0.6567685893
 40
0.6880232349
 40
0.719247414
 40
0.7504413611
 40
0.8127513834
 40
0.875079581
 40
0.9375049874
 40
1.0
 40
1.0
 40
1.0
 40
1.0
 10
5.4411592722
 20
2.891216987
 30
0.0
 10
5.4424856999
 20
2.8916783654
 30
0.0
 10
5.4450975185
 20
2.8927218496
 30
0.0
 10
5.4488194298
 20
2.8947055923
 30
0.0
 10
5.4522550637
 20
2.8971505387
 30
0.0
 10
5.454787479
 20
2.8995921027
 30
0.0
 10
5.456553218
 20
2.9017725358
 30
0.0
 10
5.4577345542
 20
2.9035180834
 30
0.0
 10
5.4587599669
 20
2.9053622719
 30
0.0
 10
5.4596155395
 20
2.9072940648
 30
0.0
 10
5.460292579
 20
2.9092985071
 30
0.0
 10
5.4609450366
 20
2.9120450234
 30
0.0
 10
5.4612770266
 20
2.9155769876
 30
0.0
 10
5.4609450361
 20
2.9191089521
 30
0.0
 10
5.4602925785
 20
2.9218554697
 30
0.0
 10
5.4596155375
 20
2.9238599129
 30
0.0
 10
5.4587599649
 20
2.9257917068
 30
0.0
 10
5.4577345513
 20
2.9276358954
 30
0.0
 10
5.4565532142
 20
2.9293814423
 30
0.0
 10
5.4547874764
 20
2.9315618754
 30
0.0
 10
5.4522550606
 20
2.9340034372
 30
0.0
 10
5.448819428
 20
2.9364483828
 30
0.0
 10
5.4450975176
 20
2.9384321249
 30
0.0
 10
5.4424856995
 20
2.9394756087
 30
0.0
 10
5.4411592722
 20
2.939936987
 30
0.0
  0
SPLINE
  5
5A2
100
AcDbEntity
  8
ALL_ASSEMBLY_MEMBERS
100
AcDbSpline
 62
7
  6
CONTINUOUS
 70
0
 71
3
 72
28
 73
24
 74
0
 42
0.0000001
 43
0.0000001
 44
0.0000000001
 40
0.0
 40
0.0
 40
0.0
 40
0.0
 40
0.0280749495
 40
0.0551429859
 40
0.0815332872
 40
0.1076329982
 40
0.133749962
 40
0.1601252125
 40
0.1869211138
 40
0.2142534376
 40
0.2421883345
 40
0.2707583678
 40
0.3297817226
 40
0.3912251474
 40
0.4547788399
 40
0.5200695346
 40
0.5532591252
 40
0.5867462294
 40
0.722693023
 40
0.7916098124
 40
0.8608894509
 40
0.930389256
 40
1.0
 40
1.0
 40
1.0
 40
1.0
 10
5.4734237331
 20
2.842496987
 30
0.0
 10
5.4739396143
 20
2.8428945228
 30
0.0
 10
5.474898814
 20
2.8437490011
 30
0.0
 10
5.4761155949
 20
2.8452056006
 30
0.0
 10
5.4770830406
 20
2.8467847741
 30
0.0
 10
5.4778144084
 20
2.8484610435
 30
0.0
 10
5.4783257212
 20
2.8502158151
 30
0.0
 10
5.4786305424
 20
2.8520335652
 30
0.0
 10
5.4787429489
 20
2.8539008888
 30
0.0
 10
5.4786728611
 20
2.8558059863
 30
0.0
 10
5.4784306098
 20
2.857738056
 30
0.0
 10
5.4778831563
 20
2.8603640279
 30
0.0
 10
5.4767960931
 20
2.8636592492
 30
0.0
 10
5.4749378012
 20
2.8675140416
 30
0.0
 10
5.4725598029
 20
2.8712443122
 30
0.0
 10
5.4701998852
 20
2.874179703
 30
0.0
 10
5.468102907
 20
2.8764117283
 30
0.0
 10
5.4647163721
 20
2.8796729877
 30
0.0
 10
5.4602605573
 20
2.8830133756
 30
0.0
 10
5.4547180805
 20
2.8861406496
 30
0.0
 10
5.4503406524
 20
2.8881667957
 30
0.0
 10
5.445811336
 20
2.889867073
 30
0.0
 10
5.4427188272
 20
2.890798109
 30
0.0
 10
5.4411592722
 20
2.891216987
 30
0.0
  0
SPLINE
  5
5A3
100
AcDbEntity
  8
ALL_ASSEMBLY_MEMBERS
100
AcDbSpline
 62
7
  6
CONTINUOUS
 70
0
 71
3
 72
15
 73
11
 74
0
 42
0.0000001
 43
0.0000001
 44
0.0000000001
 40
0.0
 40
0.0
 40
0.0
 40
0.0
 40
0.1110278496
 40
0.2182211072
 40
0.417683849
 40
0.5928007684
 40
0.7389933307
 40
0.8534631715
 40
0.9350843865
 40
1.0
 40
1.0
 40
1.0
 40
1.0
 10
5.4734237331
 20
2.988656987
 30
0.0
 10
5.474932524
 20
2.9891724392
 30
0.0
 10
5.4778665691
 20
2.9902805675
 30
0.0
 10
5.4833400579
 20
2.992740668
 30
0.0
 10
5.4893977603
 20
2.9961154073
 30
0.0
 10
5.4955271258
 20
3.0004201539
 30
0.0
 10
5.5003081739
 20
3.0044694091
 30
0.0
 10
5.5038103242
 20
3.0079238287
 30
0.0
 10
5.5063176156
 20
3.0107121556
 30
0.0
 10
5.5076493456
 20
3.0123422094
 30
0.0
 10
5.508223236
 20
3.013076987
 30
0.0
  0
SPLINE
  5
5A4
100
AcDbEntity
  8
ALL_ASSEMBLY_MEMBERS
100
AcDbSpline
 62
7
  6
CONTINUOUS
 70
0
 71
3
 72
18
 73
14
 74
0
 42
0.0000001
 43
0.0000001
 44
0.0000000001
 40
0.0
 40
0.0
 40
0.0
 40
0.0
 40
0.0905465195
 40
0.1351085275
 40
0.1787492091
 40
0.3411135164
 40
0.4824776039
 40
0.6055485972
 40
0.7148879934
 40
0.8147397979
 40
0.9087301794
 40
0.9545508223
 40
1.0
 40
1.0
 40
1.0
 40
1.0
 10
4.8234080886
 20
6.0600412667
 30
0.0
 10
4.8226935236
 20
6.0593267017
 30
0.0
 10
4.8215738311
 20
6.0583120956
 30
0.0
 10
4.8200016867
 20
6.0570829491
 30
0.0
 10
4.8177157621
 20
6.055471344
 30
0.0
 10
4.8142872754
 20
6.0536039861
 30
0.0
 10
4.8097191512
 20
6.0521571573
 30
0.0
 10
4.8055481906
 20
6.0516820914
 30
0.0
 10
4.8018286693
 20
6.0519905584
 30
0.0
 10
4.7985569062
 20
6.0529359163
 30
0.0
 10
4.7961701949
 20
6.0541864129
 30
0.0
 10
4.7945029169
 20
6.0554138585
 30
0.0
 10
4.7937459982
 20
6.0560986698
 30
0.0
 10
4.7933873275
 20
6.0564573406
 30
0.0
  0
SPLINE
  5
5A5
100
AcDbEntity
  8
ALL_ASSEMBLY_MEMBERS
100
AcDbSpline
 62
7
  6
CONTINUOUS
 70
0
 71
3
 72
19
 73
15
 74
0
 42
0.0000001
 43
0.0000001
 44
0.0000000001
 40
0.0
 40
0.0
 40
0.0
 40
0.0
 40
0.0454692338
 40
0.0912961275
 40
0.1378156477
 40
0.1854001923
 40
0.234450202
 40
0.2853929017
 40
0.3947355251
 40
0.5177933901
 40
0.6591061049
 40
0.737756051
 40
0.8215801596
 40
1.0
 40
1.0
 40
1.0
 40
1.0
 10
4.7933873275
 20
6.0564573406
 30
0.0
 10
4.7930284306
 20
6.0568162375
 30
0.0
 10
4.7923434823
 20
6.0575735798
 30
0.0
 10
4.7914301964
 20
6.0588145955
 30
0.0
 10
4.7906334654
 20
6.0601612056
 30
0.0
 10
4.7899605982
 20
6.061613519
 30
0.0
 10
4.7894194307
 20
6.0631724202
 30
0.0
 10
4.788875026
 20
6.0654482602
 30
0.0
 10
4.7886120932
 20
6.0686227835
 30
0.0
 10
4.7890878517
 20
6.072792434
 30
0.0
 10
4.790252432
 20
6.0764668663
 30
0.0
 10
4.7917174313
 20
6.0795299786
 30
0.0
 10
4.7936840525
 20
6.0827928581
 30
0.0
 10
4.7955629535
 20
6.0850698018
 30
0.0
 10
4.7969712535
 20
6.0864781018
 30
0.0
  0
LINE
  5
5A6
100
AcDbEntity
  8
ALL_ASSEMBLY_MEMBERS
100
AcDbLine
 62
7
  6
CONTINUOUS
 10
4.4730952894
 20
5.1260186254
 11
4.4692963694
 21
5.1279769528
  0
SPLINE
  5
5A7
100
AcDbEntity
  8
ALL_ASSEMBLY_MEMBERS
100
AcDbSpline
 62
7
  6
CONTINUOUS
 70
0
 71
3
 72
13
 73
9
 74
0
 42
0.0000001
 43
0.0000001
 44
0.0000000001
 40
0.0
 40
0.0
 40
0.0
 40
0.0
 40
0.38316552
 40
0.5407427896
 40
0.6751750924
 40
0.7866891009
 40
0.8762904031
 40
1.0
 40
1.0
 40
1.0
 40
1.0
 10
4.4692963694
 20
5.1279769528
 30
0.0
 10
4.4689392296
 20
5.1281344828
 30
0.0
 10
4.4684295946
 20
5.1283451525
 30
0.0
 10
4.467776275
 20
5.1285620016
 30
0.0
 10
4.4673792342
 20
5.1286675087
 30
0.0
 10
4.4670400161
 20
5.1287260205
 30
0.0
 10
4.4667143385
 20
5.1287425117
 30
0.0
 10
4.4664783808
 20
5.1286895316
 30
0.0
 10
4.4663892998
 20
5.1286003855
 30
0.0
  0
SPLINE
  5
5A8
100
AcDbEntity
  8
ALL_ASSEMBLY_MEMBERS
100
AcDbSpline
 62
7
  6
CONTINUOUS
 70
0
 71
3
 72
9
 73
5
 74
0
 42
0.0000001
 43
0.0000001
 44
0.0000000001
 40
0.0
 40
0.0
 40
0.0
 40
0.0
 40
0.5165591339
 40
1.0
 40
1.0
 40
1.0
 40
1.0
 10
4.3659528455
 20
5.239550291
 30
0.0
 10
4.364359263
 20
5.2409574869
 30
0.0
 10
4.3611995537
 20
5.2435979514
 30
0.0
 10
4.3578988653
 20
5.2460614846
 30
0.0
 10
4.3562620147
 20
5.2471926159
 30
0.0
  0
SPLINE
  5
5A9
100
AcDbEntity
  8
ALL_ASSEMBLY_MEMBERS
100
AcDbSpline
 62
7
  6
CONTINUOUS
 70
0
 71
3
 72
9
 73
5
 74
0
 42
0.0000001
 43
0.0000001
 44
0.0000000001
 40
0.0
 40
0.0
 40
0.0
 40
0.0
 40
0.5316291982
 40
1.0
 40
1.0
 40
1.0
 40
1.0
 10
4.2074557732
 20
5.3982099284
 30
0.0
 10
4.2064688209
 20
5.3991131111
 30
0.0
 10
4.2045748197
 20
5.4007715536
 30
0.0
 10
4.2025930907
 20
5.4023258597
 30
0.0
 10
4.2016375001
 20
5.4030158329
 30
0.0
  0
SPLINE
  5
5AA
100
AcDbEntity
  8
ALL_ASSEMBLY_MEMBERS
100
AcDbSpline
 62
7
  6
CONTINUOUS
 70
0
 71
3
 72
17
 73
13
 74
0
 42
0.0000001
 43
0.0000001
 44
0.0000000001
 40
0.0
 40
0.0
 40
0.0
 40
0.0
 40
0.2010542494
 40
0.3810116676
 40
0.538571699
 40
0.6727892195
 40
0.7836925038
 40
0.8723198928
 40
0.9091909066
 40
0.9419667078
 40
0.9717506024
 40
1.0
 40
1.0
 40
1.0
 40
1.0
 10
4.2016375001
 20
5.4030158329
 30
0.0
 10
4.2012243343
 20
5.4033141546
 30
0.0
 10
4.2004312114
 20
5.4038657035
 30
0.0
 10
4.1992762001
 20
5.4045944129
 30
0.0
 10
4.1982299841
 20
5.4051748603
 30
0.0
 10
4.1973013104
 20
5.4056019888
 30
0.0
 10
4.1964986352
 20
5.4058737726
 30
0.0
 10
4.1959034176
 20
5.405977656
 30
0.0
 10
4.1955009797
 20
5.4059657628
 30
0.0
 10
4.1952523937
 20
5.4059159607
 30
0.0
 10
4.1950392162
 20
5.4058242091
 30
0.0
 10
4.1949209598
 20
5.4057336107
 30
0.0
 10
4.1948702378
 20
5.4056830705
 30
0.0
  0
SPLINE
  5
5AB
100
AcDbEntity
  8
ALL_ASSEMBLY_MEMBERS
100
AcDbSpline
 62
7
  6
CONTINUOUS
 70
0
 71
3
 72
17
 73
13
 74
0
 42
0.0000001
 43
0.0000001
 44
0.0000000001
 40
0.0
 40
0.0
 40
0.0
 40
0.0
 40
0.2101004009
 40
0.3972131034
 40
0.5592126074
 40
0.6951906058
 40
0.8048886577
 40
0.888974199
 40
0.9223856809
 40
0.9510233143
 40
0.9762390242
 40
1.0
 40
1.0
 40
1.0
 40
1.0
 10
4.0601779164
 20
5.5455866662
 30
0.0
 10
4.059814885
 20
5.5459290502
 30
0.0
 10
4.0591190862
 20
5.5465664663
 30
0.0
 10
4.05810692
 20
5.5474271263
 30
0.0
 10
4.0571940108
 20
5.5481308002
 30
0.0
 10
4.0563896815
 20
5.5486720461
 30
0.0
 10
4.0557014491
 20
5.5490476991
 30
0.0
 10
4.0551912145
 20
5.5492371047
 30
0.0
 10
4.0548462499
 20
5.5492868056
 30
0.0
 10
4.0546375354
 20
5.5492773152
 30
0.0
 10
4.0544590503
 20
5.549222145
 30
0.0
 10
4.0543624223
 20
5.5491530851
 30
0.0
 10
4.0543224429
 20
5.5491132526
 30
0.0
  0
SPLINE
  5
5AC
100
AcDbEntity
  8
ALL_ASSEMBLY_MEMBERS
100
AcDbSpline
 62
7
  6
CONTINUOUS
 70
0
 71
3
 72
11
 73
7
 74
0
 42
0.0000001
 43
0.0000001
 44
0.0000000001
 40
0.0
 40
0.0
 40
0.0
 40
0.0
 40
0.2639613348
 40
0.5280602934
 40
0.7779178201
 40
1.0
 40
1.0
 40
1.0
 40
1.0
 10
4.5279326991
 20
5.0754014505
 30
0.0
 10
4.5265446988
 20
5.0763932514
 30
0.0
 10
4.5237487508
 20
5.0783505636
 30
0.0
 10
4.5195813617
 20
5.0811633087
 30
0.0
 10
4.5155912903
 20
5.083753602
 30
0.0
 10
4.5129983298
 20
5.0853604127
 30
0.0
 10
4.511766576
 20
5.086097165
 30
0.0
  0
SPLINE
  5
5AD
100
AcDbEntity
  8
ALL_ASSEMBLY_MEMBERS
100
AcDbSpline
 62
7
  6
CONTINUOUS
 70
0
 71
3
 72
14
 73
10
 74
0
 42
0.0000001
 43
0.0000001
 44
0.0000000001
 40
0.0
 40
0.0
 40
0.0
 40
0.0
 40
0.3660050166
 40
0.5221153656
 40
0.6589014058
 40
0.7756274248
 40
0.8716388058
 40
0.9464207034
 40
1.0
 40
1.0
 40
1.0
 40
1.0
 10
4.5103311777
 20
5.0869421445
 30
0.0
 10
4.5097048254
 20
5.0873044126
 30
0.0
 10
4.5088058666
 20
5.0878120759
 30
0.0
 10
4.5076547725
 20
5.0884219438
 30
0.0
 10
4.5069308468
 20
5.0887851121
 30
0.0
 10
4.5063043421
 20
5.0890767151
 30
0.0
 10
4.505779229
 20
5.0892954468
 30
0.0
 10
4.5053597488
 20
5.0894394309
 30
0.0
 10
4.5051108139
 20
5.0894967563
 30
0.0
 10
4.5050052898
 20
5.0895059434
 30
0.0
  0
LINE
  5
5AE
100
AcDbEntity
  8
ALL_ASSEMBLY_MEMBERS
100
AcDbLine
 62
7
  6
CONTINUOUS
 10
4.5050052898
 20
5.0895059434
 11
4.5047495478
 21
5.0894542599
  0
SPLINE
  5
5AF
100
AcDbEntity
  8
ALL_ASSEMBLY_MEMBERS
100
AcDbSpline
 62
7
  6
CONTINUOUS
 70
0
 71
3
 72
11
 73
7
 74
0
 42
0.0000001
 43
0.0000001
 44
0.0000000001
 40
0.0
 40
0.0
 40
0.0
 40
0.0
 40
0.2780158831
 40
0.5425820212
 40
0.785611807
 40
1.0
 40
1.0
 40
1.0
 40
1.0
 10
4.288801837
 20
5.3168638646
 30
0.0
 10
4.2878594109
 20
5.3177304522
 30
0.0
 10
4.285989711
 20
5.3193889736
 30
0.0
 10
4.2831934587
 20
5.3216860771
 30
0.0
 10
4.2805354534
 20
5.3236850952
 30
0.0
 10
4.2787878229
 20
5.3248639061
 30
0.0
 10
4.277949221
 20
5.3253849286
 30
0.0
  0
SPLINE
  5
5B0
100
AcDbEntity
  8
ALL_ASSEMBLY_MEMBERS
100
AcDbSpline
 62
7
  6
CONTINUOUS
 70
0
 71
3
 72
15
 73
11
 74
0
 42
0.0000001
 43
0.0000001
 44
0.0000000001
 40
0.0
 40
0.0
 40
0.0
 40
0.0
 40
0.1987774956
 40
0.376803467
 40
0.5330907868
 40
0.6669180952
 40
0.7783578242
 40
0.8684956455
 40
0.9401760187
 40
1.0
 40
1.0
 40
1.0
 40
1.0
 10
4.277949221
 20
5.3253849286
 30
0.0
 10
4.2775580451
 20
5.3256279658
 30
0.0
 10
4.2768081317
 20
5.3260754301
 30
0.0
 10
4.2757195053
 20
5.3266598069
 30
0.0
 10
4.2747357068
 20
5.3271181976
 30
0.0
 10
4.2738643034
 20
5.3274471967
 30
0.0
 10
4.2731109573
 20
5.327645755
 30
0.0
 10
4.2724781408
 20
5.3277130679
 30
0.0
 10
4.271961223
 20
5.3276464089
 30
0.0
 10
4.271687318
 20
5.3274869998
 30
0.0
 10
4.2715895118
 20
5.3273887962
 30
0.0
  0
LINE
  5
5B1
100
AcDbEntity
  8
ALL_ASSEMBLY_MEMBERS
100
AcDbLine
 62
7
  6
CONTINUOUS
 10
4.1319065264
 20
5.473891519
 11
4.1277663507
 21
5.4777367858
  0
SPLINE
  5
5B2
100
AcDbEntity
  8
ALL_ASSEMBLY_MEMBERS
100
AcDbSpline
 62
7
  6
CONTINUOUS
 70
0
 71
3
 72
17
 73
13
 74
0
 42
0.0000001
 43
0.0000001
 44
0.0000000001
 40
0.0
 40
0.0
 40
0.0
 40
0.0
 40
0.2053823318
 40
0.3888840012
 40
0.5489488847
 40
0.6844146557
 40
0.7950183293
 40
0.8814380242
 40
0.9164661975
 40
0.9469899566
 40
0.9742575283
 40
1.0
 40
1.0
 40
1.0
 40
1.0
 10
4.1277663507
 20
5.4777367858
 30
0.0
 10
4.1273380699
 20
5.4781006728
 30
0.0
 10
4.1265157783
 20
5.4787765262
 30
0.0
 10
4.1253165844
 20
5.479682001
 30
0.0
 10
4.1242302711
 20
5.4804167492
 30
0.0
 10
4.1232671323
 20
5.4809742356
 30
0.0
 10
4.1224375819
 20
5.4813508382
 30
0.0
 10
4.1218216132
 20
5.4815262765
 30
0.0
 10
4.1214050523
 20
5.4815542314
 30
0.0
 10
4.1211509064
 20
5.4815252626
 30
0.0
 10
4.1209336419
 20
5.4814466119
 30
0.0
 10
4.1208147495
 20
5.4813593022
 30
0.0
 10
4.1207647533
 20
5.4813096819
 30
0.0
  0
LINE
  5
5B3
100
AcDbEntity
  8
ALL_ASSEMBLY_MEMBERS
100
AcDbLine
 62
7
  6
CONTINUOUS
 10
4.3284873596
 20
5.2894724437
 11
4.3281703219
 21
5.2892392573
  0
SPLINE
  5
5B4
100
AcDbEntity
  8
ALL_ASSEMBLY_MEMBERS
100
AcDbSpline
 62
7
  6
CONTINUOUS
 70
0
 71
3
 72
11
 73
7
 74
0
 42
0.0000001
 43
0.0000001
 44
0.0000000001
 40
0.0
 40
0.0
 40
0.0
 40
0.0
 40
0.3237783187
 40
0.5921973547
 40
0.8125732647
 40
1.0
 40
1.0
 40
1.0
 40
1.0
 10
4.4119810134
 20
5.2059787899
 30
0.0
 10
4.411736341
 20
5.2060215698
 30
0.0
 10
4.4112844698
 20
5.206079305
 30
0.0
 10
4.4106581381
 20
5.2060676967
 30
0.0
 10
4.4101479117
 20
5.2059467695
 30
0.0
 10
4.4098758701
 20
5.205775061
 30
0.0
 10
4.4097740194
 20
5.205673572
 30
0.0
  0
SPLINE
  5
5B5
100
AcDbEntity
  8
ALL_ASSEMBLY_MEMBERS
100
AcDbSpline
 62
7
  6
CONTINUOUS
 70
0
 71
3
 72
15
 73
11
 74
0
 42
0.0000001
 43
0.0000001
 44
0.0000000001
 40
0.0
 40
0.0
 40
0.0
 40
0.0
 40
0.1967418152
 40
0.3729877648
 40
0.5280996119
 40
0.6618310974
 40
0.7742788811
 40
0.8661805471
 40
0.9397075558
 40
1.0
 40
1.0
 40
1.0
 40
1.0
 10
4.4849374665
 20
5.1330223368
 30
0.0
 10
4.4846148093
 20
5.1331578394
 30
0.0
 10
4.483999041
 20
5.1334052672
 30
0.0
 10
4.4831137454
 20
5.1337202639
 30
0.0
 10
4.482320744
 20
5.1339575418
 30
0.0
 10
4.4816241037
 20
5.1341162559
 30
0.0
 10
4.4810269055
 20
5.1341960837
 30
0.0
 10
4.4805304863
 20
5.1341958422
 30
0.0
 10
4.4801333521
 20
5.134113859
 30
0.0
 10
4.4799227856
 20
5.1339872857
 30
0.0
 10
4.4798470628
 20
5.1339113408
 30
0.0
  0
LINE
  5
5B6
100
AcDbEntity
  8
ALL_ASSEMBLY_MEMBERS
100
AcDbLine
 62
7
  6
CONTINUOUS
 10
4.5420592964
 20
5.0757485285
 11
4.5387702284
 21
5.0774007242
  0
SPLINE
  5
5B7
100
AcDbEntity
  8
ALL_ASSEMBLY_MEMBERS
100
AcDbSpline
 62
7
  6
CONTINUOUS
 70
0
 71
3
 72
16
 73
12
 74
0
 42
0.0000001
 43
0.0000001
 44
0.0000000001
 40
0.0
 40
0.0
 40
0.0
 40
0.0
 40
0.2068462154
 40
0.3912355933
 40
0.5521084767
 40
0.6887185044
 40
0.8007906584
 40
0.8885166735
 40
0.9236422215
 40
0.9533995718
 40
1.0
 40
1.0
 40
1.0
 40
1.0
 10
4.538607512
 20
5.0774764574
 30
0.0
 10
4.5382760241
 20
5.0776300171
 30
0.0
 10
4.5376458058
 20
5.077913591
 30
0.0
 10
4.5367453249
 20
5.0782882073
 30
0.0
 10
4.5359477792
 20
5.078585921
 30
0.0
 10
4.5352579547
 20
5.0788051594
 30
0.0
 10
4.5346799041
 20
5.0789447289
 30
0.0
 10
4.5342671013
 20
5.0789998191
 30
0.0
 10
4.5339965539
 20
5.0789943596
 30
0.0
 10
4.5338025588
 20
5.0789646136
 30
0.0
 10
4.5336721032
 20
5.0789056688
 30
0.0
 10
4.5336144193
 20
5.0788469604
 30
0.0
  0
LINE
  5
5B8
100
AcDbEntity
  8
ALL_ASSEMBLY_MEMBERS
100
AcDbLine
 62
7
  6
CONTINUOUS
 10
4.5761137198
 20
5.0400572328
 11
4.5701200062
 21
5.0432864304
  0
LINE
  5
5B9
100
AcDbEntity
  8
ALL_ASSEMBLY_MEMBERS
100
AcDbLine
 62
7
  6
CONTINUOUS
 10
4.5701200062
 20
5.0432864304
 11
4.5687783465
 21
5.043900687
  0
LINE
  5
5BA
100
AcDbEntity
  8
ALL_ASSEMBLY_MEMBERS
100
AcDbLine
 62
7
  6
CONTINUOUS
 10
4.0204988565
 20
5.5286697978
 11
4.0190133022
 21
5.5305923044
  0
LINE
  5
5BB
100
AcDbEntity
  8
ALL_ASSEMBLY_MEMBERS
100
AcDbLine
 62
7
  6
CONTINUOUS
 10
4.0190133022
 20
5.5305923044
 11
4.0180031521
 21
5.5319002783
  0
LINE
  5
5BC
100
AcDbEntity
  8
ALL_ASSEMBLY_MEMBERS
100
AcDbLine
 62
7
  6
CONTINUOUS
 10
4.0180031521
 20
5.5319002783
 11
4.0148511052
 21
5.5359913977
  0
LINE
  5
5BD
100
AcDbEntity
  8
ALL_ASSEMBLY_MEMBERS
100
AcDbLine
 62
7
  6
CONTINUOUS
 10
4.0148511052
 20
5.5359913977
 11
4.0146484528
 21
5.5362572288
  0
LINE
  5
5BE
100
AcDbEntity
  8
ALL_ASSEMBLY_MEMBERS
100
AcDbLine
 62
7
  6
CONTINUOUS
 10
4.1859965934
 20
5.4314092333
 11
4.1862315462
 21
5.4317269193
  0
SPLINE
  5
5BF
100
AcDbEntity
  8
ALL_ASSEMBLY_MEMBERS
100
AcDbSpline
 62
7
  6
CONTINUOUS
 70
0
 71
3
 72
11
 73
7
 74
0
 42
0.0000001
 43
0.0000001
 44
0.0000000001
 40
0.0
 40
0.0
 40
0.0
 40
0.0
 40
0.1874238037
 40
0.4079552961
 40
0.676399476
 40
1.0
 40
1.0
 40
1.0
 40
1.0
 10
4.1024329998
 20
5.5130150228
 30
0.0
 10
4.1025344974
 20
5.5131166577
 30
0.0
 10
4.1027063062
 20
5.5133884898
 30
0.0
 10
4.1028264479
 20
5.5138985162
 30
0.0
 10
4.1028384393
 20
5.5145241265
 30
0.0
 10
4.1027812163
 20
5.5149755074
 30
0.0
 10
4.1027386274
 20
5.5152198216
 30
0.0
  0
SPLINE
  5
5C0
100
AcDbEntity
  8
ALL_ASSEMBLY_MEMBERS
100
AcDbSpline
 62
7
  6
CONTINUOUS
 70
0
 71
3
 72
15
 73
11
 74
0
 42
0.0000001
 43
0.0000001
 44
0.0000000001
 40
0.0
 40
0.0
 40
0.0
 40
0.0
 40
0.0603273774
 40
0.1339731906
 40
0.2258968397
 40
0.3382867902
 40
0.4720166623
 40
0.627177848
 40
0.8033696903
 40
1.0
 40
1.0
 40
1.0
 40
1.0
 10
4.0306717922
 20
5.5830879905
 30
0.0
 10
4.0307477079
 20
5.5831637291
 30
0.0
 10
4.0308739382
 20
5.5833747388
 30
0.0
 10
4.0309547742
 20
5.5837720902
 30
0.0
 10
4.0309551378
 20
5.584268262
 30
0.0
 10
4.0308755286
 20
5.5848650427
 30
0.0
 10
4.030716823
 20
5.5855611775
 30
0.0
 10
4.0304795101
 20
5.5863535771
 30
0.0
 10
4.0301650326
 20
5.5872381648
 30
0.0
 10
4.0299180912
 20
5.5878533359
 30
0.0
 10
4.0297828251
 20
5.5881756239
 30
0.0
  0
SPLINE
  5
5C1
100
AcDbEntity
  8
ALL_ASSEMBLY_MEMBERS
100
AcDbSpline
 62
7
  6
CONTINUOUS
 70
0
 71
3
 72
16
 73
12
 74
0
 42
0.0000001
 43
0.0000001
 44
0.0000000001
 40
0.0
 40
0.0
 40
0.0
 40
0.0
 40
0.0406355651
 40
0.0685588913
 40
0.1025306443
 40
0.189675688
 40
0.3030080387
 40
0.4419600081
 40
0.605396431
 40
0.7919744756
 40
1.0
 40
1.0
 40
1.0
 40
1.0
 10
3.9756080989
 20
5.6368570303
 30
0.0
 10
3.9756856555
 20
5.6369345598
 30
0.0
 10
3.9757472988
 20
5.6371257689
 30
0.0
 10
3.9757598322
 20
5.6373997529
 30
0.0
 10
3.9757281473
 20
5.6378027572
 30
0.0
 10
3.9755905356
 20
5.6384218054
 30
0.0
 10
3.9753119899
 20
5.6392951799
 30
0.0
 10
3.9749068665
 20
5.6403418953
 30
0.0
 10
3.9743798808
 20
5.6415519479
 30
0.0
 10
3.9737352728
 20
5.6429132013
 30
0.0
 10
3.9732559313
 20
5.6438642403
 30
0.0
 10
3.9729984284
 20
5.6443630952
 30
0.0
  0
LINE
  5
5C2
100
AcDbEntity
  8
ALL_ASSEMBLY_MEMBERS
100
AcDbLine
 62
7
  6
CONTINUOUS
 10
3.9406524956
 20
5.672036626
 11
3.9386879418
 21
5.6759892461
  0
LINE
  5
5C3
100
AcDbEntity
  8
ALL_ASSEMBLY_MEMBERS
100
AcDbLine
 62
7
  6
CONTINUOUS
 10
3.9386879418
 20
5.6759892461
 11
3.9370826187
 21
5.6788862442
  0
SPLINE
  5
5C4
100
AcDbEntity
  8
ALL_ASSEMBLY_MEMBERS
100
AcDbSpline
 62
7
  6
CONTINUOUS
 70
0
 71
3
 72
12
 73
8
 74
0
 42
0.0000001
 43
0.0000001
 44
0.0000000001
 40
0.0
 40
0.0
 40
0.0
 40
0.0
 40
0.1411732924
 40
0.2344000439
 40
0.3463443531
 40
0.6310441623
 40
1.0
 40
1.0
 40
1.0
 40
1.0
 10
4.0253602274
 20
5.5696307125
 30
0.0
 10
4.0254242175
 20
5.5696949923
 30
0.0
 10
4.0254805145
 20
5.569847112
 30
0.0
 10
4.0254959934
 20
5.5700678304
 30
0.0
 10
4.0254762572
 20
5.5703834037
 30
0.0
 10
4.025370825
 20
5.5708655218
 30
0.0
 10
4.0252405788
 20
5.5712651682
 30
0.0
 10
4.0251603652
 20
5.5714882299
 30
0.0
  0
LINE
  5
5C5
100
AcDbEntity
  8
ALL_ASSEMBLY_MEMBERS
100
AcDbLine
 62
7
  6
CONTINUOUS
 10
4.0251603652
 20
5.5714882299
 11
4.0237240135
 21
5.5746100006
  0
LINE
  5
5C6
100
AcDbEntity
  8
ALL_ASSEMBLY_MEMBERS
100
AcDbLine
 62
7
  6
CONTINUOUS
 10
4.1421031998
 20
5.4620741424
 11
4.1364155427
 21
5.4690734515
  0
SPLINE
  5
5C7
100
AcDbEntity
  8
ALL_ASSEMBLY_MEMBERS
100
AcDbSpline
 62
7
  6
CONTINUOUS
 70
0
 71
3
 72
16
 73
12
 74
0
 42
0.0000001
 43
0.0000001
 44
0.0000000001
 40
0.0
 40
0.0
 40
0.0
 40
0.0
 40
0.0286522402
 40
0.0587712972
 40
0.1286099598
 40
0.2173422931
 40
0.3281122429
 40
0.4621030279
 40
0.6193894009
 40
0.7990865349
 40
1.0
 40
1.0
 40
1.0
 40
1.0
 10
4.3024393696
 20
5.2981081806
 30
0.0
 10
4.3024891575
 20
5.2981576122
 30
0.0
 10
4.3025787069
 20
5.2982725083
 30
0.0
 10
4.3027075889
 20
5.2985627499
 30
0.0
 10
4.3027517985
 20
5.2990328705
 30
0.0
 10
4.3026456504
 20
5.2996868758
 30
0.0
 10
4.3023913683
 20
5.3004654293
 30
0.0
 10
4.3019871396
 20
5.3013643938
 30
0.0
 10
4.3014350252
 20
5.3023778496
 30
0.0
 10
4.3007396874
 20
5.303497086
 30
0.0
 10
4.3002123272
 20
5.3042658847
 30
0.0
 10
4.2999268256
 20
5.3046665328
 30
0.0
  0
SPLINE
  5
5C8
100
AcDbEntity
  8
ALL_ASSEMBLY_MEMBERS
100
AcDbSpline
 62
7
  6
CONTINUOUS
 70
0
 71
3
 72
9
 73
5
 74
0
 42
0.0000001
 43
0.0000001
 44
0.0000000001
 40
0.0
 40
0.0
 40
0.0
 40
0.0
 40
0.4667121001
 40
1.0
 40
1.0
 40
1.0
 40
1.0
 10
4.2999268256
 20
5.3046665328
 30
0.0
 10
4.2992305001
 20
5.3056436955
 30
0.0
 10
4.2976502168
 20
5.3076745445
 30
0.0
 10
4.2959591993
 20
5.3096124729
 30
0.0
 10
4.2950346795
 20
5.3106249066
 30
0.0
  0
SPLINE
  5
5C9
100
AcDbEntity
  8
ALL_ASSEMBLY_MEMBERS
100
AcDbSpline
 62
7
  6
CONTINUOUS
 70
0
 71
3
 72
17
 73
13
 74
0
 42
0.0000001
 43
0.0000001
 44
0.0000000001
 40
0.0
 40
0.0
 40
0.0
 40
0.0
 40
0.02381091
 40
0.0490590259
 40
0.0777078938
 40
0.1111164196
 40
0.1951942218
 40
0.3048663535
 40
0.440803658
 40
0.6027885074
 40
0.7899003349
 40
1.0
 40
1.0
 40
1.0
 40
1.0
 10
4.4458718612
 20
5.1575629527
 30
0.0
 10
4.4459115961
 20
5.1576027997
 30
0.0
 10
4.4459805538
 20
5.1576989887
 30
0.0
 10
4.446035993
 20
5.1578766416
 30
0.0
 10
4.4460460171
 20
5.158084392
 30
0.0
 10
4.4459973805
 20
5.1584277694
 30
0.0
 10
4.4458097093
 20
5.1589356991
 30
0.0
 10
4.4454369827
 20
5.1596208771
 30
0.0
 10
4.4448994765
 20
5.1604216923
 30
0.0
 10
4.4442002184
 20
5.1613306027
 30
0.0
 10
4.4433446435
 20
5.1623383712
 30
0.0
 10
4.4427108957
 20
5.163031161
 30
0.0
 10
4.4423704684
 20
5.1633926238
 30
0.0
  0
SPLINE
  5
5CA
100
AcDbEntity
  8
ALL_ASSEMBLY_MEMBERS
100
AcDbSpline
 62
7
  6
CONTINUOUS
 70
0
 71
3
 72
15
 73
11
 74
0
 42
0.0000001
 43
0.0000001
 44
0.0000000001
 40
0.0
 40
0.0
 40
0.0
 40
0.0
 40
0.0320068112
 40
0.056902533
 40
0.0885969784
 40
0.1731499099
 40
0.2859607926
 40
0.4262308808
 40
0.592931654
 40
1.0
 40
1.0
 40
1.0
 40
1.0
 10
3.9862147304
 20
5.6079914979
 30
0.0
 10
3.9862593879
 20
5.6080365156
 30
0.0
 10
3.9862749905
 20
5.6081637039
 30
0.0
 10
3.9862570238
 20
5.6083342588
 30
0.0
 10
3.9861968179
 20
5.6086097121
 30
0.0
 10
3.9860487608
 20
5.6090384124
 30
0.0
 10
3.9857883538
 20
5.6096552675
 30
0.0
 10
3.9854305127
 20
5.6104060643
 30
0.0
 10
3.9847833816
 20
5.6116642076
 30
0.0
 10
3.9842281105
 20
5.6126564643
 30
0.0
 10
3.9838261619
 20
5.6133556231
 30
0.0
  0
SPLINE
  5
5CB
100
AcDbEntity
  8
ALL_ASSEMBLY_MEMBERS
100
AcDbSpline
 62
7
  6
CONTINUOUS
 70
0
 71
3
 72
11
 73
7
 74
0
 42
0.0000001
 43
0.0000001
 44
0.0000000001
 40
0.0
 40
0.0
 40
0.0
 40
0.0
 40
0.2293300471
 40
0.4816267143
 40
0.7432778241
 40
1.0
 40
1.0
 40
1.0
 40
1.0
 10
3.9821361895
 20
5.6161978247
 30
0.0
 10
3.9813528023
 20
5.6174791946
 30
0.0
 10
3.9796706922
 20
5.6201477513
 30
0.0
 10
3.9769944648
 20
5.6242139982
 30
0.0
 10
3.9741473304
 20
5.628381621
 30
0.0
 10
3.9721836368
 20
5.6311511176
 30
0.0
 10
3.9711972101
 20
5.6325125817
 30
0.0
  0
SPLINE
  5
5CC
100
AcDbEntity
  8
ALL_ASSEMBLY_MEMBERS
100
AcDbSpline
 62
7
  6
CONTINUOUS
 70
0
 71
3
 72
15
 73
11
 74
0
 42
0.0000001
 43
0.0000001
 44
0.0000000001
 40
0.0
 40
0.0
 40
0.0
 40
0.0
 40
0.0611546732
 40
0.1336883762
 40
0.2241087186
 40
0.3354004257
 40
0.4688073954
 40
0.6244762365
 40
0.8018192127
 40
1.0
 40
1.0
 40
1.0
 40
1.0
 10
4.2241462595
 20
5.3748283779
 30
0.0
 10
4.2242410253
 20
5.3749221353
 30
0.0
 10
4.2243965938
 20
5.3751815786
 30
0.0
 10
4.2244701576
 20
5.3756718402
 30
0.0
 10
4.2244184909
 20
5.3762706495
 30
0.0
 10
4.2242442356
 20
5.3769820833
 30
0.0
 10
4.2239480796
 20
5.3778042093
 30
0.0
 10
4.2235310988
 20
5.3787323024
 30
0.0
 10
4.2229960188
 20
5.3797597214
 30
0.0
 10
4.2225845703
 20
5.3804677127
 30
0.0
 10
4.222360712
 20
5.380837192
 30
0.0
  0
SPLINE
  5
5CD
100
AcDbEntity
  8
ALL_ASSEMBLY_MEMBERS
100
AcDbSpline
 62
7
  6
CONTINUOUS
 70
0
 71
3
 72
11
 73
7
 74
0
 42
0.0000001
 43
0.0000001
 44
0.0000000001
 40
0.0
 40
0.0
 40
0.0
 40
0.0
 40
0.2118240845
 40
0.454279578
 40
0.7198771523
 40
1.0
 40
1.0
 40
1.0
 40
1.0
 10
4.222360712
 20
5.380837192
 30
0.0
 10
4.2218438568
 20
5.3816902641
 30
0.0
 10
4.2206604874
 20
5.3834744571
 30
0.0
 10
4.2186354674
 20
5.3861942338
 30
0.0
 10
4.2162872865
 20
5.3890696977
 30
0.0
 10
4.2145845064
 20
5.390995172
 30
0.0
 10
4.2136926171
 20
5.391966969
 30
0.0
  0
SPLINE
  5
5CE
100
AcDbEntity
  8
ALL_ASSEMBLY_MEMBERS
100
AcDbSpline
 62
7
  6
CONTINUOUS
 70
0
 71
3
 72
17
 73
13
 74
0
 42
0.0000001
 43
0.0000001
 44
0.0000000001
 40
0.0
 40
0.0
 40
0.0
 40
0.0
 40
0.0259093593
 40
0.0532936034
 40
0.0838863254
 40
0.1189529778
 40
0.205364167
 40
0.3158471605
 40
0.4511746435
 40
0.6111342197
 40
0.7945769145
 40
1.0
 40
1.0
 40
1.0
 40
1.0
 10
4.3780666769
 20
5.2240035571
 30
0.0
 10
4.3781161116
 20
5.2240529298
 30
0.0
 10
4.3782033128
 20
5.224170156
 30
0.0
 10
4.3782828036
 20
5.2243845546
 30
0.0
 10
4.378313281
 20
5.2246354139
 30
0.0
 10
4.3782882583
 20
5.2250463799
 30
0.0
 10
4.3781185803
 20
5.2256541046
 30
0.0
 10
4.3777513853
 20
5.2264726229
 30
0.0
 10
4.37720584
 20
5.227422892
 30
0.0
 10
4.3764854991
 20
5.2284949799
 30
0.0
 10
4.3755966553
 20
5.2296789806
 30
0.0
 10
4.3749326747
 20
5.2304909658
 30
0.0
 10
4.3745750179
 20
5.2309139763
 30
0.0
  0
LINE
  5
5CF
100
AcDbEntity
  8
ALL_ASSEMBLY_MEMBERS
100
AcDbLine
 62
7
  6
CONTINUOUS
 10
4.3733901208
 20
5.2322694653
 11
4.3706507115
 21
5.2351473339
  0
SPLINE
  5
5D0
100
AcDbEntity
  8
ALL_ASSEMBLY_MEMBERS
100
AcDbSpline
 62
9
  6
CONTINUOUS
 70
0
 71
3
 72
15
 73
11
 74
0
 42
0.0000001
 43
0.0000001
 44
0.0000000001
 40
0.0
 40
0.0
 40
0.0
 40
0.0
 40
0.0873475346
 40
0.1241901771
 40
0.167911656
 40
0.2766102353
 40
0.4141639545
 40
0.5807275739
 40
0.7762230002
 40
1.0
 40
1.0
 40
1.0
 40
1.0
 10
4.0356959387
 20
5.5097711202
 30
0.0
 10
4.0357470343
 20
5.5098223717
 30
0.0
 10
4.035880867
 20
5.5097899632
 30
0.0
 10
4.0360010177
 20
5.5097326311
 30
0.0
 10
4.0361391448
 20
5.5096543882
 30
0.0
 10
4.036335329
 20
5.5095169812
 30
0.0
 10
4.036602945
 20
5.5093030695
 30
0.0
 10
4.036914016
 20
5.509030033
 30
0.0
 10
4.0372684261
 20
5.5086982238
 30
0.0
 10
4.0375161674
 20
5.5084546865
 30
0.0
 10
4.0376472385
 20
5.5083235529
 30
0.0
  0
SPLINE
  5
5D1
100
AcDbEntity
  8
ALL_ASSEMBLY_MEMBERS
100
AcDbSpline
 62
9
  6
CONTINUOUS
 70
0
 71
3
 72
21
 73
17
 74
0
 42
0.0000001
 43
0.0000001
 44
0.0000000001
 40
0.0
 40
0.0
 40
0.0
 40
0.0
 40
0.1976864246
 40
0.3832951531
 40
0.5512883017
 40
0.6968365587
 40
0.7598148302
 40
0.8157432001
 40
0.8643398997
 40
0.9053768045
 40
0.9387692674
 40
0.9648178703
 40
0.9753540456
 40
0.9844784122
 40
0.9925281981
 40
1.0
 40
1.0
 40
1.0
 40
1.0
 10
4.255550051
 20
5.2904211322
 30
0.0
 10
4.2564041125
 20
5.289567125
 30
0.0
 10
4.258038584
 20
5.2878896289
 30
0.0
 10
4.2603200979
 20
5.2854111509
 30
0.0
 10
4.2623092897
 20
5.2830988514
 30
0.0
 10
4.2637376495
 20
5.2812942039
 30
0.0
 10
4.2646809174
 20
5.2799820767
 30
0.0
 10
4.265247316
 20
5.279129353
 30
0.0
 10
4.2657042186
 20
5.2783659555
 30
0.0
 10
4.2660491732
 20
5.2776971632
 30
0.0
 10
4.2662795978
 20
5.2771273651
 30
0.0
 10
4.2663844272
 20
5.2767096279
 30
0.0
 10
4.2663989507
 20
5.27642979
 30
0.0
 10
4.2663790435
 20
5.2762605843
 30
0.0
 10
4.2663281469
 20
5.2761172214
 30
0.0
 10
4.266271538
 20
5.2760390669
 30
0.0
 10
4.2662393571
 20
5.2760066895
 30
0.0
  0
SPLINE
  5
5D2
100
AcDbEntity
  8
ALL_ASSEMBLY_MEMBERS
100
AcDbSpline
 62
9
  6
CONTINUOUS
 70
0
 71
3
 72
15
 73
11
 74
0
 42
0.0000001
 43
0.0000001
 44
0.0000000001
 40
0.0
 40
0.0
 40
0.0
 40
0.0
 40
0.0232930029
 40
0.0527274782
 40
0.128757851
 40
0.2219911804
 40
0.3299338715
 40
0.4631616488
 40
0.6224417305
 40
1.0
 40
1.0
 40
1.0
 40
1.0
 10
4.2583881487
 20
5.292546049
 30
0.0
 10
4.2583604267
 20
5.2925484441
 30
0.0
 10
4.258296853
 20
5.2925422097
 30
0.0
 10
4.2581489482
 20
5.2924989958
 30
0.0
 10
4.257934544
 20
5.2923941146
 30
0.0
 10
4.2576523241
 20
5.2922208887
 30
0.0
 10
4.2573256832
 20
5.2919904235
 30
0.0
 10
4.2569480396
 20
5.2916966033
 30
0.0
 10
4.2563362415
 20
5.2911801965
 30
0.0
 10
4.2558689087
 20
5.2907400706
 30
0.0
 10
4.2555500119
 20
5.2904211238
 30
0.0
  0
SPLINE
  5
5D3
100
AcDbEntity
  8
ALL_ASSEMBLY_MEMBERS
100
AcDbSpline
 62
9
  6
CONTINUOUS
 70
0
 71
3
 72
23
 73
19
 74
0
 42
0.0000001
 43
0.0000001
 44
0.0000000001
 40
0.0
 40
0.0
 40
0.0
 40
0.0
 40
0.1719073372
 40
0.3473288308
 40
0.5166008048
 40
0.5959577565
 40
0.6703831598
 40
0.7388863298
 40
0.8005445168
 40
0.8546511381
 40
0.9005752827
 40
0.9378101601
 40
0.9531260171
 40
0.9662590861
 40
0.9772727401
 40
0.986310763
 40
0.9936819028
 40
1.0
 40
1.0
 40
1.0
 40
1.0
 10
4.1556446596
 20
5.3903265258
 30
0.0
 10
4.1568096835
 20
5.3891615737
 30
0.0
 10
4.1591191931
 20
5.3867631831
 30
0.0
 10
4.1624346015
 20
5.3830850744
 30
0.0
 10
4.1650551195
 20
5.3799774492
 30
0.0
 10
4.1669813553
 20
5.3775532526
 30
0.0
 10
4.1682710456
 20
5.3758574022
 30
0.0
 10
4.1694198027
 20
5.3742681302
 30
0.0
 10
4.1704117504
 20
5.3728066821
 30
0.0
 10
4.1712349358
 20
5.3714932042
 30
0.0
 10
4.1718790956
 20
5.3703455959
 30
0.0
 10
4.172284303
 20
5.3694915456
 30
0.0
 10
4.1725030811
 20
5.3689008156
 30
0.0
 10
4.1726073369
 20
5.3685367691
 30
0.0
 10
4.1726628746
 20
5.36822281
 30
0.0
 10
4.1726691461
 20
5.3679586305
 30
0.0
 10
4.1726240779
 20
5.3677426343
 30
0.0
 10
4.1725519465
 20
5.3676281856
 30
0.0
 10
4.1725090686
 20
5.3675854302
 30
0.0
  0
SPLINE
  5
5D4
100
AcDbEntity
  8
ALL_ASSEMBLY_MEMBERS
100
AcDbSpline
 62
9
  6
CONTINUOUS
 70
0
 71
3
 72
13
 73
9
 74
0
 42
0.0000001
 43
0.0000001
 44
0.0000000001
 40
0.0
 40
0.0
 40
0.0
 40
0.0
 40
0.0687298599
 40
0.1524410644
 40
0.2481671751
 40
0.3554055801
 40
0.6388076704
 40
1.0
 40
1.0
 40
1.0
 40
1.0
 10
4.1574402896
 20
5.3934932799
 30
0.0
 10
4.1574717297
 20
5.3934132777
 30
0.0
 10
4.1574909181
 20
5.3932172193
 30
0.0
 10
4.1574314948
 20
5.3929112403
 30
0.0
 10
4.1573075457
 20
5.3925735164
 30
0.0
 10
4.1570348719
 20
5.3920288861
 30
0.0
 10
4.1565013539
 20
5.3912497503
 30
0.0
 10
4.1559644772
 20
5.3906455032
 30
0.0
 10
4.1556450144
 20
5.3903261207
 30
0.0
  0
SPLINE
  5
5D5
100
AcDbEntity
  8
ALL_ASSEMBLY_MEMBERS
100
AcDbSpline
 62
9
  6
CONTINUOUS
 70
0
 71
3
 72
21
 73
17
 74
0
 42
0.0000001
 43
0.0000001
 44
0.0000000001
 40
0.0
 40
0.0
 40
0.0
 40
0.0
 40
0.1860062521
 40
0.3670602823
 40
0.5356966467
 40
0.6849205376
 40
0.750386987
 40
0.8089265372
 40
0.8599712249
 40
0.9031680796
 40
0.9383379538
 40
0.9654928147
 40
0.9762316654
 40
0.9853035935
 40
0.9930463123
 40
1.0
 40
1.0
 40
1.0
 40
1.0
 10
4.2051146436
 20
5.3408565395
 30
0.0
 10
4.2061496127
 20
5.3398216284
 30
0.0
 10
4.2081607501
 20
5.3377478586
 30
0.0
 10
4.2110022325
 20
5.3346333611
 30
0.0
 10
4.2135501475
 20
5.3316457405
 30
0.0
 10
4.2154160403
 20
5.329274219
 30
0.0
 10
4.2166734487
 20
5.3275299383
 30
0.0
 10
4.2174417169
 20
5.3263862601
 30
0.0
 10
4.2180693167
 20
5.3253604487
 30
0.0
 10
4.2185514615
 20
5.3244624315
 30
0.0
 10
4.218884624
 20
5.3237012084
 30
0.0
 10
4.2190509677
 20
5.3231471601
 30
0.0
 10
4.2190918204
 20
5.3227787348
 30
0.0
 10
4.2190803552
 20
5.3225609088
 30
0.0
 10
4.2190281964
 20
5.3223790979
 30
0.0
 10
4.2189622228
 20
5.3222809995
 30
0.0
 10
4.2189240041
 20
5.3222418432
 30
0.0
  0
LINE
  5
5D6
100
AcDbEntity
  8
ALL_ASSEMBLY_MEMBERS
100
AcDbLine
 62
9
  6
CONTINUOUS
 10
4.2074263257
 20
5.3435072559
 11
4.2051147187
 21
5.3408564164
  0
SPLINE
  5
5D7
100
AcDbEntity
  8
ALL_ASSEMBLY_MEMBERS
100
AcDbSpline
 62
9
  6
CONTINUOUS
 70
0
 71
3
 72
16
 73
12
 74
0
 42
0.0000001
 43
0.0000001
 44
0.0000000001
 40
0.0
 40
0.0
 40
0.0
 40
0.0
 40
0.22112659
 40
0.4156389034
 40
0.5826234773
 40
0.7212627729
 40
0.7797610372
 40
0.8310239127
 40
0.8751525574
 40
0.9123282363
 40
1.0
 40
1.0
 40
1.0
 40
1.0
 10
4.3878610074
 20
5.1581101756
 30
0.0
 10
4.3880856532
 20
5.157885551
 30
0.0
 10
4.3885039789
 20
5.1574593622
 30
0.0
 10
4.3890754972
 20
5.1568476967
 30
0.0
 10
4.3895489579
 20
5.1563069519
 30
0.0
 10
4.3898761149
 20
5.1558986028
 30
0.0
 10
4.3900840795
 20
5.1556080682
 30
0.0
 10
4.3902044481
 20
5.15542349
 30
0.0
 10
4.3902997451
 20
5.1552555476
 30
0.0
 10
4.3903997627
 20
5.1550461881
 30
0.0
 10
4.3904599009
 20
5.1548135391
 30
0.0
 10
4.3903713299
 20
5.1547239872
 30
0.0
  0
SPLINE
  5
5D8
100
AcDbEntity
  8
ALL_ASSEMBLY_MEMBERS
100
AcDbSpline
 62
9
  6
CONTINUOUS
 70
0
 71
3
 72
12
 73
8
 74
0
 42
0.0000001
 43
0.0000001
 44
0.0000000001
 40
0.0
 40
0.0
 40
0.0
 40
0.0
 40
0.1181272324
 40
0.2326523737
 40
0.450603981
 40
0.703817023
 40
1.0
 40
1.0
 40
1.0
 40
1.0
 10
4.3920789951
 20
5.1588545739
 30
0.0
 10
4.3919302829
 20
5.1589596355
 30
0.0
 10
4.3916117678
 20
5.1591325785
 30
0.0
 10
4.390940056
 20
5.1593251638
 30
0.0
 10
4.3900187286
 20
5.1593244608
 30
0.0
 10
4.3888801059
 20
5.1589442535
 30
0.0
 10
4.3881827584
 20
5.1584340137
 30
0.0
 10
4.3878600469
 20
5.1581110882
 30
0.0
  0
SPLINE
  5
5D9
100
AcDbEntity
  8
ALL_ASSEMBLY_MEMBERS
100
AcDbSpline
 62
9
  6
CONTINUOUS
 70
0
 71
3
 72
14
 73
10
 74
0
 42
0.0000001
 43
0.0000001
 44
0.0000000001
 40
0.0
 40
0.0
 40
0.0
 40
0.0
 40
0.2244928671
 40
0.420098136
 40
0.5865574135
 40
0.7238885629
 40
0.8323175422
 40
0.9125767422
 40
1.0
 40
1.0
 40
1.0
 40
1.0
 10
4.4127198449
 20
5.1332511781
 30
0.0
 10
4.4128084554
 20
5.1331625935
 30
0.0
 10
4.4129728429
 20
5.1329953205
 30
0.0
 10
4.4131966167
 20
5.1327565209
 30
0.0
 10
4.4133806392
 20
5.1325464942
 30
0.0
 10
4.4135242991
 20
5.1323682991
 30
0.0
 10
4.4136291668
 20
5.1322150865
 30
0.0
 10
4.4137011212
 20
5.1320895471
 30
0.0
 10
4.4137291322
 20
5.131971291
 30
0.0
 10
4.4136946166
 20
5.1319368022
 30
0.0
  0
LINE
  5
5DA
100
AcDbEntity
  8
ALL_ASSEMBLY_MEMBERS
100
AcDbLine
 62
9
  6
CONTINUOUS
 10
4.4262113649
 20
5.1197598175
 11
4.4263516558
 21
5.1195704754
  0
SPLINE
  5
5DB
100
AcDbEntity
  8
ALL_ASSEMBLY_MEMBERS
100
AcDbSpline
 62
9
  6
CONTINUOUS
 70
0
 71
3
 72
11
 73
7
 74
0
 42
0.0000001
 43
0.0000001
 44
0.0000000001
 40
0.0
 40
0.0
 40
0.0
 40
0.0
 40
0.2601631116
 40
0.4908412251
 40
0.7303465486
 40
1.0
 40
1.0
 40
1.0
 40
1.0
 10
4.430829409
 20
5.1201041678
 30
0.0
 10
4.4305188789
 20
5.1203385179
 30
0.0
 10
4.4298520789
 20
5.1206838195
 30
0.0
 10
4.428758947
 20
5.1208596087
 30
0.0
 10
4.4276470808
 20
5.1207035951
 30
0.0
 10
4.4269502943
 20
5.1203549996
 30
0.0
 10
4.4266249595
 20
5.1201167782
 30
0.0
  0
LINE
  5
5DC
100
AcDbEntity
  8
ALL_ASSEMBLY_MEMBERS
100
AcDbLine
 62
9
  6
CONTINUOUS
 10
4.6717836508
 20
4.9126268034
 11
4.6884696433
 21
4.9241015867
  0
LINE
  5
5DD
100
AcDbEntity
  8
ALL_ASSEMBLY_MEMBERS
100
AcDbLine
 62
9
  6
CONTINUOUS
 10
4.628984524
 20
4.9810586604
 11
4.6319654159
 21
4.9860977385
  0
SPLINE
  5
5DE
100
AcDbEntity
  8
ALL_ASSEMBLY_MEMBERS
100
AcDbSpline
 62
7
  6
CONTINUOUS
 70
0
 71
3
 72
29
 73
25
 74
0
 42
0.0000001
 43
0.0000001
 44
0.0000000001
 40
0.0
 40
0.0
 40
0.0
 40
0.0
 40
0.1915187342
 40
0.3768898132
 40
0.4648985069
 40
0.5487149398
 40
0.6275541877
 40
0.700648628
 40
0.7672501327
 40
0.8266119176
 40
0.878060752
 40
0.900652182
 40
0.9210700624
 40
0.9392507283
 40
0.9551305499
 40
0.9686555927
 40
0.9797955088
 40
0.9885236096
 40
0.9919750048
 40
0.9948136661
 40
0.9970365456
 40
0.9986409826
 40
0.9996256872
 40
1.0
 40
1.0
 40
1.0
 40
1.0
 10
4.6341982156
 20
4.9480593741
 30
0.0
 10
4.6351408577
 20
4.9490027227
 30
0.0
 10
4.6370032969
 20
4.9508517449
 30
0.0
 10
4.6393179018
 20
4.9531150117
 30
0.0
 10
4.6411064795
 20
4.9548434355
 30
0.0
 10
4.6423660437
 20
4.9560517759
 30
0.0
 10
4.643554805
 20
4.9571838904
 30
0.0
 10
4.6446605356
 20
4.9582293572
 30
0.0
 10
4.6456710272
 20
4.9591781291
 30
0.0
 10
4.6465745845
 20
4.9600205817
 30
0.0
 10
4.6472562925
 20
4.9606515819
 30
0.0
 10
4.647740398
 20
4.9610968477
 30
0.0
 10
4.6480546385
 20
4.9613845959
 30
0.0
 10
4.6483350415
 20
4.961640096
 30
0.0
 10
4.6485805983
 20
4.9618625653
 30
0.0
 10
4.6487904826
 20
4.9620514136
 30
0.0
 10
4.648964057
 20
4.9622060831
 30
0.0
 10
4.6490860326
 20
4.9623134049
 30
0.0
 10
4.6491651512
 20
4.9623815873
 30
0.0
 10
4.6492104713
 20
4.9624202292
 30
0.0
 10
4.6492459436
 20
4.9624490419
 30
0.0
 10
4.6492728985
 20
4.9624716187
 30
0.0
 10
4.6492883333
 20
4.9624805651
 30
0.0
 10
4.6492979356
 20
4.9624889385
 30
0.0
 10
4.6493001153
 20
4.9624875094
 30
0.0
  0
LINE
  5
5DF
100
AcDbEntity
  8
ALL_ASSEMBLY_MEMBERS
100
AcDbLine
 62
9
  6
CONTINUOUS
 10
4.5611970974
 20
5.0374163725
 11
4.5615898924
 21
5.0371093037
  0
LINE
  5
5E0
100
AcDbEntity
  8
ALL_ASSEMBLY_MEMBERS
100
AcDbLine
 62
9
  6
CONTINUOUS
 10
4.646861115
 20
4.8806724047
 11
4.6400095162
 21
4.8619683291
  0
LINE
  5
5E1
100
AcDbEntity
  8
ALL_ASSEMBLY_MEMBERS
100
AcDbLine
 62
7
  6
CONTINUOUS
 10
4.6563469535
 20
4.9703630139
 11
4.6530738615
 21
4.9669488408
  0
LINE
  5
5E2
100
AcDbEntity
  8
ALL_ASSEMBLY_MEMBERS
100
AcDbLine
 62
9
  6
CONTINUOUS
 10
4.6319654172
 20
4.9860977368
 11
4.6314964329
 21
4.9864671192
  0
LINE
  5
5E3
100
AcDbEntity
  8
ALL_ASSEMBLY_MEMBERS
100
AcDbLine
 62
9
  6
CONTINUOUS
 10
4.4125471905
 20
5.1304059546
 11
4.4139424758
 21
5.1293572
  0
SPLINE
  5
5E4
100
AcDbEntity
  8
ALL_ASSEMBLY_MEMBERS
100
AcDbSpline
 62
9
  6
CONTINUOUS
 70
0
 71
3
 72
15
 73
11
 74
0
 42
0.0000001
 43
0.0000001
 44
0.0000000001
 40
0.0
 40
0.0
 40
0.0
 40
0.0
 40
0.3662862945
 40
0.5267005878
 40
0.6682271551
 40
0.7882337499
 40
0.8845815852
 40
0.955655637
 40
0.9812297771
 40
1.0
 40
1.0
 40
1.0
 40
1.0
 10
4.4156648374
 20
5.1280566989
 30
0.0
 10
4.4169712333
 20
5.1270676625
 30
0.0
 10
4.4188457444
 20
5.1256401407
 30
0.0
 10
4.4212119587
 20
5.1238134462
 30
0.0
 10
4.4226999668
 20
5.1226521097
 30
0.0
 10
4.4239552594
 20
5.1216584261
 30
0.0
 10
4.4249550672
 20
5.1208499613
 30
0.0
 10
4.425618367
 20
5.1202971055
 30
0.0
 10
4.4260056401
 20
5.1199556254
 30
0.0
 10
4.4261506948
 20
5.1198201824
 30
0.0
 10
4.426210024
 20
5.119760764
 30
0.0
  0
LINE
  5
5E5
100
AcDbEntity
  8
ALL_ASSEMBLY_MEMBERS
100
AcDbLine
 62
9
  6
CONTINUOUS
 10
4.38819357
 20
5.1525578393
 11
4.3884738514
 21
5.1523598638
  0
SPLINE
  5
5E6
100
AcDbEntity
  8
ALL_ASSEMBLY_MEMBERS
100
AcDbSpline
 62
9
  6
CONTINUOUS
 70
0
 71
3
 72
14
 73
10
 74
0
 42
0.0000001
 43
0.0000001
 44
0.0000000001
 40
0.0
 40
0.0
 40
0.0
 40
0.0
 40
0.2969558187
 40
0.4462068414
 40
0.5889705819
 40
0.7201817095
 40
0.8350752431
 40
0.9294977734
 40
1.0
 40
1.0
 40
1.0
 40
1.0
 10
4.391801949
 20
5.1499680873
 30
0.0
 10
4.3939448107
 20
5.1484058583
 30
0.0
 10
4.3971377011
 20
5.1460211997
 30
0.0
 10
4.4013036385
 20
5.142810426
 30
0.0
 10
4.4042718327
 20
5.1404705324
 30
0.0
 10
4.4069720879
 20
5.1382868319
 30
0.0
 10
4.4093076219
 20
5.1363389494
 30
0.0
 10
4.411192474
 20
5.1346983411
 30
0.0
 10
4.4122737711
 20
5.1336972046
 30
0.0
 10
4.4127188502
 20
5.1332518978
 30
0.0
  0
LINE
  5
5E7
100
AcDbEntity
  8
ALL_ASSEMBLY_MEMBERS
100
AcDbLine
 62
9
  6
CONTINUOUS
 10
4.3567212639
 20
5.1812052288
 11
4.3569321821
 21
5.1812709763
  0
SPLINE
  5
5E8
100
AcDbEntity
  8
ALL_ASSEMBLY_MEMBERS
100
AcDbSpline
 62
9
  6
CONTINUOUS
 70
0
 71
3
 72
24
 73
20
 74
0
 42
0.0000001
 43
0.0000001
 44
0.0000000001
 40
0.0
 40
0.0
 40
0.0
 40
0.0
 40
0.0070140888
 40
0.0167681773
 40
0.0293678493
 40
0.0447931909
 40
0.0629744792
 40
0.083827658
 40
0.1331589627
 40
0.1917378926
 40
0.2582938799
 40
0.33142008
 40
0.4094920398
 40
0.4908376947
 40
0.5736537596
 40
0.7363053887
 40
0.8828410578
 40
0.9458433571
 40
1.0
 40
1.0
 40
1.0
 40
1.0
 10
4.3569321821
 20
5.1812709763
 30
0.0
 10
4.3570228988
 20
5.1812716204
 30
0.0
 10
4.3572389578
 20
5.1812339852
 30
0.0
 10
4.3576004177
 20
5.1811173479
 30
0.0
 10
4.3580516543
 20
5.1809282512
 30
0.0
 10
4.3585896503
 20
5.1806678252
 30
0.0
 10
4.3592116637
 20
5.1803369697
 30
0.0
 10
4.3602050552
 20
5.1797716016
 30
0.0
 10
4.3616234721
 20
5.178898024
 30
0.0
 10
4.3635102769
 20
5.1776600365
 30
0.0
 10
4.3656229622
 20
5.1762064222
 30
0.0
 10
4.3679144672
 20
5.1745688198
 30
0.0
 10
4.3703348498
 20
5.1727831772
 30
0.0
 10
4.3728299241
 20
5.1708881999
 30
0.0
 10
4.3761626179
 20
5.1682879865
 30
0.0
 10
4.380099743
 20
5.165092614
 30
0.0
 10
4.3837529797
 20
5.1619562184
 30
0.0
 10
4.3862720176
 20
5.1596566526
 30
0.0
 10
4.3873646594
 20
5.1586063019
 30
0.0
 10
4.3878598616
 20
5.1581109151
 30
0.0
  0
SPLINE
  5
5E9
100
AcDbEntity
  8
ALL_ASSEMBLY_MEMBERS
100
AcDbSpline
 62
9
  6
CONTINUOUS
 70
0
 71
3
 72
21
 73
17
 74
0
 42
0.0000001
 43
0.0000001
 44
0.0000000001
 40
0.0
 40
0.0
 40
0.0
 40
0.0
 40
0.0072941946
 40
0.0152240144
 40
0.0243027561
 40
0.0348702597
 40
0.0612024729
 40
0.0951421349
 40
0.1368621745
 40
0.1862182044
 40
0.2429646239
 40
0.3067879698
 40
0.4535554958
 40
0.6217823646
 40
0.805988754
 40
1.0
 40
1.0
 40
1.0
 40
1.0
 10
4.1892043432
 20
5.3526530562
 30
0.0
 10
4.1892391184
 20
5.3526877826
 30
0.0
 10
4.1893241091
 20
5.3527486382
 30
0.0
 10
4.1894808935
 20
5.3528016458
 30
0.0
 10
4.1896669403
 20
5.3528202419
 30
0.0
 10
4.1899770215
 20
5.3527989821
 30
0.0
 10
4.1904416145
 20
5.3526757097
 30
0.0
 10
4.1910769111
 20
5.3524118461
 30
0.0
 10
4.1918243084
 20
5.3520214759
 30
0.0
 10
4.1926777964
 20
5.3515074319
 30
0.0
 10
4.1936309116
 20
5.3508725355
 30
0.0
 10
4.195093095
 20
5.3498202141
 30
0.0
 10
4.1970973632
 20
5.3482380609
 30
0.0
 10
4.1996506927
 20
5.3460477957
 30
0.0
 10
4.2023637848
 20
5.3435581215
 30
0.0
 10
4.2041903359
 20
5.34178066
 30
0.0
 10
4.2051145368
 20
5.3408562546
 30
0.0
  0
SPLINE
  5
5EA
100
AcDbEntity
  8
ALL_ASSEMBLY_MEMBERS
100
AcDbSpline
 62
9
  6
CONTINUOUS
 70
0
 71
3
 72
19
 73
15
 74
0
 42
0.0000001
 43
0.0000001
 44
0.0000000001
 40
0.0
 40
0.0
 40
0.0
 40
0.0
 40
0.0158446343
 40
0.0354135466
 40
0.0609942492
 40
0.093526446
 40
0.1333779657
 40
0.1806712572
 40
0.2353030036
 40
0.2970058694
 40
0.4403673528
 40
0.607943814
 40
0.7958993817
 40
1.0
 40
1.0
 40
1.0
 40
1.0
 10
4.1438586
 20
5.3990660268
 30
0.0
 10
4.1439145681
 20
5.3991221507
 30
0.0
 10
4.1440803094
 20
5.3992083411
 30
0.0
 10
4.1443910147
 20
5.399213834
 30
0.0
 10
4.1447718614
 20
5.3991284545
 30
0.0
 10
4.1452300212
 20
5.3989509913
 30
0.0
 10
4.1457654307
 20
5.3986819052
 30
0.0
 10
4.1463762324
 20
5.3983206406
 30
0.0
 10
4.147059202
 20
5.3978690301
 30
0.0
 10
4.1481145396
 20
5.397111025
 30
0.0
 10
4.1495758069
 20
5.3959520713
 30
0.0
 10
4.1514636975
 20
5.3943191031
 30
0.0
 10
4.1535199317
 20
5.3924187045
 30
0.0
 10
4.1549229627
 20
5.3910479884
 30
0.0
 10
4.1556448284
 20
5.3903259543
 30
0.0
  0
SPLINE
  5
5EB
100
AcDbEntity
  8
ALL_ASSEMBLY_MEMBERS
100
AcDbSpline
 62
9
  6
CONTINUOUS
 70
0
 71
3
 72
24
 73
20
 74
0
 42
0.0000001
 43
0.0000001
 44
0.0000000001
 40
0.0
 40
0.0
 40
0.0
 40
0.0
 40
0.0067405647
 40
0.0143445771
 40
0.0233821794
 40
0.0341899887
 40
0.0469444911
 40
0.0617344999
 40
0.078602561
 40
0.0975572529
 40
0.1416360407
 40
0.1936953088
 40
0.2532638574
 40
0.3197491166
 40
0.3924490473
 40
0.4705655189
 40
0.6394821712
 40
0.8187579228
 40
1.0
 40
1.0
 40
1.0
 40
1.0
 10
4.2354364993
 20
5.3053360386
 30
0.0
 10
4.2354769895
 20
5.3053765163
 30
0.0
 10
4.2355808014
 20
5.3054459947
 30
0.0
 10
4.2357750301
 20
5.3054977588
 30
0.0
 10
4.2360094701
 20
5.3055048515
 30
0.0
 10
4.236284825
 20
5.30546887
 30
0.0
 10
4.2366015188
 20
5.3053905104
 30
0.0
 10
4.2369592704
 20
5.3052698559
 30
0.0
 10
4.237357379
 20
5.3051070438
 30
0.0
 10
4.2379722253
 20
5.3048192201
 30
0.0
 10
4.238831274
 20
5.3043509194
 30
0.0
 10
4.2399573596
 20
5.3036566229
 30
0.0
 10
4.2412122784
 20
5.3028110732
 30
0.0
 10
4.242581664
 20
5.3018234162
 30
0.0
 10
4.2440497744
 20
5.3007044832
 30
0.0
 10
4.2461720013
 20
5.2990096588
 30
0.0
 10
4.2489320529
 20
5.2966643979
 30
0.0
 10
4.2522605601
 20
5.293639619
 30
0.0
 10
4.2544614646
 20
5.2915096637
 30
0.0
 10
4.2555500083
 20
5.2904211204
 30
0.0
  0
SPLINE
  5
5EC
100
AcDbEntity
  8
ALL_ASSEMBLY_MEMBERS
100
AcDbSpline
 62
9
  6
CONTINUOUS
 70
0
 71
3
 72
25
 73
21
 74
0
 42
0.0000001
 43
0.0000001
 44
0.0000000001
 40
0.0
 40
0.0
 40
0.0
 40
0.0
 40
0.1119567927
 40
0.2100022156
 40
0.2940749694
 40
0.3641464736
 40
0.4202476253
 40
0.4625905536
 40
0.4919234342
 40
0.5110158598
 40
0.519431728
 40
0.5290188443
 40
0.5408807461
 40
0.5556186658
 40
0.5947913362
 40
0.647691167
 40
0.7146192904
 40
0.7956426475
 40
0.890765645
 40
1.0
 40
1.0
 40
1.0
 40
1.0
 10
4.4169473084
 20
5.1328381098
 30
0.0
 10
4.4170456503
 20
5.1327797193
 30
0.0
 10
4.4172310097
 20
5.1326716855
 30
0.0
 10
4.4174938546
 20
5.1325261503
 30
0.0
 10
4.4177227563
 20
5.1324078423
 30
0.0
 10
4.4179174897
 20
5.1323170044
 30
0.0
 10
4.4180773757
 20
5.1322530202
 30
0.0
 10
4.4182034171
 20
5.1322169298
 30
0.0
 10
4.4182951726
 20
5.1322044846
 30
0.0
 10
4.4183559967
 20
5.132222592
 30
0.0
 10
4.4183763705
 20
5.1322563856
 30
0.0
 10
4.4183800699
 20
5.1322872399
 30
0.0
 10
4.4183746812
 20
5.1323240675
 30
0.0
 10
4.4183536747
 20
5.1323881102
 30
0.0
 10
4.4183018716
 20
5.1324848016
 30
0.0
 10
4.4182108647
 20
5.1326193883
 30
0.0
 10
4.4180849229
 20
5.1327815497
 30
0.0
 10
4.4179243133
 20
5.1329709737
 30
0.0
 10
4.4177289344
 20
5.1331874038
 30
0.0
 10
4.4175854314
 20
5.1333390459
 30
0.0
 10
4.4175080308
 20
5.1334194281
 30
0.0
  0
LINE
  5
5ED
100
AcDbEntity
  8
ALL_ASSEMBLY_MEMBERS
100
AcDbLine
 62
9
  6
CONTINUOUS
 10
4.4308291235
 20
5.1201037361
 11
4.4283751963
 21
5.1222227016
  0
LINE
  5
5EE
100
AcDbEntity
  8
ALL_ASSEMBLY_MEMBERS
100
AcDbLine
 62
9
  6
CONTINUOUS
 10
4.4283751963
 20
5.1222227016
 11
4.4184443428
 21
5.1301815644
  0
SPLINE
  5
5EF
100
AcDbEntity
  8
ALL_ASSEMBLY_MEMBERS
100
AcDbSpline
 62
9
  6
CONTINUOUS
 70
0
 71
3
 72
21
 73
17
 74
0
 42
0.0000001
 43
0.0000001
 44
0.0000000001
 40
0.0
 40
0.0
 40
0.0
 40
0.0
 40
0.2634851977
 40
0.4691559779
 40
0.5500117327
 40
0.6163237284
 40
0.6683158015
 40
0.7063085443
 40
0.7309321348
 40
0.744353271
 40
0.7567351072
 40
0.7794160594
 40
0.8148016601
 40
0.8633324046
 40
0.9250785937
 40
1.0
 40
1.0
 40
1.0
 40
1.0
 10
4.430306668
 20
5.1202783013
 30
0.0
 10
4.4303844382
 20
5.1202264025
 30
0.0
 10
4.4305235007
 20
5.1201348844
 30
0.0
 10
4.4306888244
 20
5.1200310417
 30
0.0
 10
4.4307968098
 20
5.1199677307
 30
0.0
 10
4.4308589271
 20
5.1199338214
 30
0.0
 10
4.4309083271
 20
5.1199090759
 30
0.0
 10
4.4309468013
 20
5.1198939881
 30
0.0
 10
4.4309714088
 20
5.1198863134
 30
0.0
 10
4.4309928921
 20
5.1198887411
 30
0.0
 10
4.4309932888
 20
5.119909432
 30
0.0
 10
4.4309805187
 20
5.1199303474
 30
0.0
 10
4.4309591446
 20
5.1199619126
 30
0.0
 10
4.4309257671
 20
5.1200013283
 30
0.0
 10
4.4308815707
 20
5.1200500077
 30
0.0
 10
4.4308478006
 20
5.1200848162
 30
0.0
 10
4.4308291235
 20
5.1201037361
 30
0.0
  0
SPLINE
  5
5F0
100
AcDbEntity
  8
ALL_ASSEMBLY_MEMBERS
100
AcDbSpline
 62
9
  6
CONTINUOUS
 70
0
 71
3
 72
13
 73
9
 74
0
 42
0.0000001
 43
0.0000001
 44
0.0000000001
 40
0.0
 40
0.0
 40
0.0
 40
0.0
 40
0.2887037547
 40
0.5731411439
 40
0.7032408638
 40
0.820085927
 40
0.9200788936
 40
1.0
 40
1.0
 40
1.0
 40
1.0
 10
4.3938039225
 20
5.1530810018
 30
0.0
 10
4.3960438334
 20
5.1513654672
 30
0.0
 10
4.4004599597
 20
5.1479197174
 30
0.0
 10
4.4058121117
 20
5.1436080062
 30
0.0
 10
4.4098084734
 20
5.1402918142
 30
0.0
 10
4.4123934232
 20
5.1380976872
 30
0.0
 10
4.4145770969
 20
5.1361890967
 30
0.0
 10
4.4158768991
 20
5.1350046441
 30
0.0
 10
4.4164436806
 20
5.134467261
 30
0.0
  0
LINE
  5
5F1
100
AcDbEntity
  8
ALL_ASSEMBLY_MEMBERS
100
AcDbLine
 62
9
  6
CONTINUOUS
 10
4.4164436806
 20
5.134467261
 11
4.4171972698
 21
5.1337355897
  0
SPLINE
  5
5F2
100
AcDbEntity
  8
ALL_ASSEMBLY_MEMBERS
100
AcDbSpline
 62
9
  6
CONTINUOUS
 70
0
 71
3
 72
11
 73
7
 74
0
 42
0.0000001
 43
0.0000001
 44
0.0000000001
 40
0.0
 40
0.0
 40
0.0
 40
0.0
 40
0.2474358724
 40
0.470299127
 40
0.7181614018
 40
1.0
 40
1.0
 40
1.0
 40
1.0
 10
4.4171975393
 20
5.1337359903
 30
0.0
 10
4.4168740303
 20
5.1339752997
 30
0.0
 10
4.4161593447
 20
5.1343087817
 30
0.0
 10
4.4149751367
 20
5.134396911
 30
0.0
 10
4.4137695274
 20
5.1340805995
 30
0.0
 10
4.4130430286
 20
5.1335763118
 30
0.0
 10
4.4127190477
 20
5.1332520875
 30
0.0
  0
SPLINE
  5
5F3
100
AcDbEntity
  8
ALL_ASSEMBLY_MEMBERS
100
AcDbSpline
 62
9
  6
CONTINUOUS
 70
0
 71
3
 72
26
 73
22
 74
0
 42
0.0000001
 43
0.0000001
 44
0.0000000001
 40
0.0
 40
0.0
 40
0.0
 40
0.0
 40
0.1216011897
 40
0.2308824031
 40
0.3272498202
 40
0.4101327996
 40
0.4790050925
 40
0.5334458786
 40
0.5736059449
 40
0.5886907027
 40
0.6008023693
 40
0.6105028316
 40
0.6188210888
 40
0.6369828639
 40
0.649429029
 40
0.664761247
 40
0.7048593269
 40
0.7582025629
 40
0.8251057316
 40
0.9056913226
 40
1.0
 40
1.0
 40
1.0
 40
1.0
 10
4.0382107329
 20
5.5127221266
 30
0.0
 10
4.0380774303
 20
5.5128549704
 30
0.0
 10
4.0378227131
 20
5.5131055883
 30
0.0
 10
4.0374558224
 20
5.5134547612
 30
0.0
 10
4.0371258443
 20
5.5137556947
 30
0.0
 10
4.0368348038
 20
5.5140062689
 30
0.0
 10
4.0365846969
 20
5.5142047764
 30
0.0
 10
4.0363770497
 20
5.5143494262
 30
0.0
 10
4.0362280616
 20
5.514432492
 30
0.0
 10
4.0361296117
 20
5.5144676205
 30
0.0
 10
4.0360730967
 20
5.5144779693
 30
0.0
 10
4.0360258319
 20
5.5144747963
 30
0.0
 10
4.0359738821
 20
5.5144484633
 30
0.0
 10
4.0359510385
 20
5.5143856232
 30
0.0
 10
4.035950152
 20
5.514315164
 30
0.0
 10
4.0359631556
 20
5.5142103172
 30
0.0
 10
4.036010114
 20
5.5140481227
 30
0.0
 10
4.0361012014
 20
5.5138171123
 30
0.0
 10
4.0362332808
 20
5.5135355829
 30
0.0
 10
4.0364062012
 20
5.5132036471
 30
0.0
 10
4.0365385811
 20
5.5129675098
 30
0.0
 10
4.0366113217
 20
5.5128409722
 30
0.0
  0
LINE
  5
5F4
100
AcDbEntity
  8
ALL_ASSEMBLY_MEMBERS
100
AcDbLine
 62
9
  6
CONTINUOUS
 10
4.0648215148
 20
5.4772079584
 11
4.0656031953
 21
5.4764529664
  0
LINE
  5
5F5
100
AcDbEntity
  8
ALL_ASSEMBLY_MEMBERS
100
AcDbLine
 62
9
  6
CONTINUOUS
 10
4.0656031953
 20
5.4764529664
 11
4.0665039008
 21
5.4756883635
  0
SPLINE
  5
5F6
100
AcDbEntity
  8
ALL_ASSEMBLY_MEMBERS
100
AcDbSpline
 62
9
  6
CONTINUOUS
 70
0
 71
3
 72
21
 73
17
 74
0
 42
0.0000001
 43
0.0000001
 44
0.0000000001
 40
0.0
 40
0.0
 40
0.0
 40
0.0
 40
0.0769280944
 40
0.1409703817
 40
0.1925957979
 40
0.2326214888
 40
0.2627030292
 40
0.2865070359
 40
0.3105947713
 40
0.3412326917
 40
0.3816756092
 40
0.4333318021
 40
0.4968535494
 40
0.5725719325
 40
0.7612153342
 40
1.0
 40
1.0
 40
1.0
 40
1.0
 10
4.0665039008
 20
5.4756883635
 30
0.0
 10
4.066547683
 20
5.4756568344
 30
0.0
 10
4.0666291312
 20
5.4756006866
 30
0.0
 10
4.0667449667
 20
5.4755310143
 30
0.0
 10
4.0668434082
 20
5.4754831722
 30
0.0
 10
4.0669250082
 20
5.4754569626
 30
0.0
 10
4.0669917894
 20
5.4754514337
 30
0.0
 10
4.0670454747
 20
5.4754726276
 30
0.0
 10
4.0670759594
 20
5.4755219633
 30
0.0
 10
4.0670843606
 20
5.4755891242
 30
0.0
 10
4.0670764666
 20
5.4756751844
 30
0.0
 10
4.0670518273
 20
5.4757817393
 30
0.0
 10
4.0670105327
 20
5.4759092022
 30
0.0
 10
4.0669264516
 20
5.4761233509
 30
0.0
 10
4.0667752098
 20
5.4764425342
 30
0.0
 10
4.0666335432
 20
5.4767067887
 30
0.0
 10
4.0665521124
 20
5.4768531292
 30
0.0
  0
LINE
  5
5F7
100
AcDbEntity
  8
ALL_ASSEMBLY_MEMBERS
100
AcDbLine
 62
9
  6
CONTINUOUS
 10
4.0665521124
 20
5.4768531292
 11
4.0655833434
 21
5.4784480864
  0
SPLINE
  5
5F8
100
AcDbEntity
  8
ALL_ASSEMBLY_MEMBERS
100
AcDbSpline
 62
9
  6
CONTINUOUS
 70
0
 71
3
 72
16
 73
12
 74
0
 42
0.0000001
 43
0.0000001
 44
0.0000000001
 40
0.0
 40
0.0
 40
0.0
 40
0.0
 40
0.100583607
 40
0.2258725377
 40
0.3678010249
 40
0.5172327827
 40
0.6644335458
 40
0.7998061538
 40
0.914222858
 40
0.9609893088
 40
1.0
 40
1.0
 40
1.0
 40
1.0
 10
4.0649148409
 20
5.4794660601
 30
0.0
 10
4.0641189917
 20
5.4806555387
 30
0.0
 10
4.0622689781
 20
5.4832844165
 30
0.0
 10
4.0591584501
 20
5.4874932125
 30
0.0
 10
4.0555511289
 20
5.4921981137
 30
0.0
 10
4.0516809526
 20
5.497093337
 30
0.0
 10
4.0477986002
 20
5.5018592881
 30
0.0
 10
4.0441606979
 20
5.5061807074
 30
0.0
 10
4.0413806122
 20
5.5093557756
 30
0.0
 10
4.0394491371
 20
5.5114495782
 30
0.0
 10
4.038602469
 20
5.5123288792
 30
0.0
 10
4.0382107329
 20
5.5127221266
 30
0.0
  0
SPLINE
  5
5F9
100
AcDbEntity
  8
ALL_ASSEMBLY_MEMBERS
100
AcDbSpline
 62
9
  6
CONTINUOUS
 70
0
 71
3
 72
16
 73
12
 74
0
 42
0.0000001
 43
0.0000001
 44
0.0000000001
 40
0.0
 40
0.0
 40
0.0
 40
0.0
 40
0.1531026985
 40
0.3066032463
 40
0.4554417371
 40
0.5955842659
 40
0.7232767492
 40
0.8350575785
 40
0.928058796
 40
0.9667619799
 40
1.0
 40
1.0
 40
1.0
 40
1.0
 10
4.258387499
 20
5.2925453605
 30
0.0
 10
4.257408587
 20
5.2935285883
 30
0.0
 10
4.2554216806
 20
5.295471277
 30
0.0
 10
4.2524090518
 20
5.2982927568
 30
0.0
 10
4.24942678
 20
5.3009737273
 30
0.0
 10
4.2465597145
 20
5.3034315214
 30
0.0
 10
4.2438878087
 20
5.3055993554
 30
0.0
 10
4.2414854417
 20
5.3074185749
 30
0.0
 10
4.2396688066
 20
5.3086735094
 30
0.0
 10
4.2383941385
 20
5.3094548122
 30
0.0
 10
4.2378228247
 20
5.3097697205
 30
0.0
 10
4.2375541328
 20
5.3099058516
 30
0.0
  0
SPLINE
  5
5FA
100
AcDbEntity
  8
ALL_ASSEMBLY_MEMBERS
100
AcDbSpline
 62
9
  6
CONTINUOUS
 70
0
 71
3
 72
14
 73
10
 74
0
 42
0.0000001
 43
0.0000001
 44
0.0000000001
 40
0.0
 40
0.0
 40
0.0
 40
0.0
 40
0.3922156394
 40
0.5454946978
 40
0.6714840076
 40
0.7726278143
 40
0.8539328023
 40
0.9250751942
 40
1.0
 40
1.0
 40
1.0
 40
1.0
 10
4.2375541328
 20
5.3099058516
 30
0.0
 10
4.2372573991
 20
5.3100561899
 30
0.0
 10
4.2368363038
 20
5.3102519449
 30
0.0
 10
4.2362931173
 20
5.3104255202
 30
0.0
 10
4.2359755093
 20
5.3104880683
 30
0.0
 10
4.2357123031
 20
5.3104942277
 30
0.0
 10
4.2354993291
 20
5.3104402804
 30
0.0
 10
4.2353444183
 20
5.3103137305
 30
0.0
 10
4.2352950756
 20
5.3101951257
 30
0.0
 10
4.2352802299
 20
5.3101333392
 30
0.0
  0
SPLINE
  5
5FB
100
AcDbEntity
  8
ALL_ASSEMBLY_MEMBERS
100
AcDbSpline
 62
9
  6
CONTINUOUS
 70
0
 71
3
 72
11
 73
7
 74
0
 42
0.0000001
 43
0.0000001
 44
0.0000000001
 40
0.0
 40
0.0
 40
0.0
 40
0.0
 40
0.1471361463
 40
0.3589048573
 40
0.6429574944
 40
1.0
 40
1.0
 40
1.0
 40
1.0
 10
4.2352802299
 20
5.3101333392
 30
0.0
 10
4.2352472703
 20
5.3099961639
 30
0.0
 10
4.2352758688
 20
5.3096413095
 30
0.0
 10
4.2354742385
 20
5.3090579464
 30
0.0
 10
4.235836057
 20
5.30832174
 30
0.0
 10
4.2361514778
 20
5.307793955
 30
0.0
 10
4.236334222
 20
5.3075044645
 30
0.0
  0
SPLINE
  5
5FC
100
AcDbEntity
  8
ALL_ASSEMBLY_MEMBERS
100
AcDbSpline
 62
9
  6
CONTINUOUS
 70
0
 71
3
 72
11
 73
7
 74
0
 42
0.0000001
 43
0.0000001
 44
0.0000000001
 40
0.0
 40
0.0
 40
0.0
 40
0.0
 40
0.3533951073
 40
0.6362717043
 40
0.8497764907
 40
1.0
 40
1.0
 40
1.0
 40
1.0
 10
4.2682742206
 20
5.2768966969
 30
0.0
 10
4.2685650278
 20
5.276729982
 30
0.0
 10
4.2690957787
 20
5.2764423162
 30
0.0
 10
4.2698349797
 20
5.2761152257
 30
0.0
 10
4.2704218852
 20
5.2759380234
 30
0.0
 10
4.2707763393
 20
5.2759149179
 30
0.0
 10
4.2709151733
 20
5.2759469946
 30
0.0
  0
SPLINE
  5
5FD
100
AcDbEntity
  8
ALL_ASSEMBLY_MEMBERS
100
AcDbSpline
 62
9
  6
CONTINUOUS
 70
0
 71
3
 72
13
 73
9
 74
0
 42
0.0000001
 43
0.0000001
 44
0.0000000001
 40
0.0
 40
0.0
 40
0.0
 40
0.0
 40
0.0895809712
 40
0.1713982663
 40
0.3559070439
 40
0.4778108766
 40
0.6246808254
 40
1.0
 40
1.0
 40
1.0
 40
1.0
 10
4.2709151733
 20
5.2759469946
 30
0.0
 10
4.2709698666
 20
5.2759596311
 30
0.0
 10
4.2710728086
 20
5.2759975514
 30
0.0
 10
4.2712419773
 20
5.2761529247
 30
0.0
 10
4.2712924804
 20
5.2764108575
 30
0.0
 10
4.2712638181
 20
5.2766918539
 30
0.0
 10
4.2711682513
 20
5.2770859498
 30
0.0
 10
4.2710411492
 20
5.2773890373
 30
0.0
 10
4.2709414774
 20
5.2776020585
 30
0.0
  0
LINE
  5
5FE
100
AcDbEntity
  8
ALL_ASSEMBLY_MEMBERS
100
AcDbLine
 62
9
  6
CONTINUOUS
 10
4.2709414774
 20
5.2776020585
 11
4.2705093247
 21
5.2784162273
  0
SPLINE
  5
5FF
100
AcDbEntity
  8
ALL_ASSEMBLY_MEMBERS
100
AcDbSpline
 62
9
  6
CONTINUOUS
 70
0
 71
3
 72
13
 73
9
 74
0
 42
0.0000001
 43
0.0000001
 44
0.0000000001
 40
0.0
 40
0.0
 40
0.0
 40
0.0
 40
0.0769731477
 40
0.1708299515
 40
0.2802177104
 40
0.4036120704
 40
0.6856193661
 40
1.0
 40
1.0
 40
1.0
 40
1.0
 10
4.2705093247
 20
5.2784162273
 30
0.0
 10
4.2702682703
 20
5.2788296217
 30
0.0
 10
4.2696900033
 20
5.2797217283
 30
0.0
 10
4.2686647448
 20
5.2811306992
 30
0.0
 10
4.2674075539
 20
5.2827260088
 30
0.0
 10
4.2653525762
 20
5.2851800009
 30
0.0
 10
4.2623515508
 20
5.2885014705
 30
0.0
 10
4.2597683399
 20
5.2911621181
 30
0.0
 10
4.258387499
 20
5.2925453605
 30
0.0
  0
SPLINE
  5
600
100
AcDbEntity
  8
ALL_ASSEMBLY_MEMBERS
100
AcDbSpline
 62
9
  6
CONTINUOUS
 70
0
 71
3
 72
17
 73
13
 74
0
 42
0.0000001
 43
0.0000001
 44
0.0000000001
 40
0.0
 40
0.0
 40
0.0
 40
0.0
 40
0.1063405522
 40
0.238020058
 40
0.3853966996
 40
0.5380311487
 40
0.685342316
 40
0.8171808176
 40
0.8743948427
 40
0.924399565
 40
0.9664693947
 40
1.0
 40
1.0
 40
1.0
 40
1.0
 10
4.3920786996
 20
5.1588541599
 30
0.0
 10
4.3909914397
 20
5.1599379121
 30
0.0
 10
4.3884925206
 20
5.162297987
 30
0.0
 10
4.3843286153
 20
5.1659886108
 30
0.0
 10
4.3795748659
 20
5.1700190535
 30
0.0
 10
4.3745668515
 20
5.1740964991
 30
0.0
 10
4.3696562423
 20
5.17793631
 30
0.0
 10
4.3657657579
 20
5.1808430236
 30
0.0
 10
4.3629526839
 20
5.1828423594
 30
0.0
 10
4.3611714939
 20
5.1840560152
 30
0.0
 10
4.3596467109
 20
5.1850375653
 30
0.0
 10
4.3587076086
 20
5.1855947652
 30
0.0
 10
4.358282679
 20
5.1858265828
 30
0.0
  0
SPLINE
  5
601
100
AcDbEntity
  8
ALL_ASSEMBLY_MEMBERS
100
AcDbSpline
 62
9
  6
CONTINUOUS
 70
0
 71
3
 72
18
 73
14
 74
0
 42
0.0000001
 43
0.0000001
 44
0.0000000001
 40
0.0
 40
0.0
 40
0.0
 40
0.0
 40
0.241969929
 40
0.4393918361
 40
0.5912789149
 40
0.6987745666
 40
0.7377440584
 40
0.7689065023
 40
0.7954961605
 40
0.8223087741
 40
0.8539228257
 40
0.8931885461
 40
1.0
 40
1.0
 40
1.0
 40
1.0
 10
4.358282679
 20
5.1858265828
 30
0.0
 10
4.3581081179
 20
5.1859218135
 30
0.0
 10
4.3577884263
 20
5.1860897546
 30
0.0
 10
4.3573472577
 20
5.1862947283
 30
0.0
 10
4.3569954876
 20
5.1864256001
 30
0.0
 10
4.3567540435
 20
5.1864808774
 30
0.0
 10
4.3566072651
 20
5.1864778739
 30
0.0
 10
4.3565293557
 20
5.1864563989
 30
0.0
 10
4.3564727594
 20
5.1864120363
 30
0.0
 10
4.3564433333
 20
5.1863461299
 30
0.0
 10
4.3564396215
 20
5.1862647771
 30
0.0
 10
4.3564669039
 20
5.1861205866
 30
0.0
 10
4.3565169952
 20
5.1860098684
 30
0.0
 10
4.3565569872
 20
5.1859317318
 30
0.0
  0
LINE
  5
602
100
AcDbEntity
  8
ALL_ASSEMBLY_MEMBERS
100
AcDbLine
 62
9
  6
CONTINUOUS
 10
4.3565569872
 20
5.1859317318
 11
4.3575188
 21
5.1846283911
  0
LINE
  5
603
100
AcDbEntity
  8
ALL_ASSEMBLY_MEMBERS
100
AcDbLine
 62
9
  6
CONTINUOUS
 10
4.3575188
 20
5.1846283911
 11
4.3585826282
 21
5.1834663587
  0
SPLINE
  5
604
100
AcDbEntity
  8
ALL_ASSEMBLY_MEMBERS
100
AcDbSpline
 62
9
  6
CONTINUOUS
 70
0
 71
3
 72
23
 73
19
 74
0
 42
0.0000001
 43
0.0000001
 44
0.0000000001
 40
0.0
 40
0.0
 40
0.0
 40
0.0
 40
0.1033607447
 40
0.1935289865
 40
0.2702966482
 40
0.3336492706
 40
0.3838933151
 40
0.4217307783
 40
0.4489161308
 40
0.459923016
 40
0.4704346909
 40
0.4943051527
 40
0.5274593087
 40
0.5726051328
 40
0.6307947242
 40
0.7025043261
 40
0.7879812312
 40
1.0
 40
1.0
 40
1.0
 40
1.0
 10
4.3931307991
 20
5.1556547974
 30
0.0
 10
4.3932687386
 20
5.1555783189
 30
0.0
 10
4.3935286817
 20
5.1554380811
 30
0.0
 10
4.393897728
 20
5.1552537249
 30
0.0
 10
4.3942186274
 20
5.1551100863
 30
0.0
 10
4.3944904778
 20
5.1550072992
 30
0.0
 10
4.39471375
 20
5.1549450561
 30
0.0
 10
4.3948883785
 20
5.1549219849
 30
0.0
 10
4.3950071939
 20
5.1549378418
 30
0.0
 10
4.3950710281
 20
5.1549783348
 30
0.0
 10
4.3951140892
 20
5.1550345947
 30
0.0
 10
4.3951269067
 20
5.1551424947
 30
0.0
 10
4.395087427
 20
5.155294239
 30
0.0
 10
4.3950011987
 20
5.1554846218
 30
0.0
 10
4.3948647048
 20
5.1557145534
 30
0.0
 10
4.3946778257
 20
5.1559851237
 30
0.0
 10
4.3943349986
 20
5.1564323836
 30
0.0
 10
4.394038799
 20
5.1567768527
 30
0.0
 10
4.3938238503
 20
5.1570186526
 30
0.0
  0
LINE
  5
605
100
AcDbEntity
  8
ALL_ASSEMBLY_MEMBERS
100
AcDbLine
 62
9
  6
CONTINUOUS
 10
4.3933999931
 20
5.1574851244
 11
4.3920786996
 21
5.1588541599
  0
SPLINE
  5
606
100
AcDbEntity
  8
ALL_ASSEMBLY_MEMBERS
100
AcDbSpline
 62
9
  6
CONTINUOUS
 70
0
 71
3
 72
14
 73
10
 74
0
 42
0.0000001
 43
0.0000001
 44
0.0000000001
 40
0.0
 40
0.0
 40
0.0
 40
0.0
 40
0.3374734441
 40
0.4892147519
 40
0.6262402209
 40
0.7472179269
 40
0.8507812695
 40
0.93543409
 40
1.0
 40
1.0
 40
1.0
 40
1.0
 10
4.1574399115
 20
5.393492948
 30
0.0
 10
4.1561609802
 20
5.3947697624
 30
0.0
 10
4.1542818006
 20
5.3965961628
 30
0.0
 10
4.1518043991
 20
5.3988567818
 30
0.0
 10
4.1501466537
 20
5.4002947347
 30
0.0
 10
4.1486468993
 20
5.4015197536
 30
0.0
 10
4.1473253628
 20
5.4025185005
 30
0.0
 10
4.1462029932
 20
5.4032758696
 30
0.0
 10
4.1455033711
 20
5.4036672613
 30
0.0
 10
4.1451874661
 20
5.4038077942
 30
0.0
  0
SPLINE
  5
607
100
AcDbEntity
  8
ALL_ASSEMBLY_MEMBERS
100
AcDbSpline
 62
9
  6
CONTINUOUS
 70
0
 71
3
 72
13
 73
9
 74
0
 42
0.0000001
 43
0.0000001
 44
0.0000000001
 40
0.0
 40
0.0
 40
0.0
 40
0.0
 40
0.3641126429
 40
0.5030793736
 40
0.6171970857
 40
0.7127394744
 40
0.8002443554
 40
1.0
 40
1.0
 40
1.0
 40
1.0
 10
4.1451874661
 20
5.4038077942
 30
0.0
 10
4.1450034838
 20
5.4038896402
 30
0.0
 10
4.1447417754
 20
5.4039912302
 30
0.0
 10
4.1444041428
 20
5.4040491458
 30
0.0
 10
4.144209761
 20
5.4040456222
 30
0.0
 10
4.1440496831
 20
5.4039960467
 30
0.0
 10
4.1438827656
 20
5.4038558089
 30
0.0
 10
4.1438431532
 20
5.4036862441
 30
0.0
 10
4.1438366455
 20
5.4035759647
 30
0.0
  0
SPLINE
  5
608
100
AcDbEntity
  8
ALL_ASSEMBLY_MEMBERS
100
AcDbSpline
 62
9
  6
CONTINUOUS
 70
0
 71
3
 72
11
 73
7
 74
0
 42
0.0000001
 43
0.0000001
 44
0.0000000001
 40
0.0
 40
0.0
 40
0.0
 40
0.0
 40
0.160777738
 40
0.3794892572
 40
0.6592129291
 40
1.0
 40
1.0
 40
1.0
 40
1.0
 10
4.1438366455
 20
5.4035759647
 30
0.0
 10
4.1438284269
 20
5.4034366926
 30
0.0
 10
4.1438751225
 20
5.4031058161
 30
0.0
 10
4.1440516231
 20
5.4025613025
 30
0.0
 10
4.1443461768
 20
5.4018939737
 30
0.0
 10
4.1445965775
 20
5.4014170619
 30
0.0
 10
4.144739765
 20
5.401158323
 30
0.0
  0
LINE
  5
609
100
AcDbEntity
  8
ALL_ASSEMBLY_MEMBERS
100
AcDbLine
 62
9
  6
CONTINUOUS
 10
4.1742000755
 20
5.3689269197
 11
4.174845861
 21
5.3684788703
  0
LINE
  5
60A
100
AcDbEntity
  8
ALL_ASSEMBLY_MEMBERS
100
AcDbLine
 62
9
  6
CONTINUOUS
 10
4.174845861
 20
5.3684788703
 11
4.1769708512
 21
5.3674012099
  0
SPLINE
  5
60B
100
AcDbEntity
  8
ALL_ASSEMBLY_MEMBERS
100
AcDbSpline
 62
9
  6
CONTINUOUS
 70
0
 71
3
 72
16
 73
12
 74
0
 42
0.0000001
 43
0.0000001
 44
0.0000000001
 40
0.0
 40
0.0
 40
0.0
 40
0.0
 40
0.1030554248
 40
0.181532066
 40
0.216852051
 40
0.2530956412
 40
0.3381146154
 40
0.4512860158
 40
0.5982404797
 40
0.7809508461
 40
1.0
 40
1.0
 40
1.0
 40
1.0
 10
4.1769708512
 20
5.3674012099
 30
0.0
 10
4.1770713669
 20
5.3673809082
 30
0.0
 10
4.1772523445
 20
5.3673581702
 30
0.0
 10
4.1774709759
 20
5.3674109829
 30
0.0
 10
4.1775880722
 20
5.3675073822
 30
0.0
 10
4.1776748332
 20
5.3676393749
 30
0.0
 10
4.1777170555
 20
5.3678764083
 30
0.0
 10
4.1776775444
 20
5.3682190907
 30
0.0
 10
4.1775588022
 20
5.3686448433
 30
0.0
 10
4.177358789
 20
5.3691534411
 30
0.0
 10
4.1771870399
 20
5.3695147507
 30
0.0
 10
4.1770888896
 20
5.3697093665
 30
0.0
  0
SPLINE
  5
60C
100
AcDbEntity
  8
ALL_ASSEMBLY_MEMBERS
100
AcDbSpline
 62
9
  6
CONTINUOUS
 70
0
 71
3
 72
15
 73
11
 74
0
 42
0.0000001
 43
0.0000001
 44
0.0000000001
 40
0.0
 40
0.0
 40
0.0
 40
0.0
 40
0.0339302004
 40
0.0736559497
 40
0.1693485586
 40
0.2842544897
 40
0.4147609649
 40
0.5564910059
 40
0.7046558889
 40
1.0
 40
1.0
 40
1.0
 40
1.0
 10
4.1770304803
 20
5.3698238688
 30
0.0
 10
4.1768708123
 20
5.3701334379
 30
0.0
 10
4.1765013293
 20
5.3707936609
 30
0.0
 10
4.1755865416
 20
5.3722723984
 30
0.0
 10
4.1741233252
 20
5.3743867294
 30
0.0
 10
4.1720130114
 20
5.3771817976
 30
0.0
 10
4.1695171541
 20
5.3802754519
 30
0.0
 10
4.1667211282
 20
5.3835635522
 30
0.0
 10
4.1627246177
 20
5.3880499054
 30
0.0
 10
4.1595817794
 20
5.3913470086
 30
0.0
 10
4.1574399115
 20
5.393492948
 30
0.0
  0
SPLINE
  5
60D
100
AcDbEntity
  8
ALL_ASSEMBLY_MEMBERS
100
AcDbSpline
 62
9
  6
CONTINUOUS
 70
0
 71
3
 72
24
 73
20
 74
0
 42
0.0000001
 43
0.0000001
 44
0.0000000001
 40
0.0
 40
0.0
 40
0.0
 40
0.0
 40
0.0964138661
 40
0.179546943
 40
0.2491931856
 40
0.3051947676
 40
0.3475072711
 40
0.3764218046
 40
0.3936455233
 40
0.4003294868
 40
0.4081086078
 40
0.4183881713
 40
0.4318384689
 40
0.4692918456
 40
0.5213803718
 40
0.5881931108
 40
0.6696377799
 40
0.7655530111
 40
1.0
 40
1.0
 40
1.0
 40
1.0
 10
4.0203466228
 20
5.5305862367
 30
0.0
 10
4.0203061112
 20
5.5306264694
 30
0.0
 10
4.0202300702
 20
5.5307008072
 30
0.0
 10
4.0201223215
 20
5.5308016172
 30
0.0
 10
4.0200293634
 20
5.5308833047
 30
0.0
 10
4.0199520325
 20
5.5309455605
 30
0.0
 10
4.0198892718
 20
5.5309885172
 30
0.0
 10
4.0198438588
 20
5.5310122921
 30
0.0
 10
4.0198096997
 20
5.5310184468
 30
0.0
 10
4.0197942279
 20
5.5310058964
 30
0.0
 10
4.0197896303
 20
5.5309914416
 30
0.0
 10
4.0197893911
 20
5.5309727012
 30
0.0
 10
4.0197952362
 20
5.530936806
 30
0.0
 10
4.0198149168
 20
5.5308788108
 30
0.0
 10
4.0198520789
 20
5.5307940011
 30
0.0
 10
4.0199056275
 20
5.5306880617
 30
0.0
 10
4.019975261
 20
5.5305613259
 30
0.0
 10
4.0200979563
 20
5.5303505483
 30
0.0
 10
4.0202011277
 20
5.5301842843
 30
0.0
 10
4.0202753979
 20
5.5300669832
 30
0.0
  0
LINE
  5
60E
100
AcDbEntity
  8
ALL_ASSEMBLY_MEMBERS
100
AcDbLine
 62
9
  6
CONTINUOUS
 10
4.0364274022
 20
5.5108729928
 11
4.0359888127
 21
5.5114365466
  0
SPLINE
  5
60F
100
AcDbEntity
  8
ALL_ASSEMBLY_MEMBERS
100
AcDbSpline
 62
9
  6
CONTINUOUS
 70
0
 71
3
 72
13
 73
9
 74
0
 42
0.0000001
 43
0.0000001
 44
0.0000000001
 40
0.0
 40
0.0
 40
0.0
 40
0.0
 40
0.3232825949
 40
0.6130133578
 40
0.7372791903
 40
0.8445476955
 40
0.9330569602
 40
1.0
 40
1.0
 40
1.0
 40
1.0
 10
4.0344996258
 20
5.5133428553
 30
0.0
 10
4.0330626757
 20
5.5151769339
 30
0.0
 10
4.0303238014
 20
5.5186437061
 30
0.0
 10
4.026992151
 20
5.5227833697
 30
0.0
 10
4.0246068589
 20
5.5256858553
 30
0.0
 10
4.0231273175
 20
5.5274555072
 30
0.0
 10
4.0218962524
 20
5.5288941444
 30
0.0
 10
4.0211540188
 20
5.5297336445
 30
0.0
 10
4.0208263007
 20
5.5300877315
 30
0.0
  0
LINE
  5
610
100
AcDbEntity
  8
ALL_ASSEMBLY_MEMBERS
100
AcDbLine
 62
9
  6
CONTINUOUS
 10
4.0208263007
 20
5.5300877315
 11
4.0205537848
 21
5.5303768579
  0
LINE
  5
611
100
AcDbEntity
  8
ALL_ASSEMBLY_MEMBERS
100
AcDbLine
 62
9
  6
CONTINUOUS
 10
4.0205537848
 20
5.5303768579
 11
4.0203466228
 21
5.5305862367
  0
SPLINE
  5
612
100
AcDbEntity
  8
ALL_ASSEMBLY_MEMBERS
100
AcDbSpline
 62
9
  6
CONTINUOUS
 70
0
 71
3
 72
15
 73
11
 74
0
 42
0.0000001
 43
0.0000001
 44
0.0000000001
 40
0.0
 40
0.0
 40
0.0
 40
0.0
 40
0.3244511329
 40
0.4750344034
 40
0.6136865064
 40
0.7379188279
 40
0.8450736517
 40
0.9327972317
 40
0.9690052642
 40
1.0
 40
1.0
 40
1.0
 40
1.0
 10
4.2074259591
 20
5.3435069004
 30
0.0
 10
4.205769651
 20
5.345160593
 30
0.0
 10
4.2033058504
 20
5.3475439743
 30
0.0
 10
4.2000234219
 20
5.3505150167
 30
0.0
 10
4.1977638341
 20
5.3524624475
 30
0.0
 10
4.1956936852
 20
5.3541484807
 30
0.0
 10
4.1938570995
 20
5.3555371532
 30
0.0
 10
4.1924765271
 20
5.3564741278
 30
0.0
 10
4.1915132698
 20
5.3570415083
 30
0.0
 10
4.1910824469
 20
5.3572647143
 30
0.0
 10
4.1908798629
 20
5.35735933
 30
0.0
  0
SPLINE
  5
613
100
AcDbEntity
  8
ALL_ASSEMBLY_MEMBERS
100
AcDbSpline
 62
9
  6
CONTINUOUS
 70
0
 71
3
 72
14
 73
10
 74
0
 42
0.0000001
 43
0.0000001
 44
0.0000000001
 40
0.0
 40
0.0
 40
0.0
 40
0.0
 40
0.3742345119
 40
0.5229973751
 40
0.6477785148
 40
0.7512410956
 40
0.8383480029
 40
0.9175679129
 40
1.0
 40
1.0
 40
1.0
 40
1.0
 10
4.1908798629
 20
5.35735933
 30
0.0
 10
4.1906611958
 20
5.3574614572
 30
0.0
 10
4.1903487049
 20
5.3575924592
 30
0.0
 10
4.1899441272
 20
5.357699228
 30
0.0
 10
4.1897022962
 20
5.3577317583
 30
0.0
 10
4.1894976486
 20
5.3577226429
 30
0.0
 10
4.1893290218
 20
5.3576686412
 30
0.0
 10
4.189201653
 20
5.3575643812
 30
0.0
 10
4.1891521074
 20
5.3574695867
 30
0.0
 10
4.189134617
 20
5.3574193867
 30
0.0
  0
SPLINE
  5
614
100
AcDbEntity
  8
ALL_ASSEMBLY_MEMBERS
100
AcDbSpline
 62
9
  6
CONTINUOUS
 70
0
 71
3
 72
12
 73
8
 74
0
 42
0.0000001
 43
0.0000001
 44
0.0000000001
 40
0.0
 40
0.0
 40
0.0
 40
0.0
 40
0.1447148276
 40
0.2410857606
 40
0.3554401261
 40
0.6402571656
 40
1.0
 40
1.0
 40
1.0
 40
1.0
 10
4.189134617
 20
5.3574193867
 30
0.0
 10
4.189088394
 20
5.3572867204
 30
0.0
 10
4.189091157
 20
5.3570419609
 30
0.0
 10
4.1891592969
 20
5.356705343
 30
0.0
 10
4.1893037952
 20
5.3562449062
 30
0.0
 10
4.1896051884
 20
5.3555711459
 30
0.0
 10
4.1899067185
 20
5.355022304
 30
0.0
 10
4.1900827343
 20
5.3547206683
 30
0.0
  0
SPLINE
  5
615
100
AcDbEntity
  8
ALL_ASSEMBLY_MEMBERS
100
AcDbSpline
 62
9
  6
CONTINUOUS
 70
0
 71
3
 72
11
 73
7
 74
0
 42
0.0000001
 43
0.0000001
 44
0.0000000001
 40
0.0
 40
0.0
 40
0.0
 40
0.0
 40
0.3365289351
 40
0.6147307941
 40
0.8349837937
 40
1.0
 40
1.0
 40
1.0
 40
1.0
 10
4.2210523244
 20
5.3231168453
 30
0.0
 10
4.2213074084
 20
5.3229610613
 30
0.0
 10
4.2217797902
 20
5.3226868287
 30
0.0
 10
4.2224459901
 20
5.322358386
 30
0.0
 10
4.2229984692
 20
5.3221520646
 30
0.0
 10
4.2233385718
 20
5.3220855164
 30
0.0
 10
4.2234851257
 20
5.322084067
 30
0.0
  0
SPLINE
  5
616
100
AcDbEntity
  8
ALL_ASSEMBLY_MEMBERS
100
AcDbSpline
 62
9
  6
CONTINUOUS
 70
0
 71
3
 72
15
 73
11
 74
0
 42
0.0000001
 43
0.0000001
 44
0.0000000001
 40
0.0
 40
0.0
 40
0.0
 40
0.0
 40
0.0953151493
 40
0.1744220421
 40
0.2526661982
 40
0.3457418215
 40
0.4634970759
 40
0.6107062344
 40
0.7893046552
 40
1.0
 40
1.0
 40
1.0
 40
1.0
 10
4.2234851257
 20
5.322084067
 30
0.0
 10
4.2235649528
 20
5.3220832776
 30
0.0
 10
4.2237130683
 20
5.3220966134
 30
0.0
 10
4.2239071151
 20
5.3221994568
 30
0.0
 10
4.224022585
 20
5.322384469
 30
0.0
 10
4.2240579008
 20
5.3226281893
 30
0.0
 10
4.2240276615
 20
5.3229281483
 30
0.0
 10
4.2239335048
 20
5.3232885487
 30
0.0
 10
4.2237761457
 20
5.3237099587
 30
0.0
 10
4.2236402628
 20
5.3240066171
 30
0.0
 10
4.223562829
 20
5.3241651882
 30
0.0
  0
LINE
  5
617
100
AcDbEntity
  8
ALL_ASSEMBLY_MEMBERS
100
AcDbLine
 62
9
  6
CONTINUOUS
 10
4.223562829
 20
5.3241651882
 11
4.2230769385
 21
5.3250672857
  0
SPLINE
  5
618
100
AcDbEntity
  8
ALL_ASSEMBLY_MEMBERS
100
AcDbSpline
 62
9
  6
CONTINUOUS
 70
0
 71
3
 72
13
 73
9
 74
0
 42
0.0000001
 43
0.0000001
 44
0.0000000001
 40
0.0
 40
0.0
 40
0.0
 40
0.0
 40
0.0789706002
 40
0.1757150546
 40
0.2885041143
 40
0.4149047717
 40
0.6976892398
 40
1.0
 40
1.0
 40
1.0
 40
1.0
 10
4.2230769385
 20
5.3250672857
 30
0.0
 10
4.2227563672
 20
5.3256187348
 30
0.0
 10
4.2219858892
 20
5.3268123053
 30
0.0
 10
4.220622445
 20
5.3287026947
 30
0.0
 10
4.2189520158
 20
5.3308416877
 30
0.0
 10
4.2162615839
 20
5.3340882496
 30
0.0
 10
4.2124333668
 20
5.3383771222
 30
0.0
 10
4.2091510205
 20
5.341778723
 30
0.0
 10
4.2074259591
 20
5.3435069004
 30
0.0
  0
SPLINE
  5
619
100
AcDbEntity
  8
ALL_ASSEMBLY_MEMBERS
100
AcDbSpline
 62
9
  6
CONTINUOUS
 70
0
 71
3
 72
15
 73
11
 74
0
 42
0.0000001
 43
0.0000001
 44
0.0000000001
 40
0.0
 40
0.0
 40
0.0
 40
0.0
 40
0.1250489249
 40
0.250054824
 40
0.3750593122
 40
0.500046181
 40
0.6250535937
 40
0.7500600908
 40
0.8751256103
 40
1.0
 40
1.0
 40
1.0
 40
1.0
 10
4.6258988546
 20
4.9920580094
 30
0.0
 10
4.6256513164
 20
4.9915952643
 30
0.0
 10
4.6252414604
 20
4.9906207821
 30
0.0
 10
4.6249263853
 20
4.989068838
 30
0.0
 10
4.6249101122
 20
4.9874857545
 30
0.0
 10
4.6251914295
 20
4.9859277656
 30
0.0
 10
4.625760706
 20
4.9844505904
 30
0.0
 10
4.6265997977
 20
4.9831067305
 30
0.0
 10
4.6276860703
 20
4.981955331
 30
0.0
 10
4.6285372244
 20
4.9813317123
 30
0.0
 10
4.6289846839
 20
4.9810589121
 30
0.0
  0
SPLINE
  5
61A
100
AcDbEntity
  8
ALL_ASSEMBLY_MEMBERS
100
AcDbSpline
 62
9
  6
CONTINUOUS
 70
0
 71
3
 72
11
 73
7
 74
0
 42
0.0000001
 43
0.0000001
 44
0.0000000001
 40
0.0
 40
0.0
 40
0.0
 40
0.0
 40
0.249980637
 40
0.4999992671
 40
0.7500212658
 40
1.0
 40
1.0
 40
1.0
 40
1.0
 10
4.6341872834
 20
4.9480553496
 30
0.0
 10
4.6379022157
 20
4.9458198206
 30
0.0
 10
4.6451027474
 20
4.9409523452
 30
0.0
 10
4.6550544832
 20
4.9325367991
 30
0.0
 10
4.6640414852
 20
4.9230983705
 30
0.0
 10
4.6693302739
 20
4.9162015716
 30
0.0
 10
4.6717836859
 20
4.9126268275
 30
0.0
  0
SPLINE
  5
61B
100
AcDbEntity
  8
ALL_ASSEMBLY_MEMBERS
100
AcDbSpline
 62
9
  6
CONTINUOUS
 70
0
 71
3
 72
15
 73
11
 74
0
 42
0.0000001
 43
0.0000001
 44
0.0000000001
 40
0.0
 40
0.0
 40
0.0
 40
0.0
 40
0.1250071658
 40
0.2500090648
 40
0.3750068316
 40
0.5000018018
 40
0.6249964032
 40
0.7499931806
 40
0.8749938528
 40
1.0
 40
1.0
 40
1.0
 40
1.0
 10
4.6717836859
 20
4.9126268275
 30
0.0
 10
4.6730273077
 20
4.9107772586
 30
0.0
 10
4.6750006918
 20
4.9066873155
 30
0.0
 10
4.6758498991
 20
4.8999419955
 30
0.0
 10
4.6745779269
 20
4.8932652267
 30
0.0
 10
4.6712912189
 20
4.8873143907
 30
0.0
 10
4.6663200412
 20
4.8826773581
 30
0.0
 10
4.6601541237
 20
4.879817633
 30
0.0
 10
4.6534051379
 20
4.8789985422
 30
0.0
 10
4.64895778
 20
4.8799164881
 30
0.0
 10
4.6468610681
 20
4.8806722779
 30
0.0
  0
SPLINE
  5
61C
100
AcDbEntity
  8
ALL_ASSEMBLY_MEMBERS
100
AcDbSpline
 62
9
  6
CONTINUOUS
 70
0
 71
3
 72
22
 73
18
 74
0
 42
0.0000001
 43
0.0000001
 44
0.0000000001
 40
0.0
 40
0.0
 40
0.0
 40
0.0
 40
0.0624644352
 40
0.1249949369
 40
0.187516793
 40
0.2500218064
 40
0.3125241789
 40
0.3750292532
 40
0.4375345265
 40
0.500039315
 40
0.5625447837
 40
0.6250492045
 40
0.7499437849
 40
0.8124451252
 40
0.8749509249
 40
0.93747608
 40
1.0
 40
1.0
 40
1.0
 40
1.0
 10
4.6468610681
 20
4.8806722779
 30
0.0
 10
4.6432879385
 20
4.8820082389
 30
0.0
 10
4.6362441345
 20
4.8849764623
 30
0.0
 10
4.6260863334
 20
4.890292618
 30
0.0
 10
4.6164217009
 20
4.8964675165
 30
0.0
 10
4.607331635
 20
4.9034571316
 30
0.0
 10
4.5988750694
 20
4.9111994306
 30
0.0
 10
4.5911123292
 20
4.9196371224
 30
0.0
 10
4.5840976455
 20
4.9287066535
 30
0.0
 10
4.5778888811
 20
4.9383455782
 30
0.0
 10
4.5725284303
 20
4.9484819856
 30
0.0
 10
4.5665712459
 20
4.9625483912
 30
0.0
 10
4.5624495758
 20
4.9773358604
 30
0.0
 10
4.560267155
 20
4.9924545987
 30
0.0
 10
4.5596077866
 20
5.0039037115
 30
0.0
 10
4.5599484805
 20
5.0153662225
 30
0.0
 10
4.5608297936
 20
5.0229627747
 30
0.0
 10
4.5614267138
 20
5.0267341753
 30
0.0
  0
LINE
  5
61D
100
AcDbEntity
  8
ALL_ASSEMBLY_MEMBERS
100
AcDbLine
 62
9
  6
CONTINUOUS
 10
4.5616074257
 20
5.027846453
 11
4.5616567395
 21
5.0281403765
  0
LINE
  5
61E
100
AcDbEntity
  8
ALL_ASSEMBLY_MEMBERS
100
AcDbLine
 62
9
  6
CONTINUOUS
 10
4.5616567395
 20
5.0281403765
 11
4.5617090618
 21
5.0284480624
  0
LINE
  5
61F
100
AcDbEntity
  8
ALL_ASSEMBLY_MEMBERS
100
AcDbLine
 62
9
  6
CONTINUOUS
 10
4.0142511715
 20
5.5317198434
 11
4.0182702219
 21
5.5262657478
  0
LINE
  5
620
100
AcDbEntity
  8
ALL_ASSEMBLY_MEMBERS
100
AcDbLine
 62
9
  6
CONTINUOUS
 10
4.0182702219
 20
5.5262657478
 11
4.0187390091
 21
5.5256320133
  0
SPLINE
  5
621
100
AcDbEntity
  8
ALL_ASSEMBLY_MEMBERS
100
AcDbSpline
 62
9
  6
CONTINUOUS
 70
0
 71
3
 72
26
 73
22
 74
0
 42
0.0000001
 43
0.0000001
 44
0.0000000001
 40
0.0
 40
0.0
 40
0.0
 40
0.0
 40
0.0466070208
 40
0.1048359001
 40
0.1731259731
 40
0.2495019715
 40
0.4178579893
 40
0.5051775699
 40
0.5914460955
 40
0.674324504
 40
0.7516026159
 40
0.8212121722
 40
0.8812705859
 40
0.9301889777
 40
0.9500293604
 40
0.9666313535
 40
0.9799006811
 40
0.9897711544
 40
0.9934440415
 40
0.9963141275
 40
1.0
 40
1.0
 40
1.0
 40
1.0
 10
4.0376464153
 20
5.5083247678
 30
0.0
 10
4.0380939167
 20
5.5078773206
 30
0.0
 10
4.0390716674
 20
5.5068421478
 30
0.0
 10
4.04063608
 20
5.5050874668
 30
0.0
 10
4.0424259924
 20
5.5029930413
 30
0.0
 10
4.0451357149
 20
5.4997185445
 30
0.0
 10
4.0479394584
 20
5.4961871157
 30
0.0
 10
4.0507677244
 20
5.4925050468
 30
0.0
 10
4.0528581444
 20
5.4897199211
 30
0.0
 10
4.0548356016
 20
5.4870207641
 30
0.0
 10
4.0566467075
 20
5.4844804464
 30
0.0
 10
4.058243305
 20
5.482168041
 30
0.0
 10
4.059581833
 20
5.4801459673
 30
0.0
 10
4.0605092802
 20
5.478662553
 30
0.0
 10
4.0610887449
 20
5.4776585974
 30
0.0
 10
4.0614081873
 20
5.477063926
 30
0.0
 10
4.0616415127
 20
5.4765767846
 30
0.0
 10
4.0617760987
 20
5.476238679
 30
0.0
 10
4.0618329425
 20
5.4760212068
 30
0.0
 10
4.0618523519
 20
5.4758869796
 30
0.0
 10
4.0618412595
 20
5.4757855877
 30
0.0
 10
4.0618059466
 20
5.4757501245
 30
0.0
  0
SPLINE
  5
622
100
AcDbEntity
  8
ALL_ASSEMBLY_MEMBERS
100
AcDbSpline
 62
9
  6
CONTINUOUS
 70
0
 71
3
 72
13
 73
9
 74
0
 42
0.0000001
 43
0.0000001
 44
0.0000000001
 40
0.0
 40
0.0
 40
0.0
 40
0.0
 40
0.1244980029
 40
0.243517985
 40
0.355835096
 40
0.4652787609
 40
0.7143090601
 40
1.0
 40
1.0
 40
1.0
 40
1.0
 10
4.0382111597
 20
5.5127224219
 30
0.0
 10
4.0383288049
 20
5.5125613221
 30
0.0
 10
4.0385259368
 20
5.5122205746
 30
0.0
 10
4.0387069201
 20
5.5116763906
 30
0.0
 10
4.0387832808
 20
5.5111329153
 30
0.0
 10
4.0387639491
 20
5.5103760342
 30
0.0
 10
4.0384774373
 20
5.5093639867
 30
0.0
 10
4.0379712195
 20
5.5086472899
 30
0.0
 10
4.0376474152
 20
5.50832372
 30
0.0
  0
LINE
  5
623
100
AcDbEntity
  8
ALL_ASSEMBLY_MEMBERS
100
AcDbLine
 62
9
  6
CONTINUOUS
 10
4.0199667781
 20
5.5260043194
 11
4.0209155258
 21
5.5249658534
  0
SPLINE
  5
624
100
AcDbEntity
  8
ALL_ASSEMBLY_MEMBERS
100
AcDbSpline
 62
9
  6
CONTINUOUS
 70
0
 71
3
 72
12
 73
8
 74
0
 42
0.0000001
 43
0.0000001
 44
0.0000000001
 40
0.0
 40
0.0
 40
0.0
 40
0.0
 40
0.0768171556
 40
0.1712491943
 40
0.4061693032
 40
0.6887437551
 40
1.0
 40
1.0
 40
1.0
 40
1.0
 10
4.0209155258
 20
5.5249658534
 30
0.0
 10
4.0212070268
 20
5.5246304106
 30
0.0
 10
4.0218469581
 20
5.5238740017
 30
0.0
 10
4.023338232
 20
5.5220580354
 30
0.0
 10
4.0255406168
 20
5.5192861378
 30
0.0
 10
4.0284775737
 20
5.5154964084
 30
0.0
 10
4.0305555217
 20
5.5127605701
 30
0.0
 10
4.0316386346
 20
5.5113220531
 30
0.0
  0
SPLINE
  5
625
100
AcDbEntity
  8
ALL_ASSEMBLY_MEMBERS
100
AcDbSpline
 62
9
  6
CONTINUOUS
 70
0
 71
3
 72
11
 73
7
 74
0
 42
0.0000001
 43
0.0000001
 44
0.0000000001
 40
0.0
 40
0.0
 40
0.0
 40
0.0
 40
0.2533127753
 40
0.4780160644
 40
0.7238183233
 40
1.0
 40
1.0
 40
1.0
 40
1.0
 10
4.020347055
 20
5.5305865266
 30
0.0
 10
4.0205999457
 20
5.5302497852
 30
0.0
 10
4.0209591996
 20
5.5295154252
 30
0.0
 10
4.0210842026
 20
5.5282986506
 30
0.0
 10
4.0207942449
 20
5.5270669912
 30
0.0
 10
4.0202926265
 20
5.5263278402
 30
0.0
 10
4.0199678315
 20
5.5260033036
 30
0.0
  0
LINE
  5
626
100
AcDbEntity
  8
ALL_ASSEMBLY_MEMBERS
100
AcDbLine
 62
9
  6
CONTINUOUS
 10
4.0194899601
 20
5.5263579161
 11
4.019967658
 21
5.5260031334
  0
LINE
  5
627
100
AcDbEntity
  8
ALL_ASSEMBLY_MEMBERS
100
AcDbLine
 62
7
  6
CONTINUOUS
 10
4.92801186
 20
6.2036098884
 11
4.927996688
 21
6.2033986308
  0
LINE
  5
628
100
AcDbEntity
  8
ALL_ASSEMBLY_MEMBERS
100
AcDbLine
 62
7
  6
CONTINUOUS
 10
4.9118124325
 20
6.1763667745
 11
4.9136228504
 21
6.1752587623
  0
SPLINE
  5
629
100
AcDbEntity
  8
ALL_ASSEMBLY_MEMBERS
100
AcDbSpline
 62
7
  6
CONTINUOUS
 70
0
 71
3
 72
41
 73
37
 74
0
 42
0.0000001
 43
0.0000001
 44
0.0000000001
 40
0.0
 40
0.0
 40
0.0
 40
0.0
 40
0.0051152957
 40
0.0112572267
 40
0.0265822786
 40
0.045857587
 40
0.0689196863
 40
0.0955832637
 40
0.1256159008
 40
0.1947647247
 40
0.2740332101
 40
0.3607453668
 40
0.4519742118
 40
0.5446410667
 40
0.6356195418
 40
0.6795106907
 40
0.7218410098
 40
0.7622490332
 40
0.8003987165
 40
0.8359638814
 40
0.8686476773
 40
0.8981750873
 40
0.924294871
 40
0.9467949496
 40
0.9654800401
 40
0.9733464271
 40
0.9802074652
 40
0.9860479953
 40
0.9908577075
 40
0.9928752391
 40
0.9946346459
 40
0.9961366505
 40
0.9973829581
 40
0.9983772643
 40
0.9991278945
 40
1.0
 40
1.0
 40
1.0
 40
1.0
 10
4.9136228504
 20
6.1752587623
 30
0.0
 10
4.9139344292
 20
6.1750295271
 30
0.0
 10
4.914610999
 20
6.1745126626
 30
0.0
 10
4.9161815516
 20
6.1732578935
 30
0.0
 10
4.9185418352
 20
6.1712771032
 30
0.0
 10
4.9218347212
 20
6.1684185992
 30
0.0
 10
4.9257362883
 20
6.16495377
 30
0.0
 10
4.9302147714
 20
6.1609138666
 30
0.0
 10
4.9372447033
 20
6.1544995407
 30
0.0
 10
4.9471540532
 20
6.1453394108
 30
0.0
 10
4.9601534992
 20
6.1332082895
 30
0.0
 10
4.9743354807
 20
6.1198971954
 30
0.0
 10
4.9892349928
 20
6.105870154
 30
0.0
 10
5.0043629008
 20
6.0916150631
 30
0.0
 10
5.0168917267
 20
6.0798214841
 30
0.0
 10
5.0266602114
 20
6.0706489874
 30
0.0
 10
5.0336484162
 20
6.0641022045
 30
0.0
 10
5.0403293615
 20
6.0578625071
 30
0.0
 10
5.0466481473
 20
6.0519845666
 30
0.0
 10
5.052553441
 20
6.0465197475
 30
0.0
 10
5.057997021
 20
6.0415160257
 30
0.0
 10
5.0629346349
 20
6.037017398
 30
0.0
 10
5.0673265001
 20
6.0330633328
 30
0.0
 10
5.071136813
 20
6.0296889631
 30
0.0
 10
5.0739424947
 20
6.0272623778
 30
0.0
 10
5.0758779485
 20
6.0256380931
 30
0.0
 10
5.0770818729
 20
6.0246532704
 30
0.0
 10
5.0781210593
 20
6.0238323996
 30
0.0
 10
5.0788868703
 20
6.0232566659
 30
0.0
 10
5.0794173934
 20
6.0228820916
 30
0.0
 10
5.0797490341
 20
6.0226600367
 30
0.0
 10
5.0800389532
 20
6.022479835
 30
0.0
 10
5.0802848006
 20
6.0223416784
 30
0.0
 10
5.0804928622
 20
6.0222445354
 30
0.0
 10
5.0806712315
 20
6.0221811794
 30
0.0
 10
5.0808210206
 20
6.0221685317
 30
0.0
 10
5.0808675393
 20
6.0222152785
 30
0.0
  0
SPLINE
  5
62A
100
AcDbEntity
  8
ALL_ASSEMBLY_MEMBERS
100
AcDbSpline
 62
7
  6
CONTINUOUS
 70
0
 71
3
 72
12
 73
8
 74
0
 42
0.0000001
 43
0.0000001
 44
0.0000000001
 40
0.0
 40
0.0
 40
0.0
 40
0.0
 40
0.1078475673
 40
0.1919676502
 40
0.3007025162
 40
0.5964970447
 40
1.0
 40
1.0
 40
1.0
 40
1.0
 10
6.4615263605
 20
6.637451987
 30
0.0
 10
6.4615732372
 20
6.637451987
 30
0.0
 10
6.461647172
 20
6.637388193
 30
0.0
 10
6.461712912
 20
6.6372789585
 30
0.0
 10
6.4618019061
 20
6.6370839756
 30
0.0
 10
6.4619033374
 20
6.6367477745
 30
0.0
 10
6.4619710396
 20
6.6364511004
 30
0.0
 10
6.4620063156
 20
6.6362792994
 30
0.0
  0
SPLINE
  5
62B
100
AcDbEntity
  8
ALL_ASSEMBLY_MEMBERS
100
AcDbSpline
 62
7
  6
CONTINUOUS
 70
0
 71
3
 72
40
 73
36
 74
0
 42
0.0000001
 43
0.0000001
 44
0.0000000001
 40
0.0
 40
0.0
 40
0.0
 40
0.0
 40
0.0037899361
 40
0.0086197315
 40
0.014483859
 40
0.0213697385
 40
0.0381507936
 40
0.058837028
 40
0.0832472248
 40
0.1111802565
 40
0.1423978098
 40
0.176634553
 40
0.2529860607
 40
0.3376492499
 40
0.4277500399
 40
0.5202244086
 40
0.611937288
 40
0.699775308
 40
0.7413023494
 40
0.7807570675
 40
0.817808181
 40
0.8521373978
 40
0.8834546592
 40
0.9114960914
 40
0.9360208757
 40
0.956828405
 40
0.9657787256
 40
0.973736211
 40
0.9806866865
 40
0.9866164923
 40
0.9915130626
 40
0.9953701249
 40
0.9981914791
 40
0.9992194316
 40
1.0
 40
1.0
 40
1.0
 40
1.0
 10
6.4620063156
 20
6.6362792994
 30
0.0
 10
6.4620679946
 20
6.635978911
 30
0.0
 10
6.4621847105
 20
6.6352909519
 30
0.0
 10
6.4623409451
 20
6.6341294025
 30
0.0
 10
6.4624980663
 20
6.6327155609
 30
0.0
 10
6.4627236379
 20
6.6303367217
 30
0.0
 10
6.4629966637
 20
6.6267581186
 30
0.0
 10
6.4633097102
 20
6.6217611554
 30
0.0
 10
6.4636243973
 20
6.6158604317
 30
0.0
 10
6.4639402054
 20
6.609106622
 30
0.0
 10
6.4642567643
 20
6.6015569774
 30
0.0
 10
6.4646956426
 20
6.5900914131
 30
0.0
 10
6.4652330381
 20
6.5743021035
 30
0.0
 10
6.4658598661
 20
6.5539932378
 30
0.0
 10
6.4664881805
 20
6.5323792871
 30
0.0
 10
6.4671173268
 20
6.5101947202
 30
0.0
 10
6.4677465846
 20
6.4881933177
 30
0.0
 10
6.4682798562
 20
6.4703131614
 30
0.0
 10
6.4687128434
 20
6.4566602944
 30
0.0
 10
6.4690314424
 20
6.4471152025
 30
0.0
 10
6.4693498232
 20
6.4381528433
 30
0.0
 10
6.4696679607
 20
6.4298493441
 30
0.0
 10
6.4699857246
 20
6.4222754107
 30
0.0
 10
6.4703027833
 20
6.4154955116
 30
0.0
 10
6.4706191405
 20
6.4095670064
 30
0.0
 10
6.4708930752
 20
6.4051832678
 30
0.0
 10
6.4711169743
 20
6.4021397948
 30
0.0
 10
6.471276111
 20
6.4002158904
 30
0.0
 10
6.4714347915
 20
6.3985372587
 30
0.0
 10
6.4715929469
 20
6.3971075673
 30
0.0
 10
6.4717498377
 20
6.3959296144
 30
0.0
 10
6.4719057984
 20
6.395006174
 30
0.0
 10
6.4720425289
 20
6.3943966354
 30
0.0
 10
6.4721595405
 20
6.3940406006
 30
0.0
 10
6.4722189626
 20
6.3939061695
 30
0.0
 10
6.4722504977
 20
6.3938514475
 30
0.0
  0
LINE
  5
62C
100
AcDbEntity
  8
ALL_ASSEMBLY_MEMBERS
100
AcDbLine
 62
7
  6
CONTINUOUS
 10
4.8971081452
 20
6.1607667087
 11
4.8995439491
 21
6.1591896985
  0
SPLINE
  5
62D
100
AcDbEntity
  8
ALL_ASSEMBLY_MEMBERS
100
AcDbSpline
 62
7
  6
CONTINUOUS
 70
0
 71
3
 72
40
 73
36
 74
0
 42
0.0000001
 43
0.0000001
 44
0.0000000001
 40
0.0
 40
0.0
 40
0.0
 40
0.0
 40
0.0125942359
 40
0.0291413233
 40
0.0495186133
 40
0.0735578626
 40
0.1010614045
 40
0.1318069394
 40
0.2019719018
 40
0.2817381686
 40
0.3684724288
 40
0.4593107604
 40
0.5512535835
 40
0.6412660539
 40
0.6846159125
 40
0.7263794585
 40
0.7662150778
 40
0.8037891118
 40
0.8387974171
 40
0.8709469086
 40
0.8999755896
 40
0.9256461914
 40
0.9477442503
 40
0.9660983042
 40
0.9738208226
 40
0.9805538722
 40
0.9862874255
 40
0.9910125614
 40
0.9929948799
 40
0.9947230032
 40
0.9961974679
 40
0.9974205634
 40
0.9983966706
 40
0.9991347992
 40
1.0
 40
1.0
 40
1.0
 40
1.0
 10
4.8995439491
 20
6.1591896985
 30
0.0
 10
4.9002930164
 20
6.158615002
 30
0.0
 10
4.9019907204
 20
6.1572392382
 30
0.0
 10
4.9048206134
 20
6.1548366878
 30
0.0
 10
4.9082602606
 20
6.1518272818
 30
0.0
 10
4.9122830174
 20
6.148237564
 30
0.0
 10
4.9168568197
 20
6.1440981954
 30
0.0
 10
4.9239608016
 20
6.1376016686
 30
0.0
 10
4.9339015397
 20
6.1284018537
 30
0.0
 10
4.9468693341
 20
6.1162938695
 30
0.0
 10
4.960934681
 20
6.1030906124
 30
0.0
 10
4.9756464183
 20
6.089242272
 30
0.0
 10
4.9905320973
 20
6.0752201797
 30
0.0
 10
5.0028335132
 20
6.0636465802
 30
0.0
 10
5.0124068419
 20
6.0546630147
 30
0.0
 10
5.0192448991
 20
6.0482615876
 30
0.0
 10
5.0257764534
 20
6.042166326
 30
0.0
 10
5.031949585
 20
6.0364292501
 30
0.0
 10
5.0377147407
 20
6.0310996156
 30
0.0
 10
5.0430262825
 20
6.0262230423
 30
0.0
 10
5.0478419707
 20
6.021841519
 30
0.0
 10
5.052123514
 20
6.0179926943
 30
0.0
 10
5.0558376283
 20
6.0147099012
 30
0.0
 10
5.0585718404
 20
6.0123503096
 30
0.0
 10
5.0604580944
 20
6.0107717663
 30
0.0
 10
5.0616311788
 20
6.0098153834
 30
0.0
 10
5.0626440721
 20
6.0090183894
 30
0.0
 10
5.0633908569
 20
6.0084594505
 30
0.0
 10
5.063908465
 20
6.0080959846
 30
0.0
 10
5.0642320328
 20
6.0078807458
 30
0.0
 10
5.0645148429
 20
6.0077064065
 30
0.0
 10
5.0647547342
 20
6.0075730491
 30
0.0
 10
5.0649577048
 20
6.0074796951
 30
0.0
 10
5.0651327914
 20
6.0074189552
 30
0.0
 10
5.0652788993
 20
6.007408258
 30
0.0
 10
5.0653248544
 20
6.0074540284
 30
0.0
  0
LINE
  5
62E
100
AcDbEntity
  8
ALL_ASSEMBLY_MEMBERS
100
AcDbLine
 62
7
  6
CONTINUOUS
 10
4.8823209845
 20
6.1452508679
 11
4.8840073162
 21
6.144235779
  0
SPLINE
  5
62F
100
AcDbEntity
  8
ALL_ASSEMBLY_MEMBERS
100
AcDbSpline
 62
7
  6
CONTINUOUS
 70
0
 71
3
 72
41
 73
37
 74
0
 42
0.0000001
 43
0.0000001
 44
0.0000000001
 40
0.0
 40
0.0
 40
0.0
 40
0.0
 40
0.0049910775
 40
0.0110133421
 40
0.0261143311
 40
0.0451875634
 40
0.0680710066
 40
0.0945801105
 40
0.1244828836
 40
0.1934459101
 40
0.2726238499
 40
0.3593327051
 40
0.45063354
 40
0.5434326551
 40
0.6345865733
 40
0.6785760713
 40
0.7210085751
 40
0.7615205034
 40
0.7997736827
 40
0.8354394159
 40
0.8682195541
 40
0.8978363182
 40
0.924037766
 40
0.9466095339
 40
0.9653554665
 40
0.9732480761
 40
0.9801320841
 40
0.9859920996
 40
0.9908184015
 40
0.9928431516
 40
0.9946090288
 40
0.9961167442
 40
0.9973680099
 40
0.9983665626
 40
0.9991208447
 40
1.0
 40
1.0
 40
1.0
 40
1.0
 10
4.8840073162
 20
6.144235779
 30
0.0
 10
4.8843098547
 20
6.1440160309
 30
0.0
 10
4.8849680108
 20
6.1435181697
 30
0.0
 10
4.8865008134
 20
6.1423022199
 30
0.0
 10
4.8888121209
 20
6.1403711362
 30
0.0
 10
4.8920445159
 20
6.1375738208
 30
0.0
 10
4.8958837272
 20
6.1341720998
 30
0.0
 10
4.900298403
 20
6.1301968358
 30
0.0
 10
4.9072416185
 20
6.1238707884
 30
0.0
 10
4.9170415683
 20
6.1148216768
 30
0.0
 10
4.929910197
 20
6.1028229981
 30
0.0
 10
4.9439640914
 20
6.0896416516
 30
0.0
 10
4.9587406909
 20
6.0757392088
 30
0.0
 10
4.9737530444
 20
6.0616013613
 30
0.0
 10
4.9861910537
 20
6.0498999492
 30
0.0
 10
4.9958920016
 20
6.040796093
 30
0.0
 10
5.0028338726
 20
6.0342965066
 30
0.0
 10
5.0094716039
 20
6.0281008829
 30
0.0
 10
5.0157504416
 20
6.0222637405
 30
0.0
 10
5.0216192219
 20
6.0168362926
 30
0.0
 10
5.0270298052
 20
6.0118664033
 30
0.0
 10
5.0319381131
 20
6.0073979346
 30
0.0
 10
5.0363044027
 20
6.0034702718
 30
0.0
 10
5.0400930062
 20
6.0001184452
 30
0.0
 10
5.0428830447
 20
5.9977082254
 30
0.0
 10
5.0448079653
 20
5.9960950513
 30
0.0
 10
5.0460054703
 20
5.9951170571
 30
0.0
 10
5.0470392433
 20
5.9943020279
 30
0.0
 10
5.0478011753
 20
5.9937305318
 30
0.0
 10
5.0483291188
 20
5.993358824
 30
0.0
 10
5.0486592222
 20
5.9931385151
 30
0.0
 10
5.0489478482
 20
5.9929598126
 30
0.0
 10
5.0491926846
 20
5.9928228825
 30
0.0
 10
5.0493999044
 20
5.9927267842
 30
0.0
 10
5.0495779577
 20
5.992664135
 30
0.0
 10
5.0497271525
 20
5.9926524431
 30
0.0
 10
5.0497736069
 20
5.9926991354
 30
0.0
  0
SPLINE
  5
630
100
AcDbEntity
  8
ALL_ASSEMBLY_MEMBERS
100
AcDbSpline
 62
7
  6
CONTINUOUS
 70
0
 71
3
 72
18
 73
14
 74
0
 42
0.0000001
 43
0.0000001
 44
0.0000000001
 40
0.0
 40
0.0
 40
0.0
 40
0.0
 40
0.2108447417
 40
0.3983327945
 40
0.5616704242
 40
0.7001604176
 40
0.8134137639
 40
0.86048459
 40
0.9011425292
 40
0.9353754133
 40
0.9632047957
 40
0.9846921782
 40
1.0
 40
1.0
 40
1.0
 40
1.0
 10
6.4682432028
 20
6.6211014917
 30
0.0
 10
6.4681791477
 20
6.6222467217
 30
0.0
 10
6.468052364
 20
6.6244100041
 30
0.0
 10
6.4678516771
 20
6.6274589881
 30
0.0
 10
6.4676518046
 20
6.6301134711
 30
0.0
 10
6.4674527912
 20
6.6323628329
 30
0.0
 10
6.467279561
 20
6.6339793596
 30
0.0
 10
6.4671371644
 20
6.6350634589
 30
0.0
 10
6.4670373706
 20
6.6357194803
 30
0.0
 10
6.4669380038
 20
6.6362694187
 30
0.0
 10
6.4668394755
 20
6.6367134842
 30
0.0
 10
6.4667419725
 20
6.6370511768
 30
0.0
 10
6.4666666181
 20
6.6372380485
 30
0.0
 10
6.4666250083
 20
6.6373101843
 30
0.0
  0
SPLINE
  5
631
100
AcDbEntity
  8
ALL_ASSEMBLY_MEMBERS
100
AcDbSpline
 62
7
  6
CONTINUOUS
 70
0
 71
3
 72
33
 73
29
 74
0
 42
0.0000001
 43
0.0000001
 44
0.0000000001
 40
0.0
 40
0.0
 40
0.0
 40
0.0
 40
0.0007546276
 40
0.0012967976
 40
0.0019799343
 40
0.0038051223
 40
0.0062709654
 40
0.0093909661
 40
0.0131708311
 40
0.0176110299
 40
0.0227083792
 40
0.0348573128
 40
0.0495800407
 40
0.0668325038
 40
0.0865486032
 40
0.1086514904
 40
0.1330636019
 40
0.1596968561
 40
0.1884456321
 40
0.2518575043
 40
0.3223537577
 40
0.398876493
 40
0.4802754701
 40
0.5653335904
 40
0.6527711688
 40
0.7412802375
 40
0.829531713
 40
1.0
 40
1.0
 40
1.0
 40
1.0
 10
6.4614892166
 20
6.4033524924
 30
0.0
 10
6.4614501052
 20
6.4033525934
 30
0.0
 10
6.4613868409
 20
6.4033948759
 30
0.0
 10
6.4613267444
 20
6.4034763885
 30
0.0
 10
6.4612497339
 20
6.4036156708
 30
0.0
 10
6.4611605772
 20
6.4038581583
 30
0.0
 10
6.4610585541
 20
6.4042287146
 30
0.0
 10
6.4609562299
 20
6.404703406
 30
0.0
 10
6.4608530755
 20
6.4052821034
 30
0.0
 10
6.4607496198
 20
6.405964595
 30
0.0
 10
6.46060255
 20
6.4070789692
 30
0.0
 10
6.4604233318
 20
6.4087263547
 30
0.0
 10
6.4602173247
 20
6.4110040291
 30
0.0
 10
6.460010696
 20
6.4136752172
 30
0.0
 10
6.4598034429
 20
6.4167298382
 30
0.0
 10
6.4595957863
 20
6.4201562655
 30
0.0
 10
6.459387883
 20
6.4239417755
 30
0.0
 10
6.4591798261
 20
6.4280721991
 30
0.0
 10
6.4588927137
 20
6.4342224785
 30
0.0
 10
6.4585385789
 20
6.44264542
 30
0.0
 10
6.4581252209
 20
6.4535440184
 30
0.0
 10
6.457711258
 20
6.4653754611
 30
0.0
 10
6.4572968266
 20
6.4779620421
 30
0.0
 10
6.4568821749
 20
6.4911146118
 30
0.0
 10
6.4564673535
 20
6.504635861
 30
0.0
 10
6.4560525481
 20
6.5183226958
 30
0.0
 10
6.4555057324
 20
6.5363108996
 30
0.0
 10
6.4550880752
 20
6.5497135887
 30
0.0
 10
6.4547983171
 20
6.5585440331
 30
0.0
  0
SPLINE
  5
632
100
AcDbEntity
  8
ALL_ASSEMBLY_MEMBERS
100
AcDbSpline
 62
7
  6
CONTINUOUS
 70
0
 71
3
 72
34
 73
30
 74
0
 42
0.0000001
 43
0.0000001
 44
0.0000000001
 40
0.0
 40
0.0
 40
0.0
 40
0.0
 40
0.0003966489
 40
0.0009768825
 40
0.0017453475
 40
0.0027036736
 40
0.0051916883
 40
0.0084416021
 40
0.0124514093
 40
0.0172175603
 40
0.0227324142
 40
0.0289869152
 40
0.043678086
 40
0.061215884
 40
0.08150325
 40
0.1044246748
 40
0.1298622811
 40
0.1576781026
 40
0.1877207837
 40
0.2198368275
 40
0.2895980805
 40
0.3655151581
 40
0.446028084
 40
0.5295052631
 40
0.6142698826
 40
0.6986402008
 40
0.7809531749
 40
0.8595999697
 40
1.0
 40
1.0
 40
1.0
 40
1.0
 10
5.100224422
 20
6.0406723928
 30
0.0
 10
5.1001990542
 20
6.0406792281
 30
0.0
 10
5.1001396441
 20
6.0407061878
 30
0.0
 10
5.1000398347
 20
6.0407643349
 30
0.0
 10
5.0999126913
 20
6.0408493503
 30
0.0
 10
5.0996866109
 20
6.0410131333
 30
0.0
 10
5.0993380262
 20
6.0412876418
 30
0.0
 10
5.0988411741
 20
6.0416999695
 30
0.0
 10
5.0982370356
 20
6.0422191727
 30
0.0
 10
5.0975264024
 20
6.0428444846
 30
0.0
 10
5.0967103704
 20
6.0435750269
 30
0.0
 10
5.0954121774
 20
6.0447525235
 30
0.0
 10
5.0935375881
 20
6.0464798065
 30
0.0
 10
5.0909946874
 20
6.0488533323
 30
0.0
 10
5.0880659961
 20
6.0516124005
 30
0.0
 10
5.0847670689
 20
6.0547415041
 30
0.0
 10
5.0811154652
 20
6.0582233602
 30
0.0
 10
5.0771302946
 20
6.0620388865
 30
0.0
 10
5.0728323207
 20
6.0661673321
 30
0.0
 10
5.0665386936
 20
6.0722287724
 30
0.0
 10
5.0580698272
 20
6.0804118699
 30
0.0
 10
5.0473103159
 20
6.0908375853
 30
0.0
 10
5.0359086605
 20
6.1019061176
 30
0.0
 10
5.0240929956
 20
6.1133895081
 30
0.0
 10
5.0120971434
 20
6.1250540921
 30
0.0
 10
5.0001563495
 20
6.1366646842
 30
0.0
 10
4.988502804
 20
6.1479894194
 30
0.0
 10
4.9741791093
 20
6.1618916341
 30
0.0
 10
4.9637546572
 20
6.1719831417
 30
0.0
 10
4.9570583484
 20
6.1784361747
 30
0.0
  0
SPLINE
  5
633
100
AcDbEntity
  8
ALL_ASSEMBLY_MEMBERS
100
AcDbSpline
 62
7
  6
CONTINUOUS
 70
0
 71
3
 72
12
 73
8
 74
0
 42
0.0000001
 43
0.0000001
 44
0.0000000001
 40
0.0
 40
0.0
 40
0.0
 40
0.0
 40
0.1081244464
 40
0.1922952705
 40
0.3010351089
 40
0.5967274179
 40
1.0
 40
1.0
 40
1.0
 40
1.0
 10
5.09846202
 20
6.0293455495
 30
0.0
 10
5.0984289758
 20
6.0293125053
 30
0.0
 10
5.0983320734
 20
6.0293050742
 30
0.0
 10
5.0982088074
 20
6.0293354423
 30
0.0
 10
5.0980090455
 20
6.02940961
 30
0.0
 10
5.0977012354
 20
6.0295742261
 30
0.0
 10
5.0974450076
 20
6.0297348927
 30
0.0
 10
5.0972994074
 20
6.0298307015
 30
0.0
  0
SPLINE
  5
634
100
AcDbEntity
  8
ALL_ASSEMBLY_MEMBERS
100
AcDbSpline
 62
7
  6
CONTINUOUS
 70
0
 71
3
 72
40
 73
36
 74
0
 42
0.0000001
 43
0.0000001
 44
0.0000000001
 40
0.0
 40
0.0
 40
0.0
 40
0.0
 40
0.0037806213
 40
0.0086012374
 40
0.0144562737
 40
0.0213333527
 40
0.0380985785
 40
0.0587704716
 40
0.0831681515
 40
0.1110922787
 40
0.1423027018
 40
0.1765368797
 40
0.25288991
 40
0.3375594289
 40
0.4276677648
 40
0.5201573699
 40
0.6118926407
 40
0.6997565676
 40
0.7412959147
 40
0.7807597916
 40
0.8178179105
 40
0.8521520726
 40
0.8834742518
 40
0.9115184578
 40
0.9360455868
 40
0.9568531489
 40
0.9658024412
 40
0.9737587436
 40
0.9807075625
 40
0.9866349162
 40
0.9915279892
 40
0.9953808122
 40
0.9981972152
 40
0.9992223992
 40
1.0
 40
1.0
 40
1.0
 40
1.0
 10
5.0972994074
 20
6.0298307015
 30
0.0
 10
5.0970438589
 20
6.0299988594
 30
0.0
 10
5.0964758162
 20
6.0304015874
 30
0.0
 10
5.0955454475
 20
6.0311107316
 30
0.0
 10
5.0944360119
 20
6.031997692
 30
0.0
 10
5.092596108
 20
6.0335181735
 30
0.0
 10
5.0898745526
 20
6.0358531961
 30
0.0
 10
5.0861219236
 20
6.0391626549
 30
0.0
 10
5.0817286731
 20
6.0431104483
 30
0.0
 10
5.0767310137
 20
6.0476611525
 30
0.0
 10
5.0711694874
 20
6.0527746496
 30
0.0
 10
5.0627517932
 20
6.0605713061
 30
0.0
 10
5.0512062442
 20
6.0713565571
 30
0.0
 10
5.0364011105
 20
6.085275223
 30
0.0
 10
5.0206714297
 20
6.1001166513
 30
0.0
 10
5.0045369035
 20
6.1153620821
 30
0.0
 10
4.9885309307
 20
6.1304791357
 30
0.0
 10
4.975507328
 20
6.1427497118
 30
0.0
 10
4.9655446467
 20
6.1521012075
 30
0.0
 10
4.9585685727
 20
6.1586276762
 30
0.0
 10
4.9520052112
 20
6.164741886
 30
0.0
 10
4.9459082069
 20
6.1703901742
 30
0.0
 10
4.9403276801
 20
6.17552267
 30
0.0
 10
4.9353093152
 20
6.1800940677
 30
0.0
 10
4.9308938453
 20
6.1840637258
 30
0.0
 10
4.9276008748
 20
6.1869707506
 30
0.0
 10
4.9252911121
 20
6.188965093
 30
0.0
 10
4.9238187737
 20
6.1902132885
 30
0.0
 10
4.9225202832
 20
6.1912883011
 30
0.0
 10
4.9213983343
 20
6.1921875383
 30
0.0
 10
4.9204554338
 20
6.1929095227
 30
0.0
 10
4.9196933081
 20
6.1934520739
 30
0.0
 10
4.9191666529
 20
6.1937862649
 30
0.0
 10
4.9188330394
 20
6.1939551275
 30
0.0
 10
4.9186964207
 20
6.1940080809
 30
0.0
 10
4.9186356584
 20
6.1940244177
 30
0.0
  0
LINE
  5
635
100
AcDbEntity
  8
ALL_ASSEMBLY_MEMBERS
100
AcDbLine
 62
7
  6
CONTINUOUS
 10
6.4666678936
 20
6.4035079361
 11
6.4662710129
 21
6.4049503816
  0
SPLINE
  5
636
100
AcDbEntity
  8
ALL_ASSEMBLY_MEMBERS
100
AcDbSpline
 62
7
  6
CONTINUOUS
 70
0
 71
3
 72
42
 73
38
 74
0
 42
0.0000001
 43
0.0000001
 44
0.0000000001
 40
0.0
 40
0.0
 40
0.0
 40
0.0
 40
0.0045175167
 40
0.0100851752
 40
0.0243277892
 40
0.0426274804
 40
0.0648276979
 40
0.0907408355
 40
0.1201473428
 40
0.1527893333
 40
0.1883922056
 40
0.2672157815
 40
0.353905881
 40
0.4454794066
 40
0.5387857216
 40
0.6306154442
 40
0.6749845288
 40
0.7178120002
 40
0.758728335
 40
0.7973808207
 40
0.8334406269
 40
0.8665924987
 40
0.8965593448
 40
0.9230775099
 40
0.9459270302
 40
0.9649114262
 40
0.9729026339
 40
0.979873497
 40
0.9858104468
 40
0.9907011282
 40
0.9927518941
 40
0.9945399185
 40
0.9960662209
 40
0.9973328314
 40
0.9983438214
 40
0.9991079922
 40
1.0
 40
1.0
 40
1.0
 40
1.0
 10
6.4662710129
 20
6.4049503816
 30
0.0
 10
6.4662111522
 20
6.4052816662
 30
0.0
 10
6.466096247
 20
6.4060246038
 30
0.0
 10
6.4658694627
 20
6.407823399
 30
0.0
 10
6.4655987369
 20
6.4106509652
 30
0.0
 10
6.4652894619
 20
6.4147187467
 30
0.0
 10
6.464978307
 20
6.419658243
 30
0.0
 10
6.4646654589
 20
6.4254266531
 30
0.0
 10
6.4643518465
 20
6.4319741625
 30
0.0
 10
6.464037504
 20
6.4392444561
 30
0.0
 10
6.4636031215
 20
6.4501955344
 30
0.0
 10
6.463070833
 20
6.4651735172
 30
0.0
 10
6.4624493718
 20
6.4843218149
 30
0.0
 10
6.4618269151
 20
6.504549881
 30
0.0
 10
6.4612040961
 20
6.5251611168
 30
0.0
 10
6.4606796766
 20
6.5422560066
 30
0.0
 10
6.4602545341
 20
6.5555904321
 30
0.0
 10
6.4599394621
 20
6.5651323221
 30
0.0
 10
6.4596245758
 20
6.5742479713
 30
0.0
 10
6.459309887
 20
6.5828589795
 30
0.0
 10
6.4589955761
 20
6.5908909777
 30
0.0
 10
6.4586815981
 20
6.598275197
 30
0.0
 10
6.4583683158
 20
6.6049476935
 30
0.0
 10
6.4580558802
 20
6.6108515673
 30
0.0
 10
6.4577446691
 20
6.6159357666
 30
0.0
 10
6.4574742293
 20
6.619639095
 30
0.0
 10
6.4572521074
 20
6.6221590941
 30
0.0
 10
6.4570957018
 20
6.6237086927
 30
0.0
 10
6.4569398901
 20
6.6250259472
 30
0.0
 10
6.4568042907
 20
6.6259761827
 30
0.0
 10
6.4566929715
 20
6.6266172228
 30
0.0
 10
6.4566147522
 20
6.627009231
 30
0.0
 10
6.4565364456
 20
6.6273419952
 30
0.0
 10
6.4564595524
 20
6.6276138097
 30
0.0
 10
6.4563804154
 20
6.627829822
 30
0.0
 10
6.4562980531
 20
6.6280013485
 30
0.0
 10
6.4562003622
 20
6.6281162448
 30
0.0
 10
6.4561338891
 20
6.6281163228
 30
0.0
  0
SPLINE
  5
637
100
AcDbEntity
  8
ALL_ASSEMBLY_MEMBERS
100
AcDbSpline
 62
7
  6
CONTINUOUS
 70
0
 71
3
 72
34
 73
30
 74
0
 42
0.0000001
 43
0.0000001
 44
0.0000000001
 40
0.0
 40
0.0
 40
0.0
 40
0.0
 40
0.0488581091
 40
0.1083902088
 40
0.1770473395
 40
0.2530862831
 40
0.3345450124
 40
0.419329329
 40
0.5052636481
 40
0.5901456966
 40
0.6717954679
 40
0.748110113
 40
0.7836447458
 40
0.8171253775
 40
0.848334525
 40
0.8770718641
 40
0.9031574279
 40
0.9264191489
 40
0.9467145415
 40
0.9639107779
 40
0.9713112017
 40
0.9778996182
 40
0.9836666322
 40
0.9886033452
 40
0.992702314
 40
0.9959621879
 40
0.9983879565
 40
0.9992932902
 40
1.0
 40
1.0
 40
1.0
 40
1.0
 10
6.4851036136
 20
6.6211014917
 30
0.0
 10
6.4853136373
 20
6.617402442
 30
0.0
 10
6.4857120582
 20
6.6091924273
 30
0.0
 10
6.4862539516
 20
6.5957774737
 30
0.0
 10
6.4867987028
 20
6.5802999724
 30
0.0
 10
6.4873456284
 20
6.5631589151
 30
0.0
 10
6.4878935965
 20
6.5447943564
 30
0.0
 10
6.4884421781
 20
6.5256791162
 30
0.0
 10
6.4889909651
 20
6.5063041807
 30
0.0
 10
6.4895396047
 20
6.4871670341
 30
0.0
 10
6.4900877642
 20
6.4687596605
 30
0.0
 10
6.4905539875
 20
6.4540936324
 30
0.0
 10
6.4909319557
 20
6.4430794546
 30
0.0
 10
6.4912084688
 20
6.4354842637
 30
0.0
 10
6.4914847516
 20
6.4284048793
 30
0.0
 10
6.4917607733
 20
6.4218867248
 30
0.0
 10
6.4920363269
 20
6.4159718066
 30
0.0
 10
6.4923113719
 20
6.4106977922
 30
0.0
 10
6.4925855645
 20
6.4060988667
 30
0.0
 10
6.4928230819
 20
6.4027027972
 30
0.0
 10
6.4930170372
 20
6.4003459063
 30
0.0
 10
6.4931548994
 20
6.3988541095
 30
0.0
 10
6.4932923961
 20
6.3975499817
 30
0.0
 10
6.4934294508
 20
6.3964358194
 30
0.0
 10
6.4935655925
 20
6.3955131956
 30
0.0
 10
6.4937008835
 20
6.3947836305
 30
0.0
 10
6.4938196568
 20
6.3942972303
 30
0.0
 10
6.4939204234
 20
6.3940079219
 30
0.0
 10
6.4939715238
 20
6.3938963854
 30
0.0
 10
6.4939982882
 20
6.393849956
 30
0.0
  0
SPLINE
  5
638
100
AcDbEntity
  8
ALL_ASSEMBLY_MEMBERS
100
AcDbSpline
 62
7
  6
CONTINUOUS
 70
0
 71
3
 72
13
 73
9
 74
0
 42
0.0000001
 43
0.0000001
 44
0.0000000001
 40
0.0
 40
0.0
 40
0.0
 40
0.0
 40
0.1076420934
 40
0.1917185557
 40
0.3004387122
 40
0.4351137824
 40
0.596396891
 40
1.0
 40
1.0
 40
1.0
 40
1.0
 10
5.0523164976
 20
5.9832000271
 30
0.0
 10
5.0522831181
 20
5.9831666477
 30
0.0
 10
5.0521849023
 20
5.9831596249
 30
0.0
 10
5.0520602946
 20
5.9831908417
 30
0.0
 10
5.0519243888
 20
5.9832415241
 30
0.0
 10
5.0517645324
 20
5.9833179458
 30
0.0
 10
5.0514951262
 20
5.983465317
 30
0.0
 10
5.0512857715
 20
5.9835980583
 30
0.0
 10
5.0511380638
 20
5.9836955796
 30
0.0
  0
SPLINE
  5
639
100
AcDbEntity
  8
ALL_ASSEMBLY_MEMBERS
100
AcDbSpline
 62
7
  6
CONTINUOUS
 70
0
 71
3
 72
29
 73
25
 74
0
 42
0.0000001
 43
0.0000001
 44
0.0000000001
 40
0.0
 40
0.0
 40
0.0
 40
0.0
 40
0.0034778841
 40
0.007822569
 40
0.0190943301
 40
0.0337448046
 40
0.0516859047
 40
0.0727957323
 40
0.0969260386
 40
0.1239186648
 40
0.1535830984
 40
0.2201097045
 40
0.2946820086
 40
0.3752510111
 40
0.4595999884
 40
0.5454068027
 40
0.630319165
 40
0.7120095649
 40
0.7882334789
 40
0.8568919743
 40
0.9160998387
 40
0.9642388548
 40
0.983737356
 40
1.0
 40
1.0
 40
1.0
 40
1.0
 10
5.0511380638
 20
5.9836955796
 30
0.0
 10
5.0509101666
 20
5.9838460447
 30
0.0
 10
5.0504079976
 20
5.9842001966
 30
0.0
 10
5.0492118691
 20
5.9851043822
 30
0.0
 10
5.0473665858
 20
5.9866029911
 30
0.0
 10
5.0447410103
 20
5.9888321644
 30
0.0
 10
5.0415666294
 20
5.9916079642
 30
0.0
 10
5.0378637849
 20
5.994909707
 30
0.0
 10
5.0336570599
 20
5.9987140845
 30
0.0
 10
5.0289744847
 20
6.0029935742
 30
0.0
 10
5.021860726
 20
6.0095474067
 30
0.0
 10
5.0120425401
 20
6.018679444
 30
0.0
 10
4.9993419096
 20
6.0305811593
 30
0.0
 10
4.9856503975
 20
6.0434719957
 30
0.0
 10
4.9713343213
 20
6.0569863078
 30
0.0
 10
4.956776837
 20
6.0707417093
 30
0.0
 10
4.9423671338
 20
6.0843495556
 30
0.0
 10
4.9284901591
 20
6.0974255758
 30
0.0
 10
4.9155168553
 20
6.1095995466
 30
0.0
 10
4.9037941864
 20
6.1205263591
 30
0.0
 10
4.8936340548
 20
6.1298949047
 30
0.0
 10
4.8862546977
 20
6.1365847643
 30
0.0
 10
4.8813178918
 20
6.1409470972
 30
0.0
 10
4.8791917322
 20
6.1427815219
 30
0.0
 10
4.8782165214
 20
6.1436058993
 30
0.0
  0
LINE
  5
63A
100
AcDbEntity
  8
ALL_ASSEMBLY_MEMBERS
100
AcDbLine
 62
7
  6
CONTINUOUS
 10
4.8782165214
 20
6.1436058993
 11
4.873426247
 21
6.1473789864
  0
LINE
  5
63B
100
AcDbEntity
  8
ALL_ASSEMBLY_MEMBERS
100
AcDbLine
 62
7
  6
CONTINUOUS
 10
4.873426247
 20
6.1473789864
 11
4.8724901717
 21
6.1478789876
  0
SPLINE
  5
63C
100
AcDbEntity
  8
ALL_ASSEMBLY_MEMBERS
100
AcDbSpline
 62
7
  6
CONTINUOUS
 70
0
 71
3
 72
14
 73
10
 74
0
 42
0.0000001
 43
0.0000001
 44
0.0000000001
 40
0.0
 40
0.0
 40
0.0
 40
0.0
 40
0.0951597807
 40
0.1772069069
 40
0.2859175671
 40
0.4222197105
 40
0.5865423034
 40
0.7790996565
 40
1.0
 40
1.0
 40
1.0
 40
1.0
 10
6.4833111567
 20
6.637451987
 30
0.0
 10
6.4833743785
 20
6.637451987
 30
0.0
 10
6.4834667836
 20
6.6373410937
 30
0.0
 10
6.4835444904
 20
6.6371769831
 30
0.0
 10
6.4836194108
 20
6.6369694767
 30
0.0
 10
6.483692168
 20
6.6367084646
 30
0.0
 10
6.483766277
 20
6.6363888138
 30
0.0
 10
6.4838402659
 20
6.6360122347
 30
0.0
 10
6.4838865923
 20
6.6357414183
 30
0.0
 10
6.4839100223
 20
6.6355965401
 30
0.0
  0
SPLINE
  5
63D
100
AcDbEntity
  8
ALL_ASSEMBLY_MEMBERS
100
AcDbSpline
 62
7
  6
CONTINUOUS
 70
0
 71
3
 72
12
 73
8
 74
0
 42
0.0000001
 43
0.0000001
 44
0.0000000001
 40
0.0
 40
0.0
 40
0.0
 40
0.0
 40
0.0721380942
 40
0.159728452
 40
0.3807545279
 40
0.6616898949
 40
1.0
 40
1.0
 40
1.0
 40
1.0
 10
6.4839100223
 20
6.6355965401
 30
0.0
 10
6.4839658718
 20
6.635251197
 30
0.0
 10
6.4840737018
 20
6.6344839889
 30
0.0
 10
6.4842866437
 20
6.632649771
 30
0.0
 10
6.4845417041
 20
6.6298017711
 30
0.0
 10
6.4848330364
 20
6.6257372877
 30
0.0
 10
6.4850119936
 20
6.622739549
 30
0.0
 10
6.4851036136
 20
6.6211014917
 30
0.0
  0
SPLINE
  5
63E
100
AcDbEntity
  8
ALL_ASSEMBLY_MEMBERS
100
AcDbSpline
 62
7
  6
CONTINUOUS
 70
0
 71
3
 72
25
 73
21
 74
0
 42
0.0000001
 43
0.0000001
 44
0.0000000001
 40
0.0
 40
0.0
 40
0.0
 40
0.0
 40
0.2230589409
 40
0.4216149053
 40
0.5932080279
 40
0.6683490423
 40
0.7361397805
 40
0.7964026046
 40
0.8490009995
 40
0.8938177638
 40
0.9307416416
 40
0.9462129567
 40
0.959681849
 40
0.971152212
 40
0.9806336459
 40
0.9881469678
 40
0.9937398597
 40
0.9958534609
 40
0.9975521785
 40
1.0
 40
1.0
 40
1.0
 40
1.0
 10
4.9570583484
 20
6.1784361747
 30
0.0
 10
4.9549563358
 20
6.1803849348
 30
0.0
 10
4.9509769636
 20
6.1840616567
 30
0.0
 10
4.9453532181
 20
6.1892077941
 30
0.0
 10
4.9411059837
 20
6.1930424437
 30
0.0
 10
4.9380850259
 20
6.1957275273
 30
0.0
 10
4.9361224563
 20
6.1974498391
 30
0.0
 10
4.9343653801
 20
6.198967033
 30
0.0
 10
4.9328179911
 20
6.2002752183
 30
0.0
 10
4.9314839352
 20
6.201370937
 30
0.0
 10
4.9305029104
 20
6.2021445772
 30
0.0
 10
4.9298253692
 20
6.2026518853
 30
0.0
 10
4.9294031796
 20
6.2029543325
 30
0.0
 10
4.9290364328
 20
6.2032017103
 30
0.0
 10
4.9287252996
 20
6.2033943805
 30
0.0
 10
4.9284695828
 20
6.2035320598
 30
0.0
 10
4.9282891456
 20
6.203609025
 30
0.0
 10
4.9281711378
 20
6.2036382711
 30
0.0
 10
4.9280918901
 20
6.2036466727
 30
0.0
 10
4.9280341353
 20
6.2036320975
 30
0.0
 10
4.92801186
 20
6.2036098884
 30
0.0
  0
SPLINE
  5
63F
100
AcDbEntity
  8
ALL_ASSEMBLY_MEMBERS
100
AcDbSpline
 62
7
  6
CONTINUOUS
 70
0
 71
3
 72
13
 73
9
 74
0
 42
0.0000001
 43
0.0000001
 44
0.0000000001
 40
0.0
 40
0.0
 40
0.0
 40
0.0
 40
0.1064089452
 40
0.1902677789
 40
0.2989747514
 40
0.4338057084
 40
0.5953925033
 40
1.0
 40
1.0
 40
1.0
 40
1.0
 10
6.4981380568
 20
6.393701987
 30
0.0
 10
6.4980923561
 20
6.393701987
 30
0.0
 10
6.4980206436
 20
6.3937659126
 30
0.0
 10
6.4979574063
 20
6.3938737385
 30
0.0
 10
6.4978993947
 20
6.3940034286
 30
0.0
 10
6.497842644
 20
6.3941675834
 30
0.0
 10
6.4977595791
 20
6.3944572812
 30
0.0
 10
6.4977074666
 20
6.394694952
 30
0.0
 10
6.497673323
 20
6.3948653359
 30
0.0
  0
SPLINE
  5
640
100
AcDbEntity
  8
ALL_ASSEMBLY_MEMBERS
100
AcDbSpline
 62
7
  6
CONTINUOUS
 70
0
 71
3
 72
40
 73
36
 74
0
 42
0.0000001
 43
0.0000001
 44
0.0000000001
 40
0.0
 40
0.0
 40
0.0
 40
0.0
 40
0.0037773556
 40
0.0085966159
 40
0.0144519712
 40
0.0213308819
 40
0.0381038999
 40
0.0587888948
 40
0.0832040911
 40
0.1111491945
 40
0.1423839896
 40
0.1766447476
 40
0.2530559789
 40
0.3377860042
 40
0.4279566981
 40
0.5205003418
 40
0.612275084
 40
0.7001592753
 40
0.7417004813
 40
0.7811607544
 40
0.8182094643
 40
0.8525281758
 40
0.883828564
 40
0.9118439779
 40
0.9363350645
 40
0.9570993878
 40
0.966024402
 40
0.9739546802
 40
0.9808757003
 40
0.9867734314
 40
0.9916349952
 40
0.9954544064
 40
0.998235257
 40
0.9992417357
 40
1.0
 40
1.0
 40
1.0
 40
1.0
 10
6.497673323
 20
6.3948653359
 30
0.0
 10
6.497613269
 20
6.3951650177
 30
0.0
 10
6.4974997128
 20
6.3958516016
 30
0.0
 10
6.4973477818
 20
6.3970111244
 30
0.0
 10
6.497194991
 20
6.3984233084
 30
0.0
 10
6.4969756017
 20
6.4008008092
 30
0.0
 10
6.4967101433
 20
6.4043786795
 30
0.0
 10
6.4964058141
 20
6.4093758702
 30
0.0
 10
6.4960999271
 20
6.415278382
 30
0.0
 10
6.4957930222
 20
6.4220354327
 30
0.0
 10
6.4954854082
 20
6.4295898234
 30
0.0
 10
6.4950590237
 20
6.4410641243
 30
0.0
 10
6.494537088
 20
6.456866263
 30
0.0
 10
6.4939285793
 20
6.4771917477
 30
0.0
 10
6.4933188948
 20
6.4988230766
 30
0.0
 10
6.4927086774
 20
6.5210246187
 30
0.0
 10
6.4920986364
 20
6.5430410865
 30
0.0
 10
6.4915818736
 20
6.560931758
 30
0.0
 10
6.4911624589
 20
6.5745904889
 30
0.0
 10
6.4908539553
 20
6.5841373885
 30
0.0
 10
6.490545769
 20
6.5930995781
 30
0.0
 10
6.4902378861
 20
6.6014011165
 30
0.0
 10
6.4899304825
 20
6.6089712113
 30
0.0
 10
6.48962382
 20
6.6157454357
 30
0.0
 10
6.4893179639
 20
6.6216661966
 30
0.0
 10
6.4890531586
 20
6.6260422385
 30
0.0
 10
6.4888367146
 20
6.6290785083
 30
0.0
 10
6.4886829458
 20
6.6309962086
 30
0.0
 10
6.4885296437
 20
6.6326681411
 30
0.0
 10
6.4883768735
 20
6.6340905679
 30
0.0
 10
6.4882253781
 20
6.6352606889
 30
0.0
 10
6.4880748053
 20
6.6361757326
 30
0.0
 10
6.4879428915
 20
6.6367780809
 30
0.0
 10
6.4878297338
 20
6.6371281824
 30
0.0
 10
6.4877722572
 20
6.6372596215
 30
0.0
 10
6.4877416288
 20
6.6373127836
 30
0.0
  0
SPLINE
  5
641
100
AcDbEntity
  8
ALL_ASSEMBLY_MEMBERS
100
AcDbSpline
 62
7
  6
CONTINUOUS
 70
0
 71
3
 72
40
 73
36
 74
0
 42
0.0000001
 43
0.0000001
 44
0.0000000001
 40
0.0
 40
0.0
 40
0.0
 40
0.0
 40
0.000859489
 40
0.0015947859
 40
0.0025676455
 40
0.0037868875
 40
0.0052567619
 40
0.0069795327
 40
0.008955992
 40
0.013667781
 40
0.0193854389
 40
0.0260996221
 40
0.0337999057
 40
0.0521013087
 40
0.0741356891
 40
0.09973087
 40
0.1286744907
 40
0.1607289779
 40
0.1956345234
 40
0.2330991143
 40
0.2728204281
 40
0.3144671969
 40
0.3576997165
 40
0.4474871802
 40
0.5392367749
 40
0.6299383611
 40
0.7166171467
 40
0.796435623
 40
0.8667726835
 40
0.8976605912
 40
0.9253561262
 40
0.9496187261
 40
0.9702161556
 40
0.9870082493
 40
1.0
 40
1.0
 40
1.0
 40
1.0
 10
4.9301415774
 20
6.1956714157
 30
0.0
 10
4.9301876549
 20
6.1957172793
 30
0.0
 10
4.9303344405
 20
6.1957057671
 30
0.0
 10
4.9305100182
 20
6.1956443312
 30
0.0
 10
4.9307139448
 20
6.1955499678
 30
0.0
 10
4.9309549681
 20
6.195415409
 30
0.0
 10
4.9312391745
 20
6.1952396121
 30
0.0
 10
4.9315643806
 20
6.1950226763
 30
0.0
 10
4.9320847056
 20
6.1946563944
 30
0.0
 10
4.932835535
 20
6.1940932681
 30
0.0
 10
4.933854027
 20
6.1932904935
 30
0.0
 10
4.9350336513
 20
6.192327372
 30
0.0
 10
4.936930476
 20
6.1907379742
 30
0.0
 10
4.9396801332
 20
6.1883625111
 30
0.0
 10
4.9434153553
 20
6.1850580505
 30
0.0
 10
4.9477213431
 20
6.1811841766
 30
0.0
 10
4.9525645449
 20
6.1767744273
 30
0.0
 10
4.957906572
 20
6.1718666098
 30
0.0
 10
4.9637049435
 20
6.1665029092
 30
0.0
 10
4.9699138952
 20
6.1607290959
 30
0.0
 10
4.9764837095
 20
6.1545945839
 30
0.0
 10
4.9833623241
 20
6.1481515309
 30
0.0
 10
4.9929940606
 20
6.139108066
 30
0.0
 10
5.0053735287
 20
6.1274544223
 30
0.0
 10
5.0203585647
 20
6.1133302595
 30
0.0
 10
5.0351771186
 20
6.0993722933
 30
0.0
 10
5.0493562576
 20
6.0860517215
 30
0.0
 10
5.0624450178
 20
6.0738203108
 30
0.0
 10
5.0724895817
 20
6.0645121614
 30
0.0
 10
5.0796803279
 20
6.0579251997
 30
0.0
 10
5.084323698
 20
6.0537169825
 30
0.0
 10
5.0884152017
 20
6.0500591571
 30
0.0
 10
5.0919174198
 20
6.0469796907
 30
0.0
 10
5.0948111061
 20
6.0444999275
 30
0.0
 10
5.0965578284
 20
6.0430759204
 30
0.0
 10
5.0973378955
 20
6.0424782552
 30
0.0
  0
SPLINE
  5
642
100
AcDbEntity
  8
ALL_ASSEMBLY_MEMBERS
100
AcDbSpline
 62
7
  6
CONTINUOUS
 70
0
 71
3
 72
12
 73
8
 74
0
 42
0.0000001
 43
0.0000001
 44
0.0000000001
 40
0.0
 40
0.0
 40
0.0
 40
0.0
 40
0.3600292753
 40
0.6481426827
 40
0.8618941079
 40
0.9403909416
 40
1.0
 40
1.0
 40
1.0
 40
1.0
 10
5.0973378955
 20
6.0424782552
 30
0.0
 10
5.0976513354
 20
6.0422381065
 30
0.0
 10
5.0982212991
 20
6.041812913
 30
0.0
 10
5.0990006607
 20
6.0412779404
 30
0.0
 10
5.0995453995
 20
6.04094658
 30
0.0
 10
5.0998922909
 20
6.0407771983
 30
0.0
 10
5.1000344605
 20
6.0407232786
 30
0.0
 10
5.1000975948
 20
6.0407063051
 30
0.0
  0
SPLINE
  5
643
100
AcDbEntity
  8
ALL_ASSEMBLY_MEMBERS
100
AcDbSpline
 62
7
  6
CONTINUOUS
 70
0
 71
3
 72
26
 73
22
 74
0
 42
0.0000001
 43
0.0000001
 44
0.0000000001
 40
0.0
 40
0.0
 40
0.0
 40
0.0
 40
0.193456584
 40
0.377549161
 40
0.4642328149
 40
0.546399799
 40
0.6234036952
 40
0.6946167986
 40
0.7594809607
 40
0.8174750486
 40
0.8681366451
 40
0.9110724959
 40
0.9295279387
 40
0.9459303753
 40
0.9602516527
 40
0.972464674
 40
0.9825449216
 40
0.9904821795
 40
0.9962847968
 40
0.9983973162
 40
1.0
 40
1.0
 40
1.0
 40
1.0
 10
4.9662614958
 20
6.0538551506
 30
0.0
 10
4.9714535989
 20
6.0489431346
 30
0.0
 10
4.9815885622
 20
6.0393590543
 30
0.0
 10
4.9940665419
 20
6.0275915118
 30
0.0
 10
5.0035707715
 20
6.0186636549
 30
0.0
 10
5.0102018684
 20
6.0124559592
 30
0.0
 10
5.0164283436
 20
6.006652418
 30
0.0
 10
5.0222022976
 20
6.001301
 30
0.0
 10
5.0274788983
 20
5.9964462298
 30
0.0
 10
5.0322176119
 20
5.9921283466
 30
0.0
 10
5.0363822092
 20
5.9883834361
 30
0.0
 10
5.0394856804
 20
5.9856433397
 30
0.0
 10
5.0416610861
 20
5.9837648817
 30
0.0
 10
5.0430470401
 20
5.9825898893
 30
0.0
 10
5.0442690221
 20
5.9815782424
 30
0.0
 10
5.0453246369
 20
5.9807322419
 30
0.0
 10
5.0462116809
 20
5.9800531385
 30
0.0
 10
5.04692863
 20
5.9795428467
 30
0.0
 10
5.047424092
 20
5.9792285278
 30
0.0
 10
5.0477379782
 20
5.9790696914
 30
0.0
 10
5.0478665338
 20
5.9790198737
 30
0.0
 10
5.047923715
 20
5.9790044968
 30
0.0
  0
LINE
  5
644
100
AcDbEntity
  8
ALL_ASSEMBLY_MEMBERS
100
AcDbLine
 62
7
  6
CONTINUOUS
 10
6.4770331567
 20
6.393701987
 11
6.4768094782
 21
6.3939732181
  0
LINE
  5
645
100
AcDbEntity
  8
ALL_ASSEMBLY_MEMBERS
100
AcDbLine
 62
7
  6
CONTINUOUS
 10
6.4768094782
 20
6.3939732181
 11
6.4765846279
 21
6.3947889702
  0
SPLINE
  5
646
100
AcDbEntity
  8
ALL_ASSEMBLY_MEMBERS
100
AcDbSpline
 62
7
  6
CONTINUOUS
 70
0
 71
3
 72
28
 73
24
 74
0
 42
0.0000001
 43
0.0000001
 44
0.0000000001
 40
0.0
 40
0.0
 40
0.0
 40
0.0
 40
0.0032338758
 40
0.0072568477
 40
0.0176574054
 40
0.0311464345
 40
0.0476534507
 40
0.0670821323
 40
0.0893120932
 40
0.1142166359
 40
0.1416425814
 40
0.2033947644
 40
0.2730894436
 40
0.3490535501
 40
0.4294593516
 40
0.512368034
 40
0.5957892005
 40
0.6777233344
 40
0.756203409
 40
0.829339852
 40
0.895367043
 40
0.9527212952
 40
1.0
 40
1.0
 40
1.0
 40
1.0
 10
6.4765846279
 20
6.3947889702
 30
0.0
 10
6.4765351479
 20
6.3950280592
 30
0.0
 10
6.4764403774
 20
6.3955679115
 30
0.0
 10
6.4762533786
 20
6.3968879586
 30
0.0
 10
6.4760310158
 20
6.3989840849
 30
0.0
 10
6.475776802
 20
6.4020234349
 30
0.0
 10
6.4755211856
 20
6.4057463305
 30
0.0
 10
6.4752640237
 20
6.4101302951
 30
0.0
 10
6.4750060571
 20
6.4151491791
 30
0.0
 10
6.4747476141
 20
6.4207725224
 30
0.0
 10
6.4743881253
 20
6.4293781955
 30
0.0
 10
6.4739474048
 20
6.4413649422
 30
0.0
 10
6.4734347959
 20
6.4570159477
 30
0.0
 10
6.4729209817
 20
6.4740759382
 30
0.0
 10
6.4724063488
 20
6.4921339699
 30
0.0
 10
6.4718913378
 20
6.5107552127
 30
0.0
 10
6.4713762471
 20
6.5294918844
 30
0.0
 10
6.470861355
 20
6.5478940779
 30
0.0
 10
6.4703470175
 20
6.5655194882
 30
0.0
 10
6.4698335985
 20
6.5819434211
 30
0.0
 10
6.4693220898
 20
6.5967716107
 30
0.0
 10
6.4688130819
 20
6.6096463116
 30
0.0
 10
6.4684395369
 20
6.6175373874
 30
0.0
 10
6.4682432028
 20
6.6211014917
 30
0.0
  0
SPLINE
  5
647
100
AcDbEntity
  8
ALL_ASSEMBLY_MEMBERS
100
AcDbSpline
 62
7
  6
CONTINUOUS
 70
0
 71
3
 72
52
 73
48
 74
0
 42
0.0000001
 43
0.0000001
 44
0.0000000001
 40
0.0
 40
0.0
 40
0.0
 40
0.0
 40
0.0003628958
 40
0.0006098421
 40
0.0009147421
 40
0.0017165983
 40
0.0027897316
 40
0.0041414821
 40
0.0057750515
 40
0.0076919001
 40
0.0098926382
 40
0.0151452978
 40
0.0215242269
 40
0.0290144785
 40
0.0376001174
 40
0.0472645848
 40
0.0579865207
 40
0.0824934768
 40
0.1108974502
 40
0.1429343214
 40
0.1783060876
 40
0.2166854932
 40
0.2577117388
 40
0.3010056905
 40
0.3461582292
 40
0.3927508145
 40
0.4885025488
 40
0.5847027859
 40
0.6777726365
 40
0.7220403663
 40
0.7642389667
 40
0.8039740798
 40
0.8408771992
 40
0.8746010599
 40
0.9048383339
 40
0.9313023583
 40
0.9430445424
 40
0.9537555738
 40
0.9634080016
 40
0.9719814694
 40
0.9794592856
 40
0.9858252835
 40
0.9910643312
 40
0.9951677604
 40
0.9981384646
 40
0.999204745
 40
1.0
 40
1.0
 40
1.0
 40
1.0
 10
4.8832417188
 20
6.1588398042
 30
0.0
 10
4.8832625921
 20
6.1588606775
 30
0.0
 10
4.883315574
 20
6.1588757
 30
0.0
 10
4.8833891984
 20
6.1588699147
 30
0.0
 10
4.8834972727
 20
6.1588457916
 30
0.0
 10
4.8836622448
 20
6.1587791162
 30
0.0
 10
4.8838953
 20
6.1586580485
 30
0.0
 10
4.8841782192
 20
6.1584875827
 30
0.0
 10
4.884511123
 20
6.1582679609
 30
0.0
 10
4.8848938681
 20
6.1579988605
 30
0.0
 10
4.8855075665
 20
6.1575467455
 30
0.0
 10
4.886395593
 20
6.1568555097
 30
0.0
 10
4.8876026891
 20
6.1558744366
 30
0.0
 10
4.8890027269
 20
6.1547012243
 30
0.0
 10
4.890592675
 20
6.1533387743
 30
0.0
 10
4.8923691752
 20
6.1517901686
 30
0.0
 10
4.895105788
 20
6.1493721655
 30
0.0
 10
4.8989563996
 20
6.145912965
 30
0.0
 10
4.9040638312
 20
6.1412586701
 30
0.0
 10
4.9097973209
 20
6.1359794331
 30
0.0
 10
4.9161054521
 20
6.1301264558
 30
0.0
 10
4.9229312289
 20
6.123756366
 30
0.0
 10
4.930213165
 20
6.1169305993
 30
0.0
 10
4.9378849805
 20
6.1097151712
 30
0.0
 10
4.9458772405
 20
6.1021795711
 30
0.0
 10
4.9569647374
 20
6.091706635
 30
0.0
 10
4.971059028
 20
6.0783697856
 30
0.0
 10
4.9878975203
 20
6.0624324405
 30
0.0
 10
5.0017059888
 20
6.0493860788
 30
0.0
 10
5.0123375918
 20
6.0393735459
 30
0.0
 10
5.019821112
 20
6.032346321
 30
0.0
 10
5.0268806414
 20
6.0257427414
 30
0.0
 10
5.0334521529
 20
6.0196266159
 30
0.0
 10
5.0394766773
 20
6.0140568436
 30
0.0
 10
5.0448997434
 20
6.0090874775
 30
0.0
 10
5.049027163
 20
6.0053509494
 30
0.0
 10
5.0519950407
 20
6.0027004403
 30
0.0
 10
5.0539522876
 20
6.000971365
 30
0.0
 10
5.055726758
 20
5.999424776
 30
0.0
 10
5.0573145883
 20
5.9980644418
 30
0.0
 10
5.0587124594
 20
5.9968933784
 30
0.0
 10
5.0599172725
 20
5.9959145794
 30
0.0
 10
5.0609260414
 20
5.9951298033
 30
0.0
 10
5.0617367419
 20
5.9945417845
 30
0.0
 10
5.0622930708
 20
5.9941803903
 30
0.0
 10
5.0626420202
 20
5.9939991907
 30
0.0
 10
5.0627834423
 20
5.9939429941
 30
0.0
 10
5.0628459118
 20
5.993926194
 30
0.0
  0
SPLINE
  5
648
100
AcDbEntity
  8
ALL_ASSEMBLY_MEMBERS
100
AcDbSpline
 62
7
  6
CONTINUOUS
 70
0
 71
3
 72
51
 73
47
 74
0
 42
0.0000001
 43
0.0000001
 44
0.0000000001
 40
0.0
 40
0.0
 40
0.0
 40
0.0
 40
0.000373503
 40
0.0006242848
 40
0.0009322135
 40
0.0017383985
 40
0.0028143555
 40
0.0041679007
 40
0.0058024843
 40
0.0077197089
 40
0.0099202715
 40
0.0151711423
 40
0.0215466994
 40
0.0290322742
 40
0.0376121425
 40
0.0472699167
 40
0.0579842946
 40
0.0824734715
 40
0.1108561706
 40
0.1428690653
 40
0.1782141991
 40
0.2165653528
 40
0.2575616824
 40
0.3008249748
 40
0.3459471292
 40
0.3925105996
 40
0.4882112533
 40
0.5843721881
 40
0.6774172482
 40
0.7216794549
 40
0.7638777228
 40
0.8036181649
 40
0.8405333527
 40
0.8742770088
 40
0.9045410327
 40
0.9310382191
 40
0.953530943
 40
0.9632055588
 40
0.9718028283
 40
0.9793060653
 40
0.9856991252
 40
0.9909669223
 40
0.9951008037
 40
0.9981038686
 40
0.9991871633
 40
1.0
 40
1.0
 40
1.0
 40
1.0
 10
5.0676990788
 20
5.9985826084
 30
0.0
 10
5.0676775938
 20
5.9985611233
 30
0.0
 10
5.0676239109
 20
5.9985448003
 30
0.0
 10
5.0675486886
 20
5.998549301
 30
0.0
 10
5.0674393551
 20
5.9985718578
 30
0.0
 10
5.0672726684
 20
5.998636651
 30
0.0
 10
5.0670377071
 20
5.9987556458
 30
0.0
 10
5.0667529233
 20
5.9989239561
 30
0.0
 10
5.0664182175
 20
5.9991413595
 30
0.0
 10
5.0660337117
 20
5.9994081798
 30
0.0
 10
5.0654176395
 20
5.9998569376
 30
0.0
 10
5.0645267909
 20
6.0005439795
 30
0.0
 10
5.0633165614
 20
6.0015201028
 30
0.0
 10
5.0619135202
 20
6.0026881857
 30
0.0
 10
5.0603206805
 20
6.0040453502
 30
0.0
 10
5.0585413888
 20
6.005588535
 30
0.0
 10
5.0558010357
 20
6.0079987715
 30
0.0
 10
5.0519461243
 20
6.0114480862
 30
0.0
 10
5.0468341081
 20
6.0160904959
 30
0.0
 10
5.0410964292
 20
6.0213574029
 30
0.0
 10
5.0347844103
 20
6.0271976966
 30
0.0
 10
5.0279550228
 20
6.0335548231
 30
0.0
 10
5.0206696543
 20
6.0403674467
 30
0.0
 10
5.0129945023
 20
6.0475696706
 30
0.0
 10
5.0049988451
 20
6.0550921685
 30
0.0
 10
4.9939061545
 20
6.0655481601
 30
0.0
 10
4.9798045476
 20
6.0788652382
 30
0.0
 10
4.9629560203
 20
6.0947808649
 30
0.0
 10
4.9491377639
 20
6.1078106827
 30
0.0
 10
4.9384969719
 20
6.1178114094
 30
0.0
 10
4.9310055353
 20
6.1248312583
 30
0.0
 10
4.9239372289
 20
6.1314285404
 30
0.0
 10
4.9173559566
 20
6.1375396013
 30
0.0
 10
4.9113206026
 20
6.143105578
 30
0.0
 10
4.9058857771
 20
6.1480725321
 30
0.0
 10
4.9010995465
 20
6.1523922895
 30
0.0
 10
4.8975291554
 20
6.1555591143
 30
0.0
 10
4.8950251881
 20
6.1577334086
 30
0.0
 10
4.8934300281
 20
6.1590943533
 30
0.0
 10
4.8920246474
 20
6.1602663242
 30
0.0
 10
4.8908121369
 20
6.1612463124
 30
0.0
 10
4.88979549
 20
6.162032541
 30
0.0
 10
4.8889767474
 20
6.1626223042
 30
0.0
 10
4.8884135048
 20
6.1629850641
 30
0.0
 10
4.8880589833
 20
6.1631674472
 30
0.0
 10
4.8879147721
 20
6.1632242301
 30
0.0
 10
4.8878509158
 20
6.1632413994
 30
0.0
  0
SPLINE
  5
649
100
AcDbEntity
  8
ALL_ASSEMBLY_MEMBERS
100
AcDbSpline
 62
7
  6
CONTINUOUS
 70
0
 71
3
 72
13
 73
9
 74
0
 42
0.0000001
 43
0.0000001
 44
0.0000000001
 40
0.0
 40
0.0
 40
0.0
 40
0.0
 40
0.1060483436
 40
0.1898439243
 40
0.2985470439
 40
0.4334233101
 40
0.5950985811
 40
1.0
 40
1.0
 40
1.0
 40
1.0
 10
6.4559213006
 20
6.393701987
 30
0.0
 10
6.4558758426
 20
6.393701987
 30
0.0
 10
6.455804612
 20
6.3937660154
 30
0.0
 10
6.45574191
 20
6.3938736028
 30
0.0
 10
6.4556842988
 20
6.3940031796
 30
0.0
 10
6.45562795
 20
6.3941671693
 30
0.0
 10
6.4555454531
 20
6.3944566191
 30
0.0
 10
6.4554937036
 20
6.3946940534
 30
0.0
 10
6.4554597949
 20
6.3948642714
 30
0.0
  0
LINE
  5
64A
100
AcDbEntity
  8
ALL_ASSEMBLY_MEMBERS
100
AcDbLine
 62
7
  6
CONTINUOUS
 10
6.4554597949
 20
6.3948642714
 11
6.4547982826
 21
6.4005213769
  0
SPLINE
  5
64B
100
AcDbEntity
  8
ALL_ASSEMBLY_MEMBERS
100
AcDbSpline
 62
7
  6
CONTINUOUS
 70
0
 71
3
 72
40
 73
36
 74
0
 42
0.0000001
 43
0.0000001
 44
0.0000000001
 40
0.0
 40
0.0
 40
0.0
 40
0.0
 40
0.0008607234
 40
0.0015965493
 40
0.0025707832
 40
0.0037922051
 40
0.005264337
 40
0.0069886516
 40
0.008965626
 40
0.0136768212
 40
0.0193944202
 40
0.0261120319
 40
0.0338171992
 40
0.0521207567
 40
0.0741622373
 40
0.099764464
 40
0.1287134887
 40
0.1607787495
 40
0.1956899087
 40
0.2331656498
 40
0.2728944835
 40
0.3145503758
 40
0.3577921186
 40
0.4475955151
 40
0.5393572676
 40
0.6300666327
 40
0.7167482109
 40
0.7965596018
 40
0.8668861959
 40
0.8977602053
 40
0.9254287575
 40
0.9496699995
 40
0.9702804508
 40
0.9871035194
 40
1.0
 40
1.0
 40
1.0
 40
1.0
 10
4.9153687445
 20
6.1801386177
 30
0.0
 10
4.9154144935
 20
6.1801845067
 30
0.0
 10
4.9155607949
 20
6.1801738498
 30
0.0
 10
4.9157359015
 20
6.1801128631
 30
0.0
 10
4.9159392558
 20
6.1800190921
 30
0.0
 10
4.916179634
 20
6.1798851413
 30
0.0
 10
4.9164630158
 20
6.1797101641
 30
0.0
 10
4.9167871284
 20
6.1794943322
 30
0.0
 10
4.9173053814
 20
6.1791301425
 30
0.0
 10
4.9180530645
 20
6.1785702311
 30
0.0
 10
4.9190673701
 20
6.17777171
 30
0.0
 10
4.9202423066
 20
6.1768132472
 30
0.0
 10
4.9221313455
 20
6.1752315473
 30
0.0
 10
4.9248696948
 20
6.1728676436
 30
0.0
 10
4.9285890531
 20
6.1695789803
 30
0.0
 10
4.9328767281
 20
6.1657234933
 30
0.0
 10
4.9376993105
 20
6.161334496
 30
0.0
 10
4.9430182087
 20
6.1564497709
 30
0.0
 10
4.9487917098
 20
6.1511111238
 30
0.0
 10
4.9549735876
 20
6.1453643744
 30
0.0
 10
4.9615148818
 20
6.1392585187
 30
0.0
 10
4.9683633831
 20
6.1328456471
 30
0.0
 10
4.9779528112
 20
6.1238446041
 30
0.0
 10
4.990277477
 20
6.1122459126
 30
0.0
 10
5.0051956681
 20
6.098188831
 30
0.0
 10
5.0199473937
 20
6.0842977858
 30
0.0
 10
5.0340619354
 20
6.0710424013
 30
0.0
 10
5.0470896744
 20
6.0588713613
 30
0.0
 10
5.0570874095
 20
6.0496114082
 30
0.0
 10
5.0642431372
 20
6.0430601956
 30
0.0
 10
5.0688610053
 20
6.0388749443
 30
0.0
 10
5.0729310215
 20
6.0352359825
 30
0.0
 10
5.076421638
 20
6.0321741215
 30
0.0
 10
5.0793051235
 20
6.0297159861
 30
0.0
 10
5.0810394951
 20
6.0283017268
 30
0.0
 10
5.0818067899
 20
6.0277068493
 30
0.0
  0
LINE
  5
64C
100
AcDbEntity
  8
ALL_ASSEMBLY_MEMBERS
100
AcDbLine
 62
7
  6
CONTINUOUS
 10
5.0818067899
 20
6.0277068493
 11
5.0844242212
 21
6.0259872599
  0
SPLINE
  5
64D
100
AcDbEntity
  8
ALL_ASSEMBLY_MEMBERS
100
AcDbSpline
 62
7
  6
CONTINUOUS
 70
0
 71
3
 72
52
 73
48
 74
0
 42
0.0000001
 43
0.0000001
 44
0.0000000001
 40
0.0
 40
0.0
 40
0.0
 40
0.0
 40
0.0003634302
 40
0.0006105737
 40
0.0009156331
 40
0.0017177273
 40
0.0027910278
 40
0.004142895
 40
0.0057765393
 40
0.0076934252
 40
0.0098941637
 40
0.0151467199
 40
0.0215254544
 40
0.0290154777
 40
0.0376009085
 40
0.0472652346
 40
0.0579870696
 40
0.0824937936
 40
0.1108973552
 40
0.1429337225
 40
0.17830468
 40
0.2166831857
 40
0.257708187
 40
0.3010006892
 40
0.3461516864
 40
0.392742782
 40
0.4884926706
 40
0.5846918057
 40
0.6777601844
 40
0.7220272125
 40
0.7642251202
 40
0.8039596703
 40
0.8408626838
 40
0.87458737
 40
0.9048259352
 40
0.9312915283
 40
0.9430345997
 40
0.9537465277
 40
0.963399869
 40
0.9719743459
 40
0.9794532406
 40
0.9858203562
 40
0.991060538
 40
0.9951651588
 40
0.9981371269
 40
0.9992040675
 40
1.0
 40
1.0
 40
1.0
 40
1.0
 10
4.913078564
 20
6.1886766494
 30
0.0
 10
4.9130994682
 20
6.1886975536
 30
0.0
 10
4.9131524865
 20
6.1887126411
 30
0.0
 10
4.9132261928
 20
6.1887069189
 30
0.0
 10
4.9133343336
 20
6.1886828734
 30
0.0
 10
4.9134993966
 20
6.1886162909
 30
0.0
 10
4.9137325542
 20
6.188495326
 30
0.0
 10
4.9140155747
 20
6.1883249678
 30
0.0
 10
4.9143485768
 20
6.188105458
 30
0.0
 10
4.9147314176
 20
6.1878364743
 30
0.0
 10
4.915345243
 20
6.1873845354
 30
0.0
 10
4.91623342
 20
6.1866935239
 30
0.0
 10
4.9174406856
 20
6.1857127171
 30
0.0
 10
4.9188408941
 20
6.1845397768
 30
0.0
 10
4.9204310226
 20
6.1831775965
 30
0.0
 10
4.9222077162
 20
6.181629254
 30
0.0
 10
4.9249446158
 20
6.1792116115
 30
0.0
 10
4.9287955818
 20
6.1757528648
 30
0.0
 10
4.9339034186
 20
6.1710991118
 30
0.0
 10
4.939637286
 20
6.1658204459
 30
0.0
 10
4.9459457746
 20
6.1599680678
 30
0.0
 10
4.9527718674
 20
6.1535986137
 30
0.0
 10
4.9600540844
 20
6.1467735157
 30
0.0
 10
4.9677261409
 20
6.1395587851
 30
0.0
 10
4.9757186236
 20
6.1320238884
 30
0.0
 10
4.9868064804
 20
6.1215518219
 30
0.0
 10
5.0009012835
 20
6.1082159263
 30
0.0
 10
5.0177403875
 20
6.0922796153
 30
0.0
 10
5.0315493571
 20
6.0792340612
 30
0.0
 10
5.0421813253
 20
6.0692221707
 30
0.0
 10
5.0496651081
 20
6.0621953982
 30
0.0
 10
5.056724919
 20
6.0555922249
 30
0.0
 10
5.0632967874
 20
6.0494764113
 30
0.0
 10
5.0693217599
 20
6.0439068344
 30
0.0
 10
5.0747453575
 20
6.0389375609
 30
0.0
 10
5.0788732544
 20
6.0352010724
 30
0.0
 10
5.081841527
 20
6.0325505721
 30
0.0
 10
5.0837990708
 20
6.0308214857
 30
0.0
 10
5.0855738411
 20
6.0292748773
 30
0.0
 10
5.0871619766
 20
6.0279145111
 30
0.0
 10
5.0885601598
 20
6.0267434028
 30
0.0
 10
5.0897652865
 20
6.0257645501
 30
0.0
 10
5.0907743708
 20
6.0249797149
 30
0.0
 10
5.0915853877
 20
6.0243916271
 30
0.0
 10
5.0921419864
 20
6.0240301781
 30
0.0
 10
5.092491152
 20
6.0238489307
 30
0.0
 10
5.0926326817
 20
6.0237927104
 30
0.0
 10
5.0926952046
 20
6.0237758957
 30
0.0
  0
SPLINE
  5
64E
100
AcDbEntity
  8
ALL_ASSEMBLY_MEMBERS
100
AcDbSpline
 62
7
  6
CONTINUOUS
 70
0
 71
3
 72
51
 73
47
 74
0
 42
0.0000001
 43
0.0000001
 44
0.0000000001
 40
0.0
 40
0.0
 40
0.0
 40
0.0
 40
0.0003719511
 40
0.0006221475
 40
0.0009295962
 40
0.0017350439
 40
0.0028104526
 40
0.004163576
 40
0.005797834
 40
0.0077148139
 40
0.0099152053
 40
0.0151660715
 40
0.0215422384
 40
0.0290286915
 40
0.037609334
 40
0.0472675202
 40
0.0579829783
 40
0.0824750261
 40
0.1108580844
 40
0.1428718156
 40
0.1782159523
 40
0.2165671991
 40
0.2575637321
 40
0.3008289549
 40
0.3459541318
 40
0.392521027
 40
0.4882251356
 40
0.5843796321
 40
0.677414563
 40
0.7216731494
 40
0.7638705955
 40
0.8036103706
 40
0.8405263392
 40
0.8742692963
 40
0.9045325844
 40
0.931028494
 40
0.9535196283
 40
0.9631947544
 40
0.9717923927
 40
0.9792960859
 40
0.9856900426
 40
0.9909594961
 40
0.9950955079
 40
0.9981010349
 40
0.9991856972
 40
1.0
 40
1.0
 40
1.0
 40
1.0
 10
5.0830771281
 20
6.0139606576
 30
0.0
 10
5.0830557326
 20
6.0139392622
 30
0.0
 10
5.0830021571
 20
6.0139231229
 30
0.0
 10
5.0829271709
 20
6.0139278077
 30
0.0
 10
5.0828180329
 20
6.0139505866
 30
0.0
 10
5.0826516158
 20
6.0140156464
 30
0.0
 10
5.0824169633
 20
6.0141349327
 30
0.0
 10
5.082132489
 20
6.0143035454
 30
0.0
 10
5.0817980897
 20
6.0145212598
 30
0.0
 10
5.081413889
 20
6.0147884002
 30
0.0
 10
5.080798225
 20
6.0152376392
 30
0.0
 10
5.0799078433
 20
6.0159253132
 30
0.0
 10
5.0786981271
 20
6.0169022259
 30
0.0
 10
5.0772955789
 20
6.0180711436
 30
0.0
 10
5.0757032681
 20
6.0194291376
 30
0.0
 10
5.0739245084
 20
6.0209731617
 30
0.0
 10
5.0711848701
 20
6.0233846632
 30
0.0
 10
5.0673309545
 20
6.0268354963
 30
0.0
 10
5.0622201594
 20
6.0314795846
 30
0.0
 10
5.0564840114
 20
6.0367480065
 30
0.0
 10
5.0501735445
 20
6.0425897753
 30
0.0
 10
5.043345786
 20
6.0489483585
 30
0.0
 10
5.0360618699
 20
6.055762577
 30
0.0
 10
5.0283880062
 20
6.0629665514
 30
0.0
 10
5.0203934369
 20
6.070490955
 30
0.0
 10
5.0093022669
 20
6.0809493945
 30
0.0
 10
4.9952031658
 20
6.0942687464
 30
0.0
 10
4.9783582509
 20
6.1101861278
 30
0.0
 10
4.9645433876
 20
6.1232167272
 30
0.0
 10
4.9539050585
 20
6.1332180177
 30
0.0
 10
4.946415024
 20
6.1402385257
 30
0.0
 10
4.9393477357
 20
6.1468365975
 30
0.0
 10
4.9327673771
 20
6.1529483709
 30
0.0
 10
4.9267328002
 20
6.158514927
 30
0.0
 10
4.9212987534
 20
6.1634822394
 30
0.0
 10
4.916513222
 20
6.1678021877
 30
0.0
 10
4.9129432397
 20
6.1709690753
 30
0.0
 10
4.910439477
 20
6.1731434399
 30
0.0
 10
4.9088443052
 20
6.1745044891
 30
0.0
 10
4.9074388495
 20
6.1756765454
 30
0.0
 10
4.9062261453
 20
6.1766566461
 30
0.0
 10
4.9052091716
 20
6.1774430433
 30
0.0
 10
4.9043899672
 20
6.178033011
 30
0.0
 10
4.9038262552
 20
6.1783959214
 30
0.0
 10
4.9034713111
 20
6.1785784151
 30
0.0
 10
4.9033268747
 20
6.1786352468
 30
0.0
 10
4.9032629035
 20
6.1786524446
 30
0.0
  0
SPLINE
  5
64F
100
AcDbEntity
  8
ALL_ASSEMBLY_MEMBERS
100
AcDbSpline
 62
7
  6
CONTINUOUS
 70
0
 71
3
 72
48
 73
44
 74
0
 42
0.0000001
 43
0.0000001
 44
0.0000000001
 40
0.0
 40
0.0
 40
0.0
 40
0.0
 40
0.0009295457
 40
0.0017430682
 40
0.0028242627
 40
0.0041816386
 40
0.0058189704
 40
0.0077380107
 40
0.0099395173
 40
0.0151901913
 40
0.0215647894
 40
0.0290482947
 40
0.0376241749
 40
0.0579821732
 40
0.0824547371
 40
0.1108139383
 40
0.1428015086
 40
0.178114477
 40
0.2164306831
 40
0.2573872595
 40
0.3006080802
 40
0.34568667
 40
0.3922055221
 40
0.4878189875
 40
0.5838960948
 40
0.6768686887
 40
0.7211031629
 40
0.7632858895
 40
0.803020131
 40
0.8399428653
 40
0.8737055613
 40
0.9040012388
 40
0.930545608
 40
0.9530971587
 40
0.9628110603
 40
0.9714506027
 40
0.9789984359
 40
0.9854410356
 40
0.9907659335
 40
0.9949629546
 40
0.9980320365
 40
0.9991503356
 40
1.0
 40
1.0
 40
1.0
 40
1.0
 10
4.9006629267
 20
6.1645385745
 30
0.0
 10
4.9007127782
 20
6.1645885459
 30
0.0
 10
4.9008752663
 20
6.1645696233
 30
0.0
 10
4.901066675
 20
6.1644983274
 30
0.0
 10
4.9012926218
 20
6.1643890613
 30
0.0
 10
4.9015597291
 20
6.1642351702
 30
0.0
 10
4.9018752973
 20
6.1640350089
 30
0.0
 10
4.9022365971
 20
6.1637889648
 30
0.0
 10
4.9028151617
 20
6.1633744551
 30
0.0
 10
4.9036508482
 20
6.1627386006
 30
0.0
 10
4.9047852838
 20
6.1618337282
 30
0.0
 10
4.9060996029
 20
6.1607498485
 30
0.0
 10
4.9082117768
 20
6.1589648324
 30
0.0
 10
4.9112717497
 20
6.1563031353
 30
0.0
 10
4.9154241669
 20
6.1526090672
 30
0.0
 10
4.9202027551
 20
6.1482905341
 30
0.0
 10
4.9255646365
 20
6.1433899289
 30
0.0
 10
4.9314620768
 20
6.1379546781
 30
0.0
 10
4.9378416733
 20
6.1320376988
 30
0.0
 10
4.944646393
 20
6.1256960863
 30
0.0
 10
4.9518145092
 20
6.1189912466
 30
0.0
 10
4.9592815625
 20
6.1119877071
 30
0.0
 10
4.969640827
 20
6.1022522393
 30
0.0
 10
4.9828099618
 20
6.0898518293
 30
0.0
 10
4.99854517
 20
6.0750309982
 30
0.0
 10
5.0114518128
 20
6.0628973804
 30
0.0
 10
5.0213928739
 20
6.0535841616
 30
0.0
 10
5.0283939213
 20
6.0470458165
 30
0.0
 10
5.0350019795
 20
6.0409001547
 30
0.0
 10
5.0411572958
 20
6.0352065762
 30
0.0
 10
5.0468051105
 20
6.0300199021
 30
0.0
 10
5.0518945263
 20
6.0253903923
 30
0.0
 10
5.0563805693
 20
6.0213629201
 30
0.0
 10
5.0597307311
 20
6.0184098822
 30
0.0
 10
5.0620832817
 20
6.0163816198
 30
0.0
 10
5.0635845781
 20
6.0151109372
 30
0.0
 10
5.0649092544
 20
6.0140162061
 30
0.0
 10
5.0660546268
 20
6.0130999699
 30
0.0
 10
5.0670180423
 20
6.0123636874
 30
0.0
 10
5.0677973867
 20
6.0118099187
 30
0.0
 10
5.0683363865
 20
6.0114688517
 30
0.0
 10
5.0686780717
 20
6.011296596
 30
0.0
 10
5.0688181231
 20
6.0112426021
 30
0.0
 10
5.0688804513
 20
6.0112259289
 30
0.0
  0
SPLINE
  5
650
100
AcDbEntity
  8
ALL_ASSEMBLY_MEMBERS
100
AcDbSpline
 62
7
  6
CONTINUOUS
 70
0
 71
3
 72
37
 73
33
 74
0
 42
0.0000001
 43
0.0000001
 44
0.0000000001
 40
0.0
 40
0.0
 40
0.0
 40
0.0
 40
0.0003710458
 40
0.0009297327
 40
0.0016875826
 40
0.0026486979
 40
0.0051864278
 40
0.008548148
 40
0.0127336209
 40
0.0177407443
 40
0.0235630945
 40
0.0301911642
 40
0.0376151763
 40
0.0458252328
 40
0.0645615981
 40
0.0862903042
 40
0.1108798624
 40
0.1381916235
 40
0.1680566435
 40
0.200296853
 40
0.2347204542
 40
0.2711118861
 40
0.3092520463
 40
0.3898210721
 40
0.4744240679
 40
0.5609386485
 40
0.6471840084
 40
0.7309653585
 40
0.810117199
 40
0.8825680332
 40
0.9464414865
 40
1.0
 40
1.0
 40
1.0
 40
1.0
 10
6.523494975
 20
6.6317553118
 30
0.0
 10
6.5235131032
 20
6.6317371836
 30
0.0
 10
6.5235455128
 20
6.6316800805
 30
0.0
 10
6.5235859384
 20
6.6315710328
 30
0.0
 10
6.523627147
 20
6.631418788
 30
0.0
 10
6.523688422
 20
6.63113116
 30
0.0
 10
6.5237610988
 20
6.6306623844
 30
0.0
 10
6.5238440794
 20
6.6299705421
 30
0.0
 10
6.5239276622
 20
6.6291070634
 30
0.0
 10
6.5240118195
 20
6.6280730216
 30
0.0
 10
6.5240962711
 20
6.626869744
 30
0.0
 10
6.5241809885
 20
6.6254991412
 30
0.0
 10
6.524265906
 20
6.6239632934
 30
0.0
 10
6.5243846428
 20
6.6215914578
 30
0.0
 10
6.5245308077
 20
6.6182314338
 30
0.0
 10
6.524700364
 20
6.6137397209
 30
0.0
 10
6.5248706289
 20
6.608655151
 30
0.0
 10
6.5250414091
 20
6.6030081462
 30
0.0
 10
6.5252127097
 20
6.5968323212
 30
0.0
 10
6.5253844509
 20
6.5901649474
 30
0.0
 10
6.5255565654
 20
6.5830465063
 30
0.0
 10
6.5257290986
 20
6.5755203106
 30
0.0
 10
6.5259638914
 20
6.564806329
 30
0.0
 10
6.5262548545
 20
6.5507616466
 30
0.0
 10
6.5265995207
 20
6.5333749784
 30
0.0
 10
6.526945518
 20
6.5155960596
 30
0.0
 10
6.5272926701
 20
6.4978739449
 30
0.0
 10
6.5276407433
 20
6.4806606695
 30
0.0
 10
6.5279895086
 20
6.4644007345
 30
0.0
 10
6.5283383657
 20
6.4495166528
 30
0.0
 10
6.5286868916
 20
6.4364014657
 30
0.0
 10
6.5289418156
 20
6.4282915264
 30
0.0
 10
6.5290754407
 20
6.4245933573
 30
0.0
  0
SPLINE
  5
651
100
AcDbEntity
  8
ALL_ASSEMBLY_MEMBERS
100
AcDbSpline
 62
7
  6
CONTINUOUS
 70
0
 71
3
 72
36
 73
32
 74
0
 42
0.0000001
 43
0.0000001
 44
0.0000000001
 40
0.0
 40
0.0
 40
0.0
 40
0.0
 40
0.0008036481
 40
0.0014545806
 40
0.0023052674
 40
0.0033653433
 40
0.0046392497
 40
0.0061288937
 40
0.0078350994
 40
0.0118976252
 40
0.0168254703
 40
0.029258498
 40
0.045068597
 40
0.0641482424
 40
0.0863804227
 40
0.1116142145
 40
0.139680857
 40
0.1703988523
 40
0.2035569557
 40
0.2389380781
 40
0.2763053658
 40
0.3154066937
 40
0.3977659658
 40
0.4838176803
 40
0.5712677965
 40
0.6577861887
 40
0.7410674727
 40
0.8188942648
 40
0.8891888688
 40
0.9501083522
 40
1.0
 40
1.0
 40
1.0
 40
1.0
 10
6.4829190916
 20
6.4039021129
 30
0.0
 10
6.4828631266
 20
6.4039020654
 30
0.0
 10
6.482776579
 20
6.4039859291
 30
0.0
 10
6.482701739
 20
6.4041222801
 30
0.0
 10
6.4826319794
 20
6.4042887254
 30
0.0
 10
6.48256396
 20
6.4044992847
 30
0.0
 10
6.4824948836
 20
6.4047567559
 30
0.0
 10
6.4824258494
 20
6.4050602533
 30
0.0
 10
6.4823276999
 20
6.4055561776
 30
0.0
 10
6.4822079951
 20
6.4062915597
 30
0.0
 10
6.4820089045
 20
6.4077702211
 30
0.0
 10
6.4817703597
 20
6.4100682744
 30
0.0
 10
6.4814976264
 20
6.4133525323
 30
0.0
 10
6.4812232876
 20
6.4173210643
 30
0.0
 10
6.4809477282
 20
6.4219470479
 30
0.0
 10
6.4806714347
 20
6.4271998067
 30
0.0
 10
6.4803945933
 20
6.4330441991
 30
0.0
 10
6.4801174929
 20
6.4394409782
 30
0.0
 10
6.479840075
 20
6.4463475524
 30
0.0
 10
6.4795625218
 20
6.4537175161
 30
0.0
 10
6.479284839
 20
6.4615016288
 30
0.0
 10
6.4789079111
 20
6.4725557608
 30
0.0
 10
6.4784423248
 20
6.4869991375
 30
0.0
 10
6.477892166
 20
6.5048084538
 30
0.0
 10
6.4773418754
 20
6.5229075365
 30
0.0
 10
6.4767918
 20
6.5408136072
 30
0.0
 10
6.4762423976
 20
6.5580492244
 30
0.0
 10
6.4756940962
 20
6.5741544679
 30
0.0
 10
6.4751480634
 20
6.588701602
 30
0.0
 10
6.4746049601
 20
6.6013018991
 30
0.0
 10
6.4742053534
 20
6.6090085344
 30
0.0
 10
6.4739944082
 20
6.6124765097
 30
0.0
  0
SPLINE
  5
652
100
AcDbEntity
  8
ALL_ASSEMBLY_MEMBERS
100
AcDbSpline
 62
7
  6
CONTINUOUS
 70
0
 71
3
 72
13
 73
9
 74
0
 42
0.0000001
 43
0.0000001
 44
0.0000000001
 40
0.0
 40
0.0
 40
0.0
 40
0.0
 40
0.1059116433
 40
0.1896829065
 40
0.2983850015
 40
0.4332793401
 40
0.5949889139
 40
1.0
 40
1.0
 40
1.0
 40
1.0
 10
4.8981843168
 20
6.1737824021
 30
0.0
 10
4.8982171917
 20
6.1738152771
 30
0.0
 10
4.8983151087
 20
6.1738203276
 30
0.0
 10
4.8984382902
 20
6.1737876934
 30
0.0
 10
4.8985737854
 20
6.1737354348
 30
0.0
 10
4.8987332818
 20
6.1736573293
 30
0.0
 10
4.8990025552
 20
6.1735072073
 30
0.0
 10
4.8992119158
 20
6.1733725633
 30
0.0
 10
4.8993597022
 20
6.1732737306
 30
0.0
  0
SPLINE
  5
653
100
AcDbEntity
  8
ALL_ASSEMBLY_MEMBERS
100
AcDbSpline
 62
7
  6
CONTINUOUS
 70
0
 71
3
 72
40
 73
36
 74
0
 42
0.0000001
 43
0.0000001
 44
0.0000000001
 40
0.0
 40
0.0
 40
0.0
 40
0.0
 40
0.0038128469
 40
0.0086668522
 40
0.0145562005
 40
0.0214680492
 40
0.0383024573
 40
0.0590432807
 40
0.0835085267
 40
0.1114957971
 40
0.1427667238
 40
0.1770554746
 40
0.2535058013
 40
0.3382564682
 40
0.4284236773
 40
0.520939042
 40
0.6126633661
 40
0.7004866124
 40
0.7419966514
 40
0.7814261809
 40
0.8184433496
 40
0.852730906
 40
0.8839981325
 40
0.91198224
 40
0.9364421328
 40
0.9571779915
 40
0.9660902833
 40
0.9740082417
 40
0.9809176606
 40
0.9868048219
 40
0.9916570922
 40
0.9954682616
 40
0.9982417837
 40
0.9992449046
 40
1.0
 40
1.0
 40
1.0
 40
1.0
 10
4.8993597022
 20
6.1732737306
 30
0.0
 10
4.899616122
 20
6.173102249
 30
0.0
 10
4.9001859812
 20
6.1726931436
 30
0.0
 10
4.9011193749
 20
6.1719749349
 30
0.0
 10
4.9022318109
 20
6.1710788048
 30
0.0
 10
4.9040752959
 20
6.1695456574
 30
0.0
 10
4.9068012608
 20
6.1671951245
 30
0.0
 10
4.9105590698
 20
6.1638674849
 30
0.0
 10
4.9149568222
 20
6.1599018216
 30
0.0
 10
4.9199582425
 20
6.1553337218
 30
0.0
 10
4.9255224986
 20
6.1502035013
 30
0.0
 10
4.9339416929
 20
6.1423856117
 30
0.0
 10
4.9454870245
 20
6.1315758448
 30
0.0
 10
4.9602894057
 20
6.1176304847
 30
0.0
 10
4.9760117427
 20
6.1027662569
 30
0.0
 10
4.9921333021
 20
6.0875030656
 30
0.0
 10
5.0081204107
 20
6.0723736926
 30
0.0
 10
5.0211246361
 20
6.0600958494
 30
0.0
 10
5.0310694511
 20
6.0507405247
 30
0.0
 10
5.0380308152
 20
6.044212732
 30
0.0
 10
5.0445785661
 20
6.0380981284
 30
0.0
 10
5.0506588488
 20
6.032450518
 30
0.0
 10
5.0562216951
 20
6.0273197351
 30
0.0
 10
5.061221299
 20
6.0227511008
 30
0.0
 10
5.0656172324
 20
6.0187850868
 30
0.0
 10
5.0688932468
 20
6.0158813364
 30
0.0
 10
5.0711891
 20
6.0138897718
 30
0.0
 10
5.0726510054
 20
6.0126440653
 30
0.0
 10
5.0739389552
 20
6.0115716751
 30
0.0
 10
5.0750503169
 20
6.0106751523
 30
0.0
 10
5.0759826013
 20
6.0099559225
 30
0.0
 10
5.0767341056
 20
6.0094162131
 30
0.0
 10
5.077251759
 20
6.0090841247
 30
0.0
 10
5.0775782005
 20
6.0089169281
 30
0.0
 10
5.0777112551
 20
6.0088647679
 30
0.0
 10
5.0777702494
 20
6.0088489026
 30
0.0
  0
SPLINE
  5
654
100
AcDbEntity
  8
ALL_ASSEMBLY_MEMBERS
100
AcDbSpline
 62
7
  6
CONTINUOUS
 70
0
 71
3
 72
48
 73
44
 74
0
 42
0.0000001
 43
0.0000001
 44
0.0000000001
 40
0.0
 40
0.0
 40
0.0
 40
0.0
 40
0.0009401553
 40
0.0017559677
 40
0.0028392052
 40
0.0041984773
 40
0.0058374204
 40
0.0077575578
 40
0.0099593733
 40
0.0152072163
 40
0.0215770616
 40
0.029057618
 40
0.0376303277
 40
0.0579733406
 40
0.0824312198
 40
0.1107704969
 40
0.142736174
 40
0.1780258353
 40
0.2163152275
 40
0.2572463864
 40
0.3004386074
 40
0.3454912141
 40
0.3919829686
 40
0.4875492303
 40
0.5835897262
 40
0.6765405597
 40
0.7207711295
 40
0.7629546659
 40
0.8026965539
 40
0.8396302989
 40
0.8734130039
 40
0.9037308352
 40
0.9303073474
 40
0.9528928616
 40
0.962626718
 40
0.9712896635
 40
0.9788606168
 40
0.9853264031
 40
0.990676412
 40
0.9949022471
 40
0.9980016762
 40
0.9991350408
 40
1.0
 40
1.0
 40
1.0
 40
1.0
 10
6.504348364
 20
6.4044633122
 30
0.0
 10
6.504278541
 20
6.4044631558
 30
0.0
 10
6.5041766956
 20
6.404587024
 30
0.0
 10
6.5040915157
 20
6.4047694452
 30
0.0
 10
6.5040090749
 20
6.4050009764
 30
0.0
 10
6.5039290616
 20
6.4052921657
 30
0.0
 10
6.5038475153
 20
6.4056487684
 30
0.0
 10
6.5037660719
 20
6.406068699
 30
0.0
 10
6.5036501783
 20
6.4067549692
 30
0.0
 10
6.5035089325
 20
6.4077716972
 30
0.0
 10
6.5033466753
 20
6.4091808513
 30
0.0
 10
6.5031838789
 20
6.4108382472
 30
0.0
 10
6.5029527608
 20
6.4135314666
 30
0.0
 10
6.5026712284
 20
6.4174855703
 30
0.0
 10
6.5023474324
 20
6.4229079235
 30
0.0
 10
6.5020223076
 20
6.4291947198
 30
0.0
 10
6.5016963677
 20
6.4362868556
 30
0.0
 10
6.5013697865
 20
6.444118636
 30
0.0
 10
6.5010428572
 20
6.452616775
 30
0.0
 10
6.5007156385
 20
6.461702211
 30
0.0
 10
6.5003882303
 20
6.471290235
 30
0.0
 10
6.500060707
 20
6.481291457
 30
0.0
 10
6.4996198513
 20
6.4951807466
 30
0.0
 10
6.4990765889
 20
6.5128554399
 30
0.0
 10
6.4984303587
 20
6.5339790041
 30
0.0
 10
6.49788402
 20
6.5512912582
 30
0.0
 10
6.4974402904
 20
6.5646048983
 30
0.0
 10
6.4971132298
 20
6.5739685137
 30
0.0
 10
6.4967864184
 20
6.582789872
 30
0.0
 10
6.4964599902
 20
6.5909868798
 30
0.0
 10
6.4961340762
 20
6.5984834064
 30
0.0
 10
6.4958088919
 20
6.605209969
 30
0.0
 10
6.4954847833
 20
6.6111039002
 30
0.0
 10
6.4952040165
 20
6.6154690621
 30
0.0
 10
6.4949747731
 20
6.6185041154
 30
0.0
 10
6.4948117764
 20
6.6204258109
 30
0.0
 10
6.4946491991
 20
6.6221038771
 30
0.0
 10
6.4944871729
 20
6.6235345779
 30
0.0
 10
6.4943265028
 20
6.6247153455
 30
0.0
 10
6.494166991
 20
6.6256430536
 30
0.0
 10
6.494027029
 20
6.6262566503
 30
0.0
 10
6.4939073172
 20
6.6266160005
 30
0.0
 10
6.4938465294
 20
6.626752089
 30
0.0
 10
6.4938143584
 20
6.6268076914
 30
0.0
  0
LINE
  5
655
100
AcDbEntity
  8
ALL_ASSEMBLY_MEMBERS
100
AcDbLine
 62
7
  6
CONTINUOUS
 10
6.5290754407
 20
6.4245933573
 11
6.5290918075
 21
6.4169805237
  0
LINE
  5
656
100
AcDbEntity
  8
ALL_ASSEMBLY_MEMBERS
100
AcDbLine
 62
7
  6
CONTINUOUS
 10
6.5290918075
 20
6.4169805237
 11
6.5291166182
 21
6.4089302924
  0
LINE
  5
657
100
AcDbEntity
  8
ALL_ASSEMBLY_MEMBERS
100
AcDbLine
 62
7
  6
CONTINUOUS
 10
6.5291166182
 20
6.4089302924
 11
6.5291411706
 21
6.4052866484
  0
LINE
  5
658
100
AcDbEntity
  8
ALL_ASSEMBLY_MEMBERS
100
AcDbLine
 62
7
  6
CONTINUOUS
 10
6.5291411706
 20
6.4052866484
 11
6.5291490933
 21
6.4050528472
  0
SPLINE
  5
659
100
AcDbEntity
  8
ALL_ASSEMBLY_MEMBERS
100
AcDbSpline
 62
7
  6
CONTINUOUS
 70
0
 71
3
 72
42
 73
38
 74
0
 42
0.0000001
 43
0.0000001
 44
0.0000000001
 40
0.0
 40
0.0
 40
0.0
 40
0.0
 40
0.0009027867
 40
0.0016725888
 40
0.0026901015
 40
0.00396416
 40
0.0054987247
 40
0.0072956505
 40
0.0093557494
 40
0.0142659363
 40
0.0202269872
 40
0.0272271864
 40
0.0352511395
 40
0.0543056325
 40
0.0772386694
 40
0.1038465718
 40
0.1339087621
 40
0.1671598415
 40
0.203317064
 40
0.2420666221
 40
0.2830731937
 40
0.3259848555
 40
0.3704277903
 40
0.4623689981
 40
0.5557275223
 40
0.6472870349
 40
0.7338955628
 40
0.8125741863
 40
0.8480833444
 40
0.8806200507
 40
0.9099106217
 40
0.9357004389
 40
0.9577710097
 40
0.9759379061
 40
0.9900466833
 40
0.995547907
 40
1.0
 40
1.0
 40
1.0
 40
1.0
 10
6.5257761508
 20
6.4050529815
 30
0.0
 10
6.5257098673
 20
6.405052831
 30
0.0
 10
6.5256115167
 20
6.4051657527
 30
0.0
 10
6.5255287411
 20
6.4053360058
 30
0.0
 10
6.5254493014
 20
6.4055497631
 30
0.0
 10
6.5253721302
 20
6.405818893
 30
0.0
 10
6.5252935446
 20
6.4061482557
 30
0.0
 10
6.5252150509
 20
6.4065361812
 30
0.0
 10
6.5251033686
 20
6.4071702229
 30
0.0
 10
6.5249672535
 20
6.4081100068
 30
0.0
 10
6.5248109343
 20
6.4094128836
 30
0.0
 10
6.5246540443
 20
6.4109456923
 30
0.0
 10
6.524431276
 20
6.4134378981
 30
0.0
 10
6.5241599535
 20
6.4170999409
 30
0.0
 10
6.5238479336
 20
6.4221266802
 30
0.0
 10
6.5235346416
 20
6.427962886
 30
0.0
 10
6.5232205856
 20
6.4345575547
 30
0.0
 10
6.5229059047
 20
6.4418540292
 30
0.0
 10
6.5225908983
 20
6.449788865
 30
0.0
 10
6.5222756209
 20
6.4582935225
 30
0.0
 10
6.5219601528
 20
6.4672944109
 30
0.0
 10
6.5216445869
 20
6.4767135538
 30
0.0
 10
6.5212188903
 20
6.4898707755
 30
0.0
 10
6.520693945
 20
6.5067305802
 30
0.0
 10
6.5200706127
 20
6.5270483438
 30
0.0
 10
6.5194478589
 20
6.5469744129
 30
0.0
 10
6.5188263142
 20
6.5658221562
 30
0.0
 10
6.518294035
 20
6.5805552944
 30
0.0
 10
6.5178597223
 20
6.591319235
 30
0.0
 10
6.5175455867
 20
6.5984588994
 30
0.0
 10
6.5172322233
 20
6.6048842474
 30
0.0
 10
6.5169197065
 20
6.6105401705
 30
0.0
 10
6.5166089437
 20
6.6153781313
 30
0.0
 10
6.5163001404
 20
6.619356387
 30
0.0
 10
6.5160298406
 20
6.6221173413
 30
0.0
 10
6.5158032692
 20
6.6238695297
 30
0.0
 10
6.5156884703
 20
6.6245914702
 30
0.0
 10
6.5156286077
 20
6.6249128198
 30
0.0
  0
LINE
  5
65A
100
AcDbEntity
  8
ALL_ASSEMBLY_MEMBERS
100
AcDbLine
 62
7
  6
CONTINUOUS
 10
6.5156286077
 20
6.6249128198
 11
6.5152442973
 21
6.626277608
  0
SPLINE
  5
65B
100
AcDbEntity
  8
ALL_ASSEMBLY_MEMBERS
100
AcDbSpline
 62
7
  6
CONTINUOUS
 70
0
 71
3
 72
20
 73
16
 74
0
 42
0.0000001
 43
0.0000001
 44
0.0000000001
 40
0.0
 40
0.0
 40
0.0
 40
0.0
 40
0.2349202956
 40
0.4355579335
 40
0.6015137477
 40
0.6714536593
 40
0.7327397785
 40
0.7855095034
 40
0.8300616402
 40
0.8669226185
 40
0.8970497527
 40
0.9222115984
 40
0.9453772362
 40
0.9702715233
 40
1.0
 40
1.0
 40
1.0
 40
1.0
 10
6.5177982998
 20
6.4046748969
 30
0.0
 10
6.5179275705
 20
6.4039658235
 30
0.0
 10
6.5181823205
 20
6.4026537458
 30
0.0
 10
6.5185946843
 20
6.4008545529
 30
0.0
 10
6.5189549596
 20
6.3995635764
 30
0.0
 10
6.5192509984
 20
6.3987009021
 30
0.0
 10
6.5194602569
 20
6.3981762876
 30
0.0
 10
6.5196695908
 20
6.3977364892
 30
0.0
 10
6.5198791296
 20
6.3973812645
 30
0.0
 10
6.5200896875
 20
6.3971098299
 30
0.0
 10
6.5203035102
 20
6.396921241
 30
0.0
 10
6.520526569
 20
6.3968179601
 30
0.0
 10
6.5207580791
 20
6.3968129262
 30
0.0
 10
6.5209830278
 20
6.3969073925
 30
0.0
 10
6.5211126623
 20
6.3970164369
 30
0.0
 10
6.5211771267
 20
6.3970809633
 30
0.0
  0
SPLINE
  5
65C
100
AcDbEntity
  8
ALL_ASSEMBLY_MEMBERS
100
AcDbSpline
 62
7
  6
CONTINUOUS
 70
0
 71
3
 72
33
 73
29
 74
0
 42
0.0000001
 43
0.0000001
 44
0.0000000001
 40
0.0
 40
0.0
 40
0.0
 40
0.0
 40
0.0007491589
 40
0.0016965236
 40
0.0042050009
 40
0.0075440606
 40
0.011716276
 40
0.0167196619
 40
0.0225502937
 40
0.0366634502
 40
0.0539650936
 40
0.0743510748
 40
0.0976953644
 40
0.1238430013
 40
0.1526335201
 40
0.1838794975
 40
0.217379208
 40
0.2529228751
 40
0.329206426
 40
0.4107786764
 40
0.4955502057
 40
0.5813499633
 40
0.6659830399
 40
0.7472854515
 40
0.8231775785
 40
0.8917138273
 40
0.9511726938
 40
1.0
 40
1.0
 40
1.0
 40
1.0
 10
6.4880968724
 20
6.4040575673
 30
0.0
 10
6.4880707641
 20
6.404102665
 30
0.0
 10
6.4880206315
 20
6.4042099207
 30
0.0
 10
6.4879217525
 20
6.4044853661
 30
0.0
 10
6.4878048188
 20
6.4049441644
 30
0.0
 10
6.4876716628
 20
6.4056283182
 30
0.0
 10
6.4875376512
 20
6.4064886415
 30
0.0
 10
6.4874027018
 20
6.4075237311
 30
0.0
 10
6.4872097699
 20
6.4092483268
 30
0.0
 10
6.4869758362
 20
6.4118286825
 30
0.0
 10
6.4867072594
 20
6.4154218825
 30
0.0
 10
6.4864376243
 20
6.4196586315
 30
0.0
 10
6.4861671162
 20
6.4245116901
 30
0.0
 10
6.4858959793
 20
6.4299501209
 30
0.0
 10
6.4856245328
 20
6.435938773
 30
0.0
 10
6.4853528005
 20
6.4424392867
 30
0.0
 10
6.4850808337
 20
6.4494099051
 30
0.0
 10
6.4847092981
 20
6.4595117145
 30
0.0
 10
6.4842508907
 20
6.4729563797
 30
0.0
 10
6.4837119691
 20
6.4898244207
 30
0.0
 10
6.4831726064
 20
6.5073546967
 30
0.0
 10
6.4826331262
 20
6.5250979712
 30
0.0
 10
6.4820939022
 20
6.5425998374
 30
0.0
 10
6.4815553468
 20
6.559412239
 30
0.0
 10
6.4810178611
 20
6.575104406
 30
0.0
 10
6.4804825342
 20
6.5892763236
 30
0.0
 10
6.4799499853
 20
6.6015642272
 30
0.0
 10
6.479558614
 20
6.6090864514
 30
0.0
 10
6.4793524082
 20
6.6124765097
 30
0.0
  0
LINE
  5
65D
100
AcDbEntity
  8
ALL_ASSEMBLY_MEMBERS
100
AcDbLine
 62
7
  6
CONTINUOUS
 10
6.5157519108
 20
6.3938490747
 11
6.515439824
 21
6.3948836743
  0
SPLINE
  5
65E
100
AcDbEntity
  8
ALL_ASSEMBLY_MEMBERS
100
AcDbSpline
 62
7
  6
CONTINUOUS
 70
0
 71
3
 72
39
 73
35
 74
0
 42
0.0000001
 43
0.0000001
 44
0.0000000001
 40
0.0
 40
0.0
 40
0.0
 40
0.0
 40
0.0037781099
 40
0.0085800903
 40
0.0144018782
 40
0.0212357406
 40
0.0378777609
 40
0.0583713549
 40
0.0825529691
 40
0.1102153675
 40
0.1411344792
 40
0.1750451128
 40
0.2506939256
 40
0.3346295421
 40
0.4240407291
 40
0.5159322796
 40
0.6072257255
 40
0.6948626968
 40
0.7363852987
 40
0.7759076469
 40
0.8130980247
 40
0.8476466454
 40
0.8792600368
 40
0.9076793232
 40
0.9326602147
 40
0.954002062
 40
0.9715223374
 40
0.9788052522
 40
0.9850851384
 40
0.9903492664
 40
0.9945878388
 40
0.9978006871
 40
0.999025538
 40
1.0
 40
1.0
 40
1.0
 40
1.0
 10
6.515439824
 20
6.3948836743
 30
0.0
 10
6.5153786907
 20
6.3951829911
 30
0.0
 10
6.5152629386
 20
6.3958673823
 30
0.0
 10
6.5151077387
 20
6.3970215976
 30
0.0
 10
6.5149516145
 20
6.3984246607
 30
0.0
 10
6.5147276654
 20
6.4007831077
 30
0.0
 10
6.5144565207
 20
6.4043283513
 30
0.0
 10
6.5141454581
 20
6.4092767263
 30
0.0
 10
6.513833102
 20
6.4151176329
 30
0.0
 10
6.5135194288
 20
6.4218024913
 30
0.0
 10
6.5132051724
 20
6.4292747769
 30
0.0
 10
6.5127693671
 20
6.4406254563
 30
0.0
 10
6.5122358722
 20
6.4562623298
 30
0.0
 10
6.5116137696
 20
6.4763863875
 30
0.0
 10
6.5109903724
 20
6.4978243704
 30
0.0
 10
6.5103663203
 20
6.5198575224
 30
0.0
 10
6.5097423281
 20
6.5417471564
 30
0.0
 10
6.509214028
 20
6.5595650558
 30
0.0
 10
6.5087853167
 20
6.573197855
 30
0.0
 10
6.5084697295
 20
6.5827530982
 30
0.0
 10
6.5081543486
 20
6.5917441123
 30
0.0
 10
6.5078393228
 20
6.6000952064
 30
0.0
 10
6.5075246586
 20
6.6077365462
 30
0.0
 10
6.5072107099
 20
6.6146035553
 30
0.0
 10
6.5068976518
 20
6.6206391034
 30
0.0
 10
6.5065860105
 20
6.6257920647
 30
0.0
 10
6.5063146437
 20
6.6295136449
 30
0.0
 10
6.506091173
 20
6.6320171214
 30
0.0
 10
6.5059345154
 20
6.6335314195
 30
0.0
 10
6.5057788896
 20
6.6347982387
 30
0.0
 10
6.5056240752
 20
6.6358147399
 30
0.0
 10
6.5054882741
 20
6.6365037142
 30
0.0
 10
6.5053738344
 20
6.6369262482
 30
0.0
 10
6.5053158803
 20
6.6370946949
 30
0.0
 10
6.505285619
 20
6.6371674467
 30
0.0
  0
LINE
  5
65F
100
AcDbEntity
  8
ALL_ASSEMBLY_MEMBERS
100
AcDbLine
 62
7
  6
CONTINUOUS
 10
6.505285619
 20
6.6371674467
 11
6.5050493537
 21
6.637451987
  0
LINE
  5
660
100
AcDbEntity
  8
ALL_ASSEMBLY_MEMBERS
100
AcDbLine
 62
7
  6
CONTINUOUS
 10
6.5095252262
 20
6.4046197235
 11
6.5091381871
 21
6.4060018265
  0
SPLINE
  5
661
100
AcDbEntity
  8
ALL_ASSEMBLY_MEMBERS
100
AcDbSpline
 62
7
  6
CONTINUOUS
 70
0
 71
3
 72
42
 73
38
 74
0
 42
0.0000001
 43
0.0000001
 44
0.0000000001
 40
0.0
 40
0.0
 40
0.0
 40
0.0
 40
0.0044650167
 40
0.0099828492
 40
0.0241375812
 40
0.0423493078
 40
0.0644759578
 40
0.0903212782
 40
0.1196698501
 40
0.1522657147
 40
0.1878284019
 40
0.2666058853
 40
0.3532879458
 40
0.4448866756
 40
0.5382452611
 40
0.6301478649
 40
0.6745603014
 40
0.7174306906
 40
0.7583934843
 40
0.7970910974
 40
0.8331950063
 40
0.8663913751
 40
0.896396265
 40
0.9229541771
 40
0.9458337539
 40
0.9648484898
 40
0.9728519997
 40
0.9798320259
 40
0.9857771821
 40
0.9906772243
 40
0.9927328506
 40
0.9945247715
 40
0.9960539438
 40
0.9973227227
 40
0.9983355442
 40
0.9991016469
 40
1.0
 40
1.0
 40
1.0
 40
1.0
 10
6.5091381871
 20
6.4060018265
 30
0.0
 10
6.5090782078
 20
6.406325785
 30
0.0
 10
6.5089630848
 20
6.4070535746
 30
0.0
 10
6.5087359936
 20
6.4088202119
 30
0.0
 10
6.5084652972
 20
6.4116030061
 30
0.0
 10
6.508155647
 20
6.4156120551
 30
0.0
 10
6.5078444435
 20
6.4204858182
 30
0.0
 10
6.5075313075
 20
6.426182576
 30
0.0
 10
6.5072174586
 20
6.4326528274
 30
0.0
 10
6.5069028962
 20
6.4398408117
 30
0.0
 10
6.5064680238
 20
6.4506742062
 30
0.0
 10
6.505935264
 20
6.4654976969
 30
0.0
 10
6.5053132509
 20
6.4844552957
 30
0.0
 10
6.5046902279
 20
6.5044893141
 30
0.0
 10
6.5040668225
 20
6.5249087097
 30
0.0
 10
6.5035419026
 20
6.5418477162
 30
0.0
 10
6.5031163896
 20
6.5550625855
 30
0.0
 10
6.5028009772
 20
6.5645203048
 30
0.0
 10
6.5024857975
 20
6.5735561039
 30
0.0
 10
6.5021707907
 20
6.5820923066
 30
0.0
 10
6.5018561419
 20
6.5900550409
 30
0.0
 10
6.5015419034
 20
6.5973758385
 30
0.0
 10
6.5012282232
 20
6.6039915726
 30
0.0
 10
6.5009155823
 20
6.609845171
 30
0.0
 10
6.5006039499
 20
6.6148865514
 30
0.0
 10
6.5003333039
 20
6.6185586247
 30
0.0
 10
6.5001109783
 20
6.6210574638
 30
0.0
 10
6.4999543951
 20
6.6225938484
 30
0.0
 10
6.4997983923
 20
6.6238999286
 30
0.0
 10
6.499662662
 20
6.6248422824
 30
0.0
 10
6.4995512784
 20
6.6254781714
 30
0.0
 10
6.4994729854
 20
6.6258670345
 30
0.0
 10
6.4993946004
 20
6.6261969945
 30
0.0
 10
6.4993176128
 20
6.6264664525
 30
0.0
 10
6.4992384047
 20
6.6266804238
 30
0.0
 10
6.4991557525
 20
6.6268507717
 30
0.0
 10
6.4990579288
 20
6.6269640488
 30
0.0
 10
6.4989916415
 20
6.6269642095
 30
0.0
  0
SPLINE
  5
662
100
AcDbEntity
  8
ALL_ASSEMBLY_MEMBERS
100
AcDbSpline
 62
7
  6
CONTINUOUS
 70
0
 71
3
 72
48
 73
44
 74
0
 42
0.0000001
 43
0.0000001
 44
0.0000000001
 40
0.0
 40
0.0
 40
0.0
 40
0.0
 40
0.0009312822
 40
0.001743957
 40
0.0028242278
 40
0.0041814172
 40
0.0058198168
 40
0.0077406957
 40
0.0099440715
 40
0.0151956811
 40
0.0215672977
 40
0.029048937
 40
0.0376270195
 40
0.0579843128
 40
0.0824530855
 40
0.1108122035
 40
0.1427929247
 40
0.1781050798
 40
0.2164131917
 40
0.2573669038
 40
0.3005801079
 40
0.3456534575
 40
0.3921659893
 40
0.4877677812
 40
0.5838344729
 40
0.6767995171
 40
0.7210341316
 40
0.7632136757
 40
0.8029513673
 40
0.839873458
 40
0.8736417225
 40
0.9039409762
 40
0.9304917051
 40
0.9530520535
 40
0.9627672281
 40
0.9714119403
 40
0.978967613
 40
0.9854162425
 40
0.9907436263
 40
0.9949452268
 40
0.9980231273
 40
0.9991461499
 40
1.0
 40
1.0
 40
1.0
 40
1.0
 10
4.885875016
 20
6.1490224628
 30
0.0
 10
4.8859248273
 20
6.1490721883
 30
0.0
 10
4.8860863455
 20
6.1490542512
 30
0.0
 10
4.8862772113
 20
6.1489836873
 30
0.0
 10
4.8865020944
 20
6.1488754451
 30
0.0
 10
4.8867681444
 20
6.1487225855
 30
0.0
 10
4.8870825468
 20
6.1485235153
 30
0.0
 10
4.8874425971
 20
6.14827866
 30
0.0
 10
4.8880189503
 20
6.1478662399
 30
0.0
 10
4.8888510541
 20
6.1472338952
 30
0.0
 10
4.8899804096
 20
6.1463341274
 30
0.0
 10
4.8912888419
 20
6.1452560785
 30
0.0
 10
4.8933915942
 20
6.1434802079
 30
0.0
 10
4.8964378216
 20
6.140832182
 30
0.0
 10
4.90057133
 20
6.1371569023
 30
0.0
 10
4.9053276465
 20
6.1328603403
 30
0.0
 10
4.9106647958
 20
6.127984437
 30
0.0
 10
4.9165344098
 20
6.1225766888
 30
0.0
 10
4.9228842517
 20
6.1166894183
 30
0.0
 10
4.9296567393
 20
6.1103797681
 30
0.0
 10
4.9367911433
 20
6.1037085424
 30
0.0
 10
4.9442228419
 20
6.0967401627
 30
0.0
 10
4.9545332362
 20
6.0870533793
 30
0.0
 10
4.9676402513
 20
6.0747148523
 30
0.0
 10
4.983301474
 20
6.0599677599
 30
0.0
 10
4.9961478664
 20
6.0478942676
 30
0.0
 10
5.0060427114
 20
6.0386270673
 30
0.0
 10
5.0130117513
 20
6.0321207447
 30
0.0
 10
5.0195895284
 20
6.0260051997
 30
0.0
 10
5.0257172716
 20
6.0203392469
 30
0.0
 10
5.0313398309
 20
6.0151777085
 30
0.0
 10
5.0364070617
 20
6.0105703972
 30
0.0
 10
5.0408739407
 20
6.0065621164
 30
0.0
 10
5.0442099572
 20
6.0036230744
 30
0.0
 10
5.046552979
 20
6.0016044807
 30
0.0
 10
5.0480484447
 20
6.0003396292
 30
0.0
 10
5.0493683494
 20
5.9992496171
 30
0.0
 10
5.0505096445
 20
5.9983374016
 30
0.0
 10
5.0514697373
 20
5.9976045778
 30
0.0
 10
5.0522467678
 20
5.9970532802
 30
0.0
 10
5.0527845549
 20
5.9967133821
 30
0.0
 10
5.0531258624
 20
5.9965414207
 30
0.0
 10
5.0532658801
 20
5.9964874385
 30
0.0
 10
5.0533282159
 20
5.9964707498
 30
0.0
  0
LINE
  5
663
100
AcDbEntity
  8
ALL_ASSEMBLY_MEMBERS
100
AcDbLine
 62
7
  6
CONTINUOUS
 10
4.9265840069
 20
6.1918996732
 11
4.929163512
 21
6.1902086532
  0
SPLINE
  5
664
100
AcDbEntity
  8
ALL_ASSEMBLY_MEMBERS
100
AcDbSpline
 62
7
  6
CONTINUOUS
 70
0
 71
3
 72
40
 73
36
 74
0
 42
0.0000001
 43
0.0000001
 44
0.0000000001
 40
0.0
 40
0.0
 40
0.0
 40
0.0
 40
0.0128233062
 40
0.0295807053
 40
0.0501476092
 40
0.0743546767
 40
0.1020032675
 40
0.1328708199
 40
0.203210345
 40
0.2830616638
 40
0.3697989569
 40
0.4605695189
 40
0.5523878797
 40
0.6422353904
 40
0.6854930566
 40
0.7271605305
 40
0.7668986568
 40
0.8043757525
 40
0.8392894217
 40
0.8713490689
 40
0.9002934945
 40
0.9258880523
 40
0.9479186858
 40
0.9662156534
 40
0.9739140623
 40
0.9806255185
 40
0.9863402646
 40
0.9910496641
 40
0.9930253412
 40
0.9947476699
 40
0.9962170098
 40
0.9974355199
 40
0.9984075423
 40
0.9991419831
 40
1.0
 40
1.0
 40
1.0
 40
1.0
 10
4.929163512
 20
6.1902086532
 30
0.0
 10
4.9299307569
 20
6.1896146641
 30
0.0
 10
4.9316661554
 20
6.1882002021
 30
0.0
 10
4.9345541716
 20
6.1857388633
 30
0.0
 10
4.9380542362
 20
6.1826682967
 30
0.0
 10
4.9421392693
 20
6.1790154329
 30
0.0
 10
4.9467768384
 20
6.1748113975
 30
0.0
 10
4.9539675075
 20
6.1682265633
 30
0.0
 10
4.9640175998
 20
6.1589156581
 30
0.0
 10
4.9771161493
 20
6.1466751408
 30
0.0
 10
4.9913095214
 20
6.1333420567
 30
0.0
 10
5.0061441057
 20
6.1193690587
 30
0.0
 10
5.0211452734
 20
6.1052296824
 30
0.0
 10
5.0335374693
 20
6.0935638809
 30
0.0
 10
5.0431783094
 20
6.0845116492
 30
0.0
 10
5.0500627015
 20
6.0780630025
 30
0.0
 10
5.0566374749
 20
6.0719236454
 30
0.0
 10
5.0628505548
 20
6.0661457531
 30
0.0
 10
5.0686522653
 20
6.060778717
 30
0.0
 10
5.073996799
 20
6.055868299
 30
0.0
 10
5.0788418598
 20
6.0514565857
 30
0.0
 10
5.0831489861
 20
6.0475813496
 30
0.0
 10
5.0868848596
 20
6.0442759962
 30
0.0
 10
5.0896347633
 20
6.0419000381
 30
0.0
 10
5.0915315855
 20
6.0403103534
 30
0.0
 10
5.0927110979
 20
6.0393471512
 30
0.0
 10
5.0937293903
 20
6.0385443714
 30
0.0
 10
5.094480043
 20
6.0379812303
 30
0.0
 10
5.0950002603
 20
6.037614884
 30
0.0
 10
5.0953254121
 20
6.0373978607
 30
0.0
 10
5.0956095581
 20
6.0372219886
 30
0.0
 10
5.0958504854
 20
6.0370873895
 30
0.0
 10
5.0960542935
 20
6.0369930127
 30
0.0
 10
5.0962296811
 20
6.0369315782
 30
0.0
 10
5.096376342
 20
6.036920054
 30
0.0
 10
5.0964223301
 20
6.0369658817
 30
0.0
  0
SPLINE
  5
665
100
AcDbEntity
  8
ALL_ASSEMBLY_MEMBERS
100
AcDbSpline
 62
7
  6
CONTINUOUS
 70
0
 71
3
 72
37
 73
33
 74
0
 42
0.0000001
 43
0.0000001
 44
0.0000000001
 40
0.0
 40
0.0
 40
0.0
 40
0.0
 40
0.0548266868
 40
0.1196221234
 40
0.1927124298
 40
0.2722933891
 40
0.3563575083
 40
0.442792387
 40
0.5294297886
 40
0.6140961218
 40
0.6946664164
 40
0.7327797459
 40
0.769121761
 40
0.803468656
 40
0.8356000808
 40
0.8653182523
 40
0.8924390661
 40
0.916787241
 40
0.938218818
 40
0.9565980793
 40
0.9718110141
 40
0.9782043311
 40
0.9837760915
 40
0.9885175861
 40
0.9924242027
 40
0.9940649391
 40
0.9954980705
 40
0.99672491
 40
0.9977478506
 40
0.9985714198
 40
0.9992048992
 40
1.0
 40
1.0
 40
1.0
 40
1.0
 10
6.5290754407
 20
6.4245933573
 30
0.0
 10
6.52887501
 20
6.4282828417
 30
0.0
 10
6.5284901926
 20
6.4363354755
 30
0.0
 10
6.5279603274
 20
6.4493121334
 30
0.0
 10
6.5274284695
 20
6.4639582112
 30
0.0
 10
6.5268951573
 20
6.4799035685
 30
0.0
 10
6.5263611777
 20
6.4967487038
 30
0.0
 10
6.5258268784
 20
6.5140696099
 30
0.0
 10
6.5252926328
 20
6.5314311223
 30
0.0
 10
6.5247587558
 20
6.5483972256
 30
0.0
 10
6.5243065612
 20
6.5620941006
 30
0.0
 10
6.5239407053
 20
6.5725353104
 30
0.0
 10
6.5236714984
 20
6.5798628601
 30
0.0
 10
6.5234025114
 20
6.5867869951
 30
0.0
 10
6.5231336857
 20
6.5932643806
 30
0.0
 10
6.5228651289
 20
6.5992543429
 30
0.0
 10
6.5225970123
 20
6.6047192224
 30
0.0
 10
6.5223292883
 20
6.6096249255
 30
0.0
 10
6.5220624556
 20
6.6139405989
 30
0.0
 10
6.5217966239
 20
6.6176393264
 30
0.0
 10
6.5215653639
 20
6.6203243052
 30
0.0
 10
6.5213755918
 20
6.6221460989
 30
0.0
 10
6.5212420391
 20
6.623264115
 30
0.0
 10
6.52110895
 20
6.6242132197
 30
0.0
 10
6.5209930706
 20
6.6248970359
 30
0.0
 10
6.5208980564
 20
6.6253578531
 30
0.0
 10
6.5208312198
 20
6.6256398716
 30
0.0
 10
6.5207643492
 20
6.6258791766
 30
0.0
 10
6.5206984439
 20
6.6260751005
 30
0.0
 10
6.5206309717
 20
6.6262300008
 30
0.0
 10
6.5205578891
 20
6.6263580859
 30
0.0
 10
6.520474318
 20
6.6264352479
 30
0.0
 10
6.5204207339
 20
6.6264352346
 30
0.0
  0
SPLINE
  5
666
100
AcDbEntity
  8
ALL_ASSEMBLY_MEMBERS
100
AcDbSpline
 62
7
  6
CONTINUOUS
 70
0
 71
3
 72
35
 73
31
 74
0
 42
0.0000001
 43
0.0000001
 44
0.0000000001
 40
0.0
 40
0.0
 40
0.0
 40
0.0
 40
0.0197382662
 40
0.0426582738
 40
0.0973252869
 40
0.1624719145
 40
0.2363197462
 40
0.3168187178
 40
0.4017379388
 40
0.488719891
 40
0.5753626636
 40
0.6592746987
 40
0.7381306095
 40
0.7749701039
 40
0.8097419694
 40
0.8422034492
 40
0.8721285792
 40
0.8993156621
 40
0.9235709452
 40
0.9447337774
 40
0.9626563061
 40
0.9703624654
 40
0.9772164432
 40
0.9832074763
 40
0.9883252814
 40
0.9925612044
 40
0.995913322
 40
0.9983860747
 40
0.9992978806
 40
1.0
 40
1.0
 40
1.0
 40
1.0
 10
6.5177982998
 20
6.4046748969
 30
0.0
 10
6.5176972583
 20
6.406203764
 30
0.0
 10
6.517499802
 20
6.409509329
 30
0.0
 10
6.5171097562
 20
6.4170542708
 30
0.0
 10
6.5166377862
 20
6.4281242406
 30
0.0
 10
6.5160938111
 20
6.4431475927
 30
0.0
 10
6.5155471991
 20
6.4601772545
 30
0.0
 10
6.5149985828
 20
6.4787424197
 30
0.0
 10
6.5144488777
 20
6.498327521
 30
0.0
 10
6.5138985442
 20
6.5183897025
 30
0.0
 10
6.5133480489
 20
6.5383736676
 30
0.0
 10
6.5127977475
 20
6.5577266017
 30
0.0
 10
6.5123299434
 20
6.5732142802
 30
0.0
 10
6.5119504606
 20
6.5848882898
 30
0.0
 10
6.5116724628
 20
6.5929622683
 30
0.0
 10
6.5113946601
 20
6.600499182
 30
0.0
 10
6.5111170645
 20
6.607446899
 30
0.0
 10
6.5108399182
 20
6.6137570678
 30
0.0
 10
6.5105632602
 20
6.6193863609
 30
0.0
 10
6.5102874258
 20
6.6242955405
 30
0.0
 10
6.5100484417
 20
6.6279200153
 30
0.0
 10
6.5098531966
 20
6.6304339748
 30
0.0
 10
6.5097144575
 20
6.6320232618
 30
0.0
 10
6.509576093
 20
6.6334108203
 30
0.0
 10
6.5094381746
 20
6.6345939978
 30
0.0
 10
6.509301233
 20
6.6355709793
 30
0.0
 10
6.5091651577
 20
6.6363400004
 30
0.0
 10
6.509045766
 20
6.6368500965
 30
0.0
 10
6.5089440395
 20
6.6371507345
 30
0.0
 10
6.508892412
 20
6.6372654335
 30
0.0
 10
6.5088652022
 20
6.6373126582
 30
0.0
  0
SPLINE
  5
667
100
AcDbEntity
  8
ALL_ASSEMBLY_MEMBERS
100
AcDbSpline
 62
7
  6
CONTINUOUS
 70
0
 71
3
 72
21
 73
17
 74
0
 42
0.0000001
 43
0.0000001
 44
0.0000000001
 40
0.0
 40
0.0
 40
0.0
 40
0.0
 40
0.2273293669
 40
0.4267671496
 40
0.5973110001
 40
0.7380216985
 40
0.7970193601
 40
0.8484019309
 40
0.892147772
 40
0.9282512314
 40
0.95674001
 40
0.9681622021
 40
0.977742362
 40
0.9855418844
 40
0.9916758023
 40
1.0
 40
1.0
 40
1.0
 40
1.0
 10
6.4793524082
 20
6.6124765097
 30
0.0
 10
6.4792822438
 20
6.6136284337
 30
0.0
 10
6.479143603
 20
6.6157905394
 30
0.0
 10
6.4789228034
 20
6.618814854
 30
0.0
 10
6.4787028205
 20
6.6213981459
 30
0.0
 10
6.4785113294
 20
6.6232681701
 30
0.0
 10
6.4783541799
 20
6.6245331872
 30
0.0
 10
6.4782436215
 20
6.6253078227
 30
0.0
 10
6.478133591
 20
6.6259649894
 30
0.0
 10
6.4780240462
 20
6.6265040737
 30
0.0
 10
6.4779282176
 20
6.6268782159
 30
0.0
 10
6.4778484848
 20
6.6271167038
 30
0.0
 10
6.4777936939
 20
6.6272521588
 30
0.0
 10
6.4777379664
 20
6.6273587813
 30
0.0
 10
6.4776747425
 20
6.627450195
 30
0.0
 10
6.4776066001
 20
6.6274992186
 30
0.0
 10
6.4775643416
 20
6.6274992028
 30
0.0
  0
SPLINE
  5
668
100
AcDbEntity
  8
ALL_ASSEMBLY_MEMBERS
100
AcDbSpline
 62
7
  6
CONTINUOUS
 70
0
 71
3
 72
17
 73
13
 74
0
 42
0.0000001
 43
0.0000001
 44
0.0000000001
 40
0.0
 40
0.0
 40
0.0
 40
0.0
 40
0.20905149
 40
0.3952583018
 40
0.5578780253
 40
0.696182717
 40
0.8096593583
 40
0.8980994784
 40
0.9329008382
 40
0.9614307767
 40
0.9837413162
 40
1.0
 40
1.0
 40
1.0
 40
1.0
 10
6.4739944082
 20
6.6124765097
 30
0.0
 10
6.4739309207
 20
6.6135188161
 30
0.0
 10
6.4738051573
 20
6.6154891876
 30
0.0
 10
6.4736060389
 20
6.6182687742
 30
0.0
 10
6.4734074046
 20
6.6206939765
 30
0.0
 10
6.4732098054
 20
6.6227546386
 30
0.0
 10
6.4730132112
 20
6.6244427439
 30
0.0
 10
6.4728411659
 20
6.6256130892
 30
0.0
 10
6.4726975418
 20
6.6263575589
 30
0.0
 10
6.4725992711
 20
6.626774216
 30
0.0
 10
6.4725018983
 20
6.6270949409
 30
0.0
 10
6.4724269921
 20
6.6272736567
 30
0.0
 10
6.472386283
 20
6.6273439312
 30
0.0
  0
ELLIPSE
  5
669
100
AcDbEntity
  8
ALL_ASSEMBLY_MEMBERS
100
AcDbEllipse
 62
7
  6
CONTINUOUS
 10
4.8396439709
 20
5.9428847783
 30
0.0
 11
0.0
 21
0.1854379486
 31
0.0
 40
0.2679491924
 41
-0.5408188012
 42
0.0172200256
  0
ELLIPSE
  5
66A
100
AcDbEntity
  8
ALL_ASSEMBLY_MEMBERS
100
AcDbEllipse
 62
7
  6
CONTINUOUS
 10
3.8414524768
 20
5.8207985862
 30
0.0
 11
0.0031462675
 21
-0.029717086
 31
0.0
 40
0.5588552877
 41
-2.6343512294
 42
-0.6564492919
  0
ELLIPSE
  5
66B
100
AcDbEntity
  8
ALL_ASSEMBLY_MEMBERS
100
AcDbEllipse
 62
7
  6
CONTINUOUS
 10
4.7175577787
 20
4.9446932843
 30
0.0
 11
0.029717086
 21
-0.0031462675
 31
0.0
 40
0.5588552877
 41
-2.4851433616
 42
-0.5072414241
  0
ENDSEC
  0
SECTION
  2
OBJECTS
  0
DICTIONARY
  5
C
100
AcDbDictionary
280
0
281
1
  3
ACAD_GROUP
350
D
  3
ACAD_MLINESTYLE
350
17
  3
ACAD_LAYOUT
350
1A
  3
ACAD_PLOTSETTINGS
350
19
  3
ACAD_PLOTSTYLENAME
350
E
  0
DICTIONARY
  5
D
102
{ACAD_REACTORS
330
C
102
}
100
AcDbDictionary
280
0
281
1
  0
ACDBDICTIONARYWDFLT
  5
E
102
{ACAD_REACTORS
330
C
102
}
100
AcDbDictionary
281
1
  3
Normal
350
F
100
AcDbDictionaryWithDefault
340
F
  0
DICTIONARY
  5
17
102
{ACAD_REACTORS
330
C
102
}
100
AcDbDictionary
280
0
281
1
  3
Standard
350
18
  0
DICTIONARY
  5
19
102
{ACAD_REACTORS
330
C
102
}
100
AcDbDictionary
281
1
  0
DICTIONARY
  5
1A
102
{ACAD_REACTORS
330
C
102
}
100
AcDbDictionary
281
1
  3
Model
350
66C
  3
Layout1
350
66D
  0
ACDBPLACEHOLDER
  5
F
102
{ACAD_REACTORS
330
E
102
}
  0
MLINESTYLE
  5
18
102
{ACAD_REACTORS
330
17
102
}
100
AcDbMlineStyle
  2
STANDARD
 70
0
  3

 62
256
 51
90.0
 52
90.0
 71
2
 49
0.5
 62
256
  6
BYLAYER
 49
-0.5
 62
256
  6
BYLAYER
  0
LAYOUT
  5
66C
102
{ACAD_REACTORS
330
1A
102
}
100
AcDbPlotSettings
  1

  2
none_device
  4
ANSI_A_(11.00_x_8.50_Inches)
  6

 40
0.0
 41
0.0
 42
0.0
 43
0.0
 44
279.4
 45
215.9
 46
0.0
 47
0.0
 48
0.0
 49
0.0
140
0.0
141
0.0
142
1.0
143
1.0
 70
1024
 72
0
 73
0
 74
0
  7

 75
0
147
1.0
148
0.0
149
0.0
100
AcDbLayout
  1
Model
 70
0
 71
0
 10
0.0
 20
0.0
 11
11.0
 21
8.5
 12
0.0
 22
0.0
 32
0.0
 14
0.0
 24
0.0
 34
0.0
 15
0.0
 25
0.0
 35
0.0
146
0.0
 13
0.0
 23
0.0
 33
0.0
 16
1.0
 26
0.0
 36
0.0
 17
0.0
 27
1.0
 37
0.0
 76
0
330
258
345
0
346
0
  0
LAYOUT
  5
66D
102
{ACAD_REACTORS
330
1A
102
}
100
AcDbPlotSettings
  1

  2
none_device
  4
ANSI_A_(11.00_x_8.50_Inches)
  6

 40
0.0
 41
0.0
 42
0.0
 43
0.0
 44
279.4
 45
215.9
 46
0.0
 47
0.0
 48
0.0
 49
0.0
140
0.0
141
0.0
142
1.0
143
1.0
 70
0
 72
0
 73
0
 74
0
  7

 75
0
147
1.0
148
0.0
149
0.0
100
AcDbLayout
  1
Layout1
 70
0
 71
1
 10
0.0
 20
0.0
 11
11.0
 21
8.5
 12
0.0
 22
0.0
 32
0.0
 14
0.0
 24
0.0
 34
0.0
 15
0.0
 25
0.0
 35
0.0
146
0.0
 13
0.0
 23
0.0
 33
0.0
 16
1.0
 26
0.0
 36
0.0
 17
0.0
 27
1.0
 37
0.0
 76
0
330
259
345
0
346
0
  0
ENDSEC
  0
EOF
