999
DXF file: 3-904bp_top.dxf
999
Pro/ENGINEER 2013150 by Parametric Technology Corporation
  0
SECTION
  2
HEADER
  9
$ACADVER
  1
AC1021
  9
$DWGCODEPAGE
  3
ANSI_1252
  9
$EXTMAX
 10
11.0
 20
8.5
 30
0.0
  9
$EXTMIN
 10
0.0
 20
0.0
 30
0.0
  9
$LIMMIN
 10
0.0
 20
0.0
  9
$LIMMAX
 10
11.0
 20
8.5
  9
$VIEWCTR
 10
5.5
 20
4.25
  9
$VIEWSIZE
 40
8.5
  9
$CLAYER
  8
0
  9
$LTSCALE
 40
0.605
  9
$CELTYPE
  6
BYLAYER
  9
$DIMSCALE
 40
1.0
  9
$DIMASZ
 40
0.1
  9
$DIMEXO
 40
0.0625
  9
$DIMDLI
 40
0.418
  9
$DIMEXE
 40
0.125
  9
$DIMCEN
 40
0.099
  9
$DIMLFAC
 40
1.0
  9
$DIMBLK
  1
_FILLED
  9
$DIMTXT
 40
0.08
  9
$DIMTOL
 70
1
  9
$DIMLIM
 70
0
  9
$DIMTFAC
 40
1.0
  9
$DIMTP
 40
0.001
  9
$DIMTM
 40
0.001
  9
$DIMGAP
 40
0.09
  9
$DIMDSEP
 70
46
  9
$PDMODE
 70
3
  9
$PDSIZE
 40
0.3125
  9
$HANDSEED
  5
3DC
  9
$TILEMODE
 70
1
  9
$MEASUREMENT
 70
0
  9
$INSUNITS
 70
1
  0
ENDSEC
  0
SECTION
  2
CLASSES
  0
CLASS
  1
ACDBDICTIONARYWDFLT
  2
AcDbDictionaryWithDefault
  3
AutoCAD 2000
 90
0
 91
1
280
0
281
0
  0
CLASS
  1
ACDBPLACEHOLDER
  2
AcDbPlaceHolder
  3
AutoCAD 2000
 90
0
 91
1
280
0
281
0
  0
CLASS
  1
LAYOUT
  2
AcDbLayout
  3
AutoCAD 2000
 90
0
 91
0
280
0
281
0
  0
ENDSEC
  0
SECTION
  2
TABLES
  0
TABLE
  2
VPORT
  5
8
100
AcDbSymbolTable
 70
2
  0
VPORT
  5
1F4
100
AcDbSymbolTableRecord
100
AcDbViewportTableRecord
  2
*ACTIVE
 70
0
 10
0.0
 20
0.0
 11
1.0
 21
1.0
 12
5.5
 22
4.25
 13
0.0
 23
0.0
 14
1.0
 24
1.0
 15
0.0
 25
0.0
 16
0.0
 26
0.0
 36
1.0
 17
0.0
 27
0.0
 37
0.0
 40
8.5
 41
1.2941176471
 42
50.0
 43
0.0
 44
0.0
 50
0.0
 51
0.0
 71
0
 72
100
 73
1
 74
1
 75
0
 76
0
 77
0
 78
0
  0
ENDTAB
  0
TABLE
  2
LTYPE
  5
5
100
AcDbSymbolTable
 70
6
  0
LTYPE
  5
14
100
AcDbSymbolTableRecord
100
AcDbLinetypeTableRecord
  2
BYBLOCK
 70
0
  3

 72
65
 73
0
 40
0.0
  0
LTYPE
  5
15
100
AcDbSymbolTableRecord
100
AcDbLinetypeTableRecord
  2
BYLAYER
 70
0
  3

 72
65
 73
0
 40
0.0
  0
LTYPE
  5
16
100
AcDbSymbolTableRecord
100
AcDbLinetypeTableRecord
  2
CONTINUOUS
 70
64
  3
Solid line
 72
65
 73
0
 40
0.0
  0
LTYPE
  5
1F5
100
AcDbSymbolTableRecord
100
AcDbLinetypeTableRecord
  2
CENTER
 70
64
  3
____ _ ____ _ ____ _ ____ _ ____ _ ____ _ ____
 72
65
 73
4
 40
0.6
 49
0.375
 74
0
 49
-0.075
 74
0
 49
0.075
 74
0
 49
-0.075
 74
0
  0
LTYPE
  5
1F6
100
AcDbSymbolTableRecord
100
AcDbLinetypeTableRecord
  2
HIDDEN
 70
64
  3
- - - - - - - - - - - - - - - - - - - -
 72
65
 73
2
 40
0.2
 49
0.1
 74
0
 49
-0.1
 74
0
  0
LTYPE
  5
1F7
100
AcDbSymbolTableRecord
100
AcDbLinetypeTableRecord
  2
PHANTOM
 70
64
  3
_____ _ _ _____ _ _ _____ _ _ _____
 72
65
 73
6
 40
0.8
 49
0.45
 74
0
 49
-0.05
 74
0
 49
0.1
 74
0
 49
-0.05
 74
0
 49
0.1
 74
0
 49
-0.05
 74
0
  0
LTYPE
  5
1F8
100
AcDbSymbolTableRecord
100
AcDbLinetypeTableRecord
  2
DOT
 70
64
  3
. . . . . . . . . . . . . . . . . . . .
 72
65
 73
2
 40
0.2
 49
0.1
 74
0
 49
-0.1
 74
0
  0
LTYPE
  5
1F9
100
AcDbSymbolTableRecord
100
AcDbLinetypeTableRecord
  2
DASHED
 70
64
  3
- - - - - - - - - - - - - - - - - - - -
 72
65
 73
2
 40
0.2
 49
0.1
 74
0
 49
-0.1
 74
0
  0
ENDTAB
  0
TABLE
  2
LAYER
  5
2
100
AcDbSymbolTable
 70
36
  0
LAYER
  5
10
100
AcDbSymbolTableRecord
100
AcDbLayerTableRecord
  2
0
 70
0
 62
7
  6
CONTINUOUS
370
-3
390
F
  0
LAYER
  5
1FA
100
AcDbSymbolTableRecord
100
AcDbLayerTableRecord
  2
DEFAULT_1
 70
0
 62
7
  6
CENTER
370
-3
390
F
  0
LAYER
  5
1FB
100
AcDbSymbolTableRecord
100
AcDbLayerTableRecord
  2
DEFAULT_2
 70
0
 62
8
  6
HIDDEN
370
-3
390
F
  0
LAYER
  5
1FC
100
AcDbSymbolTableRecord
100
AcDbLayerTableRecord
  2
DEFAULT_3
 70
0
 62
7
  6
PHANTOM
370
-3
390
F
  0
LAYER
  5
1FD
100
AcDbSymbolTableRecord
100
AcDbLayerTableRecord
  2
_  SHELL
 70
0
 62
7
  6
CONTINUOUS
370
-3
390
F
  0
LAYER
  5
1FE
100
AcDbSymbolTableRecord
100
AcDbLayerTableRecord
  2
06___PRT_ALL_SURFS_15
 70
0
 62
7
  6
CONTINUOUS
370
-3
390
F
  0
LAYER
  5
1FF
100
AcDbSymbolTableRecord
100
AcDbLayerTableRecord
  2
11_9
 70
0
 62
7
  6
CONTINUOUS
370
-3
390
F
  0
LAYER
  5
200
100
AcDbSymbolTableRecord
100
AcDbLayerTableRecord
  2
1451A0A-0Z1-01
 70
0
 62
7
  6
CONTINUOUS
370
-3
390
F
  0
LAYER
  5
201
100
AcDbSymbolTableRecord
100
AcDbLayerTableRecord
  2
1451A0A-0Z1-02
 70
0
 62
7
  6
CONTINUOUS
370
-3
390
F
  0
LAYER
  5
202
100
AcDbSymbolTableRecord
100
AcDbLayerTableRecord
  2
1451A0A-0Z1-02_1
 70
0
 62
7
  6
CONTINUOUS
370
-3
390
F
  0
LAYER
  5
203
100
AcDbSymbolTableRecord
100
AcDbLayerTableRecord
  2
1451A0A-0Z1-03
 70
0
 62
7
  6
CONTINUOUS
370
-3
390
F
  0
LAYER
  5
204
100
AcDbSymbolTableRecord
100
AcDbLayerTableRecord
  2
1451A0A-0Z1-04
 70
0
 62
7
  6
CONTINUOUS
370
-3
390
F
  0
LAYER
  5
205
100
AcDbSymbolTableRecord
100
AcDbLayerTableRecord
  2
1451A0A-0Z1-05
 70
0
 62
7
  6
CONTINUOUS
370
-3
390
F
  0
LAYER
  5
206
100
AcDbSymbolTableRecord
100
AcDbLayerTableRecord
  2
1451A0A-0Z1-06
 70
0
 62
7
  6
CONTINUOUS
370
-3
390
F
  0
LAYER
  5
207
100
AcDbSymbolTableRecord
100
AcDbLayerTableRecord
  2
1451A0A-0Z1-07
 70
0
 62
7
  6
CONTINUOUS
370
-3
390
F
  0
LAYER
  5
208
100
AcDbSymbolTableRecord
100
AcDbLayerTableRecord
  2
2-103H_ASSY_DATUMS
 70
0
 62
7
  6
CONTINUOUS
370
-3
390
F
  0
LAYER
  5
209
100
AcDbSymbolTableRecord
100
AcDbLayerTableRecord
  2
2-225_ASSY_DATUMS
 70
0
 62
7
  6
CONTINUOUS
370
-3
390
F
  0
LAYER
  5
20A
100
AcDbSymbolTableRecord
100
AcDbLayerTableRecord
  2
22_4
 70
0
 62
7
  6
CONTINUOUS
370
-3
390
F
  0
LAYER
  5
20B
100
AcDbSymbolTableRecord
100
AcDbLayerTableRecord
  2
22_5
 70
0
 62
7
  6
CONTINUOUS
370
-3
390
F
  0
LAYER
  5
20C
100
AcDbSymbolTableRecord
100
AcDbLayerTableRecord
  2
264X18
 70
0
 62
7
  6
CONTINUOUS
370
-3
390
F
  0
LAYER
  5
20D
100
AcDbSymbolTableRecord
100
AcDbLayerTableRecord
  2
3-187H_ASSY_PLANES
 70
0
 62
7
  6
CONTINUOUS
370
-3
390
F
  0
LAYER
  5
20E
100
AcDbSymbolTableRecord
100
AcDbLayerTableRecord
  2
30X15
 70
0
 62
7
  6
CONTINUOUS
370
-3
390
F
  0
LAYER
  5
20F
100
AcDbSymbolTableRecord
100
AcDbLayerTableRecord
  2
315X18
 70
0
 62
7
  6
CONTINUOUS
370
-3
390
F
  0
LAYER
  5
210
100
AcDbSymbolTableRecord
100
AcDbLayerTableRecord
  2
59X178
 70
0
 62
7
  6
CONTINUOUS
370
-3
390
F
  0
LAYER
  5
211
100
AcDbSymbolTableRecord
100
AcDbLayerTableRecord
  2
6X15
 70
0
 62
7
  6
CONTINUOUS
370
-3
390
F
  0
LAYER
  5
212
100
AcDbSymbolTableRecord
100
AcDbLayerTableRecord
  2
925X178
 70
0
 62
7
  6
CONTINUOUS
370
-3
390
F
  0
LAYER
  5
213
100
AcDbSymbolTableRecord
100
AcDbLayerTableRecord
  2
AA
 70
0
 62
7
  6
CONTINUOUS
370
-3
390
F
  0
LAYER
  5
214
100
AcDbSymbolTableRecord
100
AcDbLayerTableRecord
  2
ALL_ASSEMBLY_MEMBERS
 70
0
 62
7
  6
CONTINUOUS
370
-3
390
F
  0
LAYER
  5
215
100
AcDbSymbolTableRecord
100
AcDbLayerTableRecord
  2
ALL_FEATURES
 70
0
 62
7
  6
CONTINUOUS
370
-3
390
F
  0
LAYER
  5
216
100
AcDbSymbolTableRecord
100
AcDbLayerTableRecord
  2
AXES_FEATURES
 70
0
 62
7
  6
CONTINUOUS
370
-3
390
F
  0
LAYER
  5
217
100
AcDbSymbolTableRecord
100
AcDbLayerTableRecord
  2
CHAMFER_FEATURES
 70
0
 62
7
  6
CONTINUOUS
370
-3
390
F
  0
LAYER
  5
218
100
AcDbSymbolTableRecord
100
AcDbLayerTableRecord
  2
COLOR14
 70
0
 62
7
  6
CONTINUOUS
370
-3
390
F
  0
LAYER
  5
219
100
AcDbSymbolTableRecord
100
AcDbLayerTableRecord
  2
COLOR33
 70
0
 62
7
  6
CONTINUOUS
370
-3
390
F
  0
LAYER
  5
21A
100
AcDbSymbolTableRecord
100
AcDbLayerTableRecord
  2
COLOR9
 70
0
 62
7
  6
CONTINUOUS
370
-3
390
F
  0
LAYER
  5
21B
100
AcDbSymbolTableRecord
100
AcDbLayerTableRecord
  2
CONSTR_CURVES
 70
0
 62
7
  6
CONTINUOUS
370
-3
390
F
  0
LAYER
  5
21C
100
AcDbSymbolTableRecord
100
AcDbLayerTableRecord
  2
COSMETIC_SKETCHES
 70
0
 62
7
  6
CONTINUOUS
370
-3
390
F
  0
LAYER
  5
21D
100
AcDbSymbolTableRecord
100
AcDbLayerTableRecord
  2
CURVE
 70
0
 62
7
  6
CONTINUOUS
370
-3
390
F
  0
LAYER
  5
21E
100
AcDbSymbolTableRecord
100
AcDbLayerTableRecord
  2
CUT_FEATURES
 70
0
 62
7
  6
CONTINUOUS
370
-3
390
F
  0
LAYER
  5
21F
100
AcDbSymbolTableRecord
100
AcDbLayerTableRecord
  2
DATUM_CURVE
 70
0
 62
7
  6
CONTINUOUS
370
-3
390
F
  0
LAYER
  5
220
100
AcDbSymbolTableRecord
100
AcDbLayerTableRecord
  2
DATUM_CURVES
 70
0
 62
7
  6
CONTINUOUS
370
-3
390
F
  0
LAYER
  5
221
100
AcDbSymbolTableRecord
100
AcDbLayerTableRecord
  2
DATUM_PLANE
 70
0
 62
7
  6
CONTINUOUS
370
-3
390
F
  0
LAYER
  5
222
100
AcDbSymbolTableRecord
100
AcDbLayerTableRecord
  2
DATUM_PLANES
 70
0
 62
7
  6
CONTINUOUS
370
-3
390
F
  0
LAYER
  5
223
100
AcDbSymbolTableRecord
100
AcDbLayerTableRecord
  2
DATUM_POINTS
 70
0
 62
7
  6
CONTINUOUS
370
-3
390
F
  0
LAYER
  5
224
100
AcDbSymbolTableRecord
100
AcDbLayerTableRecord
  2
DEFAULT_COORDINATE_SYSTEM
 70
0
 62
7
  6
CONTINUOUS
370
-3
390
F
  0
LAYER
  5
225
100
AcDbSymbolTableRecord
100
AcDbLayerTableRecord
  2
DEFAULT_DATUM_AXES
 70
0
 62
7
  6
CONTINUOUS
370
-3
390
F
  0
LAYER
  5
226
100
AcDbSymbolTableRecord
100
AcDbLayerTableRecord
  2
DEFAULT_DATUM_CURVES
 70
0
 62
7
  6
CONTINUOUS
370
-3
390
F
  0
LAYER
  5
227
100
AcDbSymbolTableRecord
100
AcDbLayerTableRecord
  2
DEFAULT_DATUM_PLANES
 70
0
 62
7
  6
CONTINUOUS
370
-3
390
F
  0
LAYER
  5
228
100
AcDbSymbolTableRecord
100
AcDbLayerTableRecord
  2
DEFAULT_SURFACES
 70
0
 62
7
  6
CONTINUOUS
370
-3
390
F
  0
LAYER
  5
229
100
AcDbSymbolTableRecord
100
AcDbLayerTableRecord
  2
DETAIL_ITEMS
 70
0
 62
7
  6
CONTINUOUS
370
-3
390
F
  0
LAYER
  5
22A
100
AcDbSymbolTableRecord
100
AcDbLayerTableRecord
  2
DIMENSIONS
 70
0
 62
7
  6
CONTINUOUS
370
-3
390
F
  0
LAYER
  5
22B
100
AcDbSymbolTableRecord
100
AcDbLayerTableRecord
  2
HIDE
 70
0
 62
7
  6
CONTINUOUS
370
-3
390
F
  0
LAYER
  5
22C
100
AcDbSymbolTableRecord
100
AcDbLayerTableRecord
  2
HIDE_10
 70
0
 62
7
  6
CONTINUOUS
370
-3
390
F
  0
LAYER
  5
22D
100
AcDbSymbolTableRecord
100
AcDbLayerTableRecord
  2
HIDE_7
 70
0
 62
7
  6
CONTINUOUS
370
-3
390
F
  0
LAYER
  5
22E
100
AcDbSymbolTableRecord
100
AcDbLayerTableRecord
  2
HIDE_8
 70
0
 62
7
  6
CONTINUOUS
370
-3
390
F
  0
LAYER
  5
22F
100
AcDbSymbolTableRecord
100
AcDbLayerTableRecord
  2
HIDE_9
 70
0
 62
7
  6
CONTINUOUS
370
-3
390
F
  0
LAYER
  5
230
100
AcDbSymbolTableRecord
100
AcDbLayerTableRecord
  2
HOLE_FEATURES
 70
0
 62
7
  6
CONTINUOUS
370
-3
390
F
  0
LAYER
  5
231
100
AcDbSymbolTableRecord
100
AcDbLayerTableRecord
  2
INTFCLR_33883
 70
0
 62
7
  6
CONTINUOUS
370
-3
390
F
  0
LAYER
  5
232
100
AcDbSymbolTableRecord
100
AcDbLayerTableRecord
  2
INTFCLR_33883_1
 70
0
 62
7
  6
CONTINUOUS
370
-3
390
F
  0
LAYER
  5
233
100
AcDbSymbolTableRecord
100
AcDbLayerTableRecord
  2
INTFCLR_33883_2
 70
0
 62
7
  6
CONTINUOUS
370
-3
390
F
  0
LAYER
  5
234
100
AcDbSymbolTableRecord
100
AcDbLayerTableRecord
  2
INTFCLR_33883_3
 70
0
 62
7
  6
CONTINUOUS
370
-3
390
F
  0
LAYER
  5
235
100
AcDbSymbolTableRecord
100
AcDbLayerTableRecord
  2
INTFCLR_33883_4
 70
0
 62
7
  6
CONTINUOUS
370
-3
390
F
  0
LAYER
  5
236
100
AcDbSymbolTableRecord
100
AcDbLayerTableRecord
  2
INTFCLR_33883_5
 70
0
 62
7
  6
CONTINUOUS
370
-3
390
F
  0
LAYER
  5
237
100
AcDbSymbolTableRecord
100
AcDbLayerTableRecord
  2
INTF_BLANK
 70
0
 62
7
  6
CONTINUOUS
370
-3
390
F
  0
LAYER
  5
238
100
AcDbSymbolTableRecord
100
AcDbLayerTableRecord
  2
LAY0001
 70
0
 62
7
  6
CONTINUOUS
370
-3
390
F
  0
LAYER
  5
239
100
AcDbSymbolTableRecord
100
AcDbLayerTableRecord
  2
MIXEDCOLOR
 70
0
 62
7
  6
CONTINUOUS
370
-3
390
F
  0
LAYER
  5
23A
100
AcDbSymbolTableRecord
100
AcDbLayerTableRecord
  2
NOTES
 70
0
 62
7
  6
CONTINUOUS
370
-3
390
F
  0
LAYER
  5
23B
100
AcDbSymbolTableRecord
100
AcDbLayerTableRecord
  2
PART_REFERENCE_DIMENSIONS
 70
0
 62
7
  6
CONTINUOUS
370
-3
390
F
  0
LAYER
  5
23C
100
AcDbSymbolTableRecord
100
AcDbLayerTableRecord
  2
PLATED_AREA
 70
0
 62
7
  6
CONTINUOUS
370
-3
390
F
  0
LAYER
  5
23D
100
AcDbSymbolTableRecord
100
AcDbLayerTableRecord
  2
PLATED_SURFACE_AREA
 70
0
 62
7
  6
CONTINUOUS
370
-3
390
F
  0
LAYER
  5
23E
100
AcDbSymbolTableRecord
100
AcDbLayerTableRecord
  2
POINTS
 70
0
 62
7
  6
CONTINUOUS
370
-3
390
F
  0
LAYER
  5
23F
100
AcDbSymbolTableRecord
100
AcDbLayerTableRecord
  2
PROTRUSION
 70
0
 62
7
  6
CONTINUOUS
370
-3
390
F
  0
LAYER
  5
240
100
AcDbSymbolTableRecord
100
AcDbLayerTableRecord
  2
PROTRUSION_FEATURES
 70
0
 62
7
  6
CONTINUOUS
370
-3
390
F
  0
LAYER
  5
241
100
AcDbSymbolTableRecord
100
AcDbLayerTableRecord
  2
QUILTED_AREA
 70
0
 62
7
  6
CONTINUOUS
370
-3
390
F
  0
LAYER
  5
242
100
AcDbSymbolTableRecord
100
AcDbLayerTableRecord
  2
QUILTS
 70
0
 62
7
  6
CONTINUOUS
370
-3
390
F
  0
LAYER
  5
243
100
AcDbSymbolTableRecord
100
AcDbLayerTableRecord
  2
REFERENCE_DIMENSIONS
 70
0
 62
7
  6
CONTINUOUS
370
-3
390
F
  0
LAYER
  5
244
100
AcDbSymbolTableRecord
100
AcDbLayerTableRecord
  2
ROUND_FEATURES
 70
0
 62
7
  6
CONTINUOUS
370
-3
390
F
  0
LAYER
  5
245
100
AcDbSymbolTableRecord
100
AcDbLayerTableRecord
  2
S01012-09A
 70
0
 62
7
  6
CONTINUOUS
370
-3
390
F
  0
LAYER
  5
246
100
AcDbSymbolTableRecord
100
AcDbLayerTableRecord
  2
S01012-10A
 70
0
 62
7
  6
CONTINUOUS
370
-3
390
F
  0
LAYER
  5
247
100
AcDbSymbolTableRecord
100
AcDbLayerTableRecord
  2
S02015-05
 70
0
 62
7
  6
CONTINUOUS
370
-3
390
F
  0
LAYER
  5
248
100
AcDbSymbolTableRecord
100
AcDbLayerTableRecord
  2
S02015-16B
 70
0
 62
7
  6
CONTINUOUS
370
-3
390
F
  0
LAYER
  5
249
100
AcDbSymbolTableRecord
100
AcDbLayerTableRecord
  2
S02015-17
 70
0
 62
7
  6
CONTINUOUS
370
-3
390
F
  0
LAYER
  5
24A
100
AcDbSymbolTableRecord
100
AcDbLayerTableRecord
  2
S02015-18
 70
0
 62
7
  6
CONTINUOUS
370
-3
390
F
  0
LAYER
  5
24B
100
AcDbSymbolTableRecord
100
AcDbLayerTableRecord
  2
S02015-20A
 70
0
 62
7
  6
CONTINUOUS
370
-3
390
F
  0
LAYER
  5
24C
100
AcDbSymbolTableRecord
100
AcDbLayerTableRecord
  2
S02015-31A
 70
0
 62
7
  6
CONTINUOUS
370
-3
390
F
  0
LAYER
  5
24D
100
AcDbSymbolTableRecord
100
AcDbLayerTableRecord
  2
S02015-32A
 70
0
 62
7
  6
CONTINUOUS
370
-3
390
F
  0
LAYER
  5
24E
100
AcDbSymbolTableRecord
100
AcDbLayerTableRecord
  2
S02015-32A_1
 70
0
 62
7
  6
CONTINUOUS
370
-3
390
F
  0
LAYER
  5
24F
100
AcDbSymbolTableRecord
100
AcDbLayerTableRecord
  2
S02015-35
 70
0
 62
7
  6
CONTINUOUS
370
-3
390
F
  0
LAYER
  5
250
100
AcDbSymbolTableRecord
100
AcDbLayerTableRecord
  2
S15025-04A
 70
0
 62
7
  6
CONTINUOUS
370
-3
390
F
  0
LAYER
  5
251
100
AcDbSymbolTableRecord
100
AcDbLayerTableRecord
  2
SHELL_FEATURES
 70
0
 62
7
  6
CONTINUOUS
370
-3
390
F
  0
LAYER
  5
252
100
AcDbSymbolTableRecord
100
AcDbLayerTableRecord
  2
SURFACE
 70
0
 62
7
  6
CONTINUOUS
370
-3
390
F
  0
LAYER
  5
253
100
AcDbSymbolTableRecord
100
AcDbLayerTableRecord
  2
WETTED_SURFACES
 70
0
 62
7
  6
CONTINUOUS
370
-3
390
F
  0
LAYER
  5
254
100
AcDbSymbolTableRecord
100
AcDbLayerTableRecord
  2
XSEC_DATUMS
 70
0
 62
7
  6
CONTINUOUS
370
-3
390
F
  0
LAYER
  5
255
100
AcDbSymbolTableRecord
100
AcDbLayerTableRecord
  2
___SHELL
 70
0
 62
7
  6
CONTINUOUS
370
-3
390
F
  0
ENDTAB
  0
TABLE
  2
STYLE
  5
3
100
AcDbSymbolTable
 70
1
  0
STYLE
  5
11
100
AcDbSymbolTableRecord
100
AcDbTextStyleTableRecord
  2
STANDARD
 70
0
 40
0.0
 41
0.8
 50
0.0
 71
0
 42
0.2
  3
txt
  4

  0
STYLE
  5
256
100
AcDbSymbolTableRecord
100
AcDbTextStyleTableRecord
  2
TEXTSTYLE_1
 70
0
 40
0.0
 41
0.8
 50
0.0
 71
0
 42
0.2
  3
gdt
  4

  0
ENDTAB
  0
TABLE
  2
VIEW
  5
6
100
AcDbSymbolTable
 70
0
  0
ENDTAB
  0
TABLE
  2
UCS
  5
7
100
AcDbSymbolTable
 70
0
  0
ENDTAB
  0
TABLE
  2
APPID
  5
9
100
AcDbSymbolTable
 70
1
  0
APPID
  5
257
100
AcDbSymbolTableRecord
100
AcDbRegAppTableRecord
  2
ACAD
 70
0
  0
ENDTAB
  0
TABLE
  2
BLOCK_RECORD
  5
1
100
AcDbSymbolTable
 70
0
  0
BLOCK_RECORD
  5
258
100
AcDbSymbolTableRecord
100
AcDbBlockTableRecord
  2
*Model_Space
  0
BLOCK_RECORD
  5
259
100
AcDbSymbolTableRecord
100
AcDbBlockTableRecord
  2
*Paper_Space
  0
ENDTAB
  0
TABLE
  2
DIMSTYLE
  5
A
100
AcDbSymbolTable
 70
1
100
AcDbDimStyleTable
 71
0
  0
DIMSTYLE
105
25A
100
AcDbSymbolTableRecord
100
AcDbDimStyleTableRecord
  2
STANDARD
 70
0
  3

  4

 40
1.0
 41
0.1
 42
0.0625
 43
0.38
 44
0.125
 45
0.0
 46
0.0
 47
0.001
 48
0.001
140
0.08
141
0.09
142
0.0
143
25.4
144
1.0
145
0.0
146
1.0
147
0.09
 71
1.0
 72
0.0
 73
1
 74
1
 75
0
 76
0
 77
0
 78
4
170
0
171
2
172
0
173
0
174
0
175
0
176
0
177
0
178
0
270
2
271
3
272
3
273
2
274
2
275
0
280
0
281
0
282
0
283
1
284
4
285
0
286
0
287
3
288
0
340
11
278
46
  0
ENDTAB
  0
ENDSEC
  0
SECTION
  2
BLOCKS
  0
BLOCK
  5
20
100
AcDbEntity
  8
0
100
AcDbBlockBegin
  2
*Model_Space
 70
0
 10
0.0
 20
0.0
 30
0.0
  3
*Model_Space
  1

  0
ENDBLK
  5
21
100
AcDbEntity
  8
0
100
AcDbBlockEnd
  0
BLOCK
  5
1C
100
AcDbEntity
  8
0
100
AcDbBlockBegin
  2
*Paper_Space
 70
0
 10
0.0
 20
0.0
 30
0.0
  3
*Paper_Space
  1

  0
ENDBLK
  5
1D
100
AcDbEntity
  8
0
100
AcDbBlockEnd
  0
ENDSEC
  0
SECTION
  2
ENTITIES
  0
LINE
  5
25B
100
AcDbEntity
  8
0
100
AcDbLine
 62
7
  6
CONTINUOUS
 10
0.0
 20
0.0
 11
0.0
 21
8.5
  0
LINE
  5
25C
100
AcDbEntity
  8
0
100
AcDbLine
 62
7
  6
CONTINUOUS
 10
0.0
 20
0.0
 11
11.0
 21
0.0
  0
LINE
  5
25D
100
AcDbEntity
  8
0
100
AcDbLine
 62
7
  6
CONTINUOUS
 10
0.0
 20
8.5
 11
11.0
 21
8.5
  0
LINE
  5
25E
100
AcDbEntity
  8
0
100
AcDbLine
 62
7
  6
CONTINUOUS
 10
11.0
 20
0.0
 11
11.0
 21
8.5
  0
LINE
  5
25F
100
AcDbEntity
  8
ALL_ASSEMBLY_MEMBERS
100
AcDbLine
 62
7
  6
CONTINUOUS
 10
5.0663433837
 20
5.6461254318
 11
5.0554380029
 21
5.6398213079
  0
LINE
  5
260
100
AcDbEntity
  8
ALL_ASSEMBLY_MEMBERS
100
AcDbLine
 62
7
  6
CONTINUOUS
 10
5.0657992551
 20
5.6246951837
 11
5.0554374193
 21
5.6187053372
  0
LINE
  5
261
100
AcDbEntity
  8
ALL_ASSEMBLY_MEMBERS
100
AcDbLine
 62
7
  6
CONTINUOUS
 10
5.0652893605
 20
5.6032650347
 11
5.0554368635
 21
5.597569681
  0
LINE
  5
262
100
AcDbEntity
  8
ALL_ASSEMBLY_MEMBERS
100
AcDbLine
 62
7
  6
CONTINUOUS
 10
5.2877248772
 20
5.6618339791
 11
5.2898582599
 21
5.6630674689
  0
LINE
  5
263
100
AcDbEntity
  8
ALL_ASSEMBLY_MEMBERS
100
AcDbLine
 62
7
  6
CONTINUOUS
 10
5.2882653446
 20
5.6404064182
 11
5.2989017529
 21
5.6465554837
  0
LINE
  5
264
100
AcDbEntity
  8
ALL_ASSEMBLY_MEMBERS
100
AcDbLine
 62
7
  6
CONTINUOUS
 10
5.2888375224
 20
5.6189782505
 11
5.2989015858
 21
5.6247964044
  0
LINE
  5
265
100
AcDbEntity
  8
ALL_ASSEMBLY_MEMBERS
100
AcDbLine
 62
7
  6
CONTINUOUS
 10
5.2894173738
 20
5.5975499845
 11
5.2989012448
 21
5.6030327016
  0
LINE
  5
266
100
AcDbEntity
  8
ALL_ASSEMBLY_MEMBERS
100
AcDbLine
 62
7
  6
CONTINUOUS
 10
5.0554380029
 20
5.6398213083
 11
5.0552989175
 21
5.639661453
  0
LINE
  5
267
100
AcDbEntity
  8
ALL_ASSEMBLY_MEMBERS
100
AcDbLine
 62
7
  6
CONTINUOUS
 10
5.0554368635
 20
5.5975696785
 11
5.0552989193
 21
5.5974113266
  0
LINE
  5
268
100
AcDbEntity
  8
ALL_ASSEMBLY_MEMBERS
100
AcDbLine
 62
7
  6
CONTINUOUS
 10
5.067298913
 20
5.6660366538
 11
5.057551948
 21
5.6562896887
  0
LINE
  5
269
100
AcDbEntity
  8
ALL_ASSEMBLY_MEMBERS
100
AcDbLine
 62
7
  6
CONTINUOUS
 10
5.299048913
 20
5.6467255806
 11
5.2989017529
 21
5.6465554837
  0
LINE
  5
26A
100
AcDbEntity
  8
ALL_ASSEMBLY_MEMBERS
100
AcDbLine
 62
7
  6
CONTINUOUS
 10
5.2989015858
 20
5.6247964044
 11
5.2990489119
 21
5.62496623
  0
LINE
  5
26B
100
AcDbEntity
  8
ALL_ASSEMBLY_MEMBERS
100
AcDbLine
 62
7
  6
CONTINUOUS
 10
4.605673913
 20
3.5518928464
 11
4.605673913
 21
3.5130623262
  0
LINE
  5
26C
100
AcDbEntity
  8
ALL_ASSEMBLY_MEMBERS
100
AcDbLine
 62
7
  6
CONTINUOUS
 10
4.691173913
 20
3.5991075674
 11
4.691173913
 21
3.591897532
  0
LINE
  5
26D
100
AcDbEntity
  8
ALL_ASSEMBLY_MEMBERS
100
AcDbLine
 62
40
  6
CONTINUOUS
 10
4.891423913
 20
3.9121957049
 11
4.9229157609
 21
3.8934550188
  0
LINE
  5
26E
100
AcDbEntity
  8
ALL_ASSEMBLY_MEMBERS
100
AcDbLine
 62
40
  6
CONTINUOUS
 10
4.934173913
 20
3.9001429482
 11
4.9355869592
 21
3.8988414314
  0
LINE
  5
26F
100
AcDbEntity
  8
ALL_ASSEMBLY_MEMBERS
100
AcDbLine
 62
7
  6
CONTINUOUS
 10
4.820173913
 20
5.5213846797
 11
4.820173913
 21
5.5910366538
  0
LINE
  5
270
100
AcDbEntity
  8
ALL_ASSEMBLY_MEMBERS
100
AcDbLine
 62
40
  6
CONTINUOUS
 10
4.891423913
 20
3.9121957049
 11
4.891423913
 21
3.9077370723
  0
LINE
  5
271
100
AcDbEntity
  8
ALL_ASSEMBLY_MEMBERS
100
AcDbLine
 62
7
  6
CONTINUOUS
 10
4.933423913
 20
5.2262366538
 11
4.933423913
 21
5.2523366538
  0
LINE
  5
272
100
AcDbEntity
  8
ALL_ASSEMBLY_MEMBERS
100
AcDbLine
 62
40
  6
CONTINUOUS
 10
4.934173913
 20
3.9001429482
 11
4.934173913
 21
3.8982869928
  0
LINE
  5
273
100
AcDbEntity
  8
ALL_ASSEMBLY_MEMBERS
100
AcDbLine
 62
7
  6
CONTINUOUS
 10
5.299048913
 20
4.8373616538
 11
5.300023913
 21
4.8383366538
  0
LINE
  5
274
100
AcDbEntity
  8
ALL_ASSEMBLY_MEMBERS
100
AcDbLine
 62
7
  6
CONTINUOUS
 10
5.004673913
 20
3.9398198791
 11
5.004673913
 21
3.7404157668
  0
LINE
  5
275
100
AcDbEntity
  8
ALL_ASSEMBLY_MEMBERS
100
AcDbLine
 62
7
  6
CONTINUOUS
 10
5.041423913
 20
4.0946762641
 11
5.041423913
 21
4.0263426279
  0
LINE
  5
276
100
AcDbEntity
  8
ALL_ASSEMBLY_MEMBERS
100
AcDbLine
 62
7
  6
CONTINUOUS
 10
5.055298913
 20
5.639660544
 11
5.055298913
 21
5.6358477595
  0
LINE
  5
277
100
AcDbEntity
  8
ALL_ASSEMBLY_MEMBERS
100
AcDbLine
 62
7
  6
CONTINUOUS
 10
5.055298913
 20
5.6185452543
 11
5.055298913
 21
5.6141246881
  0
LINE
  5
278
100
AcDbEntity
  8
ALL_ASSEMBLY_MEMBERS
100
AcDbLine
 62
7
  6
CONTINUOUS
 10
5.055298913
 20
5.5974103414
 11
5.055298913
 21
5.5923345204
  0
LINE
  5
279
100
AcDbEntity
  8
ALL_ASSEMBLY_MEMBERS
100
AcDbLine
 62
7
  6
CONTINUOUS
 10
5.055298913
 20
5.4659795231
 11
5.055298913
 21
4.1616147332
  0
LINE
  5
27A
100
AcDbEntity
  8
ALL_ASSEMBLY_MEMBERS
100
AcDbLine
 62
7
  6
CONTINUOUS
 10
5.0651338942
 20
5.6084433217
 11
5.0651338942
 21
5.6030853217
  0
LINE
  5
27B
100
AcDbEntity
  8
ALL_ASSEMBLY_MEMBERS
100
AcDbLine
 62
7
  6
CONTINUOUS
 10
5.0656431232
 20
5.6298726977
 11
5.0656431232
 21
5.6245146977
  0
LINE
  5
27C
100
AcDbEntity
  8
ALL_ASSEMBLY_MEMBERS
100
AcDbLine
 62
7
  6
CONTINUOUS
 10
5.0661864959
 20
5.6513020686
 11
5.0661864959
 21
5.6459440686
  0
LINE
  5
27D
100
AcDbEntity
  8
ALL_ASSEMBLY_MEMBERS
100
AcDbLine
 62
7
  6
CONTINUOUS
 10
5.0552989867
 20
4.1524599683
 11
5.055298913
 21
4.152365212
  0
LINE
  5
27E
100
AcDbEntity
  8
ALL_ASSEMBLY_MEMBERS
100
AcDbLine
 62
7
  6
CONTINUOUS
 10
5.2100455348
 20
3.9750267394
 11
5.2100455348
 21
3.9332096075
  0
LINE
  5
27F
100
AcDbEntity
  8
ALL_ASSEMBLY_MEMBERS
100
AcDbLine
 62
7
  6
CONTINUOUS
 10
5.2161028504
 20
3.8209906153
 11
5.2161028504
 21
3.7467444033
  0
LINE
  5
280
100
AcDbEntity
  8
ALL_ASSEMBLY_MEMBERS
100
AcDbLine
 62
7
  6
CONTINUOUS
 10
5.2748022912
 20
4.0014635745
 11
5.2748022912
 21
3.9596464426
  0
LINE
  5
281
100
AcDbEntity
  8
ALL_ASSEMBLY_MEMBERS
100
AcDbLine
 62
7
  6
CONTINUOUS
 10
5.2878820916
 20
5.6566577422
 11
5.2878820916
 21
5.6620157422
  0
LINE
  5
282
100
AcDbEntity
  8
ALL_ASSEMBLY_MEMBERS
100
AcDbLine
 62
7
  6
CONTINUOUS
 10
5.28842183
 20
5.6352293343
 11
5.28842183
 21
5.6405873343
  0
LINE
  5
283
100
AcDbEntity
  8
ALL_ASSEMBLY_MEMBERS
100
AcDbLine
 62
7
  6
CONTINUOUS
 10
5.2889932056
 20
5.6138002374
 11
5.2889932056
 21
5.6191582374
  0
LINE
  5
284
100
AcDbEntity
  8
ALL_ASSEMBLY_MEMBERS
100
AcDbLine
 62
7
  6
CONTINUOUS
 10
5.2895722405
 20
5.5923710257
 11
5.2895722405
 21
5.5977290257
  0
LINE
  5
285
100
AcDbEntity
  8
ALL_ASSEMBLY_MEMBERS
100
AcDbLine
 62
7
  6
CONTINUOUS
 10
5.299048913
 20
5.6502137668
 11
5.299048913
 21
5.6467255732
  0
LINE
  5
286
100
AcDbEntity
  8
ALL_ASSEMBLY_MEMBERS
100
AcDbLine
 62
7
  6
CONTINUOUS
 10
5.299048913
 20
5.6290964486
 11
5.299048913
 21
5.6249666982
  0
LINE
  5
287
100
AcDbEntity
  8
ALL_ASSEMBLY_MEMBERS
100
AcDbLine
 62
7
  6
CONTINUOUS
 10
5.299048913
 20
5.6079973199
 11
5.299048913
 21
5.6032034382
  0
LINE
  5
288
100
AcDbEntity
  8
ALL_ASSEMBLY_MEMBERS
100
AcDbLine
 62
7
  6
CONTINUOUS
 10
5.3032449757
 20
3.856566239
 11
5.3032449757
 21
3.782320027
  0
LINE
  5
289
100
AcDbEntity
  8
ALL_ASSEMBLY_MEMBERS
100
AcDbLine
 62
7
  6
CONTINUOUS
 10
5.299048913
 20
5.4659795231
 11
5.2990488394
 21
4.1615199768
  0
LINE
  5
28A
100
AcDbEntity
  8
ALL_ASSEMBLY_MEMBERS
100
AcDbLine
 62
9
  6
CONTINUOUS
 10
5.0552989867
 20
4.1524599683
 11
5.0560090339
 21
4.152749292
  0
LINE
  5
28B
100
AcDbEntity
  8
ALL_ASSEMBLY_MEMBERS
100
AcDbLine
 62
7
  6
CONTINUOUS
 10
5.312923913
 20
4.0946762641
 11
5.312923913
 21
4.0263426279
  0
LINE
  5
28C
100
AcDbEntity
  8
ALL_ASSEMBLY_MEMBERS
100
AcDbLine
 62
7
  6
CONTINUOUS
 10
5.349673913
 20
3.9398198791
 11
5.349673913
 21
3.7404157668
  0
LINE
  5
28D
100
AcDbEntity
  8
ALL_ASSEMBLY_MEMBERS
100
AcDbLine
 62
7
  6
CONTINUOUS
 10
5.420923913
 20
5.2262366538
 11
5.420923913
 21
5.2523366538
  0
LINE
  5
28E
100
AcDbEntity
  8
ALL_ASSEMBLY_MEMBERS
100
AcDbLine
 62
7
  6
CONTINUOUS
 10
5.534173913
 20
5.5213846797
 11
5.534173913
 21
5.5910366538
  0
LINE
  5
28F
100
AcDbEntity
  8
ALL_ASSEMBLY_MEMBERS
100
AcDbLine
 62
7
  6
CONTINUOUS
 10
5.055298913
 20
4.8373616538
 11
5.054323913
 21
4.8383366538
  0
LINE
  5
290
100
AcDbEntity
  8
ALL_ASSEMBLY_MEMBERS
100
AcDbLine
 62
7
  6
CONTINUOUS
 10
5.663173913
 20
3.5991075674
 11
5.663173913
 21
3.591897532
  0
LINE
  5
291
100
AcDbEntity
  8
ALL_ASSEMBLY_MEMBERS
100
AcDbLine
 62
7
  6
CONTINUOUS
 10
5.3032449757
 20
3.856566239
 11
5.2161028504
 21
3.8209906153
  0
LINE
  5
292
100
AcDbEntity
  8
ALL_ASSEMBLY_MEMBERS
100
AcDbLine
 62
9
  6
CONTINUOUS
 10
5.299048913
 20
4.7660366538
 11
5.055298913
 21
4.7660366538
  0
LINE
  5
293
100
AcDbEntity
  8
ALL_ASSEMBLY_MEMBERS
100
AcDbLine
 62
7
  6
CONTINUOUS
 10
5.748673913
 20
3.5518928464
 11
5.748673913
 21
3.5130623262
  0
LINE
  5
294
100
AcDbEntity
  8
ALL_ASSEMBLY_MEMBERS
100
AcDbLine
 62
7
  6
CONTINUOUS
 10
5.3032449757
 20
3.782320027
 11
5.2161028504
 21
3.7467444033
  0
LINE
  5
295
100
AcDbEntity
  8
ALL_ASSEMBLY_MEMBERS
100
AcDbLine
 62
7
  6
CONTINUOUS
 10
5.055298913
 20
4.8383366538
 11
5.054323913
 21
4.8383366538
  0
LINE
  5
296
100
AcDbEntity
  8
ALL_ASSEMBLY_MEMBERS
100
AcDbLine
 62
7
  6
CONTINUOUS
 10
5.299048913
 20
4.8383366538
 11
5.300023913
 21
4.8383366538
  0
LINE
  5
297
100
AcDbEntity
  8
ALL_ASSEMBLY_MEMBERS
100
AcDbLine
 62
7
  6
CONTINUOUS
 10
5.0554456997
 20
5.5921648619
 11
5.0552989169
 21
5.5923336516
  0
LINE
  5
298
100
AcDbEntity
  8
ALL_ASSEMBLY_MEMBERS
100
AcDbLine
 62
7
  6
CONTINUOUS
 10
5.0554462933
 20
5.6356774097
 11
5.0552989152
 21
5.6358471088
  0
LINE
  5
299
100
AcDbEntity
  8
ALL_ASSEMBLY_MEMBERS
100
AcDbLine
 62
7
  6
CONTINUOUS
 10
5.055298913
 20
5.2262366538
 11
4.933423913
 21
5.2262366538
  0
LINE
  5
29A
100
AcDbEntity
  8
ALL_ASSEMBLY_MEMBERS
100
AcDbLine
 62
7
  6
CONTINUOUS
 10
5.299048913
 20
5.2262366538
 11
5.420923913
 21
5.2262366538
  0
LINE
  5
29B
100
AcDbEntity
  8
ALL_ASSEMBLY_MEMBERS
100
AcDbLine
 62
7
  6
CONTINUOUS
 10
5.055298913
 20
5.2523366538
 11
4.9332738974
 21
5.2523366538
  0
LINE
  5
29C
100
AcDbEntity
  8
ALL_ASSEMBLY_MEMBERS
100
AcDbLine
 62
7
  6
CONTINUOUS
 10
5.299048913
 20
5.2523366538
 11
5.4210747152
 21
5.2523366538
  0
LINE
  5
29D
100
AcDbEntity
  8
ALL_ASSEMBLY_MEMBERS
100
AcDbLine
 62
7
  6
CONTINUOUS
 10
5.298910185
 20
5.6292567814
 11
5.2990489114
 21
5.6290969974
  0
LINE
  5
29E
100
AcDbEntity
  8
ALL_ASSEMBLY_MEMBERS
100
AcDbLine
 62
7
  6
CONTINUOUS
 10
5.055298913
 20
5.3087366538
 11
4.877173913
 21
5.3087366538
  0
LINE
  5
29F
100
AcDbEntity
  8
ALL_ASSEMBLY_MEMBERS
100
AcDbLine
 62
7
  6
CONTINUOUS
 10
5.299048913
 20
5.3087366538
 11
5.477173913
 21
5.3087366538
  0
LINE
  5
2A0
100
AcDbEntity
  8
ALL_ASSEMBLY_MEMBERS
100
AcDbLine
 62
7
  6
CONTINUOUS
 10
6.0042255349
 20
5.3648366538
 11
5.299048913
 21
5.3648366538
  0
LINE
  5
2A1
100
AcDbEntity
  8
ALL_ASSEMBLY_MEMBERS
100
AcDbLine
 62
7
  6
CONTINUOUS
 10
5.055298913
 20
5.3648366538
 11
4.3501222912
 21
5.3648366538
  0
LINE
  5
2A2
100
AcDbEntity
  8
ALL_ASSEMBLY_MEMBERS
100
AcDbLine
 62
7
  6
CONTINUOUS
 10
5.0554456997
 20
5.5921648615
 11
5.0573974189
 21
5.5910366538
  0
LINE
  5
2A3
100
AcDbEntity
  8
ALL_ASSEMBLY_MEMBERS
100
AcDbLine
 62
7
  6
CONTINUOUS
 10
5.0554469959
 20
5.6139536261
 11
5.0650949734
 21
5.6083760051
  0
LINE
  5
2A4
100
AcDbEntity
  8
ALL_ASSEMBLY_MEMBERS
100
AcDbLine
 62
7
  6
CONTINUOUS
 10
5.0554462933
 20
5.6356774097
 11
5.0656040337
 21
5.6298050898
  0
LINE
  5
2A5
100
AcDbEntity
  8
ALL_ASSEMBLY_MEMBERS
100
AcDbLine
 62
7
  6
CONTINUOUS
 10
5.287048913
 20
5.6660366538
 11
5.2899009098
 21
5.663184657
  0
LINE
  5
2A6
100
AcDbEntity
  8
ALL_ASSEMBLY_MEMBERS
100
AcDbLine
 62
7
  6
CONTINUOUS
 10
5.3113384032
 20
5.4659795231
 11
5.3123438842
 21
5.4660358657
  0
LINE
  5
2A7
100
AcDbEntity
  8
ALL_ASSEMBLY_MEMBERS
100
AcDbLine
 62
9
  6
CONTINUOUS
 10
6.069349724
 20
5.4026366538
 11
5.299048913
 21
5.4026366538
  0
LINE
  5
2A8
100
AcDbEntity
  8
ALL_ASSEMBLY_MEMBERS
100
AcDbLine
 62
9
  6
CONTINUOUS
 10
5.055298913
 20
5.4026366538
 11
4.2849981021
 21
5.4026366538
  0
LINE
  5
2A9
100
AcDbEntity
  8
ALL_ASSEMBLY_MEMBERS
100
AcDbLine
 62
7
  6
CONTINUOUS
 10
6.1344487664
 20
5.4404366496
 11
5.299048913
 21
5.4404366496
  0
LINE
  5
2AA
100
AcDbEntity
  8
ALL_ASSEMBLY_MEMBERS
100
AcDbLine
 62
7
  6
CONTINUOUS
 10
5.055298913
 20
5.4404366496
 11
4.2198990597
 21
5.4404366496
  0
LINE
  5
2AB
100
AcDbEntity
  8
ALL_ASSEMBLY_MEMBERS
100
AcDbLine
 62
7
  6
CONTINUOUS
 10
5.0430094229
 20
5.4659795231
 11
5.3113384032
 21
5.4659795231
  0
LINE
  5
2AC
100
AcDbEntity
  8
ALL_ASSEMBLY_MEMBERS
100
AcDbLine
 62
9
  6
CONTINUOUS
 10
5.3123438842
 20
5.4660358657
 11
5.0420039419
 21
5.4660358657
  0
LINE
  5
2AD
100
AcDbEntity
  8
ALL_ASSEMBLY_MEMBERS
100
AcDbLine
 62
9
  6
CONTINUOUS
 10
6.1995501956
 20
5.4782374795
 11
5.3964596859
 21
5.4782374795
  0
LINE
  5
2AE
100
AcDbEntity
  8
ALL_ASSEMBLY_MEMBERS
100
AcDbLine
 62
9
  6
CONTINUOUS
 10
4.9578881402
 20
5.4782374795
 11
4.1547976305
 21
5.4782374795
  0
LINE
  5
2AF
100
AcDbEntity
  8
ALL_ASSEMBLY_MEMBERS
100
AcDbLine
 62
9
  6
CONTINUOUS
 10
5.5231924768
 20
5.5069329965
 11
4.8311553493
 21
5.5069329965
  0
LINE
  5
2B0
100
AcDbEntity
  8
ALL_ASSEMBLY_MEMBERS
100
AcDbLine
 62
7
  6
CONTINUOUS
 10
6.264673913
 20
5.5160366538
 11
5.5331781256
 21
5.5160366538
  0
LINE
  5
2B1
100
AcDbEntity
  8
ALL_ASSEMBLY_MEMBERS
100
AcDbLine
 62
7
  6
CONTINUOUS
 10
4.8211697004
 20
5.5160366538
 11
4.089673913
 21
5.5160366538
  0
LINE
  5
2B2
100
AcDbEntity
  8
ALL_ASSEMBLY_MEMBERS
100
AcDbLine
 62
7
  6
CONTINUOUS
 10
5.0430094229
 20
5.4659795231
 11
5.0420039419
 21
5.4660358657
  0
LINE
  5
2B3
100
AcDbEntity
  8
ALL_ASSEMBLY_MEMBERS
100
AcDbLine
 62
7
  6
CONTINUOUS
 10
5.2920352838
 20
5.5910366538
 11
5.2896110276
 21
5.5924381178
  0
LINE
  5
2B4
100
AcDbEntity
  8
ALL_ASSEMBLY_MEMBERS
100
AcDbLine
 62
7
  6
CONTINUOUS
 10
5.2989103639
 20
5.6081574577
 11
5.2890321975
 21
5.6138676828
  0
LINE
  5
2B5
100
AcDbEntity
  8
ALL_ASSEMBLY_MEMBERS
100
AcDbLine
 62
7
  6
CONTINUOUS
 10
5.2981696992
 20
5.6296847913
 11
5.2884610233
 21
5.635297127
  0
LINE
  5
2B6
100
AcDbEntity
  8
ALL_ASSEMBLY_MEMBERS
100
AcDbLine
 62
7
  6
CONTINUOUS
 10
5.298910185
 20
5.6292567814
 11
5.2981696992
 21
5.6296847913
  0
LINE
  5
2B7
100
AcDbEntity
  8
ALL_ASSEMBLY_MEMBERS
100
AcDbLine
 62
7
  6
CONTINUOUS
 10
5.0575918618
 20
5.6561802122
 11
5.0661472155
 21
5.6512341309
  0
LINE
  5
2B8
100
AcDbEntity
  8
ALL_ASSEMBLY_MEMBERS
100
AcDbLine
 62
9
  6
CONTINUOUS
 10
5.534173913
 20
5.5213846797
 11
4.820173913
 21
5.5213846797
  0
LINE
  5
2B9
100
AcDbEntity
  8
ALL_ASSEMBLY_MEMBERS
100
AcDbLine
 62
7
  6
CONTINUOUS
 10
6.339673913
 20
5.5910366538
 11
4.014673913
 21
5.5910366538
  0
LINE
  5
2BA
100
AcDbEntity
  8
ALL_ASSEMBLY_MEMBERS
100
AcDbLine
 62
7
  6
CONTINUOUS
 10
5.2976284636
 20
5.651114473
 11
5.2879214696
 21
5.6567258542
  0
LINE
  5
2BB
100
AcDbEntity
  8
ALL_ASSEMBLY_MEMBERS
100
AcDbLine
 62
7
  6
CONTINUOUS
 10
5.2989111231
 20
5.6503730821
 11
5.2976284636
 21
5.651114473
  0
LINE
  5
2BC
100
AcDbEntity
  8
ALL_ASSEMBLY_MEMBERS
100
AcDbLine
 62
7
  6
CONTINUOUS
 10
5.287048913
 20
5.6660366538
 11
5.067298913
 21
5.6660366538
  0
ARC
  5
2BD
100
AcDbEntity
  8
ALL_ASSEMBLY_MEMBERS
100
AcDbCircle
 62
7
  6
CONTINUOUS
 10
4.156816973
 20
4.7713941969
 40
0.9
100
AcDbArc
 50
4.2656285905
 51
30.3566145709
  0
ARC
  5
2BE
100
AcDbEntity
  8
ALL_ASSEMBLY_MEMBERS
100
AcDbCircle
 62
7
  6
CONTINUOUS
 10
4.2199242074
 20
5.5154399386
 40
0.0750032932
100
AcDbArc
 50
209.7364395186
 51
269.9807893772
  0
ARC
  5
2BF
100
AcDbEntity
  8
ALL_ASSEMBLY_MEMBERS
100
AcDbCircle
 62
7
  6
CONTINUOUS
 10
4.3501222912
 20
5.4398366538
 40
0.075
100
AcDbArc
 50
209.7357131076
 51
270.0
  0
ARC
  5
2C0
100
AcDbEntity
  8
ALL_ASSEMBLY_MEMBERS
100
AcDbCircle
 62
7
  6
CONTINUOUS
 10
4.219873913
 20
5.3654366538
 40
0.075
100
AcDbArc
 50
29.7357131076
 51
89.9807893772
  0
ARC
  5
2C1
100
AcDbEntity
  8
ALL_ASSEMBLY_MEMBERS
100
AcDbCircle
 62
7
  6
CONTINUOUS
 10
4.089673913
 20
5.4410366538
 40
0.075
100
AcDbArc
 50
29.7364395186
 51
90.0
  0
ARC
  5
2C2
100
AcDbEntity
  8
ALL_ASSEMBLY_MEMBERS
100
AcDbCircle
 62
7
  6
CONTINUOUS
 10
4.089673913
 20
5.5910366538
 40
0.075
100
AcDbArc
 50
180.0
 51
270.0
  0
ARC
  5
2C3
100
AcDbEntity
  8
ALL_ASSEMBLY_MEMBERS
100
AcDbCircle
 62
7
  6
CONTINUOUS
 10
4.8554925789
 20
3.4228826095
 40
0.3232986527
100
AcDbArc
 50
176.7909905725
 51
188.3573732818
  0
ARC
  5
2C4
100
AcDbEntity
  8
ALL_ASSEMBLY_MEMBERS
100
AcDbCircle
 62
9
  6
CONTINUOUS
 10
4.8926640292
 20
3.5519291427
 40
0.2869896281
100
AcDbArc
 50
180.0072463522
 51
187.6993715491
  0
ARC
  5
2C5
100
AcDbEntity
  8
ALL_ASSEMBLY_MEMBERS
100
AcDbCircle
 62
9
  6
CONTINUOUS
 10
4.9344223229
 20
3.5991145458
 40
0.243247993
100
AcDbArc
 50
180.0016437407
 51
181.6987277914
  0
ARC
  5
2C6
100
AcDbEntity
  8
ALL_ASSEMBLY_MEMBERS
100
AcDbCircle
 62
7
  6
CONTINUOUS
 10
5.1427409116
 20
3.3000396602
 40
0.6576612821
100
AcDbArc
 50
111.9114203464
 51
112.2075224861
  0
ARC
  5
2C7
100
AcDbEntity
  8
ALL_ASSEMBLY_MEMBERS
100
AcDbCircle
 62
9
  6
CONTINUOUS
 10
5.1409779857
 20
3.313289241
 40
0.642602428
100
AcDbArc
 50
112.2075552832
 51
112.5062899718
  0
ARC
  5
2C8
100
AcDbEntity
  8
ALL_ASSEMBLY_MEMBERS
100
AcDbCircle
 62
7
  6
CONTINUOUS
 10
5.1586806974
 20
3.3485238881
 40
0.5938534798
100
AcDbArc
 50
105.0338463393
 51
112.013050256
  0
ARC
  5
2C9
100
AcDbEntity
  8
ALL_ASSEMBLY_MEMBERS
100
AcDbCircle
 62
9
  6
CONTINUOUS
 10
5.1583139113
 20
3.352943539
 40
0.5884353231
100
AcDbArc
 50
105.1380279915
 51
112.1424117478
  0
ARC
  5
2CA
100
AcDbEntity
  8
ALL_ASSEMBLY_MEMBERS
100
AcDbCircle
 62
7
  6
CONTINUOUS
 10
5.146651318
 20
3.3799328862
 40
0.5602257627
100
AcDbArc
 50
112.076482931
 51
112.2076274088
  0
ARC
  5
2CB
100
AcDbEntity
  8
ALL_ASSEMBLY_MEMBERS
100
AcDbCircle
 62
7
  6
CONTINUOUS
 10
5.1084897686
 20
3.9249223585
 40
0.0700675054
100
AcDbArc
 50
171.5437847129
 51
175.5966886348
  0
ARC
  5
2CC
100
AcDbEntity
  8
ALL_ASSEMBLY_MEMBERS
100
AcDbCircle
 62
7
  6
CONTINUOUS
 10
5.1209157263
 20
4.1042726923
 40
0.0659940603
100
AcDbArc
 50
203.7481354411
 51
205.6398350016
  0
ARC
  5
2CD
100
AcDbEntity
  8
ALL_ASSEMBLY_MEMBERS
100
AcDbCircle
 62
7
  6
CONTINUOUS
 10
5.1181193623
 20
4.118042435
 40
0.0629715398
100
AcDbArc
 50
196.7772676467
 51
203.3429046854
  0
ARC
  5
2CE
100
AcDbEntity
  8
ALL_ASSEMBLY_MEMBERS
100
AcDbCircle
 62
7
  6
CONTINUOUS
 10
5.1179872823
 20
4.1228131326
 40
0.0628419372
100
AcDbArc
 50
198.4881016415
 51
200.0544044727
  0
ARC
  5
2CF
100
AcDbEntity
  8
ALL_ASSEMBLY_MEMBERS
100
AcDbCircle
 62
7
  6
CONTINUOUS
 10
5.1158363581
 20
4.1024390182
 40
0.0605872036
100
AcDbArc
 50
194.3820612654
 51
194.6799075767
  0
ARC
  5
2D0
100
AcDbEntity
  8
ALL_ASSEMBLY_MEMBERS
100
AcDbCircle
 62
7
  6
CONTINUOUS
 10
5.1157596067
 20
4.1220974116
 40
0.0605022787
100
AcDbArc
 50
188.8197613031
 51
198.5142680901
  0
ARC
  5
2D1
100
AcDbEntity
  8
ALL_ASSEMBLY_MEMBERS
100
AcDbCircle
 62
7
  6
CONTINUOUS
 10
5.1154347435
 20
4.1172423837
 40
0.0601702586
100
AcDbArc
 50
191.6086200039
 51
196.7857653859
  0
ARC
  5
2D2
100
AcDbEntity
  8
ALL_ASSEMBLY_MEMBERS
100
AcDbCircle
 62
7
  6
CONTINUOUS
 10
5.11369124
 20
4.1019658903
 40
0.0583918403
100
AcDbArc
 50
180.0491953977
 51
194.4551806461
  0
ARC
  5
2D3
100
AcDbEntity
  8
ALL_ASSEMBLY_MEMBERS
100
AcDbCircle
 62
7
  6
CONTINUOUS
 10
5.1135243229
 20
4.1168753927
 40
0.0582250731
100
AcDbArc
 50
180.0244344871
 51
191.6331626993
  0
ARC
  5
2D4
100
AcDbEntity
  8
ALL_ASSEMBLY_MEMBERS
100
AcDbCircle
 62
7
  6
CONTINUOUS
 10
5.1133159839
 20
4.1216398451
 40
0.058017445
100
AcDbArc
 50
183.011305218
 51
188.7432416032
  0
ARC
  5
2D5
100
AcDbEntity
  8
ALL_ASSEMBLY_MEMBERS
100
AcDbCircle
 62
7
  6
CONTINUOUS
 10
5.1131322464
 20
4.1062362418
 40
0.0578329922
100
AcDbArc
 50
180.0097244417
 51
186.3902668233
  0
ARC
  5
2D6
100
AcDbEntity
  8
ALL_ASSEMBLY_MEMBERS
100
AcDbCircle
 62
7
  6
CONTINUOUS
 10
5.1130043879
 20
4.1216108179
 40
0.0577049674
100
AcDbArc
 50
174.9702256664
 51
180.0023263038
  0
ARC
  5
2D7
100
AcDbEntity
  8
ALL_ASSEMBLY_MEMBERS
100
AcDbCircle
 62
7
  6
CONTINUOUS
 10
5.1129577422
 20
4.1216136436
 40
0.057658322
100
AcDbArc
 50
180.0051360896
 51
183.0040055636
  0
ARC
  5
2D8
100
AcDbEntity
  8
ALL_ASSEMBLY_MEMBERS
100
AcDbCircle
 62
7
  6
CONTINUOUS
 10
5.1128374975
 20
4.1062285935
 40
0.0575382424
100
AcDbArc
 50
174.715803877
 51
180.0021582107
  0
ARC
  5
2D9
100
AcDbEntity
  8
ALL_ASSEMBLY_MEMBERS
100
AcDbCircle
 62
7
  6
CONTINUOUS
 10
5.121175414
 20
4.1627059459
 40
0.0660090972
100
AcDbArc
 50
195.6643104308
 51
201.1933749043
  0
ARC
  5
2DA
100
AcDbEntity
  8
ALL_ASSEMBLY_MEMBERS
100
AcDbCircle
 62
7
  6
CONTINUOUS
 10
5.1206159759
 20
4.1339700843
 40
0.0656647815
100
AcDbArc
 50
203.0195452387
 51
205.4853256677
  0
ARC
  5
2DB
100
AcDbEntity
  8
ALL_ASSEMBLY_MEMBERS
100
AcDbCircle
 62
7
  6
CONTINUOUS
 10
5.1204049073
 20
4.1488177777
 40
0.065435799
100
AcDbArc
 50
202.7347401245
 51
204.5338229948
  0
ARC
  5
2DC
100
AcDbEntity
  8
ALL_ASSEMBLY_MEMBERS
100
AcDbCircle
 62
7
  6
CONTINUOUS
 10
5.1190173684
 20
4.1482374691
 40
0.0639317972
100
AcDbArc
 50
199.1654012205
 51
202.7356496118
  0
ARC
  5
2DD
100
AcDbEntity
  8
ALL_ASSEMBLY_MEMBERS
100
AcDbCircle
 62
7
  6
CONTINUOUS
 10
5.1187686326
 20
4.1619975641
 40
0.063500448
100
AcDbArc
 50
190.4753653523
 51
195.6352207355
  0
ARC
  5
2DE
100
AcDbEntity
  8
ALL_ASSEMBLY_MEMBERS
100
AcDbCircle
 62
7
  6
CONTINUOUS
 10
5.1179514997
 20
4.1381694479
 40
0.0628041735
100
AcDbArc
 50
198.8820720596
 51
199.7990317768
  0
ARC
  5
2DF
100
AcDbEntity
  8
ALL_ASSEMBLY_MEMBERS
100
AcDbCircle
 62
7
  6
CONTINUOUS
 10
5.1174462707
 20
4.1327130177
 40
0.06225596
100
AcDbArc
 50
194.4005410117
 51
203.0954992828
  0
ARC
  5
2E0
100
AcDbEntity
  8
ALL_ASSEMBLY_MEMBERS
100
AcDbCircle
 62
7
  6
CONTINUOUS
 10
5.1168735356
 20
4.1474876865
 40
0.0616606361
100
AcDbArc
 50
193.6395607587
 51
199.1613002339
  0
ARC
  5
2E1
100
AcDbEntity
  8
ALL_ASSEMBLY_MEMBERS
100
AcDbCircle
 62
7
  6
CONTINUOUS
 10
5.1169449673
 20
4.1616614718
 40
0.0616460715
100
AcDbArc
 50
180.0434403184
 51
190.4763644324
  0
ARC
  5
2E2
100
AcDbEntity
  8
ALL_ASSEMBLY_MEMBERS
100
AcDbCircle
 62
7
  6
CONTINUOUS
 10
5.1146269356
 20
4.1469208377
 40
0.0593437271
100
AcDbArc
 50
187.9493762471
 51
193.6192034853
  0
ARC
  5
2E3
100
AcDbEntity
  8
ALL_ASSEMBLY_MEMBERS
100
AcDbCircle
 62
7
  6
CONTINUOUS
 10
5.1145360759
 20
4.1319660175
 40
0.059251423
100
AcDbArc
 50
188.7402256362
 51
194.4007658681
  0
ARC
  5
2E4
100
AcDbEntity
  8
ALL_ASSEMBLY_MEMBERS
100
AcDbCircle
 62
7
  6
CONTINUOUS
 10
5.1132224825
 20
4.1467053789
 40
0.0579229755
100
AcDbArc
 50
180.0065263872
 51
187.9304284637
  0
ARC
  5
2E5
100
AcDbEntity
  8
ALL_ASSEMBLY_MEMBERS
100
AcDbCircle
 62
7
  6
CONTINUOUS
 10
5.1131814598
 20
4.1317653124
 40
0.0578820398
100
AcDbArc
 50
180.0073625032
 51
188.7476160308
  0
ARC
  5
2E6
100
AcDbEntity
  8
ALL_ASSEMBLY_MEMBERS
100
AcDbCircle
 62
7
  6
CONTINUOUS
 10
5.1131745295
 20
4.1369916816
 40
0.0578750696
100
AcDbArc
 50
180.0067638719
 51
188.4963805494
  0
ARC
  5
2E7
100
AcDbEntity
  8
ALL_ASSEMBLY_MEMBERS
100
AcDbCircle
 62
7
  6
CONTINUOUS
 10
5.1130124939
 20
4.1369788962
 40
0.0577130339
100
AcDbArc
 50
175.1147496412
 51
179.9940899608
  0
ARC
  5
2E8
100
AcDbEntity
  8
ALL_ASSEMBLY_MEMBERS
100
AcDbCircle
 62
7
  6
CONTINUOUS
 10
5.1127242413
 20
4.1523660252
 40
0.0574253314
100
AcDbArc
 50
175.4846319732
 51
179.9062687361
  0
ARC
  5
2E9
100
AcDbEntity
  8
ALL_ASSEMBLY_MEMBERS
100
AcDbCircle
 62
7
  6
CONTINUOUS
 10
5.1264238944
 20
4.08758165
 40
0.0865807062
100
AcDbArc
 50
145.2757263769
 51
147.7997210205
  0
ARC
  5
2EA
100
AcDbEntity
  8
ALL_ASSEMBLY_MEMBERS
100
AcDbCircle
 62
7
  6
CONTINUOUS
 10
5.1345930797
 20
4.113181297
 40
0.0823662252
100
AcDbArc
 50
220.0808074848
 51
220.598935167
  0
ARC
  5
2EB
100
AcDbEntity
  8
ALL_ASSEMBLY_MEMBERS
100
AcDbCircle
 62
7
  6
CONTINUOUS
 10
5.1330093966
 20
4.1118682909
 40
0.0803090901
100
AcDbArc
 50
217.6612681655
 51
220.0915463475
  0
ARC
  5
2EC
100
AcDbEntity
  8
ALL_ASSEMBLY_MEMBERS
100
AcDbCircle
 62
7
  6
CONTINUOUS
 10
5.1319268824
 20
4.1259211992
 40
0.0789233645
100
AcDbArc
 50
215.8262580877
 51
219.9925341526
  0
ARC
  5
2ED
100
AcDbEntity
  8
ALL_ASSEMBLY_MEMBERS
100
AcDbCircle
 62
7
  6
CONTINUOUS
 10
5.1310628439
 20
4.1103699914
 40
0.0778526785
100
AcDbArc
 50
215.8521474023
 51
217.6636373758
  0
ARC
  5
2EE
100
AcDbEntity
  8
ALL_ASSEMBLY_MEMBERS
100
AcDbCircle
 62
7
  6
CONTINUOUS
 10
5.1300474553
 20
4.1096338104
 40
0.0765984965
100
AcDbArc
 50
215.1781009795
 51
215.8506596652
  0
ARC
  5
2EF
100
AcDbEntity
  8
ALL_ASSEMBLY_MEMBERS
100
AcDbCircle
 62
7
  6
CONTINUOUS
 10
5.1298935689
 20
4.1244382978
 40
0.0764067781
100
AcDbArc
 50
214.7822243999
 51
215.8171305192
  0
ARC
  5
2F0
100
AcDbEntity
  8
ALL_ASSEMBLY_MEMBERS
100
AcDbCircle
 62
7
  6
CONTINUOUS
 10
5.136011484
 20
4.1341892881
 40
0.0842792873
100
AcDbArc
 50
220.5488126579
 51
222.5213826251
  0
ARC
  5
2F1
100
AcDbEntity
  8
ALL_ASSEMBLY_MEMBERS
100
AcDbCircle
 62
7
  6
CONTINUOUS
 10
5.129543882
 20
4.139110523
 40
0.0759811651
100
AcDbArc
 50
214.41774921
 51
215.7480520412
  0
ARC
  5
2F2
100
AcDbEntity
  8
ALL_ASSEMBLY_MEMBERS
100
AcDbCircle
 62
7
  6
CONTINUOUS
 10
5.1299644876
 20
4.1669532227
 40
0.0757883928
100
AcDbArc
 50
210.3128024158
 51
212.2409263035
  0
ARC
  5
2F3
100
AcDbEntity
  8
ALL_ASSEMBLY_MEMBERS
100
AcDbCircle
 62
7
  6
CONTINUOUS
 10
5.1289732667
 20
4.1536512632
 40
0.0752868095
100
AcDbArc
 50
214.0939746398
 51
214.6527843941
  0
ARC
  5
2F4
100
AcDbEntity
  8
ALL_ASSEMBLY_MEMBERS
100
AcDbCircle
 62
7
  6
CONTINUOUS
 10
5.1771723027
 20
3.8897562987
 40
0.14670156
100
AcDbArc
 50
22.3316374299
 51
34.8899615237
  0
ARC
  5
2F5
100
AcDbEntity
  8
ALL_ASSEMBLY_MEMBERS
100
AcDbCircle
 62
7
  6
CONTINUOUS
 10
5.1771454201
 20
3.8897719069
 40
0.1466676976
100
AcDbArc
 50
145.1035572105
 51
157.7286208033
  0
ARC
  5
2F6
100
AcDbEntity
  8
ALL_ASSEMBLY_MEMBERS
100
AcDbCircle
 62
7
  6
CONTINUOUS
 10
5.1738337052
 20
4.209634641
 40
0.1618523453
100
AcDbArc
 50
270.572515466
 51
271.2007027693
  0
ARC
  5
2F7
100
AcDbEntity
  8
ALL_ASSEMBLY_MEMBERS
100
AcDbCircle
 62
7
  6
CONTINUOUS
 10
5.1738406165
 20
4.1934295228
 40
0.1603528953
100
AcDbArc
 50
271.1947911316
 51
271.9020530288
  0
ARC
  5
2F8
100
AcDbEntity
  8
ALL_ASSEMBLY_MEMBERS
100
AcDbCircle
 62
7
  6
CONTINUOUS
 10
5.1738450428
 20
4.1785186115
 40
0.1602304187
100
AcDbArc
 50
270.3444314065
 51
271.20281826
  0
ARC
  5
2F9
100
AcDbEntity
  8
ALL_ASSEMBLY_MEMBERS
100
AcDbCircle
 62
7
  6
CONTINUOUS
 10
5.1615217394
 20
6.8075844786
 40
1.35
100
AcDbArc
 50
276.4144817261
 51
285.5395954904
  0
ARC
  5
2FA
100
AcDbEntity
  8
ALL_ASSEMBLY_MEMBERS
100
AcDbCircle
 62
7
  6
CONTINUOUS
 10
4.8793147464
 20
5.3648366538
 40
0.0561408333
100
AcDbArc
 50
180.0
 51
267.8145949287
  0
ARC
  5
2FB
100
AcDbEntity
  8
ALL_ASSEMBLY_MEMBERS
100
AcDbCircle
 62
7
  6
CONTINUOUS
 10
4.9332731109
 20
5.3084366538
 40
0.0561
100
AcDbArc
 50
179.6936039968
 51
270.0
  0
ARC
  5
2FC
100
AcDbEntity
  8
ALL_ASSEMBLY_MEMBERS
100
AcDbCircle
 62
7
  6
CONTINUOUS
 10
4.835173913
 20
5.5213846797
 40
0.015
100
AcDbArc
 50
180.0
 51
254.4604045096
  0
ARC
  5
2FD
100
AcDbEntity
  8
ALL_ASSEMBLY_MEMBERS
100
AcDbCircle
 62
7
  6
CONTINUOUS
 10
4.7574690549
 20
20.935205756
 40
15.3214058882
100
AcDbArc
 50
271.5697205404
 51
271.7978451176
  0
ARC
  5
2FE
100
AcDbEntity
  8
ALL_ASSEMBLY_MEMBERS
100
AcDbCircle
 62
7
  6
CONTINUOUS
 10
4.793806152
 20
19.7684981311
 40
14.1709846889
100
AcDbArc
 50
271.5502123072
 51
271.7968551047
  0
ARC
  5
2FF
100
AcDbEntity
  8
ALL_ASSEMBLY_MEMBERS
100
AcDbCircle
 62
7
  6
CONTINUOUS
 10
5.2173052552
 20
3.7195639416
 40
0.7470580909
100
AcDbArc
 50
291.723962656
 51
292.2074729952
  0
ARC
  5
300
100
AcDbEntity
  8
ALL_ASSEMBLY_MEMBERS
100
AcDbCircle
 62
7
  6
CONTINUOUS
 10
5.2160800751
 20
3.7055673467
 40
0.7391795193
100
AcDbArc
 50
292.2080541089
 51
292.7131537394
  0
ARC
  5
301
100
AcDbEntity
  8
ALL_ASSEMBLY_MEMBERS
100
AcDbCircle
 62
7
  6
CONTINUOUS
 10
5.245820299
 20
3.9249132228
 40
0.0701060232
100
AcDbArc
 50
4.412963923
 51
8.4552073895
  0
ARC
  5
302
100
AcDbEntity
  8
ALL_ASSEMBLY_MEMBERS
100
AcDbCircle
 62
7
  6
CONTINUOUS
 10
5.1771740756
 20
4.0423136804
 40
0.2048473969
100
AcDbArc
 50
269.014111116
 51
270.9869216489
  0
ARC
  5
303
100
AcDbEntity
  8
ALL_ASSEMBLY_MEMBERS
100
AcDbCircle
 62
7
  6
CONTINUOUS
 10
5.185954289
 20
4.0069596368
 40
0.168261382
100
AcDbArc
 50
291.1873474425
 51
292.2068449397
  0
ARC
  5
304
100
AcDbEntity
  8
ALL_ASSEMBLY_MEMBERS
100
AcDbCircle
 62
7
  6
CONTINUOUS
 10
5.1865859067
 20
3.9975037987
 40
0.1586605964
100
AcDbArc
 50
292.2056797054
 51
293.2853448654
  0
ARC
  5
305
100
AcDbEntity
  8
ALL_ASSEMBLY_MEMBERS
100
AcDbCircle
 62
7
  6
CONTINUOUS
 10
5.177173913
 20
4.5199616538
 40
0.1245
100
AcDbArc
 50
168.278685863
 51
191.721314137
  0
ARC
  5
306
100
AcDbEntity
  8
ALL_ASSEMBLY_MEMBERS
100
AcDbCircle
 62
7
  6
CONTINUOUS
 10
5.177173913
 20
4.5199616538
 40
0.1245
100
AcDbArc
 50
348.223641963
 51
11.721314137
  0
ARC
  5
307
100
AcDbEntity
  8
ALL_ASSEMBLY_MEMBERS
100
AcDbCircle
 62
7
  6
CONTINUOUS
 10
5.2249370192
 20
4.1038406457
 40
0.0902147848
100
AcDbArc
 50
323.8597262891
 51
324.2259649404
  0
ARC
  5
308
100
AcDbEntity
  8
ALL_ASSEMBLY_MEMBERS
100
AcDbCircle
 62
7
  6
CONTINUOUS
 10
5.2192725867
 20
4.1306205153
 40
0.0811558635
100
AcDbArc
 50
326.7591452071
 51
328.2498819031
  0
ARC
  5
309
100
AcDbEntity
  8
ALL_ASSEMBLY_MEMBERS
100
AcDbCircle
 62
7
  6
CONTINUOUS
 10
5.2238626217
 20
4.155053137
 40
0.073744378
100
AcDbArc
 50
330.5584439141
 51
333.1488207941
  0
ARC
  5
30A
100
AcDbEntity
  8
ALL_ASSEMBLY_MEMBERS
100
AcDbCircle
 62
7
  6
CONTINUOUS
 10
5.2274037449
 20
4.1652184892
 40
0.0723054656
100
AcDbArc
 50
329.5452903328
 51
334.2823466411
  0
ARC
  5
30B
100
AcDbEntity
  8
ALL_ASSEMBLY_MEMBERS
100
AcDbCircle
 62
7
  6
CONTINUOUS
 10
5.227605793
 20
4.1262161185
 40
0.071718789
100
AcDbArc
 50
336.6896662439
 51
338.7732021491
  0
ARC
  5
30C
100
AcDbEntity
  8
ALL_ASSEMBLY_MEMBERS
100
AcDbCircle
 62
7
  6
CONTINUOUS
 10
5.2296183067
 20
4.1104983567
 40
0.0695622415
100
AcDbArc
 50
338.579762139
 51
345.5307122266
  0
ARC
  5
30D
100
AcDbEntity
  8
ALL_ASSEMBLY_MEMBERS
100
AcDbCircle
 62
7
  6
CONTINUOUS
 10
5.2278218054
 20
4.153141922
 40
0.0693488651
100
AcDbArc
 50
333.0801555869
 51
340.7005936466
  0
ARC
  5
30E
100
AcDbEntity
  8
ALL_ASSEMBLY_MEMBERS
100
AcDbCircle
 62
7
  6
CONTINUOUS
 10
5.2298268784
 20
4.1402753074
 40
0.069343642
100
AcDbArc
 50
339.2530671944
 51
345.5697088708
  0
ARC
  5
30F
100
AcDbEntity
  8
ALL_ASSEMBLY_MEMBERS
100
AcDbCircle
 62
7
  6
CONTINUOUS
 10
5.229994297
 20
4.1456438087
 40
0.0691670443
100
AcDbArc
 50
341.9233442003
 51
342.7930337966
  0
ARC
  5
310
100
AcDbEntity
  8
ALL_ASSEMBLY_MEMBERS
100
AcDbCircle
 62
7
  6
CONTINUOUS
 10
5.2300208396
 20
4.1253002712
 40
0.0691360033
100
AcDbArc
 50
338.7560621568
 51
347.057796552
  0
ARC
  5
311
100
AcDbEntity
  8
ALL_ASSEMBLY_MEMBERS
100
AcDbCircle
 62
7
  6
CONTINUOUS
 10
5.2302280074
 20
4.1147847776
 40
0.0689213316
100
AcDbArc
 50
341.940345645
 51
343.5273583667
  0
ARC
  5
312
100
AcDbEntity
  8
ALL_ASSEMBLY_MEMBERS
100
AcDbCircle
 62
7
  6
CONTINUOUS
 10
5.2307422717
 20
4.1636376073
 40
0.0686116437
100
AcDbArc
 50
334.2619505848
 51
339.1648439988
  0
ARC
  5
313
100
AcDbEntity
  8
ALL_ASSEMBLY_MEMBERS
100
AcDbCircle
 62
7
  6
CONTINUOUS
 10
5.2319494934
 20
4.1098418942
 40
0.0671409928
100
AcDbArc
 50
345.5760839274
 51
347.0830770837
  0
ARC
  5
314
100
AcDbEntity
  8
ALL_ASSEMBLY_MEMBERS
100
AcDbCircle
 62
7
  6
CONTINUOUS
 10
5.2319543269
 20
4.139683332
 40
0.0671358037
100
AcDbArc
 50
345.606521874
 51
347.1073828157
  0
ARC
  5
315
100
AcDbEntity
  8
ALL_ASSEMBLY_MEMBERS
100
AcDbCircle
 62
7
  6
CONTINUOUS
 10
5.2300224631
 20
4.1523455454
 40
0.0670086731
100
AcDbArc
 50
340.7213681186
 51
342.1062815881
  0
ARC
  5
316
100
AcDbEntity
  8
ALL_ASSEMBLY_MEMBERS
100
AcDbCircle
 62
7
  6
CONTINUOUS
 10
5.2323824953
 20
4.1630018568
 40
0.0668525551
100
AcDbArc
 50
339.1740844582
 51
340.2828499274
  0
ARC
  5
317
100
AcDbEntity
  8
ALL_ASSEMBLY_MEMBERS
100
AcDbCircle
 62
7
  6
CONTINUOUS
 10
5.2326191469
 20
4.1449219122
 40
0.0664461788
100
AcDbArc
 50
342.718094017
 51
352.6991173284
  0
ARC
  5
318
100
AcDbEntity
  8
ALL_ASSEMBLY_MEMBERS
100
AcDbCircle
 62
7
  6
CONTINUOUS
 10
5.2327330448
 20
4.1141200659
 40
0.0663306689
100
AcDbArc
 50
343.4643938121
 51
352.7232189066
  0
ARC
  5
319
100
AcDbEntity
  8
ALL_ASSEMBLY_MEMBERS
100
AcDbCircle
 62
7
  6
CONTINUOUS
 10
5.2328448468
 20
4.1096385318
 40
0.0662228369
100
AcDbArc
 50
347.0814080293
 51
350.4833994815
  0
ARC
  5
31A
100
AcDbEntity
  8
ALL_ASSEMBLY_MEMBERS
100
AcDbCircle
 62
7
  6
CONTINUOUS
 10
5.2329119815
 20
4.1394669854
 40
0.0661540194
100
AcDbArc
 50
347.1049718235
 51
350.9183603735
  0
ARC
  5
31B
100
AcDbEntity
  8
ALL_ASSEMBLY_MEMBERS
100
AcDbCircle
 62
7
  6
CONTINUOUS
 10
5.2312961281
 20
4.1519443251
 40
0.0656733425
100
AcDbArc
 50
342.0979726011
 51
345.2640652338
  0
ARC
  5
31C
100
AcDbEntity
  8
ALL_ASSEMBLY_MEMBERS
100
AcDbCircle
 62
7
  6
CONTINUOUS
 10
5.233666349
 20
4.109490955
 40
0.0653882418
100
AcDbArc
 50
350.4919201213
 51
350.9017359336
  0
ARC
  5
31D
100
AcDbEntity
  8
ALL_ASSEMBLY_MEMBERS
100
AcDbCircle
 62
7
  6
CONTINUOUS
 10
5.2337645051
 20
4.1393184289
 40
0.0652887354
100
AcDbArc
 50
350.9290058
 51
351.2198138527
  0
ARC
  5
31E
100
AcDbEntity
  8
ALL_ASSEMBLY_MEMBERS
100
AcDbCircle
 62
7
  6
CONTINUOUS
 10
5.2339988519
 20
4.1624421008
 40
0.0651421198
100
AcDbArc
 50
340.2666800182
 51
344.2142734438
  0
ARC
  5
31F
100
AcDbEntity
  8
ALL_ASSEMBLY_MEMBERS
100
AcDbCircle
 62
7
  6
CONTINUOUS
 10
5.2341174582
 20
4.1243520302
 40
0.0649308964
100
AcDbArc
 50
347.2343077014
 51
0.002860843
  0
ARC
  5
320
100
AcDbEntity
  8
ALL_ASSEMBLY_MEMBERS
100
AcDbCircle
 62
7
  6
CONTINUOUS
 10
5.2342355064
 20
4.1446635714
 40
0.0648128576
100
AcDbArc
 50
0.0326378837
 51
7.6632246791
  0
ARC
  5
321
100
AcDbEntity
  8
ALL_ASSEMBLY_MEMBERS
100
AcDbCircle
 62
7
  6
CONTINUOUS
 10
5.2342468802
 20
4.1094056005
 40
0.064801518
100
AcDbArc
 50
350.8950889908
 51
359.9599587023
  0
ARC
  5
322
100
AcDbEntity
  8
ALL_ASSEMBLY_MEMBERS
100
AcDbCircle
 62
7
  6
CONTINUOUS
 10
5.2342630277
 20
4.1392483082
 40
0.0647853518
100
AcDbArc
 50
351.2138021864
 51
359.9611247252
  0
ARC
  5
323
100
AcDbEntity
  8
ALL_ASSEMBLY_MEMBERS
100
AcDbCircle
 62
7
  6
CONTINUOUS
 10
5.2343047474
 20
4.1293054871
 40
0.0647438426
100
AcDbArc
 50
355.6356830556
 51
356.3264742135
  0
ARC
  5
324
100
AcDbEntity
  8
ALL_ASSEMBLY_MEMBERS
100
AcDbCircle
 62
7
  6
CONTINUOUS
 10
5.2343649227
 20
4.1138892818
 40
0.0646834391
100
AcDbArc
 50
0.0273605746
 51
4.7710883826
  0
ARC
  5
325
100
AcDbEntity
  8
ALL_ASSEMBLY_MEMBERS
100
AcDbCircle
 62
7
  6
CONTINUOUS
 10
5.2343987838
 20
4.1138929177
 40
0.0646495765
100
AcDbArc
 50
352.735920489
 51
0.024152552
  0
ARC
  5
326
100
AcDbEntity
  8
ALL_ASSEMBLY_MEMBERS
100
AcDbCircle
 62
7
  6
CONTINUOUS
 10
5.2344111343
 20
4.1446740532
 40
0.0646372246
100
AcDbArc
 50
352.715182725
 51
0.0234352305
  0
ARC
  5
327
100
AcDbEntity
  8
ALL_ASSEMBLY_MEMBERS
100
AcDbCircle
 62
7
  6
CONTINUOUS
 10
5.2344129353
 20
4.0985325002
 40
0.0646354545
100
AcDbArc
 50
356.2914189562
 51
359.9722651048
  0
ARC
  5
328
100
AcDbEntity
  8
ALL_ASSEMBLY_MEMBERS
100
AcDbCircle
 62
7
  6
CONTINUOUS
 10
5.2344193327
 20
4.129298413
 40
0.0646290395
100
AcDbArc
 50
356.3262241918
 51
359.9720796516
  0
ARC
  5
329
100
AcDbEntity
  8
ALL_ASSEMBLY_MEMBERS
100
AcDbCircle
 62
7
  6
CONTINUOUS
 10
5.2344440056
 20
4.0985297299
 40
0.064604383
100
AcDbArc
 50
359.9747087359
 51
4.7119717813
  0
ARC
  5
32A
100
AcDbEntity
  8
ALL_ASSEMBLY_MEMBERS
100
AcDbCircle
 62
7
  6
CONTINUOUS
 10
5.2344594932
 20
4.1292960812
 40
0.0645888779
100
AcDbArc
 50
359.9741308279
 51
4.2319993561
  0
ARC
  5
32B
100
AcDbEntity
  8
ALL_ASSEMBLY_MEMBERS
100
AcDbCircle
 62
7
  6
CONTINUOUS
 10
5.2349457059
 20
4.1621680202
 40
0.064156415
100
AcDbArc
 50
344.2197757321
 51
344.6872690483
  0
ARC
  5
32C
100
AcDbEntity
  8
ALL_ASSEMBLY_MEMBERS
100
AcDbCircle
 62
7
  6
CONTINUOUS
 10
5.233787798
 20
4.1513406441
 40
0.0631100923
100
AcDbArc
 50
345.2187011528
 51
353.1557955661
  0
ARC
  5
32D
100
AcDbEntity
  8
ALL_ASSEMBLY_MEMBERS
100
AcDbCircle
 62
7
  6
CONTINUOUS
 10
5.2370186452
 20
4.1616882433
 40
0.0620304224
100
AcDbArc
 50
344.6090406416
 51
359.8445767244
  0
ARC
  5
32E
100
AcDbEntity
  8
ALL_ASSEMBLY_MEMBERS
100
AcDbCircle
 62
7
  6
CONTINUOUS
 10
5.4986618332
 20
3.4228913472
 40
0.3234917753
100
AcDbArc
 50
351.6476774765
 51
3.2055441314
  0
ARC
  5
32F
100
AcDbEntity
  8
ALL_ASSEMBLY_MEMBERS
100
AcDbCircle
 62
7
  6
CONTINUOUS
 10
5.4177242817
 20
3.5991061216
 40
0.2454496313
100
AcDbArc
 50
0.000337481
 51
1.4373162256
  0
ARC
  5
330
100
AcDbEntity
  8
ALL_ASSEMBLY_MEMBERS
100
AcDbCircle
 62
7
  6
CONTINUOUS
 10
5.1928260867
 20
6.8075844786
 40
1.35
100
AcDbArc
 50
254.4604045096
 51
263.5855182739
  0
ARC
  5
331
100
AcDbEntity
  8
ALL_ASSEMBLY_MEMBERS
100
AcDbCircle
 62
7
  6
CONTINUOUS
 10
5.4750330797
 20
5.3648366538
 40
0.0561408333
100
AcDbArc
 50
272.1854050713
 51
360.0
  0
ARC
  5
332
100
AcDbEntity
  8
ALL_ASSEMBLY_MEMBERS
100
AcDbCircle
 62
7
  6
CONTINUOUS
 10
5.4210747152
 20
5.3084366538
 40
0.0561
100
AcDbArc
 50
270.0
 51
0.3063960032
  0
ARC
  5
333
100
AcDbEntity
  8
ALL_ASSEMBLY_MEMBERS
100
AcDbCircle
 62
7
  6
CONTINUOUS
 10
5.519173913
 20
5.5213846797
 40
0.015
100
AcDbArc
 50
285.5395954903
 51
360.0
  0
ARC
  5
334
100
AcDbEntity
  8
ALL_ASSEMBLY_MEMBERS
100
AcDbCircle
 62
7
  6
CONTINUOUS
 10
6.1975308531
 20
4.7713941969
 40
0.9
100
AcDbArc
 50
149.6433854291
 51
175.7343714095
  0
ARC
  5
335
100
AcDbEntity
  8
ALL_ASSEMBLY_MEMBERS
100
AcDbCircle
 62
7
  6
CONTINUOUS
 10
6.1344236186
 20
5.5154399386
 40
0.0750032932
100
AcDbArc
 50
270.0192106228
 51
330.2635604814
  0
ARC
  5
336
100
AcDbEntity
  8
ALL_ASSEMBLY_MEMBERS
100
AcDbCircle
 62
7
  6
CONTINUOUS
 10
6.0042255349
 20
5.4398366538
 40
0.075
100
AcDbArc
 50
270.0
 51
330.2642868924
  0
ARC
  5
337
100
AcDbEntity
  8
ALL_ASSEMBLY_MEMBERS
100
AcDbCircle
 62
7
  6
CONTINUOUS
 10
6.134473913
 20
5.3654366538
 40
0.075
100
AcDbArc
 50
90.0192106228
 51
150.2642868924
  0
ARC
  5
338
100
AcDbEntity
  8
ALL_ASSEMBLY_MEMBERS
100
AcDbCircle
 62
7
  6
CONTINUOUS
 10
6.264673913
 20
5.4410366538
 40
0.075
100
AcDbArc
 50
90.0
 51
150.2635604814
  0
ARC
  5
339
100
AcDbEntity
  8
ALL_ASSEMBLY_MEMBERS
100
AcDbCircle
 62
7
  6
CONTINUOUS
 10
6.264673913
 20
5.5910366538
 40
0.075
100
AcDbArc
 50
270.0
 51
360.0
  0
SPLINE
  5
33A
100
AcDbEntity
  8
ALL_ASSEMBLY_MEMBERS
100
AcDbSpline
 62
7
  6
CONTINUOUS
 70
0
 71
3
 72
25
 73
21
 74
0
 42
0.0000001
 43
0.0000001
 44
0.0000000001
 40
0.0
 40
0.0
 40
0.0
 40
0.0
 40
0.1306675663
 40
0.1956420667
 40
0.2601701204
 40
0.3241614142
 40
0.3875663523
 40
0.4503802158
 40
0.5126334188
 40
0.5743906731
 40
0.6357430791
 40
0.6663056473
 40
0.6968033668
 40
0.7576178539
 40
0.8182905675
 40
0.8486062331
 40
0.8789080474
 40
0.9091948246
 40
0.9394680844
 40
1.0
 40
1.0
 40
1.0
 40
1.0
 10
5.1765711173
 20
3.9138347804
 30
0.0
 10
5.1680742662
 20
3.9138651956
 30
0.0
 10
5.1553267705
 20
3.9148735052
 30
0.0
 10
5.1387165363
 20
3.9181475642
 30
0.0
 10
5.1265877226
 20
3.921549054
 30
0.0
 10
5.1148710625
 20
3.9258877293
 30
0.0
 10
5.103660607
 20
3.9311499816
 30
0.0
 10
5.0930518147
 20
3.9373192533
 30
0.0
 10
5.0831402804
 20
3.9443754538
 30
0.0
 10
5.0740252432
 20
3.9522915926
 30
0.0
 10
5.0671683599
 20
3.9595875769
 30
0.0
 10
5.0621927566
 20
3.9658053604
 30
0.0
 10
5.0575816291
 20
3.9722550724
 30
0.0
 10
5.0525064978
 20
3.9807612037
 30
0.0
 10
5.0484438639
 20
3.9897840899
 30
0.0
 10
5.0458535934
 20
3.9972379372
 30
0.0
 10
5.0442499183
 20
4.0029312197
 30
0.0
 10
5.0429923043
 20
4.0087082864
 30
0.0
 10
5.0417884278
 20
4.0164932575
 30
0.0
 10
5.041423913
 20
4.0224064257
 30
0.0
 10
5.041423913
 20
4.0263426279
 30
0.0
  0
SPLINE
  5
33B
100
AcDbEntity
  8
ALL_ASSEMBLY_MEMBERS
100
AcDbSpline
 62
7
  6
CONTINUOUS
 70
0
 71
3
 72
12
 73
8
 74
0
 42
0.0000001
 43
0.0000001
 44
0.0000000001
 40
0.0
 40
0.0
 40
0.0
 40
0.0
 40
0.2470010997
 40
0.4964996982
 40
0.621975668
 40
0.7478078161
 40
1.0
 40
1.0
 40
1.0
 40
1.0
 10
5.2381661093
 20
3.9255346215
 30
0.0
 10
5.2333582368
 20
3.9235718158
 30
0.0
 10
5.2234800857
 20
3.9201321815
 30
0.0
 10
5.2107423161
 20
3.9170804868
 30
0.0
 10
5.2003483095
 20
3.9153750293
 30
0.0
 10
5.1898291906
 20
3.9141626896
 30
0.0
 10
5.1818733196
 20
3.9138158006
 30
0.0
 10
5.1765711173
 20
3.9138347804
 30
0.0
  0
SPLINE
  5
33C
100
AcDbEntity
  8
ALL_ASSEMBLY_MEMBERS
100
AcDbSpline
 62
7
  6
CONTINUOUS
 70
0
 71
3
 72
16
 73
12
 74
0
 42
0.0000001
 43
0.0000001
 44
0.0000000001
 40
0.0
 40
0.0
 40
0.0
 40
0.0
 40
0.1411366819
 40
0.2778457412
 40
0.4096565616
 40
0.5364794926
 40
0.6584095838
 40
0.7758121885
 40
0.8893417216
 40
0.9449720316
 40
1.0
 40
1.0
 40
1.0
 40
1.0
 10
5.2290167984
 20
3.8996454844
 30
0.0
 10
5.2323095199
 20
3.9009897324
 30
0.0
 10
5.2386783828
 20
3.9039263593
 30
0.0
 10
5.2476121397
 20
3.9091308336
 30
0.0
 10
5.2556772786
 20
3.9150113485
 30
0.0
 10
5.262771556
 20
3.9214952621
 30
0.0
 10
5.2688068394
 20
3.9285062746
 30
0.0
 10
5.2737045252
 20
3.9359587924
 30
0.0
 10
5.2768046069
 20
3.9425112155
 30
0.0
 10
5.2786380375
 20
3.9478593324
 30
0.0
 10
5.2793405956
 20
3.9505613501
 30
0.0
 10
5.2796373168
 20
3.951915898
 30
0.0
  0
SPLINE
  5
33D
100
AcDbEntity
  8
ALL_ASSEMBLY_MEMBERS
100
AcDbSpline
 62
7
  6
CONTINUOUS
 70
0
 71
3
 72
20
 73
16
 74
0
 42
0.0000001
 43
0.0000001
 44
0.0000000001
 40
0.0
 40
0.0
 40
0.0
 40
0.0
 40
0.0615817219
 40
0.1231372657
 40
0.1847287821
 40
0.2463595373
 40
0.3080373558
 40
0.3697917993
 40
0.4316565847
 40
0.4936690389
 40
0.5558714204
 40
0.6183124003
 40
0.7440122275
 40
0.8711828922
 40
1.0
 40
1.0
 40
1.0
 40
1.0
 10
5.312923913
 20
4.0263426279
 30
0.0
 10
5.312923913
 20
4.023608028
 30
0.0
 10
5.3126899924
 20
4.0181371295
 30
0.0
 10
5.3116420613
 20
4.0099917773
 30
0.0
 10
5.3099078593
 20
4.0019618263
 30
0.0
 10
5.3075076235
 20
3.9940999403
 30
0.0
 10
5.304463796
 20
3.9864566153
 30
0.0
 10
5.300807715
 20
3.9790753625
 30
0.0
 10
5.2965713332
 20
3.9719942685
 30
0.0
 10
5.2917908007
 20
3.9652447972
 30
0.0
 10
5.2865010694
 20
3.9588533722
 30
0.0
 10
5.2788042418
 20
3.9508209254
 30
0.0
 10
5.2680651723
 20
3.9417612161
 30
0.0
 10
5.2537493894
 20
3.9326080806
 30
0.0
 10
5.243462038
 20
3.9276966754
 30
0.0
 10
5.2381661093
 20
3.9255346215
 30
0.0
  0
SPLINE
  5
33E
100
AcDbEntity
  8
ALL_ASSEMBLY_MEMBERS
100
AcDbSpline
 62
7
  6
CONTINUOUS
 70
0
 71
3
 72
15
 73
11
 74
0
 42
0.0000001
 43
0.0000001
 44
0.0000000001
 40
0.0
 40
0.0
 40
0.0
 40
0.0
 40
0.1211365621
 40
0.2426665153
 40
0.3649730572
 40
0.4884223454
 40
0.6133580185
 40
0.7400884165
 40
0.8688903368
 40
1.0
 40
1.0
 40
1.0
 40
1.0
 10
5.3129237412
 20
4.0946808666
 30
0.0
 10
5.3129236799
 20
4.0965076974
 30
0.0
 10
5.3127756395
 20
4.1001690119
 30
0.0
 10
5.312109858
 20
4.1056383296
 30
0.0
 10
5.3110039271
 20
4.1110717198
 30
0.0
 10
5.3094610139
 20
4.1164507488
 30
0.0
 10
5.3074859541
 20
4.1217575707
 30
0.0
 10
5.3050865917
 20
4.1269753288
 30
0.0
 10
5.302270148
 20
4.132086288
 30
0.0
 10
5.3001404078
 20
4.1353812104
 30
0.0
 10
5.2990121982
 20
4.1370049691
 30
0.0
  0
SPLINE
  5
33F
100
AcDbEntity
  8
ALL_ASSEMBLY_MEMBERS
100
AcDbSpline
 62
7
  6
CONTINUOUS
 70
0
 71
3
 72
14
 73
10
 74
0
 42
0.0000001
 43
0.0000001
 44
0.0000000001
 40
0.0
 40
0.0
 40
0.0
 40
0.0
 40
0.1217170705
 40
0.2437655366
 40
0.3664726189
 40
0.4901514553
 40
0.6150969365
 40
0.7415848583
 40
1.0
 40
1.0
 40
1.0
 40
1.0
 10
5.0414240849
 20
4.0946716617
 30
0.0
 10
5.0414240287
 20
4.096347573
 30
0.0
 10
5.0415483098
 20
4.0997052797
 30
0.0
 10
5.0421071243
 20
4.1047245422
 30
0.0
 10
5.0430378257
 20
4.1097160353
 30
0.0
 10
5.0443366483
 20
4.1146655655
 30
0.0
 10
5.0460001705
 20
4.1195600345
 30
0.0
 10
5.0487171235
 20
4.1260373497
 30
0.0
 10
5.0512642879
 20
4.1307078529
 30
0.0
 10
5.0531601172
 20
4.133718811
 30
0.0
  0
SPLINE
  5
340
100
AcDbEntity
  8
ALL_ASSEMBLY_MEMBERS
100
AcDbSpline
 62
7
  6
CONTINUOUS
 70
0
 71
3
 72
14
 73
10
 74
0
 42
0.0000001
 43
0.0000001
 44
0.0000000001
 40
0.0
 40
0.0
 40
0.0
 40
0.0
 40
0.1349587468
 40
0.2673882406
 40
0.5234952212
 40
0.6471167737
 40
0.7677091868
 40
0.8853029146
 40
1.0
 40
1.0
 40
1.0
 40
1.0
 10
5.245048913
 20
4.011546706
 30
0.0
 10
5.2478167745
 20
4.0126766807
 30
0.0
 10
5.2532383515
 20
4.0150732969
 30
0.0
 10
5.2635506681
 20
4.0203870023
 30
0.0
 10
5.2731467726
 20
4.026512091
 30
0.0
 10
5.2818292686
 20
4.0334125125
 30
0.0
 10
5.287736367
 20
4.0388407799
 30
0.0
 10
5.2930826936
 20
4.0445537731
 30
0.0
 10
5.2962938103
 20
4.0485833135
 30
0.0
 10
5.2977922722
 20
4.0506351993
 30
0.0
  0
SPLINE
  5
341
100
AcDbEntity
  8
ALL_ASSEMBLY_MEMBERS
100
AcDbSpline
 62
7
  6
CONTINUOUS
 70
0
 71
3
 72
15
 73
11
 74
0
 42
0.0000001
 43
0.0000001
 44
0.0000000001
 40
0.0
 40
0.0
 40
0.0
 40
0.0
 40
0.1314425879
 40
0.2604598297
 40
0.3872965435
 40
0.5122350593
 40
0.635601332
 40
0.7577563037
 40
0.8790862882
 40
1.0
 40
1.0
 40
1.0
 40
1.0
 10
5.2981308744
 20
4.051101979
 30
0.0
 10
5.2993289673
 20
4.052764774
 30
0.0
 10
5.301591308
 20
4.0561421509
 30
0.0
 10
5.3045853763
 20
4.0613923425
 30
0.0
 10
5.3071380752
 20
4.0667592608
 30
0.0
 10
5.3092392705
 20
4.0722244435
 30
0.0
 10
5.310881119
 20
4.0777688392
 30
0.0
 10
5.3120587717
 20
4.0833728596
 30
0.0
 10
5.312766427
 20
4.0890165974
 30
0.0
 10
5.3129238044
 20
4.0927955672
 30
0.0
 10
5.3129237412
 20
4.0946808666
 30
0.0
  0
SPLINE
  5
342
100
AcDbEntity
  8
ALL_ASSEMBLY_MEMBERS
100
AcDbSpline
 62
9
  6
CONTINUOUS
 70
0
 71
3
 72
9
 73
5
 74
0
 42
0.0000001
 43
0.0000001
 44
0.0000000001
 40
0.0
 40
0.0
 40
0.0
 40
0.0
 40
0.4948732273
 40
1.0
 40
1.0
 40
1.0
 40
1.0
 10
5.2290167984
 20
3.8996454844
 30
0.0
 10
5.2260889468
 20
3.898450194
 30
0.0
 10
5.2200750219
 20
3.8962683832
 30
0.0
 10
5.2139160836
 20
3.8945403659
 30
0.0
 10
5.2107788606
 20
3.8937803705
 30
0.0
  0
SPLINE
  5
343
100
AcDbEntity
  8
ALL_ASSEMBLY_MEMBERS
100
AcDbSpline
 62
9
  6
CONTINUOUS
 70
0
 71
3
 72
23
 73
19
 74
0
 42
0.0000001
 43
0.0000001
 44
0.0000000001
 40
0.0
 40
0.0
 40
0.0
 40
0.0
 40
0.1373404364
 40
0.2069005881
 40
0.2764685798
 40
0.3456325631
 40
0.4139928338
 40
0.481172905
 40
0.5468342684
 40
0.610690478
 40
0.6725182685
 40
0.7321739247
 40
0.7896075979
 40
0.8448735592
 40
0.8717567147
 40
0.8981719804
 40
0.949736298
 40
1.0
 40
1.0
 40
1.0
 40
1.0
 10
5.2107788606
 20
3.8937803705
 30
0.0
 10
5.2035446177
 20
3.892027868
 30
0.0
 10
5.1924054839
 20
3.8902808162
 30
0.0
 10
5.1774245422
 20
3.8896778022
 30
0.0
 10
5.1661309539
 20
3.8900937019
 30
0.0
 10
5.1549693378
 20
3.8913752771
 30
0.0
 10
5.1440694742
 20
3.8935067713
 30
0.0
 10
5.1335606323
 20
3.8964641245
 30
0.0
 10
5.1235667118
 20
3.9002126918
 30
0.0
 10
5.1142054124
 20
3.904708515
 30
0.0
 10
5.1055876483
 20
3.9099003355
 30
0.0
 10
5.097815295
 20
3.9157285116
 30
0.0
 10
5.0909811586
 20
3.9221249352
 30
0.0
 10
5.0860911011
 20
3.9279243511
 30
0.0
 10
5.0827456258
 20
3.9327692117
 30
0.0
 10
5.0798301035
 20
3.9376518571
 30
0.0
 10
5.076879302
 20
3.9439706782
 30
0.0
 10
5.0752868512
 20
3.9492794781
 30
0.0
 10
5.0747050004
 20
3.9519407744
 30
0.0
  0
SPLINE
  5
344
100
AcDbEntity
  8
ALL_ASSEMBLY_MEMBERS
100
AcDbSpline
 62
9
  6
CONTINUOUS
 70
0
 71
3
 72
20
 73
16
 74
0
 42
0.0000001
 43
0.0000001
 44
0.0000000001
 40
0.0
 40
0.0
 40
0.0
 40
0.0
 40
0.1383915055
 40
0.2059111568
 40
0.2722821558
 40
0.4016577042
 40
0.5269226293
 40
0.5881934628
 40
0.6486436187
 40
0.7083672753
 40
0.7674675932
 40
0.8260578777
 40
0.8842584935
 40
0.9421955375
 40
1.0
 40
1.0
 40
1.0
 40
1.0
 10
5.2748022912
 20
3.9596464426
 30
0.0
 10
5.2777707429
 20
3.9618190191
 30
0.0
 10
5.282045868
 20
3.965253931
 30
0.0
 10
5.2873399281
 20
3.9701923604
 30
0.0
 10
5.2922104896
 20
3.9752207
 30
0.0
 10
5.2976638917
 20
3.981805767
 30
0.0
 10
5.3022745626
 20
3.9888482436
 30
0.0
 10
5.3053641584
 20
3.9946448292
 30
0.0
 10
5.3073690205
 20
3.9990348387
 30
0.0
 10
5.3090738471
 20
4.0034881008
 30
0.0
 10
5.3104740899
 20
4.0079947283
 30
0.0
 10
5.3115666223
 20
4.0125440962
 30
0.0
 10
5.3123492007
 20
4.0171256741
 30
0.0
 10
5.3128192063
 20
4.0217286199
 30
0.0
 10
5.3129237809
 20
4.0248061384
 30
0.0
 10
5.3129238112
 20
4.0263426279
 30
0.0
  0
SPLINE
  5
345
100
AcDbEntity
  8
ALL_ASSEMBLY_MEMBERS
100
AcDbSpline
 62
7
  6
CONTINUOUS
 70
0
 71
3
 72
23
 73
19
 74
0
 42
0.0000001
 43
0.0000001
 44
0.0000000001
 40
0.0
 40
0.0
 40
0.0
 40
0.0
 40
0.0239872663
 40
0.0492385217
 40
0.1032746283
 40
0.1319447064
 40
0.1615395672
 40
0.222958016
 40
0.2865822158
 40
0.3515859209
 40
0.4173590815
 40
0.4834751961
 40
0.6155228296
 40
0.6811032714
 40
0.746193601
 40
0.8107194988
 40
0.8745983886
 40
1.0
 40
1.0
 40
1.0
 40
1.0
 10
5.2748022912
 20
3.9596464426
 30
0.0
 10
5.2748022912
 20
3.9592787772
 30
0.0
 10
5.2747549449
 20
3.9585235535
 30
0.0
 10
5.2744882374
 20
3.9569609691
 30
0.0
 10
5.2739732008
 20
3.9553782765
 30
0.0
 10
5.2732667708
 20
3.9538080121
 30
0.0
 10
5.2724068683
 20
3.952186145
 30
0.0
 10
5.2711158002
 20
3.9501929323
 30
0.0
 10
5.2693159607
 20
3.9478987045
 30
0.0
 10
5.2673049236
 20
3.9456968248
 30
0.0
 10
5.2651329163
 20
3.9435990973
 30
0.0
 10
5.2620726991
 20
3.9409508365
 30
0.0
 10
5.258829503
 20
3.9385272105
 30
0.0
 10
5.2554648658
 20
3.93631379
 30
0.0
 10
5.2529049809
 20
3.9347637082
 30
0.0
 10
5.250313779
 20
3.9333195872
 30
0.0
 10
5.2468518804
 20
3.9315439339
 30
0.0
 10
5.2442034283
 20
3.9303521656
 30
0.0
 10
5.2424239131
 20
3.9296256815
 30
0.0
  0
SPLINE
  5
346
100
AcDbEntity
  8
ALL_ASSEMBLY_MEMBERS
100
AcDbSpline
 62
7
  6
CONTINUOUS
 70
0
 71
3
 72
24
 73
20
 74
0
 42
0.0000001
 43
0.0000001
 44
0.0000000001
 40
0.0
 40
0.0
 40
0.0
 40
0.0
 40
0.1500517233
 40
0.2948130778
 40
0.3648771512
 40
0.4331527691
 40
0.4994271941
 40
0.5634661071
 40
0.6250155818
 40
0.6838341744
 40
0.7397636341
 40
0.7928712144
 40
0.8185446729
 40
0.8437815296
 40
0.868772396
 40
0.8937708014
 40
0.9190864069
 40
0.9450528864
 40
1.0
 40
1.0
 40
1.0
 40
1.0
 10
5.2424239131
 20
3.9296256815
 30
0.0
 10
5.2406941009
 20
3.9289194886
 30
0.0
 10
5.2372465087
 20
3.927648314
 30
0.0
 10
5.2328709916
 20
3.9264040147
 30
0.0
 10
5.2294212557
 20
3.9256729915
 30
0.0
 10
5.2269040036
 20
3.9252715503
 30
0.0
 10
5.224442097
 20
3.9250235958
 30
0.0
 10
5.2220522283
 20
3.9249446864
 30
0.0
 10
5.2197556723
 20
3.9250537538
 30
0.0
 10
5.2175793647
 20
3.9253737967
 30
0.0
 10
5.2155586591
 20
3.9259316899
 30
0.0
 10
5.2140228912
 20
3.9266314208
 30
0.0
 10
5.2129383311
 20
3.9273437078
 30
0.0
 10
5.2122107405
 20
3.9279504659
 30
0.0
 10
5.211570104
 20
3.9286374852
 30
0.0
 10
5.2110274739
 20
3.9294058794
 30
0.0
 10
5.2105932344
 20
3.9302544606
 30
0.0
 10
5.2101636186
 20
3.9315092897
 30
0.0
 10
5.2100455348
 20
3.9325254183
 30
0.0
 10
5.2100455348
 20
3.9332096075
 30
0.0
  0
SPLINE
  5
347
100
AcDbEntity
  8
ALL_ASSEMBLY_MEMBERS
100
AcDbSpline
 62
7
  6
CONTINUOUS
 70
0
 71
3
 72
23
 73
19
 74
0
 42
0.0000001
 43
0.0000001
 44
0.0000000001
 40
0.0
 40
0.0
 40
0.0
 40
0.0
 40
0.0636237114
 40
0.128636486
 40
0.1946881064
 40
0.2614658683
 40
0.3286114687
 40
0.3957558876
 40
0.4625340764
 40
0.528589707
 40
0.5935871938
 40
0.6572211088
 40
0.7192285719
 40
0.779399629
 40
0.8375875547
 40
0.8937229445
 40
0.9478230267
 40
1.0
 40
1.0
 40
1.0
 40
1.0
 10
5.245048913
 20
4.011546706
 30
0.0
 10
5.2408965306
 20
4.009851503
 30
0.0
 10
5.2323506052
 20
4.0067823901
 30
0.0
 10
5.2190900732
 20
4.0031928704
 30
0.0
 10
5.2053722056
 20
4.0006013742
 30
0.0
 10
5.1913492428
 20
3.9990355978
 30
0.0
 10
5.1771719121
 20
3.9985116472
 30
0.0
 10
5.1629945563
 20
3.9990355886
 30
0.0
 10
5.148971379
 20
4.0006021895
 30
0.0
 10
5.1352546015
 20
4.0031939501
 30
0.0
 10
5.1219931687
 20
4.0067830204
 30
0.0
 10
5.1093312991
 20
4.0113316035
 30
0.0
 10
5.0974062552
 20
4.0167903522
 30
0.0
 10
5.0863474614
 20
4.0231011568
 30
0.0
 10
5.0762758434
 20
4.0301976034
 30
0.0
 10
5.0673008463
 20
4.0380046525
 30
0.0
 10
5.0595226487
 20
4.0464377483
 30
0.0
 10
5.0551173504
 20
4.052525361
 30
0.0
 10
5.053157626
 20
4.055637971
 30
0.0
  0
SPLINE
  5
348
100
AcDbEntity
  8
ALL_ASSEMBLY_MEMBERS
100
AcDbSpline
 62
7
  6
CONTINUOUS
 70
0
 71
3
 72
15
 73
11
 74
0
 42
0.0000001
 43
0.0000001
 44
0.0000000001
 40
0.0
 40
0.0
 40
0.0
 40
0.0
 40
0.1302613371
 40
0.2585164986
 40
0.3849860266
 40
0.5099156176
 40
0.6335769455
 40
0.756267678
 40
0.8783001665
 40
1.0
 40
1.0
 40
1.0
 40
1.0
 10
5.053157626
 20
4.055637971
 30
0.0
 10
5.0522022125
 20
4.0571554445
 30
0.0
 10
5.050400317
 20
4.0602277063
 30
0.0
 10
5.048023614
 20
4.0649688669
 30
0.0
 10
5.0460006004
 20
4.0697922907
 30
0.0
 10
5.0443370846
 20
4.0746845781
 30
0.0
 10
5.0430387448
 20
4.0796325565
 30
0.0
 10
5.0421083581
 20
4.0846223141
 30
0.0
 10
5.0415485649
 20
4.0896397524
 30
0.0
 10
5.0414241411
 20
4.0929963274
 30
0.0
 10
5.0414240849
 20
4.0946716617
 30
0.0
  0
SPLINE
  5
349
100
AcDbEntity
  8
ALL_ASSEMBLY_MEMBERS
100
AcDbSpline
 62
9
  6
CONTINUOUS
 70
0
 71
3
 72
26
 73
22
 74
0
 42
0.0000001
 43
0.0000001
 44
0.0000000001
 40
0.0
 40
0.0
 40
0.0
 40
0.0
 40
0.0251821038
 40
0.050444888
 40
0.0758670659
 40
0.1015241193
 40
0.1274863212
 40
0.1538176193
 40
0.2077740373
 40
0.2637853071
 40
0.3220702951
 40
0.3827134953
 40
0.4456758983
 40
0.5108100352
 40
0.5778764527
 40
0.6465602926
 40
0.7164880961
 40
0.7872452487
 40
0.8583836286
 40
0.929458528
 40
1.0
 40
1.0
 40
1.0
 40
1.0
 10
5.0414240149
 20
4.0263426017
 30
0.0
 10
5.0414239798
 20
4.0245269322
 30
0.0
 10
5.0415700551
 20
4.0208880822
 30
0.0
 10
5.042227219
 20
4.0154520146
 30
0.0
 10
5.0433192468
 20
4.0100511555
 30
0.0
 10
5.0448433867
 20
4.0047038429
 30
0.0
 10
5.0467939672
 20
3.9994269439
 30
0.0
 10
5.0499794346
 20
3.9924533086
 30
0.0
 10
5.0550312519
 20
3.983982592
 30
0.0
 10
5.0626088112
 20
3.9744670708
 30
0.0
 10
5.0716510562
 20
3.9656296165
 30
0.0
 10
5.0820387129
 20
3.9575807359
 30
0.0
 10
5.0936380411
 20
3.9504189453
 30
0.0
 10
5.1063007374
 20
3.9442328855
 30
0.0
 10
5.1198655518
 20
3.9390993953
 30
0.0
 10
5.1341598746
 20
3.9350826675
 30
0.0
 10
5.1490018862
 20
3.9322328421
 30
0.0
 10
5.1642023706
 20
3.9305860757
 30
0.0
 10
5.1795686935
 20
3.9301624262
 30
0.0
 10
5.1949031172
 20
3.9309680915
 30
0.0
 10
5.2050367816
 20
3.9323256791
 30
0.0
 10
5.2100455348
 20
3.9332096075
 30
0.0
  0
SPLINE
  5
34A
100
AcDbEntity
  8
ALL_ASSEMBLY_MEMBERS
100
AcDbSpline
 62
7
  6
CONTINUOUS
 70
0
 71
3
 72
17
 73
13
 74
0
 42
0.0000001
 43
0.0000001
 44
0.0000000001
 40
0.0
 40
0.0
 40
0.0
 40
0.0
 40
0.1361873031
 40
0.2684113677
 40
0.3331211108
 40
0.3969360798
 40
0.4599040885
 40
0.5220811568
 40
0.6442847625
 40
0.7641906926
 40
0.8825034502
 40
1.0
 40
1.0
 40
1.0
 40
1.0
 10
5.3123210804
 20
4.0156205778
 30
0.0
 10
5.315271673
 20
4.012990274
 30
0.0
 10
5.3208717023
 20
4.0075579659
 30
0.0
 10
5.3271835976
 20
4.000214034
 30
0.0
 10
5.3316880652
 20
3.9941290758
 30
0.0
 10
5.3347715556
 20
3.9895020207
 30
0.0
 10
5.3375783661
 20
3.9847871955
 30
0.0
 10
5.3409247019
 20
3.978432612
 30
0.0
 10
5.3444119191
 20
3.9702977442
 30
0.0
 10
5.3474398552
 20
3.9602609324
 30
0.0
 10
5.3492670401
 20
3.9500765127
 30
0.0
 10
5.3496738816
 20
3.9432253614
 30
0.0
 10
5.3496737863
 20
3.9398150701
 30
0.0
  0
SPLINE
  5
34B
100
AcDbEntity
  8
ALL_ASSEMBLY_MEMBERS
100
AcDbSpline
 62
7
  6
CONTINUOUS
 70
0
 71
3
 72
22
 73
18
 74
0
 42
0.0000001
 43
0.0000001
 44
0.0000000001
 40
0.0
 40
0.0
 40
0.0
 40
0.0
 40
0.0618406289
 40
0.1248575756
 40
0.1888067333
 40
0.2534816584
 40
0.38399113
 40
0.4493870747
 40
0.5145216474
 40
0.5791477979
 40
0.6430294709
 40
0.7059452578
 40
0.7676938055
 40
0.8280999006
 40
0.8870179744
 40
0.9443401778
 40
1.0
 40
1.0
 40
1.0
 40
1.0
 10
5.263423913
 20
3.6347815216
 30
0.0
 10
5.2590045844
 20
3.6329773383
 30
0.0
 10
5.2499482565
 20
3.6296538645
 30
0.0
 10
5.2359474403
 20
3.6255712697
 30
0.0
 10
5.2214934002
 20
3.6223722831
 30
0.0
 10
5.2017167324
 20
3.619309351
 30
0.0
 10
5.1815754015
 20
3.6181153285
 30
0.0
 10
5.1614278346
 20
3.6187919598
 30
0.0
 10
5.1464225028
 20
3.6202343852
 30
0.0
 10
5.1316539749
 20
3.6226011587
 30
0.0
 10
5.1172342709
 20
3.6258732225
 30
0.0
 10
5.1032743947
 20
3.6300264857
 30
0.0
 10
5.089881247
 20
3.6350291939
 30
0.0
 10
5.0771573833
 20
3.6408428554
 30
0.0
 10
5.0652005501
 20
3.6474247466
 30
0.0
 10
5.0541030559
 20
3.6547232225
 30
0.0
 10
5.0472304525
 20
3.6601126252
 30
0.0
 10
5.0439719034
 20
3.6629126801
 30
0.0
  0
SPLINE
  5
34C
100
AcDbEntity
  8
ALL_ASSEMBLY_MEMBERS
100
AcDbSpline
 62
7
  6
CONTINUOUS
 70
0
 71
3
 72
15
 73
11
 74
0
 42
0.0000001
 43
0.0000001
 44
0.0000000001
 40
0.0
 40
0.0
 40
0.0
 40
0.0
 40
0.1366221391
 40
0.2691578319
 40
0.3978192084
 40
0.5229610085
 40
0.6450755715
 40
0.7647841707
 40
0.8828209569
 40
1.0
 40
1.0
 40
1.0
 40
1.0
 10
5.0439719034
 20
3.6629126801
 30
0.0
 10
5.0408754247
 20
3.6655734688
 30
0.0
 10
5.0349953448
 20
3.6710797643
 30
0.0
 10
5.0270898809
 20
3.6799811029
 30
0.0
 10
5.0202924234
 20
3.6893370864
 30
0.0
 10
5.0146550978
 20
3.6990781564
 30
0.0
 10
5.010222132
 20
3.7091331448
 30
0.0
 10
5.0070298293
 20
3.7194278637
 30
0.0
 10
5.0051031102
 20
3.7298821734
 30
0.0
 10
5.0046739723
 20
3.7369185287
 30
0.0
 10
5.0046740611
 20
3.7404201592
 30
0.0
  0
SPLINE
  5
34D
100
AcDbEntity
  8
ALL_ASSEMBLY_MEMBERS
100
AcDbSpline
 62
7
  6
CONTINUOUS
 70
0
 71
3
 72
14
 73
10
 74
0
 42
0.0000001
 43
0.0000001
 44
0.0000000001
 40
0.0
 40
0.0
 40
0.0
 40
0.0
 40
0.2608679236
 40
0.3881255511
 40
0.5134506395
 40
0.6370540139
 40
0.7591700428
 40
0.8800575348
 40
1.0
 40
1.0
 40
1.0
 40
1.0
 10
5.2975522443
 20
3.9737590548
 30
0.0
 10
5.2998880686
 20
3.9708773605
 30
0.0
 10
5.303121137
 20
3.9663821454
 30
0.0
 10
5.3068050379
 20
3.960074311
 30
0.0
 10
5.3091990561
 20
3.9552860255
 30
0.0
 10
5.3112400035
 20
3.9504163255
 30
0.0
 10
5.3129225702
 20
3.9454777539
 30
0.0
 10
5.314240988
 20
3.9404837511
 30
0.0
 10
5.3148774458
 20
3.9371153198
 30
0.0
 10
5.3151331662
 20
3.9354290462
 30
0.0
  0
LINE
  5
34E
100
AcDbEntity
  8
ALL_ASSEMBLY_MEMBERS
100
AcDbLine
 62
7
  6
CONTINUOUS
 10
5.3151331662
 20
3.9354290462
 11
5.3151643479
 21
3.9352213443
  0
SPLINE
  5
34F
100
AcDbEntity
  8
ALL_ASSEMBLY_MEMBERS
100
AcDbSpline
 62
7
  6
CONTINUOUS
 70
0
 71
3
 72
13
 73
9
 74
0
 42
0.0000001
 43
0.0000001
 44
0.0000000001
 40
0.0
 40
0.0
 40
0.0
 40
0.0
 40
0.2609067146
 40
0.5133903236
 40
0.6370101718
 40
0.7591402233
 40
0.8800432411
 40
1.0
 40
1.0
 40
1.0
 40
1.0
 10
5.056802242
 20
3.973767062
 30
0.0
 10
5.0544655468
 20
3.9708848268
 30
0.0
 10
5.0501888217
 20
3.964942291
 30
0.0
 10
5.045850169
 20
3.9569588167
 30
0.0
 10
5.0431088029
 20
3.9504198953
 30
0.0
 10
5.0414262112
 20
3.9454799043
 30
0.0
 10
5.0401070865
 20
3.9404848931
 30
0.0
 10
5.0394702095
 20
3.9371156968
 30
0.0
 10
5.039214475
 20
3.9354290259
 30
0.0
  0
LINE
  5
350
100
AcDbEntity
  8
ALL_ASSEMBLY_MEMBERS
100
AcDbLine
 62
7
  6
CONTINUOUS
 10
5.039214475
 20
3.9354290259
 11
5.0391840001
 21
3.9352260356
  0
SPLINE
  5
351
100
AcDbEntity
  8
ALL_ASSEMBLY_MEMBERS
100
AcDbSpline
 62
7
  6
CONTINUOUS
 70
0
 71
3
 72
32
 73
28
 74
0
 42
0.0000001
 43
0.0000001
 44
0.0000000001
 40
0.0
 40
0.0
 40
0.0
 40
0.0
 40
0.0331203839
 40
0.0667411691
 40
0.13515259
 40
0.2047244808
 40
0.2748957157
 40
0.3450659009
 40
0.4146400102
 40
0.4830471472
 40
0.5166590267
 40
0.5497910966
 40
0.5823907808
 40
0.6144134529
 40
0.6458208199
 40
0.676584413
 40
0.7360807107
 40
0.7648377993
 40
0.7929383678
 40
0.8204099582
 40
0.8472917353
 40
0.8736373043
 40
0.8995119036
 40
0.9249934166
 40
0.9501698398
 40
0.9751378003
 40
1.0
 40
1.0
 40
1.0
 40
1.0
 10
5.246548913
 20
3.8506105629
 30
0.0
 10
5.2439080707
 20
3.8495324435
 30
0.0
 10
5.2385273755
 20
3.8475016691
 30
0.0
 10
5.2274378514
 20
3.8439522127
 30
0.0
 10
5.2130381737
 20
3.8405114251
 30
0.0
 10
5.1952590646
 20
3.8380220534
 30
0.0
 10
5.177173957
 20
3.8371872296
 30
0.0
 10
5.1590886579
 20
3.8380219568
 30
0.0
 10
5.1413098074
 20
3.8405115628
 30
0.0
 10
5.1269111546
 20
3.8439519247
 30
0.0
 10
5.1158213938
 20
3.8475010805
 30
0.0
 10
5.107813083
 20
3.8505238459
 30
0.0
 10
5.1001011711
 20
3.8539110232
 30
0.0
 10
5.0927179986
 20
3.8576469156
 30
0.0
 10
5.0856950214
 20
3.8617172693
 30
0.0
 10
5.0769515038
 20
3.8674994281
 30
0.0
 10
5.0689269396
 20
3.8739316667
 30
0.0
 10
5.0617835766
 20
3.8809687568
 30
0.0
 10
5.056978812
 20
3.886423759
 30
0.0
 10
5.0526875086
 20
3.8920900867
 30
0.0
 10
5.0489293527
 20
3.8979450571
 30
0.0
 10
5.0457198263
 20
3.9039628801
 30
0.0
 10
5.0430739711
 20
3.9101184171
 30
0.0
 10
5.0410034537
 20
3.9163849357
 30
0.0
 10
5.0395173128
 20
3.9227354961
 30
0.0
 10
5.0386234169
 20
3.9291418773
 30
0.0
 10
5.0384239129
 20
3.9334360244
 30
0.0
 10
5.038423913
 20
3.9355772384
 30
0.0
  0
SPLINE
  5
352
100
AcDbEntity
  8
ALL_ASSEMBLY_MEMBERS
100
AcDbSpline
 62
7
  6
CONTINUOUS
 70
0
 71
3
 72
18
 73
14
 74
0
 42
0.0000001
 43
0.0000001
 44
0.0000000001
 40
0.0
 40
0.0
 40
0.0
 40
0.0
 40
0.0587196318
 40
0.1175422476
 40
0.2358492092
 40
0.2955780752
 40
0.3557967904
 40
0.4779921514
 40
0.6030868755
 40
0.7315526763
 40
0.797187221
 40
0.8637950948
 40
1.0
 40
1.0
 40
1.0
 40
1.0
 10
5.0046740398
 20
3.939824688
 30
0.0
 10
5.0046740874
 20
3.94152825
 30
0.0
 10
5.0047753029
 20
3.9449393747
 30
0.0
 10
5.0053830713
 20
3.9517576207
 30
0.0
 10
5.0065991744
 20
3.9585398483
 30
0.0
 10
5.008402589
 20
3.9652156269
 30
0.0
 10
5.0106176482
 20
3.9718858431
 30
0.0
 10
5.0141385162
 20
3.9801043639
 30
0.0
 10
5.0194878885
 20
3.9896247096
 30
0.0
 10
5.0248290414
 20
3.9972095673
 30
0.0
 10
5.0296170225
 20
4.0030678249
 30
0.0
 10
5.034822826
 20
4.0088633799
 30
0.0
 10
5.0390528833
 20
4.0129678034
 30
0.0
 10
5.0420019288
 20
4.015597988
 30
0.0
  0
SPLINE
  5
353
100
AcDbEntity
  8
ALL_ASSEMBLY_MEMBERS
100
AcDbSpline
 62
7
  6
CONTINUOUS
 70
0
 71
3
 72
16
 73
12
 74
0
 42
0.0000001
 43
0.0000001
 44
0.0000000001
 40
0.0
 40
0.0
 40
0.0
 40
0.0
 40
0.0585591372
 40
0.1172265174
 40
0.2352571314
 40
0.3549601651
 40
0.4770678362
 40
0.6022034379
 40
0.7308569073
 40
0.8633835293
 40
1.0
 40
1.0
 40
1.0
 40
1.0
 10
5.349673765
 20
3.7404113743
 30
0.0
 10
5.3496737207
 20
3.7386616384
 30
0.0
 10
5.3495669834
 20
3.7351578783
 30
0.0
 10
5.348925735
 20
3.7281543548
 30
0.0
 10
5.3473170181
 20
3.7194215398
 30
0.0
 10
5.3441238881
 20
3.7091297843
 30
0.0
 10
5.3396918183
 20
3.699075948
 30
0.0
 10
5.334055012
 20
3.6893366171
 30
0.0
 10
5.3272584901
 20
3.679982243
 30
0.0
 10
5.319354888
 20
3.6710816966
 30
0.0
 10
5.3134753974
 20
3.6655765666
 30
0.0
 10
5.3103794888
 20
3.6629159876
 30
0.0
  0
SPLINE
  5
354
100
AcDbEntity
  8
ALL_ASSEMBLY_MEMBERS
100
AcDbSpline
 62
7
  6
CONTINUOUS
 70
0
 71
3
 72
11
 73
7
 74
0
 42
0.0000001
 43
0.0000001
 44
0.0000000001
 40
0.0
 40
0.0
 40
0.0
 40
0.0
 40
0.2394065325
 40
0.4861025855
 40
0.7398566242
 40
1.0
 40
1.0
 40
1.0
 40
1.0
 10
5.3103794888
 20
3.6629159876
 30
0.0
 10
5.3070531123
 20
3.6600573478
 30
0.0
 10
5.3000299192
 20
3.6545598025
 30
0.0
 10
5.2886745719
 20
3.6471321668
 30
0.0
 10
5.2764286758
 20
3.6404552166
 30
0.0
 10
5.2678362388
 20
3.636582846
 30
0.0
 10
5.263423913
 20
3.6347815216
 30
0.0
  0
SPLINE
  5
355
100
AcDbEntity
  8
ALL_ASSEMBLY_MEMBERS
100
AcDbSpline
 62
7
  6
CONTINUOUS
 70
0
 71
3
 72
22
 73
18
 74
0
 42
0.0000001
 43
0.0000001
 44
0.0000000001
 40
0.0
 40
0.0
 40
0.0
 40
0.0
 40
0.0554266265
 40
0.1110788135
 40
0.1671758034
 40
0.2239246335
 40
0.2815143524
 40
0.3401136349
 40
0.399864318
 40
0.4608846984
 40
0.5232637636
 40
0.5870656707
 40
0.6523242176
 40
0.7190456755
 40
0.7872203967
 40
0.8568245961
 40
1.0
 40
1.0
 40
1.0
 40
1.0
 10
5.315923913
 20
3.9355772384
 30
0.0
 10
5.3159239129
 20
3.9334833278
 30
0.0
 10
5.3157331603
 20
3.9292845425
 30
0.0
 10
5.314878388
 20
3.9230189273
 30
0.0
 10
5.3134571762
 20
3.9168054465
 30
0.0
 10
5.3114765281
 20
3.9106705645
 30
0.0
 10
5.3089450127
 20
3.9046393793
 30
0.0
 10
5.3058728755
 20
3.8987371355
 30
0.0
 10
5.3022743486
 20
3.8929872544
 30
0.0
 10
5.2981632225
 20
3.8874140229
 30
0.0
 10
5.2935578621
 20
3.8820390638
 30
0.0
 10
5.2884763872
 20
3.8768849596
 30
0.0
 10
5.2829404625
 20
3.8719721364
 30
0.0
 10
5.2769730951
 20
3.8673203439
 30
0.0
 10
5.2705975209
 20
3.8629485116
 30
0.0
 10
5.2615046037
 20
3.8574653731
 30
0.0
 10
5.254274414
 20
3.8539047505
 30
0.0
 10
5.2493061174
 20
3.8517665007
 30
0.0
  0
SPLINE
  5
356
100
AcDbEntity
  8
ALL_ASSEMBLY_MEMBERS
100
AcDbSpline
 62
7
  6
CONTINUOUS
 70
0
 71
3
 72
9
 73
5
 74
0
 42
0.0000001
 43
0.0000001
 44
0.0000000001
 40
0.0
 40
0.0
 40
0.0
 40
0.0
 40
0.2448343158
 40
1.0
 40
1.0
 40
1.0
 40
1.0
 10
5.263423913
 20
3.7599394219
 30
0.0
 10
5.2597075994
 20
3.7584222432
 30
0.0
 10
5.2443440132
 20
3.752683786
 30
0.0
 10
5.2283210216
 20
3.7487457639
 30
0.0
 10
5.2161028504
 20
3.7467444033
 30
0.0
  0
SPLINE
  5
357
100
AcDbEntity
  8
ALL_ASSEMBLY_MEMBERS
100
AcDbSpline
 62
7
  6
CONTINUOUS
 70
0
 71
3
 72
30
 73
26
 74
0
 42
0.0000001
 43
0.0000001
 44
0.0000000001
 40
0.0
 40
0.0
 40
0.0
 40
0.0
 40
0.0707186352
 40
0.1419082351
 40
0.21309777
 40
0.28385601
 40
0.3537437752
 40
0.422357198
 40
0.4893344812
 40
0.554372409
 40
0.6172423425
 40
0.647828062
 40
0.6778289187
 40
0.7072438504
 40
0.7360806444
 40
0.7643541894
 40
0.7920877464
 40
0.8193135582
 40
0.8460712614
 40
0.8724097017
 40
0.898384836
 40
0.9240598005
 40
0.9495040937
 40
0.9747915895
 40
1.0
 40
1.0
 40
1.0
 40
1.0
 10
5.2161028504
 20
3.8209906153
 30
0.0
 10
5.2097749539
 20
3.8199540934
 30
0.0
 10
5.1969861373
 20
3.8183936417
 30
0.0
 10
5.177661552
 20
3.8175882647
 30
0.0
 10
5.1583289958
 20
3.8183167283
 30
0.0
 10
5.1392330534
 20
3.8205684123
 30
0.0
 10
5.1206109635
 20
3.8243166914
 30
0.0
 10
5.1026960467
 20
3.829514889
 30
0.0
 10
5.0857115158
 20
3.836099189
 30
0.0
 10
5.0698708037
 20
3.8439880649
 30
0.0
 10
5.0576741825
 20
3.8516406924
 30
0.0
 10
5.0486943833
 20
3.8583321789
 30
0.0
 10
5.0424247127
 20
3.8635628083
 30
0.0
 10
5.0365802234
 20
3.8690352104
 30
0.0
 10
5.0311786736
 20
3.8747316912
 30
0.0
 10
5.0262373734
 20
3.8806346159
 30
0.0
 10
5.0217726084
 20
3.8867258923
 30
0.0
 10
5.0177976926
 20
3.8929857106
 30
0.0
 10
5.0143265767
 20
3.8993951797
 30
0.0
 10
5.0113697421
 20
3.9059335757
 30
0.0
 10
5.0089369041
 20
3.9125803663
 30
0.0
 10
5.0070368674
 20
3.9193145991
 30
0.0
 10
5.0056746025
 20
3.9261145933
 30
0.0
 10
5.0048560289
 20
3.9329583213
 30
0.0
 10
5.0046739759
 20
3.9375389815
 30
0.0
 10
5.0046740398
 20
3.939824688
 30
0.0
  0
SPLINE
  5
358
100
AcDbEntity
  8
ALL_ASSEMBLY_MEMBERS
100
AcDbSpline
 62
7
  6
CONTINUOUS
 70
0
 71
3
 72
28
 73
24
 74
0
 42
0.0000001
 43
0.0000001
 44
0.0000000001
 40
0.0
 40
0.0
 40
0.0
 40
0.0
 40
0.0616618808
 40
0.1215295118
 40
0.1799383255
 40
0.208739202
 40
0.2373374285
 40
0.2657949047
 40
0.2941752674
 40
0.322543517
 40
0.3509650202
 40
0.3795039199
 40
0.4082229037
 40
0.4664059274
 40
0.5259762223
 40
0.5872851211
 40
0.6505957658
 40
0.7160773943
 40
0.7496681861
 40
0.7838206437
 40
0.8537792128
 40
0.9259082897
 40
1.0
 40
1.0
 40
1.0
 40
1.0
 10
5.3049665848
 20
3.987890461
 30
0.0
 10
5.3071068519
 20
3.9850457523
 30
0.0
 10
5.3110219576
 20
3.9792013835
 30
0.0
 10
5.3157543817
 20
3.9699265639
 30
0.0
 10
5.3186455588
 20
3.9619152424
 30
0.0
 10
5.3202870335
 20
3.9554297292
 30
0.0
 10
5.3211820656
 20
3.950550525
 30
0.0
 10
5.3217447239
 20
3.9456465124
 30
0.0
 10
5.3219739714
 20
3.9407288529
 30
0.0
 10
5.3218683343
 20
3.9358090526
 30
0.0
 10
5.3214286913
 20
3.9308986949
 30
0.0
 10
5.3206563356
 20
3.9260089164
 30
0.0
 10
5.3191785571
 20
3.9195058218
 30
0.0
 10
5.3164898299
 20
3.9114610698
 30
0.0
 10
5.3119900813
 20
3.902125699
 30
0.0
 10
5.3062486603
 20
3.8931462563
 30
0.0
 10
5.2993212384
 20
3.8846062123
 30
0.0
 10
5.2926703427
 20
3.8779744774
 30
0.0
 10
5.2868398403
 20
3.8729544162
 30
0.0
 10
5.2805734076
 20
3.8680579034
 30
0.0
 10
5.2721272085
 20
3.8623574268
 30
0.0
 10
5.2612063685
 20
3.8562877543
 30
0.0
 10
5.2535091491
 20
3.8527957286
 30
0.0
 10
5.249548913
 20
3.851178969
 30
0.0
  0
SPLINE
  5
359
100
AcDbEntity
  8
ALL_ASSEMBLY_MEMBERS
100
AcDbSpline
 62
7
  6
CONTINUOUS
 70
0
 71
3
 72
10
 73
6
 74
0
 42
0.0000001
 43
0.0000001
 44
0.0000000001
 40
0.0
 40
0.0
 40
0.0
 40
0.0
 40
0.4887323386
 40
0.7417653517
 40
1.0
 40
1.0
 40
1.0
 40
1.0
 10
5.3032449757
 20
3.782320027
 30
0.0
 10
5.297298072
 20
3.7778173261
 30
0.0
 10
5.287760242
 20
3.7716334259
 30
0.0
 10
5.2742125707
 20
3.7645936276
 30
0.0
 10
5.2670728261
 20
3.7614290844
 30
0.0
 10
5.263423913
 20
3.7599394219
 30
0.0
  0
SPLINE
  5
35A
100
AcDbEntity
  8
ALL_ASSEMBLY_MEMBERS
100
AcDbSpline
 62
7
  6
CONTINUOUS
 70
0
 71
3
 72
15
 73
11
 74
0
 42
0.0000001
 43
0.0000001
 44
0.0000000001
 40
0.0
 40
0.0
 40
0.0
 40
0.0
 40
0.1313512195
 40
0.2603107674
 40
0.3871185119
 40
0.5120554704
 40
0.6354452226
 40
0.7576409495
 40
0.879025749
 40
1.0
 40
1.0
 40
1.0
 40
1.0
 10
5.3010504907
 20
3.979770827
 30
0.0
 10
5.3022555005
 20
3.9780820752
 30
0.0
 10
5.3045304116
 20
3.9746526383
 30
0.0
 10
5.3075410614
 20
3.9693250978
 30
0.0
 10
5.3101074466
 20
3.9638810225
 30
0.0
 10
5.3122192384
 20
3.9583388559
 30
0.0
 10
5.3138702683
 20
3.952718083
 30
0.0
 10
5.3150536248
 20
3.9470375811
 30
0.0
 10
5.3157651942
 20
3.9413176705
 30
0.0
 10
5.3159239132
 20
3.9374879339
 30
0.0
 10
5.315923913
 20
3.9355772384
 30
0.0
  0
SPLINE
  5
35B
100
AcDbEntity
  8
ALL_ASSEMBLY_MEMBERS
100
AcDbSpline
 62
7
  6
CONTINUOUS
 70
0
 71
3
 72
11
 73
7
 74
0
 42
0.0000001
 43
0.0000001
 44
0.0000000001
 40
0.0
 40
0.0
 40
0.0
 40
0.0
 40
0.243443602
 40
0.4923275713
 40
0.7450743399
 40
1.0
 40
1.0
 40
1.0
 40
1.0
 10
5.2467670951
 20
3.8500721125
 30
0.0
 10
5.2416543095
 20
3.8480900488
 30
0.0
 10
5.2311156888
 20
3.844577811
 30
0.0
 10
5.2147593524
 20
3.8407263382
 30
0.0
 10
5.1978748756
 20
3.8382741401
 30
0.0
 10
5.1864437187
 20
3.8375955846
 30
0.0
 10
5.1807024041
 20
3.8374966721
 30
0.0
  0
SPLINE
  5
35C
100
AcDbEntity
  8
ALL_ASSEMBLY_MEMBERS
100
AcDbSpline
 62
7
  6
CONTINUOUS
 70
0
 71
3
 72
35
 73
31
 74
0
 42
0.0000001
 43
0.0000001
 44
0.0000000001
 40
0.0
 40
0.0
 40
0.0
 40
0.0
 40
0.0753327217
 40
0.1499462431
 40
0.2232670959
 40
0.2592889642
 40
0.2947996768
 40
0.3297470738
 40
0.3640868081
 40
0.3977808
 40
0.4308009954
 40
0.4947203352
 40
0.5256444486
 40
0.5558818657
 40
0.5854597994
 40
0.6144167404
 40
0.6428054426
 40
0.6706904072
 40
0.6981483971
 40
0.7252669564
 40
0.7521421036
 40
0.7788769643
 40
0.8055781154
 40
0.8323534423
 40
0.8593083836
 40
0.8865439276
 40
0.9141528444
 40
0.9422192186
 40
0.9708148201
 40
1.0
 40
1.0
 40
1.0
 40
1.0
 10
5.1736494389
 20
3.8374966085
 30
0.0
 10
5.1675280953
 20
3.8376019556
 30
0.0
 10
5.1553458166
 20
3.8383586187
 30
0.0
 10
5.1373889924
 20
3.8411223193
 30
0.0
 10
5.1228641341
 20
3.8447672641
 30
0.0
 10
5.1116833084
 20
3.8484642277
 30
0.0
 10
5.1036096989
 20
3.8515896216
 30
0.0
 10
5.0958330778
 20
3.8550720879
 30
0.0
 10
5.0883841842
 20
3.8588963385
 30
0.0
 10
5.0812931259
 20
3.8630487647
 30
0.0
 10
5.0724519218
 20
3.8689332901
 30
0.0
 10
5.064322001
 20
3.8754576822
 30
0.0
 10
5.0570586215
 20
3.8825783176
 30
0.0
 10
5.0521550026
 20
3.8880945125
 30
0.0
 10
5.0477558811
 20
3.8938206493
 30
0.0
 10
5.0438801664
 20
3.8997350355
 30
0.0
 10
5.0405432397
 20
3.9058132338
 30
0.0
 10
5.0377592343
 20
3.9120309839
 30
0.0
 10
5.0355404685
 20
3.9183632033
 30
0.0
 10
5.0338952255
 20
3.9247837149
 30
0.0
 10
5.032832305
 20
3.9312665726
 30
0.0
 10
5.0323545364
 20
3.9377847096
 30
0.0
 10
5.0324655185
 20
3.9443113358
 30
0.0
 10
5.0331638739
 20
3.9508193225
 30
0.0
 10
5.034446627
 20
3.957281877
 30
0.0
 10
5.0363089287
 20
3.963672135
 30
0.0
 10
5.0387414255
 20
3.9699643806
 30
0.0
 10
5.0417354516
 20
3.9761324286
 30
0.0
 10
5.0452765485
 20
3.9821516585
 30
0.0
 10
5.047964673
 20
3.9860083138
 30
0.0
 10
5.0493909695
 20
3.9879034172
 30
0.0
  0
SPLINE
  5
35D
100
AcDbEntity
  8
ALL_ASSEMBLY_MEMBERS
100
AcDbSpline
 62
7
  6
CONTINUOUS
 70
0
 71
3
 72
15
 73
11
 74
0
 42
0.0000001
 43
0.0000001
 44
0.0000000001
 40
0.0
 40
0.0
 40
0.0
 40
0.0
 40
0.1209773105
 40
0.2423648357
 40
0.3645626123
 40
0.4879534766
 40
0.6128904567
 40
0.7396969963
 40
0.8686537299
 40
1.0
 40
1.0
 40
1.0
 40
1.0
 10
5.038423913
 20
3.9355772384
 30
0.0
 10
5.0384239132
 20
3.9374871364
 30
0.0
 10
5.0385825001
 20
3.9413152675
 30
0.0
 10
5.0392934754
 20
3.9470328004
 30
0.0
 10
5.0404758407
 20
3.9527109747
 30
0.0
 10
5.042125497
 20
3.9583294959
 30
0.0
 10
5.0442355457
 20
3.9638695113
 30
0.0
 10
5.0467998332
 20
3.969311556
 30
0.0
 10
5.0498080328
 20
3.9746372025
 30
0.0
 10
5.0520811037
 20
3.9780655233
 30
0.0
 10
5.0532851407
 20
3.979753745
 30
0.0
  0
SPLINE
  5
35E
100
AcDbEntity
  8
ALL_ASSEMBLY_MEMBERS
100
AcDbSpline
 62
7
  6
CONTINUOUS
 70
0
 71
3
 72
19
 73
15
 74
0
 42
0.0000001
 43
0.0000001
 44
0.0000000001
 40
0.0
 40
0.0
 40
0.0
 40
0.0
 40
0.0579656395
 40
0.1160588795
 40
0.1744048985
 40
0.2331248515
 40
0.2923353508
 40
0.3521451116
 40
0.412654836
 40
0.4739565401
 40
0.5991879588
 40
0.7284063411
 40
0.8619855339
 40
1.0
 40
1.0
 40
1.0
 40
1.0
 10
5.3496737863
 20
3.9398150701
 30
0.0
 10
5.3496737329
 20
3.9379058095
 30
0.0
 10
5.349546587
 20
3.9340818696
 30
0.0
 10
5.3489746788
 20
3.9283618894
 30
0.0
 10
5.3480237332
 20
3.9226672069
 30
0.0
 10
5.3466958008
 20
3.9170107905
 30
0.0
 10
5.3449931843
 20
3.9114053238
 30
0.0
 10
5.3429206115
 20
3.9058630643
 30
0.0
 10
5.3404824861
 20
3.9003960498
 30
0.0
 10
5.3367250162
 20
3.8931738744
 30
0.0
 10
5.3311164004
 20
3.8843863309
 30
0.0
 10
5.3230808638
 20
3.8744170092
 30
0.0
 10
5.31376538
 20
3.8650322998
 30
0.0
 10
5.306869213
 20
3.859310332
 30
0.0
 10
5.3032449757
 20
3.856566239
 30
0.0
  0
SPLINE
  5
35F
100
AcDbEntity
  8
ALL_ASSEMBLY_MEMBERS
100
AcDbSpline
 62
7
  6
CONTINUOUS
 70
0
 71
3
 72
15
 73
11
 74
0
 42
0.0000001
 43
0.0000001
 44
0.0000000001
 40
0.0
 40
0.0
 40
0.0
 40
0.0
 40
0.1355073465
 40
0.2700859894
 40
0.4023473584
 40
0.5312801825
 40
0.6559816189
 40
0.7758076792
 40
0.8904528976
 40
1.0
 40
1.0
 40
1.0
 40
1.0
 10
5.177173913
 20
4.0194800728
 30
0.0
 10
5.1827902702
 20
4.0195894957
 30
0.0
 10
5.1939815161
 20
4.0203557873
 30
0.0
 10
5.2104558697
 20
4.023124995
 30
0.0
 10
5.2263059432
 20
4.0274755176
 30
0.0
 10
5.2412275035
 20
4.0333298813
 30
0.0
 10
5.2549429756
 20
4.0405864458
 30
0.0
 10
5.2671933833
 20
4.0491214001
 30
0.0
 10
5.2777407939
 20
4.0587841418
 30
0.0
 10
5.2836328826
 20
4.0660279105
 30
0.0
 10
5.2862000428
 20
4.0697739241
 30
0.0
  0
SPLINE
  5
360
100
AcDbEntity
  8
ALL_ASSEMBLY_MEMBERS
100
AcDbSpline
 62
7
  6
CONTINUOUS
 70
0
 71
3
 72
9
 73
5
 74
0
 42
0.0000001
 43
0.0000001
 44
0.0000000001
 40
0.0
 40
0.0
 40
0.0
 40
0.0
 40
0.5064128557
 40
1.0
 40
1.0
 40
1.0
 40
1.0
 10
5.2862000428
 20
4.0697739241
 30
0.0
 10
5.2878597673
 20
4.0721958026
 30
0.0
 10
5.290886865
 20
4.077155772
 30
0.0
 10
5.2933313229
 20
4.0824295494
 30
0.0
 10
5.294375667
 20
4.0850938347
 30
0.0
  0
SPLINE
  5
361
100
AcDbEntity
  8
ALL_ASSEMBLY_MEMBERS
100
AcDbSpline
 62
7
  6
CONTINUOUS
 70
0
 71
3
 72
15
 73
11
 74
0
 42
0.0000001
 43
0.0000001
 44
0.0000000001
 40
0.0
 40
0.0
 40
0.0
 40
0.0
 40
0.1355229952
 40
0.2701145376
 40
0.4023848102
 40
0.5313234566
 40
0.6560239785
 40
0.7758411356
 40
0.8904713569
 40
1.0
 40
1.0
 40
1.0
 40
1.0
 10
5.177173913
 20
4.0493169181
 30
0.0
 10
5.1827955091
 20
4.0494266367
 30
0.0
 10
5.1939970684
 20
4.0501945601
 30
0.0
 10
5.210486003
 20
4.0529691429
 30
0.0
 10
5.2263489984
 20
4.0573279516
 30
0.0
 10
5.241281058
 20
4.0631932101
 30
0.0
 10
5.2550038713
 20
4.070462866
 30
0.0
 10
5.2672576605
 20
4.0790127177
 30
0.0
 10
5.27780399
 20
4.0886915287
 30
0.0
 10
5.2836921272
 20
4.0959467245
 30
0.0
 10
5.2862563476
 20
4.0996983229
 30
0.0
  0
SPLINE
  5
362
100
AcDbEntity
  8
ALL_ASSEMBLY_MEMBERS
100
AcDbSpline
 62
7
  6
CONTINUOUS
 70
0
 71
3
 72
9
 73
5
 74
0
 42
0.0000001
 43
0.0000001
 44
0.0000000001
 40
0.0
 40
0.0
 40
0.0
 40
0.0
 40
0.5066334788
 40
1.0
 40
1.0
 40
1.0
 40
1.0
 10
5.2862563476
 20
4.0996983229
 30
0.0
 10
5.2879833189
 20
4.102224979
 30
0.0
 10
5.2911198718
 20
4.1074050339
 30
0.0
 10
5.2936187616
 20
4.1129236495
 30
0.0
 10
5.2946738747
 20
4.1157109479
 30
0.0
  0
SPLINE
  5
363
100
AcDbEntity
  8
ALL_ASSEMBLY_MEMBERS
100
AcDbSpline
 62
7
  6
CONTINUOUS
 70
0
 71
3
 72
15
 73
11
 74
0
 42
0.0000001
 43
0.0000001
 44
0.0000000001
 40
0.0
 40
0.0
 40
0.0
 40
0.0
 40
0.135812927
 40
0.2706660465
 40
0.4031266322
 40
0.5321476047
 40
0.6568031648
 40
0.7764462734
 40
0.8907999173
 40
1.0
 40
1.0
 40
1.0
 40
1.0
 10
5.177173913
 20
4.0344226708
 30
0.0
 10
5.1828798635
 20
4.0345343489
 30
0.0
 10
5.1942484518
 20
4.0353225209
 30
0.0
 10
5.2109743069
 20
4.0381757902
 30
0.0
 10
5.2270464857
 20
4.0426587712
 30
0.0
 10
5.242146
 20
4.0486898422
 30
0.0
 10
5.2559829759
 20
4.0561597075
 30
0.0
 10
5.2682871897
 20
4.0649379177
 30
0.0
 10
5.2788125027
 20
4.074864097
 30
0.0
 10
5.2846339351
 20
4.0822961872
 30
0.0
 10
5.2871492133
 20
4.0861341383
 30
0.0
  0
SPLINE
  5
364
100
AcDbEntity
  8
ALL_ASSEMBLY_MEMBERS
100
AcDbSpline
 62
7
  6
CONTINUOUS
 70
0
 71
3
 72
9
 73
5
 74
0
 42
0.0000001
 43
0.0000001
 44
0.0000000001
 40
0.0
 40
0.0
 40
0.0
 40
0.0
 40
0.2532120839
 40
1.0
 40
1.0
 40
1.0
 40
1.0
 10
5.2882835678
 20
4.0879150277
 30
0.0
 10
5.2887810018
 20
4.0887189837
 30
0.0
 10
5.2906892448
 20
4.0919283624
 30
0.0
 10
5.2923672704
 20
4.0952755181
 30
0.0
 10
5.2934705378
 20
4.0978361943
 30
0.0
  0
LINE
  5
365
100
AcDbEntity
  8
ALL_ASSEMBLY_MEMBERS
100
AcDbLine
 62
7
  6
CONTINUOUS
 10
5.2974005454
 20
4.1098160151
 11
5.2974433822
 21
4.1100046035
  0
SPLINE
  5
366
100
AcDbEntity
  8
ALL_ASSEMBLY_MEMBERS
100
AcDbSpline
 62
7
  6
CONTINUOUS
 70
0
 71
3
 72
9
 73
5
 74
0
 42
0.0000001
 43
0.0000001
 44
0.0000000001
 40
0.0
 40
0.0
 40
0.0
 40
0.0
 40
0.2458276098
 40
1.0
 40
1.0
 40
1.0
 40
1.0
 10
5.0715824267
 20
4.0750541065
 30
0.0
 10
5.0721702135
 20
4.0743562887
 30
0.0
 10
5.0746085981
 20
4.0715577268
 30
0.0
 10
5.0772300629
 20
4.0689196915
 30
0.0
 10
5.0792898069
 20
4.0670243358
 30
0.0
  0
SPLINE
  5
367
100
AcDbEntity
  8
ALL_ASSEMBLY_MEMBERS
100
AcDbSpline
 62
7
  6
CONTINUOUS
 70
0
 71
3
 72
14
 73
10
 74
0
 42
0.0000001
 43
0.0000001
 44
0.0000000001
 40
0.0
 40
0.0
 40
0.0
 40
0.0
 40
0.2271531648
 40
0.3478750287
 40
0.4727469824
 40
0.6011597795
 40
0.7323865267
 40
0.8656645446
 40
1.0
 40
1.0
 40
1.0
 40
1.0
 10
5.0792898069
 20
4.0670243358
 30
0.0
 10
5.0851689641
 20
4.0616143945
 30
0.0
 10
5.0952610696
 20
4.0544578279
 30
0.0
 10
5.110140393
 20
4.0470074644
 30
0.0
 10
5.1224383578
 20
4.0422745397
 30
0.0
 10
5.135467558
 20
4.0385863314
 30
0.0
 10
5.149059437
 20
4.0359923644
 30
0.0
 10
5.1630269547
 20
4.0345330916
 30
0.0
 10
5.1724499361
 20
4.0343302121
 30
0.0
 10
5.177173913
 20
4.0344226708
 30
0.0
  0
SPLINE
  5
368
100
AcDbEntity
  8
ALL_ASSEMBLY_MEMBERS
100
AcDbSpline
 62
7
  6
CONTINUOUS
 70
0
 71
3
 72
21
 73
17
 74
0
 42
0.0000001
 43
0.0000001
 44
0.0000000001
 40
0.0
 40
0.0
 40
0.0
 40
0.0
 40
0.0598183068
 40
0.121827365
 40
0.1857049692
 40
0.2511497959
 40
0.3849952954
 40
0.5197913476
 40
0.5863759841
 40
0.6517442719
 40
0.715467411
 40
0.7771829001
 40
0.8366054222
 40
0.8935594735
 40
0.9479924986
 40
1.0
 40
1.0
 40
1.0
 40
1.0
 10
5.2659170143
 20
4.0932967025
 30
0.0
 10
5.2624728947
 20
4.0906116409
 30
0.0
 10
5.2551293233
 20
4.0855550458
 30
0.0
 10
5.2431872163
 20
4.0790895167
 30
0.0
 10
5.2302779218
 20
4.0736939393
 30
0.0
 10
5.2119086275
 20
4.0679835951
 30
0.0
 10
5.1877207535
 20
4.063937757
 30
0.0
 10
5.1631208138
 20
4.0640532806
 30
0.0
 10
5.1438013653
 20
4.0666677133
 30
0.0
 10
5.1298512752
 20
4.0698382786
 30
0.0
 10
5.1165921993
 20
4.0741766913
 30
0.0
 10
5.1042148897
 20
4.0796142533
 30
0.0
 10
5.0929016808
 20
4.0860733379
 30
0.0
 10
5.0828151061
 20
4.0934559306
 30
0.0
 10
5.0741077224
 20
4.1016546301
 30
0.0
 10
5.0692002476
 20
4.1077196865
 30
0.0
 10
5.067041367
 20
4.1108430457
 30
0.0
  0
SPLINE
  5
369
100
AcDbEntity
  8
ALL_ASSEMBLY_MEMBERS
100
AcDbSpline
 62
7
  6
CONTINUOUS
 70
0
 71
3
 72
9
 73
5
 74
0
 42
0.0000001
 43
0.0000001
 44
0.0000000001
 40
0.0
 40
0.0
 40
0.0
 40
0.0
 40
0.2541164876
 40
1.0
 40
1.0
 40
1.0
 40
1.0
 10
5.0666268076
 20
4.1114490983
 30
0.0
 10
5.0660705807
 20
4.1122708398
 30
0.0
 10
5.063946102
 20
4.1155474857
 30
0.0
 10
5.0620862277
 20
4.1189971957
 30
0.0
 10
5.0608768938
 20
4.1216468486
 30
0.0
  0
SPLINE
  5
36A
100
AcDbEntity
  8
ALL_ASSEMBLY_MEMBERS
100
AcDbSpline
 62
7
  6
CONTINUOUS
 70
0
 71
3
 72
11
 73
7
 74
0
 42
0.0000001
 43
0.0000001
 44
0.0000000001
 40
0.0
 40
0.0
 40
0.0
 40
0.0
 40
0.2393283133
 40
0.4855718957
 40
0.7391628966
 40
1.0
 40
1.0
 40
1.0
 40
1.0
 10
5.2880834689
 20
4.1188051567
 30
0.0
 10
5.286751244
 20
4.116443802
 30
0.0
 10
5.2837872385
 20
4.1117958523
 30
0.0
 10
5.2785865588
 20
4.105216677
 30
0.0
 10
5.2726170344
 20
4.0989855761
 30
0.0
 10
5.2682214696
 20
4.0951462793
 30
0.0
 10
5.2659170143
 20
4.0932967025
 30
0.0
  0
SPLINE
  5
36B
100
AcDbEntity
  8
ALL_ASSEMBLY_MEMBERS
100
AcDbSpline
 62
7
  6
CONTINUOUS
 70
0
 71
3
 72
15
 73
11
 74
0
 42
0.0000001
 43
0.0000001
 44
0.0000000001
 40
0.0
 40
0.0
 40
0.0
 40
0.0
 40
0.1070770089
 40
0.2197694474
 40
0.3383864399
 40
0.4627301916
 40
0.5921643571
 40
0.7256861643
 40
0.8621344321
 40
1.0
 40
1.0
 40
1.0
 40
1.0
 10
5.2897332314
 20
4.1285699494
 30
0.0
 10
5.2873877421
 20
4.1245757573
 30
0.0
 10
5.2818018179
 20
4.1168130534
 30
0.0
 10
5.2713820505
 20
4.1064533925
 30
0.0
 10
5.2589526372
 20
4.0972995613
 30
0.0
 10
5.2447853614
 20
4.0895409134
 30
0.0
 10
5.2291815821
 20
4.0833350287
 30
0.0
 10
5.2124713131
 20
4.0788059021
 30
0.0
 10
5.1950133146
 20
4.0760524317
 30
0.0
 10
5.1831377085
 20
4.0754360943
 30
0.0
 10
5.177173913
 20
4.0754360943
 30
0.0
  0
SPLINE
  5
36C
100
AcDbEntity
  8
ALL_ASSEMBLY_MEMBERS
100
AcDbSpline
 62
7
  6
CONTINUOUS
 70
0
 71
3
 72
15
 73
11
 74
0
 42
0.0000001
 43
0.0000001
 44
0.0000000001
 40
0.0
 40
0.0
 40
0.0
 40
0.0
 40
0.1373766871
 40
0.2734103696
 40
0.4066442528
 40
0.5359667897
 40
0.6604008927
 40
0.7793025211
 40
0.8924285778
 40
1.0
 40
1.0
 40
1.0
 40
1.0
 10
5.177173913
 20
4.0754360943
 30
0.0
 10
5.171340763
 20
4.0754360943
 30
0.0
 10
5.1597227744
 20
4.0760260027
 30
0.0
 10
5.1426286686
 20
4.0786614177
 30
0.0
 10
5.1262349734
 20
4.0829990619
 30
0.0
 10
5.1108790693
 20
4.0889480443
 30
0.0
 10
5.0968714635
 20
4.0963941345
 30
0.0
 10
5.0844972657
 20
4.1051920944
 30
0.0
 10
5.0740141055
 20
4.1151669082
 30
0.0
 10
5.0682982984
 20
4.1226581678
 30
0.0
 10
5.0658617314
 20
4.1265215873
 30
0.0
  0
SPLINE
  5
36D
100
AcDbEntity
  8
ALL_ASSEMBLY_MEMBERS
100
AcDbSpline
 62
7
  6
CONTINUOUS
 70
0
 71
3
 72
9
 73
5
 74
0
 42
0.0000001
 43
0.0000001
 44
0.0000000001
 40
0.0
 40
0.0
 40
0.0
 40
0.0
 40
0.25334593
 40
1.0
 40
1.0
 40
1.0
 40
1.0
 10
5.0645376719
 20
4.1287012647
 30
0.0
 10
5.0640652866
 20
4.1295094622
 30
0.0
 10
5.0622609088
 20
4.1327342552
 30
0.0
 10
5.0607029164
 20
4.1360978016
 30
0.0
 10
5.0596988962
 20
4.1386675487
 30
0.0
  0
LINE
  5
36E
100
AcDbEntity
  8
ALL_ASSEMBLY_MEMBERS
100
AcDbLine
 62
7
  6
CONTINUOUS
 10
5.0596988962
 20
4.1386675487
 11
5.0596308019
 21
4.1388425508
  0
SPLINE
  5
36F
100
AcDbEntity
  8
ALL_ASSEMBLY_MEMBERS
100
AcDbSpline
 62
7
  6
CONTINUOUS
 70
0
 71
3
 72
9
 73
5
 74
0
 42
0.0000001
 43
0.0000001
 44
0.0000000001
 40
0.0
 40
0.0
 40
0.0
 40
0.0
 40
0.2464196436
 40
1.0
 40
1.0
 40
1.0
 40
1.0
 10
5.0613406722
 20
4.1057158476
 30
0.0
 10
5.0617307551
 20
4.1048972109
 30
0.0
 10
5.0633814424
 20
4.1016076144
 30
0.0
 10
5.0652966793
 20
4.0984519824
 30
0.0
 10
5.0668640981
 20
4.0961642527
 30
0.0
  0
SPLINE
  5
370
100
AcDbEntity
  8
ALL_ASSEMBLY_MEMBERS
100
AcDbSpline
 62
7
  6
CONTINUOUS
 70
0
 71
3
 72
15
 73
11
 74
0
 42
0.0000001
 43
0.0000001
 44
0.0000000001
 40
0.0
 40
0.0
 40
0.0
 40
0.0
 40
0.1072167501
 40
0.2201916799
 40
0.3390397482
 40
0.463458484
 40
0.5927844505
 40
0.7260821651
 40
0.8622984383
 40
1.0
 40
1.0
 40
1.0
 40
1.0
 10
5.0678780361
 20
4.0947206492
 30
0.0
 10
5.0704396183
 20
4.0911617069
 30
0.0
 10
5.076336554
 20
4.0842955017
 30
0.0
 10
5.0868821954
 20
4.0752245332
 30
0.0
 10
5.0991492658
 20
4.0672868645
 30
0.0
 10
5.112898408
 20
4.060635041
 30
0.0
 10
5.1278688016
 20
4.0553944452
 30
0.0
 10
5.143780088
 20
4.051669191
 30
0.0
 10
5.1603241563
 20
4.049538004
 30
0.0
 10
5.1715432695
 20
4.0492070229
 30
0.0
 10
5.177173913
 20
4.0493169181
 30
0.0
  0
SPLINE
  5
371
100
AcDbEntity
  8
ALL_ASSEMBLY_MEMBERS
100
AcDbSpline
 62
7
  6
CONTINUOUS
 70
0
 71
3
 72
9
 73
5
 74
0
 42
0.0000001
 43
0.0000001
 44
0.0000000001
 40
0.0
 40
0.0
 40
0.0
 40
0.0
 40
0.4937387419
 40
1.0
 40
1.0
 40
1.0
 40
1.0
 10
5.0603020475
 20
4.0930910234
 30
0.0
 10
5.0612156564
 20
4.0909691089
 30
0.0
 10
5.0632964185
 20
4.0867676024
 30
0.0
 10
5.0657874008
 20
4.0827969948
 30
0.0
 10
5.067138678
 20
4.08085138
 30
0.0
  0
LINE
  5
372
100
AcDbEntity
  8
ALL_ASSEMBLY_MEMBERS
100
AcDbLine
 62
7
  6
CONTINUOUS
 10
5.0714614677
 20
4.0751981168
 11
5.0715824267
 21
4.0750541065
  0
SPLINE
  5
373
100
AcDbEntity
  8
ALL_ASSEMBLY_MEMBERS
100
AcDbSpline
 62
7
  6
CONTINUOUS
 70
0
 71
3
 72
9
 73
5
 74
0
 42
0.0000001
 43
0.0000001
 44
0.0000000001
 40
0.0
 40
0.0
 40
0.0
 40
0.0
 40
0.2476700149
 40
1.0
 40
1.0
 40
1.0
 40
1.0
 10
5.057226922
 20
4.0870850861
 30
0.0
 10
5.0574351425
 20
4.086290258
 30
0.0
 10
5.0583409223
 20
4.0830983505
 30
0.0
 10
5.059504671
 20
4.0799803225
 30
0.0
 10
5.0605097404
 20
4.0776957687
 30
0.0
  0
SPLINE
  5
374
100
AcDbEntity
  8
ALL_ASSEMBLY_MEMBERS
100
AcDbSpline
 62
7
  6
CONTINUOUS
 70
0
 71
3
 72
9
 73
5
 74
0
 42
0.0000001
 43
0.0000001
 44
0.0000000001
 40
0.0
 40
0.0
 40
0.0
 40
0.0
 40
0.2461336012
 40
1.0
 40
1.0
 40
1.0
 40
1.0
 10
5.0614199757
 20
4.0757162279
 30
0.0
 10
5.0618410182
 20
4.0748388367
 30
0.0
 10
5.0636294277
 20
4.0713117972
 30
0.0
 10
5.0657212912
 20
4.0679402327
 30
0.0
 10
5.0674385132
 20
4.0655038882
 30
0.0
  0
SPLINE
  5
375
100
AcDbEntity
  8
ALL_ASSEMBLY_MEMBERS
100
AcDbSpline
 62
7
  6
CONTINUOUS
 70
0
 71
3
 72
15
 73
11
 74
0
 42
0.0000001
 43
0.0000001
 44
0.0000000001
 40
0.0
 40
0.0
 40
0.0
 40
0.0
 40
0.1088270828
 40
0.2230819098
 40
0.3427069952
 40
0.4673255215
 40
0.5962741873
 40
0.7287162795
 40
0.8637211007
 40
1.0
 40
1.0
 40
1.0
 40
1.0
 10
5.0720537721
 20
4.0595806435
 30
0.0
 10
5.0747911131
 20
4.0563867745
 30
0.0
 10
5.0809074162
 20
4.0502601913
 30
0.0
 10
5.0914655026
 20
4.0422047222
 30
0.0
 10
5.1034540553
 20
4.0351915521
 30
0.0
 10
5.1166702184
 20
4.0293422704
 30
0.0
 10
5.1308933352
 20
4.02475154
 30
0.0
 10
5.1458910723
 20
4.0215019756
 30
0.0
 10
5.1614079595
 20
4.0196547286
 30
0.0
 10
5.1719074358
 20
4.0193774666
 30
0.0
 10
5.177173913
 20
4.0194800728
 30
0.0
  0
LINE
  5
376
100
AcDbEntity
  8
ALL_ASSEMBLY_MEMBERS
100
AcDbLine
 62
7
  6
CONTINUOUS
 10
5.2989009564
 20
5.6030327027
 11
5.2990483632
 21
5.6032037325
  0
LINE
  5
377
100
AcDbEntity
  8
ALL_ASSEMBLY_MEMBERS
100
AcDbLine
 62
7
  6
CONTINUOUS
 10
5.0554472076
 20
5.6139536272
 11
5.0552994486
 21
5.6141258816
  0
LINE
  5
378
100
AcDbEntity
  8
ALL_ASSEMBLY_MEMBERS
100
AcDbLine
 62
7
  6
CONTINUOUS
 10
5.2989098945
 20
5.6081574578
 11
5.2990486752
 21
5.6079968715
  0
LINE
  5
379
100
AcDbEntity
  8
ALL_ASSEMBLY_MEMBERS
100
AcDbLine
 62
7
  6
CONTINUOUS
 10
5.0575919743
 20
5.6561802117
 11
5.0575523002
 21
5.6562899634
  0
LINE
  5
37A
100
AcDbEntity
  8
ALL_ASSEMBLY_MEMBERS
100
AcDbLine
 62
7
  6
CONTINUOUS
 10
5.2989109124
 20
5.6503730809
 11
5.2990484174
 21
5.6502130683
  0
LINE
  5
37B
100
AcDbEntity
  8
ALL_ASSEMBLY_MEMBERS
100
AcDbLine
 62
7
  6
CONTINUOUS
 10
5.2898580127
 20
5.6630674694
 11
5.2899008665
 21
5.6631841638
  0
LINE
  5
37C
100
AcDbEntity
  8
ALL_ASSEMBLY_MEMBERS
100
AcDbLine
 62
7
  6
CONTINUOUS
 10
5.0554376902
 20
5.6187053362
 11
5.0552994665
 21
5.6185446197
  0
SPLINE
  5
37D
100
AcDbEntity
  8
ALL_ASSEMBLY_MEMBERS
100
AcDbSpline
 62
7
  6
CONTINUOUS
 70
0
 71
3
 72
32
 73
28
 74
0
 42
0.0000001
 43
0.0000001
 44
0.0000000001
 40
0.0
 40
0.0
 40
0.0
 40
0.0
 40
0.0007392684
 40
0.0012452814
 40
0.0018712619
 40
0.0035202431
 40
0.0057300648
 40
0.0085166515
 40
0.011886533
 40
0.0158410772
 40
0.0203797961
 40
0.0312032834
 40
0.0443405716
 40
0.0597705364
 40
0.0774599284
 40
0.0973621218
 40
0.1194291707
 40
0.1698591205
 40
0.2282666788
 40
0.2940890472
 40
0.3667001106
 40
0.4454006187
 40
0.5294394912
 40
0.6179920011
 40
0.710219328
 40
0.8052670709
 40
1.0
 40
1.0
 40
1.0
 40
1.0
 10
5.2990484174
 20
5.6502130683
 30
0.0
 10
5.2990481522
 20
5.6501829754
 30
0.0
 10
5.2990200046
 20
5.6501341958
 30
0.0
 10
5.2989620497
 20
5.6500857059
 30
0.0
 10
5.2988654103
 20
5.6500255162
 30
0.0
 10
5.2986963083
 20
5.6499551203
 30
0.0
 10
5.2984377867
 20
5.6498749203
 30
0.0
 10
5.2981066827
 20
5.6497944258
 30
0.0
 10
5.2977030868
 20
5.6497133509
 30
0.0
 10
5.2972270077
 20
5.6496320062
 30
0.0
 10
5.2964491699
 20
5.6495163635
 30
0.0
 10
5.295297447
 20
5.6493753806
 30
0.0
 10
5.2937020823
 20
5.649213349
 30
0.0
 10
5.291826047
 20
5.6490507681
 30
0.0
 10
5.2896737894
 20
5.6488877174
 30
0.0
 10
5.2872506927
 20
5.6487243101
 30
0.0
 10
5.2834962423
 20
5.6484958038
 30
0.0
 10
5.2781747049
 20
5.6482152314
 30
0.0
 10
5.2710720685
 20
5.6478901945
 30
0.0
 10
5.2630656879
 20
5.6475642883
 30
0.0
 10
5.2542326409
 20
5.6472377232
 30
0.0
 10
5.2446575928
 20
5.6469106482
 30
0.0
 10
5.2344332612
 20
5.6465832666
 30
0.0
 10
5.2236580249
 20
5.6462555813
 30
0.0
 10
5.2124344489
 20
5.6459276998
 30
0.0
 10
5.1968899576
 20
5.6454866962
 30
0.0
 10
5.1850980708
 20
5.6451617033
 30
0.0
 10
5.177173913
 20
5.6449432177
 30
0.0
  0
SPLINE
  5
37E
100
AcDbEntity
  8
ALL_ASSEMBLY_MEMBERS
100
AcDbSpline
 62
7
  6
CONTINUOUS
 70
0
 71
3
 72
32
 73
28
 74
0
 42
0.0000001
 43
0.0000001
 44
0.0000000001
 40
0.0
 40
0.0
 40
0.0
 40
0.0
 40
0.0007372426
 40
0.0012403629
 40
0.0018629548
 40
0.0035047571
 40
0.0057078388
 40
0.0084881759
 40
0.0118512751
 40
0.0157986374
 40
0.0203300209
 40
0.0311393119
 40
0.0442645595
 40
0.0596851469
 40
0.0773641059
 40
0.097255713
 40
0.1193135835
 40
0.1697299976
 40
0.2281242335
 40
0.293943246
 40
0.366555573
 40
0.4452692764
 40
0.5293258873
 40
0.6178997583
 40
0.7101516384
 40
0.8052252295
 40
1.0
 40
1.0
 40
1.0
 40
1.0
 10
5.2990483602
 20
5.6290969977
 30
0.0
 10
5.2990485544
 20
5.6290669861
 30
0.0
 10
5.2990212418
 20
5.6290179068
 30
0.0
 10
5.298963875
 20
5.6289691919
 30
0.0
 10
5.2988680335
 20
5.6289087637
 30
0.0
 10
5.2986997597
 20
5.6288381287
 30
0.0
 10
5.2984421734
 20
5.6287576869
 30
0.0
 10
5.2981119412
 20
5.6286769635
 30
0.0
 10
5.2977092286
 20
5.6285956354
 30
0.0
 10
5.2972340604
 20
5.6285140471
 30
0.0
 10
5.2964574417
 20
5.6283980518
 30
0.0
 10
5.2953071212
 20
5.6282566632
 30
0.0
 10
5.2937132259
 20
5.6280942075
 30
0.0
 10
5.2918384886
 20
5.6279312493
 30
0.0
 10
5.2896874606
 20
5.6277678086
 30
0.0
 10
5.2872655743
 20
5.62760404
 30
0.0
 10
5.2835124398
 20
5.6273750564
 30
0.0
 10
5.2781922958
 20
5.6270939982
 30
0.0
 10
5.2710907811
 20
5.6267684185
 30
0.0
 10
5.2630848936
 20
5.6264421038
 30
0.0
 10
5.2542512425
 20
5.6261151314
 30
0.0
 10
5.2446747125
 20
5.6257877529
 30
0.0
 10
5.2344480665
 20
5.6254601039
 30
0.0
 10
5.2236700401
 20
5.6251322303
 30
0.0
 10
5.2124433332
 20
5.6248042273
 30
0.0
 10
5.1968947937
 20
5.6243631607
 30
0.0
 10
5.1850999263
 20
5.6240382199
 30
0.0
 10
5.177173913
 20
5.623819809
 30
0.0
  0
SPLINE
  5
37F
100
AcDbEntity
  8
ALL_ASSEMBLY_MEMBERS
100
AcDbSpline
 62
7
  6
CONTINUOUS
 70
0
 71
3
 72
27
 73
23
 74
0
 42
0.0000001
 43
0.0000001
 44
0.0000000001
 40
0.0
 40
0.0
 40
0.0
 40
0.0
 40
0.0020923985
 40
0.003703145
 40
0.0057786455
 40
0.0114124242
 40
0.0190870577
 40
0.0236986038
 40
0.0288277565
 40
0.0406399197
 40
0.0545229837
 40
0.0704720345
 40
0.1085067142
 40
0.1545818727
 40
0.2085190431
 40
0.2701069041
 40
0.3390609007
 40
0.4150845855
 40
0.4978688839
 40
0.5870658343
 40
0.783239597
 40
1.0
 40
1.0
 40
1.0
 40
1.0
 10
5.2990486752
 20
5.6079968715
 30
0.0
 10
5.2990485607
 20
5.6079542416
 30
0.0
 10
5.2989925872
 20
5.6078866617
 30
0.0
 10
5.2988947633
 20
5.6078259912
 30
0.0
 10
5.2987213879
 20
5.6077446325
 30
0.0
 10
5.2984219483
 20
5.6076517232
 30
0.0
 10
5.2980661549
 20
5.6075683718
 30
0.0
 10
5.2977180551
 20
5.6074997021
 30
0.0
 10
5.2972856268
 20
5.6074231741
 30
0.0
 10
5.2966646171
 20
5.6073291209
 30
0.0
 10
5.2958231093
 20
5.6072204389
 30
0.0
 10
5.2944490021
 20
5.6070660401
 30
0.0
 10
5.292418954
 20
5.6068779495
 30
0.0
 10
5.2896146798
 20
5.6066616833
 30
0.0
 10
5.2863293754
 20
5.6064446353
 30
0.0
 10
5.2825771117
 20
5.6062270105
 30
0.0
 10
5.2783742163
 20
5.6060089382
 30
0.0
 10
5.2737389626
 20
5.6057905751
 30
0.0
 10
5.2686908736
 20
5.6055720465
 30
0.0
 10
5.2611961951
 20
5.605270763
 30
0.0
 10
5.2509725808
 20
5.6048992685
 30
0.0
 10
5.2425640941
 20
5.6046220596
 30
0.0
 10
5.2381500931
 20
5.6044815569
 30
0.0
  0
SPLINE
  5
380
100
AcDbEntity
  8
ALL_ASSEMBLY_MEMBERS
100
AcDbSpline
 62
7
  6
CONTINUOUS
 70
0
 71
3
 72
11
 73
7
 74
0
 42
0.0000001
 43
0.0000001
 44
0.0000000001
 40
0.0
 40
0.0
 40
0.0
 40
0.0
 40
0.2353937426
 40
0.4826552582
 40
0.7387626812
 40
1.0
 40
1.0
 40
1.0
 40
1.0
 10
5.1013798902
 20
4.0664665814
 30
0.0
 10
5.106578054
 20
4.0633451779
 30
0.0
 10
5.1177820792
 20
4.0578242071
 30
0.0
 10
5.1359415083
 20
4.0519475368
 30
0.0
 10
5.1553732591
 20
4.0484221678
 30
0.0
 10
5.1687222642
 20
4.0477231442
 30
0.0
 10
5.1754509522
 20
4.0477903758
 30
0.0
  0
SPLINE
  5
381
100
AcDbEntity
  8
ALL_ASSEMBLY_MEMBERS
100
AcDbSpline
 62
7
  6
CONTINUOUS
 70
0
 71
3
 72
11
 73
7
 74
0
 42
0.0000001
 43
0.0000001
 44
0.0000000001
 40
0.0
 40
0.0
 40
0.0
 40
0.0
 40
0.2574930876
 40
0.5120934185
 40
0.7605162681
 40
1.0
 40
1.0
 40
1.0
 40
1.0
 10
5.1772252698
 20
4.0478178342
 30
0.0
 10
5.1835805245
 20
4.047951031
 30
0.0
 10
5.1962168255
 20
4.0489599749
 30
0.0
 10
5.2146652452
 20
4.0526783352
 30
0.0
 10
5.2320929606
 20
4.0585094477
 30
0.0
 10
5.2429510159
 20
4.0638285235
 30
0.0
 10
5.2480535036
 20
4.0668146685
 30
0.0
  0
SPLINE
  5
382
100
AcDbEntity
  8
ALL_ASSEMBLY_MEMBERS
100
AcDbSpline
 62
7
  6
CONTINUOUS
 70
0
 71
3
 72
9
 73
5
 74
0
 42
0.0000001
 43
0.0000001
 44
0.0000000001
 40
0.0
 40
0.0
 40
0.0
 40
0.0
 40
0.5104242121
 40
1.0
 40
1.0
 40
1.0
 40
1.0
 10
5.0715824267
 20
4.0644682905
 30
0.0
 10
5.0690608972
 20
4.0674603281
 30
0.0
 10
5.0645324329
 20
4.073686226
 30
0.0
 10
5.0610497401
 20
4.0805611333
 30
0.0
 10
5.0596548208
 20
4.0840453014
 30
0.0
  0
SPLINE
  5
383
100
AcDbEntity
  8
ALL_ASSEMBLY_MEMBERS
100
AcDbSpline
 62
7
  6
CONTINUOUS
 70
0
 71
3
 72
9
 73
5
 74
0
 42
0.0000001
 43
0.0000001
 44
0.0000000001
 40
0.0
 40
0.0
 40
0.0
 40
0.0
 40
0.5042607086
 40
1.0
 40
1.0
 40
1.0
 40
1.0
 10
5.0596548208
 20
4.0840453014
 30
0.0
 10
5.0586371057
 20
4.0865873053
 30
0.0
 10
5.0569396487
 20
4.0917639207
 30
0.0
 10
5.0559580296
 20
4.097124241
 30
0.0
 10
5.0556585798
 20
4.0997994232
 30
0.0
  0
SPLINE
  5
384
100
AcDbEntity
  8
ALL_ASSEMBLY_MEMBERS
100
AcDbSpline
 62
7
  6
CONTINUOUS
 70
0
 71
3
 72
32
 73
28
 74
0
 42
0.0000001
 43
0.0000001
 44
0.0000000001
 40
0.0
 40
0.0
 40
0.0
 40
0.0
 40
0.0007560167
 40
0.0012659053
 40
0.0018938946
 40
0.0035437036
 40
0.0057525687
 40
0.0085372785
 40
0.0119037554
 40
0.0158537797
 40
0.0203872894
 40
0.0311996785
 40
0.0443270326
 40
0.0597490169
 40
0.0774285887
 40
0.0973202113
 40
0.119377667
 40
0.1697921516
 40
0.2281829158
 40
0.2939974132
 40
0.3666041777
 40
0.4453118445
 40
0.5293617259
 40
0.6179285499
 40
0.7101733528
 40
0.8052401019
 40
1.0
 40
1.0
 40
1.0
 40
1.0
 10
5.0552994665
 20
5.6358471085
 30
0.0
 10
5.0552992464
 20
5.6358778878
 30
0.0
 10
5.0553261528
 20
5.6359282458
 30
0.0
 10
5.0553837215
 20
5.6359787785
 30
0.0
 10
5.0554793925
 20
5.6360409932
 30
0.0
 10
5.0556476334
 20
5.636113891
 30
0.0
 10
5.0559052399
 20
5.6361968263
 30
0.0
 10
5.0562354696
 20
5.6362800656
 30
0.0
 10
5.0566381524
 20
5.6363639071
 30
0.0
 10
5.0571132799
 20
5.636448018
 30
0.0
 10
5.0578897782
 20
5.6365675872
 30
0.0
 10
5.0590400035
 20
5.636713343
 30
0.0
 10
5.0606338444
 20
5.6368808182
 30
0.0
 10
5.0625085335
 20
5.6370488113
 30
0.0
 10
5.0646595131
 20
5.6372173051
 30
0.0
 10
5.0670813508
 20
5.6373861379
 30
0.0
 10
5.0708344004
 20
5.6376222023
 30
0.0
 10
5.0761544795
 20
5.6379119559
 30
0.0
 10
5.083255968
 20
5.6382476172
 30
0.0
 10
5.0912618393
 20
5.6385840389
 30
0.0
 10
5.1000955045
 20
5.6389211458
 30
0.0
 10
5.109672075
 20
5.6392586739
 30
0.0
 10
5.1198987996
 20
5.639596487
 30
0.0
 10
5.130676944
 20
5.6399345343
 30
0.0
 10
5.1419038295
 20
5.6402727194
 30
0.0
 10
5.1574526503
 20
5.6407274811
 30
0.0
 10
5.1692477532
 20
5.6410625137
 30
0.0
 10
5.177173913
 20
5.6412877078
 30
0.0
  0
SPLINE
  5
385
100
AcDbEntity
  8
ALL_ASSEMBLY_MEMBERS
100
AcDbSpline
 62
7
  6
CONTINUOUS
 70
0
 71
3
 72
15
 73
11
 74
0
 42
0.0000001
 43
0.0000001
 44
0.0000000001
 40
0.0
 40
0.0
 40
0.0
 40
0.0
 40
0.136474159
 40
0.2715809385
 40
0.4041200627
 40
0.5331293407
 40
0.6577293066
 40
0.7772589735
 40
0.8913858841
 40
1.0
 40
1.0
 40
1.0
 40
1.0
 10
5.177173913
 20
4.0238660446
 30
0.0
 10
5.1718676971
 20
4.0237599049
 30
0.0
 10
5.1612920822
 20
4.0240363139
 30
0.0
 10
5.1456658542
 20
4.0259065727
 30
0.0
 10
5.1305705665
 20
4.0291980816
 30
0.0
 10
5.1162642559
 20
4.033847903
 30
0.0
 10
5.1029881825
 20
4.0397762755
 30
0.0
 10
5.0909642685
 20
4.0468795778
 30
0.0
 10
5.0804018049
 20
4.0550362702
 30
0.0
 10
5.0743035625
 20
4.0612377706
 30
0.0
 10
5.0715824267
 20
4.0644682905
 30
0.0
  0
SPLINE
  5
386
100
AcDbEntity
  8
ALL_ASSEMBLY_MEMBERS
100
AcDbSpline
 62
7
  6
CONTINUOUS
 70
0
 71
3
 72
32
 73
28
 74
0
 42
0.0000001
 43
0.0000001
 44
0.0000000001
 40
0.0
 40
0.0
 40
0.0
 40
0.0
 40
0.0007624001
 40
0.0012773525
 40
0.0019107835
 40
0.0035714911
 40
0.0057903404
 40
0.0085841868
 40
0.0119601687
 40
0.0159199758
 40
0.0204632911
 40
0.0312943509
 40
0.0444374462
 40
0.059871677
 40
0.0775640322
 40
0.0974681174
 40
0.1195361703
 40
0.1699658672
 40
0.2283703189
 40
0.2941877406
 40
0.3667920483
 40
0.4454843203
 40
0.5295133458
 40
0.6180534472
 40
0.7102657862
 40
0.8052977248
 40
1.0
 40
1.0
 40
1.0
 40
1.0
 10
5.0552994486
 20
5.6141258816
 30
0.0
 10
5.0552998208
 20
5.6141569189
 30
0.0
 10
5.0553277277
 20
5.6142071666
 30
0.0
 10
5.0553861167
 20
5.6142577646
 30
0.0
 10
5.0554827968
 20
5.6143200221
 30
0.0
 10
5.0556521231
 20
5.6143930378
 30
0.0
 10
5.0559109697
 20
5.6144761169
 30
0.0
 10
5.0562423553
 20
5.6145595
 30
0.0
 10
5.0566461953
 20
5.6146434386
 30
0.0
 10
5.0571225017
 20
5.6147276404
 30
0.0
 10
5.0579005504
 20
5.6148473014
 30
0.0
 10
5.059052561
 20
5.6149931491
 30
0.0
 10
5.0606482795
 20
5.6151607107
 30
0.0
 10
5.0625246016
 20
5.6153287731
 30
0.0
 10
5.0646770823
 20
5.6154972523
 30
0.0
 10
5.0671003514
 20
5.6156660303
 30
0.0
 10
5.0708549173
 20
5.6159019437
 30
0.0
 10
5.0761765452
 20
5.6161914146
 30
0.0
 10
5.0832792564
 20
5.6165264782
 30
0.0
 10
5.0912856207
 20
5.6168621336
 30
0.0
 10
5.1001185911
 20
5.61719816
 30
0.0
 10
5.1096934918
 20
5.6175343894
 30
0.0
 10
5.119917556
 20
5.617870601
 30
0.0
 10
5.1306923423
 20
5.6182067823
 30
0.0
 10
5.1419153015
 20
5.6185428124
 30
0.0
 10
5.1574589058
 20
5.6189942917
 30
0.0
 10
5.1692501544
 20
5.6193264561
 30
0.0
 10
5.177173913
 20
5.6195495108
 30
0.0
  0
SPLINE
  5
387
100
AcDbEntity
  8
ALL_ASSEMBLY_MEMBERS
100
AcDbSpline
 62
7
  6
CONTINUOUS
 70
0
 71
3
 72
15
 73
11
 74
0
 42
0.0000001
 43
0.0000001
 44
0.0000000001
 40
0.0
 40
0.0
 40
0.0
 40
0.0
 40
0.1357453811
 40
0.2702912627
 40
0.4024048088
 40
0.5312002629
 40
0.6558813226
 40
0.7757903829
 40
0.8905343641
 40
1.0
 40
1.0
 40
1.0
 40
1.0
 10
5.177173913
 20
4.0392769833
 30
0.0
 10
5.1720546281
 20
4.0391743018
 30
0.0
 10
5.1618463191
 20
4.0394250798
 30
0.0
 10
5.1467465088
 20
4.0411541759
 30
0.0
 10
5.1321239825
 20
4.0442113661
 30
0.0
 10
5.118214686
 20
4.0485413887
 30
0.0
 10
5.1052332543
 20
4.0540696263
 30
0.0
 10
5.093384986
 20
4.0607122065
 30
0.0
 10
5.0828579146
 20
4.0683577435
 30
0.0
 10
5.0766860463
 20
4.0741844867
 30
0.0
 10
5.073895529
 20
4.0772278414
 30
0.0
  0
SPLINE
  5
388
100
AcDbEntity
  8
ALL_ASSEMBLY_MEMBERS
100
AcDbSpline
 62
7
  6
CONTINUOUS
 70
0
 71
3
 72
10
 73
6
 74
0
 42
0.0000001
 43
0.0000001
 44
0.0000000001
 40
0.0
 40
0.0
 40
0.0
 40
0.0
 40
0.5113747096
 40
0.7582175052
 40
1.0
 40
1.0
 40
1.0
 40
1.0
 10
5.0719716654
 20
4.0793996914
 30
0.0
 10
5.0691396693
 20
4.0827108839
 30
0.0
 10
5.0653172047
 20
4.0879710661
 30
0.0
 10
5.0612823329
 20
4.0954850222
 30
0.0
 10
5.0596620062
 20
4.0993286894
 30
0.0
 10
5.0589556128
 20
4.1012638617
 30
0.0
  0
SPLINE
  5
389
100
AcDbEntity
  8
ALL_ASSEMBLY_MEMBERS
100
AcDbSpline
 62
7
  6
CONTINUOUS
 70
0
 71
3
 72
32
 73
28
 74
0
 42
0.0000001
 43
0.0000001
 44
0.0000000001
 40
0.0
 40
0.0
 40
0.0
 40
0.0
 40
0.0007541045
 40
0.0012629438
 40
0.0018899128
 40
0.0035378319
 40
0.0057450303
 40
0.0085281687
 40
0.0118930965
 40
0.0158416106
 40
0.02037367
 40
0.0311834358
 40
0.0443087092
 40
0.0597291308
 40
0.0774072684
 40
0.0972976685
 40
0.1193542185
 40
0.1697678488
 40
0.2281583775
 40
0.2939731439
 40
0.3665806468
 40
0.4452899178
 40
0.5293420535
 40
0.6179117937
 40
0.7101601776
 40
0.8052312607
 40
1.0
 40
1.0
 40
1.0
 40
1.0
 10
5.0552994716
 20
5.5923336512
 30
0.0
 10
5.0552991782
 20
5.5923643519
 30
0.0
 10
5.0553259796
 20
5.5924146486
 30
0.0
 10
5.055383433
 20
5.5924650653
 30
0.0
 10
5.0554789848
 20
5.5925271675
 30
0.0
 10
5.0556470874
 20
5.5925999137
 30
0.0
 10
5.055904527
 20
5.5926826774
 30
0.0
 10
5.0562345964
 20
5.5927657462
 30
0.0
 10
5.0566371189
 20
5.592849419
 30
0.0
 10
5.0571120868
 20
5.5929333605
 30
0.0
 10
5.0578883866
 20
5.5930526929
 30
0.0
 10
5.0590383886
 20
5.5931981582
 30
0.0
 10
5.0606319985
 20
5.593365297
 30
0.0
 10
5.0625064987
 20
5.5935329526
 30
0.0
 10
5.064657319
 20
5.5937011134
 30
0.0
 10
5.0670790198
 20
5.5938696137
 30
0.0
 10
5.070831954
 20
5.5941052175
 30
0.0
 10
5.0761519501
 20
5.5943944074
 30
0.0
 10
5.0832533927
 20
5.5947294274
 30
0.0
 10
5.0912592738
 20
5.5950652182
 30
0.0
 10
5.1000930158
 20
5.595401711
 30
0.0
 10
5.1096697371
 20
5.5957386434
 30
0.0
 10
5.1198966952
 20
5.5960758858
 30
0.0
 10
5.1306751484
 20
5.596413388
 30
0.0
 10
5.1419024234
 20
5.5967510584
 30
0.0
 10
5.1574518524
 20
5.597205172
 30
0.0
 10
5.1692474332
 20
5.5975397795
 30
0.0
 10
5.177173913
 20
5.5977647146
 30
0.0
  0
SPLINE
  5
38A
100
AcDbEntity
  8
ALL_ASSEMBLY_MEMBERS
100
AcDbSpline
 62
7
  6
CONTINUOUS
 70
0
 71
3
 72
26
 73
22
 74
0
 42
0.0000001
 43
0.0000001
 44
0.0000000001
 40
0.0
 40
0.0
 40
0.0
 40
0.0
 40
0.1892425324
 40
0.3716778587
 40
0.4582389565
 40
0.540667143
 40
0.6182049555
 40
0.6901486681
 40
0.7558541579
 40
0.8147242596
 40
0.8662376683
 40
0.9099160533
 40
0.9286997116
 40
0.9453881502
 40
0.9599399523
 40
0.9723279186
 40
0.9825335443
 40
0.9905422876
 40
0.9963497554
 40
0.9984378506
 40
1.0
 40
1.0
 40
1.0
 40
1.0
 10
5.177173913
 20
5.6449432177
 30
0.0
 10
5.1694868806
 20
5.6447312701
 30
0.0
 10
5.1543893264
 20
5.644314953
 30
0.0
 10
5.1357761695
 20
5.6437831669
 30
0.0
 10
5.1215024062
 20
5.6433512005
 30
0.0
 10
5.1114897169
 20
5.6430330592
 30
0.0
 10
5.1020713203
 20
5.642715127
 30
0.0
 10
5.093332859
 20
5.6423974952
 30
0.0
 10
5.0853534916
 20
5.6420803507
 30
0.0
 10
5.0782050047
 20
5.6417638496
 30
0.0
 10
5.0719525416
 20
5.6414483973
 30
0.0
 10
5.0673290683
 20
5.6411749678
 30
0.0
 10
5.064120487
 20
5.6409515919
 30
0.0
 10
5.0620939215
 20
5.640792904
 30
0.0
 10
5.0603280781
 20
5.6406346602
 30
0.0
 10
5.0588268986
 20
5.6404769289
 30
0.0
 10
5.0575929313
 20
5.6403206491
 30
0.0
 10
5.0566293079
 20
5.6401654597
 30
0.0
 10
5.0559962387
 20
5.6400295629
 30
0.0
 10
5.0556300312
 20
5.6399125562
 30
0.0
 10
5.0554933435
 20
5.6398531009
 30
0.0
 10
5.0554384009
 20
5.6398213072
 30
0.0
  0
SPLINE
  5
38B
100
AcDbEntity
  8
ALL_ASSEMBLY_MEMBERS
100
AcDbSpline
 62
7
  6
CONTINUOUS
 70
0
 71
3
 72
19
 73
15
 74
0
 42
0.0000001
 43
0.0000001
 44
0.0000000001
 40
0.0
 40
0.0
 40
0.0
 40
0.0
 40
0.1420505436
 40
0.2818872143
 40
0.4175981277
 40
0.5477126077
 40
0.6103351943
 40
0.6711846084
 40
0.7302134133
 40
0.7874277335
 40
0.8428774558
 40
0.896669896
 40
0.9489717334
 40
1.0
 40
1.0
 40
1.0
 40
1.0
 10
5.177173913
 20
4.0546489074
 30
0.0
 10
5.1704562316
 20
4.0545139221
 30
0.0
 10
5.1570965773
 20
4.0550248918
 30
0.0
 10
5.1375396391
 20
4.0581095638
 30
0.0
 10
5.119049808
 20
4.0634229511
 30
0.0
 10
5.1047608506
 20
4.069659753
 30
0.0
 10
5.0943538615
 20
4.0756433019
 30
0.0
 10
5.0872131202
 20
4.0805101399
 30
0.0
 10
5.0806904335
 20
4.085781187
 30
0.0
 10
5.0748286397
 20
4.0914173023
 30
0.0
 10
5.0696691125
 20
4.0973801424
 30
0.0
 10
5.0652496828
 20
4.1036294775
 30
0.0
 10
5.0615992214
 20
4.1101182758
 30
0.0
 10
5.0596774357
 20
4.1146253087
 30
0.0
 10
5.0588599011
 20
4.1168962914
 30
0.0
  0
SPLINE
  5
38C
100
AcDbEntity
  8
ALL_ASSEMBLY_MEMBERS
100
AcDbSpline
 62
7
  6
CONTINUOUS
 70
0
 71
3
 72
9
 73
5
 74
0
 42
0.0000001
 43
0.0000001
 44
0.0000000001
 40
0.0
 40
0.0
 40
0.0
 40
0.0
 40
0.2523322191
 40
1.0
 40
1.0
 40
1.0
 40
1.0
 10
5.0585270281
 20
4.1178446752
 30
0.0
 10
5.0582298754
 20
4.118713504
 30
0.0
 10
5.0571280543
 20
4.1221820682
 30
0.0
 10
5.0563363516
 20
4.1257498686
 30
0.0
 10
5.0559346273
 20
4.1284408175
 30
0.0
  0
SPLINE
  5
38D
100
AcDbEntity
  8
ALL_ASSEMBLY_MEMBERS
100
AcDbSpline
 62
9
  6
CONTINUOUS
 70
0
 71
3
 72
21
 73
17
 74
0
 42
0.0000001
 43
0.0000001
 44
0.0000000001
 40
0.0
 40
0.0
 40
0.0
 40
0.0
 40
0.0726150733
 40
0.1449688094
 40
0.2871195027
 40
0.3564153718
 40
0.4241490008
 40
0.490090527
 40
0.5540754135
 40
0.6756933854
 40
0.7334999127
 40
0.7894117205
 40
0.84366131
 40
0.896567031
 40
0.9485280101
 40
1.0
 40
1.0
 40
1.0
 40
1.0
 10
5.177173913
 20
4.3086269548
 30
0.0
 10
5.1731921082
 20
4.3086269548
 30
0.0
 10
5.1652394453
 20
4.3089040493
 30
0.0
 10
5.1495725047
 20
4.3105406919
 30
0.0
 10
5.1342853235
 20
4.3137869359
 30
0.0
 10
5.1197523248
 20
4.3186359164
 30
0.0
 10
5.1094891754
 20
4.3229725515
 30
0.0
 10
5.099871993
 20
4.3280018986
 30
0.0
 10
5.0882387237
 20
4.3354329418
 30
0.0
 10
5.0779892991
 20
4.3441456317
 30
0.0
 10
5.0696116871
 20
4.3539904236
 30
0.0
 10
5.0644650197
 20
4.3616550095
 30
0.0
 10
5.0604022314
 20
4.369646246
 30
0.0
 10
5.0574698997
 20
4.3778908344
 30
0.0
 10
5.0556946431
 20
4.3863035908
 30
0.0
 10
5.055299529
 20
4.3919831574
 30
0.0
 10
5.055299529
 20
4.3948055937
 30
0.0
  0
SPLINE
  5
38E
100
AcDbEntity
  8
ALL_ASSEMBLY_MEMBERS
100
AcDbSpline
 62
7
  6
CONTINUOUS
 70
0
 71
3
 72
26
 73
22
 74
0
 42
0.0000001
 43
0.0000001
 44
0.0000000001
 40
0.0
 40
0.0
 40
0.0
 40
0.0
 40
0.1892522526
 40
0.3717105993
 40
0.4582816632
 40
0.5407176934
 40
0.6182626816
 40
0.6902048771
 40
0.7559070374
 40
0.8147686924
 40
0.8662742874
 40
0.9099456212
 40
0.9287249564
 40
0.94541034
 40
0.9599604909
 40
0.972344667
 40
0.9825453494
 40
0.9905495736
 40
0.9963542762
 40
0.9984405295
 40
1.0
 40
1.0
 40
1.0
 40
1.0
 10
5.177173913
 20
5.623819809
 30
0.0
 10
5.1694864708
 20
5.6236079722
 30
0.0
 10
5.1543875554
 20
5.6231919245
 30
0.0
 10
5.1357726204
 20
5.6226606253
 30
0.0
 10
5.1214971613
 20
5.6222291312
 30
0.0
 10
5.1114834294
 20
5.6219113615
 30
0.0
 10
5.1020644545
 20
5.6215938748
 30
0.0
 10
5.0933258689
 20
5.6212766927
 30
0.0
 10
5.0853470089
 20
5.620960084
 30
0.0
 10
5.0781992842
 20
5.6206441231
 30
0.0
 10
5.0719477311
 20
5.6203292512
 30
0.0
 10
5.0673250009
 20
5.6200563518
 30
0.0
 10
5.0641169738
 20
5.6198333904
 30
0.0
 10
5.06209075
 20
5.6196750028
 30
0.0
 10
5.0603252207
 20
5.6195170923
 30
0.0
 10
5.0588244318
 20
5.6193596636
 30
0.0
 10
5.0575909665
 20
5.6192036896
 30
0.0
 10
5.0566278016
 20
5.6190487792
 30
0.0
 10
5.0559950466
 20
5.6189131909
 30
0.0
 10
5.0556290727
 20
5.6187964298
 30
0.0
 10
5.0554925346
 20
5.6187370825
 30
0.0
 10
5.0554376902
 20
5.6187053362
 30
0.0
  0
SPLINE
  5
38F
100
AcDbEntity
  8
ALL_ASSEMBLY_MEMBERS
100
AcDbSpline
 62
7
  6
CONTINUOUS
 70
0
 71
3
 72
26
 73
22
 74
0
 42
0.0000001
 43
0.0000001
 44
0.0000000001
 40
0.0
 40
0.0
 40
0.0
 40
0.0
 40
0.1892659839
 40
0.3717203385
 40
0.4582903241
 40
0.5407266919
 40
0.6182706724
 40
0.6902182079
 40
0.7559248426
 40
0.8147934479
 40
0.8663024051
 40
0.9099736807
 40
0.9287527517
 40
0.9454357586
 40
0.9599813889
 40
0.9723627688
 40
0.9825611451
 40
0.9905616882
 40
0.9963597867
 40
0.9984429466
 40
1.0
 40
1.0
 40
1.0
 40
1.0
 10
5.177173913
 20
5.6027000169
 30
0.0
 10
5.1694859209
 20
5.6024861558
 30
0.0
 10
5.1543866142
 20
5.6020665519
 30
0.0
 10
5.1357713146
 20
5.6015316705
 30
0.0
 10
5.1214960303
 20
5.6010978355
 30
0.0
 10
5.1114823534
 20
5.6007786146
 30
0.0
 10
5.1020631722
 20
5.6004598846
 30
0.0
 10
5.0933242098
 20
5.6001417278
 30
0.0
 10
5.0853446505
 20
5.5998243154
 30
0.0
 10
5.078196305
 20
5.5995077931
 30
0.0
 10
5.0719443148
 20
5.5991925481
 30
0.0
 10
5.0673214425
 20
5.598919482
 30
0.0
 10
5.0641135056
 20
5.598696519
 30
0.0
 10
5.0620875573
 20
5.5985381789
 30
0.0
 10
5.0603224074
 20
5.5983803283
 30
0.0
 10
5.0588219879
 20
5.5982230398
 30
0.0
 10
5.0575888525
 20
5.5980672473
 30
0.0
 10
5.0566261598
 20
5.597912588
 30
0.0
 10
5.0559939158
 20
5.5977771859
 30
0.0
 10
5.0556284005
 20
5.5976606025
 30
0.0
 10
5.0554920573
 20
5.5976013694
 30
0.0
 10
5.0554372928
 20
5.5975696803
 30
0.0
  0
SPLINE
  5
390
100
AcDbEntity
  8
ALL_ASSEMBLY_MEMBERS
100
AcDbSpline
 62
9
  6
CONTINUOUS
 70
0
 71
3
 72
21
 73
17
 74
0
 42
0.0000001
 43
0.0000001
 44
0.0000000001
 40
0.0
 40
0.0
 40
0.0
 40
0.0
 40
0.0514719899
 40
0.103432969
 40
0.15633869
 40
0.2105882795
 40
0.2665000873
 40
0.3243066146
 40
0.4459245865
 40
0.509909473
 40
0.5758509992
 40
0.6435846282
 40
0.7128804973
 40
0.8550311906
 40
0.9273849267
 40
1.0
 40
1.0
 40
1.0
 40
1.0
 10
5.2990482971
 20
4.3948055937
 30
0.0
 10
5.2990482971
 20
4.3919831574
 30
0.0
 10
5.298653183
 20
4.3863035908
 30
0.0
 10
5.2968779264
 20
4.3778908344
 30
0.0
 10
5.2939455947
 20
4.369646246
 30
0.0
 10
5.2898828064
 20
4.3616550095
 30
0.0
 10
5.284736139
 20
4.3539904236
 30
0.0
 10
5.2763585269
 20
4.3441456317
 30
0.0
 10
5.2661091024
 20
4.3354329418
 30
0.0
 10
5.254475833
 20
4.3280018986
 30
0.0
 10
5.2448586507
 20
4.3229725515
 30
0.0
 10
5.2345955013
 20
4.3186359164
 30
0.0
 10
5.2200625026
 20
4.3137869359
 30
0.0
 10
5.2047753214
 20
4.3105406919
 30
0.0
 10
5.1891083808
 20
4.3089040493
 30
0.0
 10
5.1811557179
 20
4.3086269548
 30
0.0
 10
5.177173913
 20
4.3086269548
 30
0.0
  0
SPLINE
  5
391
100
AcDbEntity
  8
ALL_ASSEMBLY_MEMBERS
100
AcDbSpline
 62
7
  6
CONTINUOUS
 70
0
 71
3
 72
19
 73
15
 74
0
 42
0.0000001
 43
0.0000001
 44
0.0000000001
 40
0.0
 40
0.0
 40
0.0
 40
0.0
 40
0.0524670887
 40
0.1060388641
 40
0.1609145324
 40
0.21724822
 40
0.2751418043
 40
0.3346438319
 40
0.3957615108
 40
0.4584514214
 40
0.5881149056
 40
0.7226267051
 40
0.8605507096
 40
1.0
 40
1.0
 40
1.0
 40
1.0
 10
5.2957474104
 20
4.1241820265
 30
0.0
 10
5.2949558293
 20
4.1217567697
 30
0.0
 10
5.2930835699
 20
4.1169398997
 30
0.0
 10
5.2894880526
 20
4.1099758394
 30
0.0
 10
5.2851101738
 20
4.1032496893
 30
0.0
 10
5.2799787234
 20
4.0968097542
 30
0.0
 10
5.2741317729
 20
4.0906977805
 30
0.0
 10
5.2676115455
 20
4.0849529791
 30
0.0
 10
5.2604612636
 20
4.0796155051
 30
0.0
 10
5.2500427824
 20
4.0730121894
 30
0.0
 10
5.2357128122
 20
4.0660077802
 30
0.0
 10
5.2171179776
 20
4.0598002089
 30
0.0
 10
5.1974350747
 20
4.0558516955
 30
0.0
 10
5.1839531559
 20
4.0547851298
 30
0.0
 10
5.177173913
 20
4.0546489074
 30
0.0
  0
SPLINE
  5
392
100
AcDbEntity
  8
ALL_ASSEMBLY_MEMBERS
100
AcDbSpline
 62
7
  6
CONTINUOUS
 70
0
 71
3
 72
9
 73
5
 74
0
 42
0.0000001
 43
0.0000001
 44
0.0000000001
 40
0.0
 40
0.0
 40
0.0
 40
0.0
 40
0.4966313151
 40
1.0
 40
1.0
 40
1.0
 40
1.0
 10
5.2988608548
 20
4.1243786062
 30
0.0
 10
5.2986375824
 20
4.121453072
 30
0.0
 10
5.2977846592
 20
4.1155864904
 30
0.0
 10
5.2961576854
 20
4.1098874069
 30
0.0
 10
5.2951615981
 20
4.1070853423
 30
0.0
  0
SPLINE
  5
393
100
AcDbEntity
  8
ALL_ASSEMBLY_MEMBERS
100
AcDbSpline
 62
7
  6
CONTINUOUS
 70
0
 71
3
 72
19
 73
15
 74
0
 42
0.0000001
 43
0.0000001
 44
0.0000000001
 40
0.0
 40
0.0
 40
0.0
 40
0.0
 40
0.0525659126
 40
0.1062673094
 40
0.1612870675
 40
0.2177647884
 40
0.2757893717
 40
0.335398301
 40
0.3965907692
 40
0.4593181914
 40
0.5889386625
 40
0.723261135
 40
0.8608901804
 40
1.0
 40
1.0
 40
1.0
 40
1.0
 10
5.2951615981
 20
4.1070853423
 30
0.0
 10
5.2943161271
 20
4.1047069721
 30
0.0
 10
5.2923456866
 20
4.0999877328
 30
0.0
 10
5.2886348926
 20
4.0931756381
 30
0.0
 10
5.2841707188
 20
4.0866034136
 30
0.0
 10
5.2789816443
 20
4.0803169074
 30
0.0
 10
5.2731048593
 20
4.0743557184
 30
0.0
 10
5.2665816845
 20
4.06875685
 30
0.0
 10
5.2594539694
 20
4.0635586964
 30
0.0
 10
5.2491013719
 20
4.0571337013
 30
0.0
 10
5.2349109767
 20
4.0503229021
 30
0.0
 10
5.216544334
 20
4.0442882774
 30
0.0
 10
5.1971361203
 20
4.0404497494
 30
0.0
 10
5.1838525205
 20
4.0394109414
 30
0.0
 10
5.177173913
 20
4.0392769833
 30
0.0
  0
SPLINE
  5
394
100
AcDbEntity
  8
ALL_ASSEMBLY_MEMBERS
100
AcDbSpline
 62
7
  6
CONTINUOUS
 70
0
 71
3
 72
19
 73
15
 74
0
 42
0.0000001
 43
0.0000001
 44
0.0000000001
 40
0.0
 40
0.0
 40
0.0
 40
0.0
 40
0.0524693592
 40
0.1060424973
 40
0.1609188059
 40
0.217252599
 40
0.2751458913
 40
0.3346472346
 40
0.395763923
 40
0.4584527418
 40
0.5881143182
 40
0.7226251277
 40
0.8605491687
 40
1.0
 40
1.0
 40
1.0
 40
1.0
 10
5.2957538788
 20
4.0934186801
 30
0.0
 10
5.2949629375
 20
4.0909926808
 30
0.0
 10
5.2930918529
 20
4.0861742959
 30
0.0
 10
5.2894977056
 20
4.0792079137
 30
0.0
 10
5.2851208527
 20
4.0724794745
 30
0.0
 10
5.2799900853
 20
4.0660373186
 30
0.0
 10
5.2741434777
 20
4.0599232442
 30
0.0
 10
5.267623304
 20
4.0541764715
 30
0.0
 10
5.2604727801
 20
4.0488372137
 30
0.0
 10
5.2500535993
 20
4.0422317661
 30
0.0
 10
5.2357220707
 20
4.035225243
 30
0.0
 10
5.2171246032
 20
4.0290162414
 30
0.0
 10
5.1974384932
 20
4.0250675021
 30
0.0
 10
5.1839542981
 20
4.024001672
 30
0.0
 10
5.177173913
 20
4.0238660446
 30
0.0
  0
SPLINE
  5
395
100
AcDbEntity
  8
ALL_ASSEMBLY_MEMBERS
100
AcDbSpline
 62
7
  6
CONTINUOUS
 70
0
 71
3
 72
9
 73
5
 74
0
 42
0.0000001
 43
0.0000001
 44
0.0000000001
 40
0.0
 40
0.0
 40
0.0
 40
0.0
 40
0.4965626026
 40
1.0
 40
1.0
 40
1.0
 40
1.0
 10
5.2989130395
 20
4.0943517651
 30
0.0
 10
5.2987148751
 20
4.0912942325
 30
0.0
 10
5.297875192
 20
4.0851578151
 30
0.0
 10
5.2961882209
 20
4.0792001651
 30
0.0
 10
5.2951458411
 20
4.0762739112
 30
0.0
  0
SPLINE
  5
396
100
AcDbEntity
  8
ALL_ASSEMBLY_MEMBERS
100
AcDbSpline
 62
7
  6
CONTINUOUS
 70
0
 71
3
 72
13
 73
9
 74
0
 42
0.0000001
 43
0.0000001
 44
0.0000000001
 40
0.0
 40
0.0
 40
0.0
 40
0.0
 40
0.1118162199
 40
0.2268014007
 40
0.3455102826
 40
0.4683040131
 40
0.7262332544
 40
1.0
 40
1.0
 40
1.0
 40
1.0
 10
5.2951458411
 20
4.0762739112
 30
0.0
 10
5.2940774397
 20
4.0732746072
 30
0.0
 10
5.2914920305
 20
4.0673323995
 30
0.0
 10
5.2864333363
 20
4.0588666802
 30
0.0
 10
5.2802056072
 20
4.050820823
 30
0.0
 10
5.2702758195
 20
4.0406049224
 30
0.0
 10
5.2552324061
 20
4.0293876973
 30
0.0
 10
5.2415807559
 20
4.0226522999
 30
0.0
 10
5.2343388016
 20
4.0197675099
 30
0.0
  0
SPLINE
  5
397
100
AcDbEntity
  8
ALL_ASSEMBLY_MEMBERS
100
AcDbSpline
 62
7
  6
CONTINUOUS
 70
0
 71
3
 72
18
 73
14
 74
0
 42
0.0000001
 43
0.0000001
 44
0.0000000001
 40
0.0
 40
0.0
 40
0.0
 40
0.0
 40
0.0246541363
 40
0.0462379093
 40
0.0749598774
 40
0.1110574533
 40
0.1546186813
 40
0.2056750887
 40
0.2642315047
 40
0.4037931596
 40
0.573146943
 40
0.772040762
 40
1.0
 40
1.0
 40
1.0
 40
1.0
 10
5.2895716591
 20
5.5923710262
 30
0.0
 10
5.2895717319
 20
5.5922996802
 30
0.0
 10
5.2894423165
 20
5.5921968748
 30
0.0
 10
5.2892543655
 20
5.5921109484
 30
0.0
 10
5.2890143592
 20
5.5920274829
 30
0.0
 10
5.2887126383
 20
5.5919465282
 30
0.0
 10
5.2883428939
 20
5.5918639871
 30
0.0
 10
5.2879074687
 20
5.5917815525
 30
0.0
 10
5.2871958747
 20
5.5916642402
 30
0.0
 10
5.286141965
 20
5.5915212828
 30
0.0
 10
5.2846815572
 20
5.5913569883
 30
0.0
 10
5.2829640382
 20
5.5911922095
 30
0.0
 10
5.2817330745
 20
5.5910889696
 30
0.0
 10
5.2810754647
 20
5.5910366711
 30
0.0
  0
SPLINE
  5
398
100
AcDbEntity
  8
ALL_ASSEMBLY_MEMBERS
100
AcDbSpline
 62
7
  6
CONTINUOUS
 70
0
 71
3
 72
28
 73
24
 74
0
 42
0.0000001
 43
0.0000001
 44
0.0000000001
 40
0.0
 40
0.0
 40
0.0
 40
0.0
 40
0.1911837563
 40
0.3750133471
 40
0.4620840107
 40
0.5449036059
 40
0.6227172357
 40
0.6948122091
 40
0.760540737
 40
0.819291218
 40
0.8705335213
 40
0.8931797078
 40
0.9137719235
 40
0.9322658944
 40
0.948617574
 40
0.9627834188
 40
0.9747289826
 40
0.9844336045
 40
0.9918802267
 40
0.9947534785
 40
0.9970600351
 40
0.9988038867
 40
1.0
 40
1.0
 40
1.0
 40
1.0
 10
5.177173913
 20
5.659733329
 30
0.0
 10
5.1843591755
 20
5.6598690213
 30
0.0
 10
5.1984532909
 20
5.660136128
 30
0.0
 10
5.2158195162
 20
5.6604791812
 30
0.0
 10
5.2291128119
 20
5.6607585866
 30
0.0
 10
5.238421654
 20
5.6609646259
 30
0.0
 10
5.2471674136
 20
5.6611708885
 30
0.0
 10
5.2552705286
 20
5.6613773589
 30
0.0
 10
5.2626568146
 20
5.6615838398
 30
0.0
 10
5.269258913
 20
5.6617903669
 30
0.0
 10
5.2742416169
 20
5.6619686229
 30
0.0
 10
5.27779016
 20
5.6621137814
 30
0.0
 10
5.2801083238
 20
5.662218122
 30
0.0
 10
5.2821896171
 20
5.6623224014
 30
0.0
 10
5.2840290196
 20
5.6624265404
 30
0.0
 10
5.2856218233
 20
5.6625304948
 30
0.0
 10
5.2869642243
 20
5.6626339729
 30
0.0
 10
5.2880531172
 20
5.662736947
 30
0.0
 10
5.2888006811
 20
5.6628271864
 30
0.0
 10
5.2892691996
 20
5.6629030821
 30
0.0
 10
5.2895245759
 20
5.6629544618
 30
0.0
 10
5.2897149721
 20
5.6630053054
 30
0.0
 10
5.2898191092
 20
5.6630449293
 30
0.0
 10
5.2898580127
 20
5.6630674694
 30
0.0
  0
SPLINE
  5
399
100
AcDbEntity
  8
ALL_ASSEMBLY_MEMBERS
100
AcDbSpline
 62
7
  6
CONTINUOUS
 70
0
 71
3
 72
26
 73
22
 74
0
 42
0.0000001
 43
0.0000001
 44
0.0000000001
 40
0.0
 40
0.0
 40
0.0
 40
0.0
 40
0.1890640664
 40
0.3713535465
 40
0.4578560239
 40
0.5402366576
 40
0.6177405724
 40
0.6896589105
 40
0.7553551271
 40
0.8142302217
 40
0.8657693127
 40
0.9094950344
 40
0.9283098311
 40
0.945036111
 40
0.9596326946
 40
0.9720696302
 40
0.9823293642
 40
0.9903988464
 40
0.9962751877
 40
0.9983999977
 40
1.0
 40
1.0
 40
1.0
 40
1.0
 10
5.177173913
 20
5.5977647146
 30
0.0
 10
5.1848535503
 20
5.5979826449
 30
0.0
 10
5.1999376448
 20
5.5984107248
 30
0.0
 10
5.2185348658
 20
5.5989575058
 30
0.0
 10
5.2327980597
 20
5.59940166
 30
0.0
 10
5.2428047991
 20
5.5997288159
 30
0.0
 10
5.2522185781
 20
5.6000557395
 30
0.0
 10
5.2609539507
 20
5.6003824
 30
0.0
 10
5.2689317788
 20
5.6007085331
 30
0.0
 10
5.2760807582
 20
5.6010340594
 30
0.0
 10
5.2823359585
 20
5.6013585272
 30
0.0
 10
5.2869632258
 20
5.6016397635
 30
0.0
 10
5.2901761069
 20
5.6018695352
 30
0.0
 10
5.2922069539
 20
5.6020328176
 30
0.0
 10
5.2939777589
 20
5.6021956418
 30
0.0
 10
5.2954845002
 20
5.6023579847
 30
0.0
 10
5.2967245919
 20
5.6025188947
 30
0.0
 10
5.2976950453
 20
5.602678717
 30
0.0
 10
5.2983341477
 20
5.6028187078
 30
0.0
 10
5.2987054414
 20
5.6029390005
 30
0.0
 10
5.2988446864
 20
5.6030001311
 30
0.0
 10
5.2989009564
 20
5.6030327027
 30
0.0
  0
SPLINE
  5
39A
100
AcDbEntity
  8
ALL_ASSEMBLY_MEMBERS
100
AcDbSpline
 62
7
  6
CONTINUOUS
 70
0
 71
3
 72
11
 73
7
 74
0
 42
0.0000001
 43
0.0000001
 44
0.0000000001
 40
0.0
 40
0.0
 40
0.0
 40
0.0
 40
0.2471556108
 40
0.4956504252
 40
0.7463200355
 40
1.0
 40
1.0
 40
1.0
 40
1.0
 10
5.0552989135
 20
4.152365212
 30
0.0
 10
5.0552989327
 20
4.150468658
 30
0.0
 10
5.0554780043
 20
4.1466629514
 30
0.0
 10
5.0562779398
 20
4.1409843006
 30
0.0
 10
5.057605832
 20
4.1353540422
 30
0.0
 10
5.0588326534
 20
4.1316771681
 30
0.0
 10
5.0595283289
 20
4.1298591031
 30
0.0
  0
SPLINE
  5
39B
100
AcDbEntity
  8
ALL_ASSEMBLY_MEMBERS
100
AcDbSpline
 62
7
  6
CONTINUOUS
 70
0
 71
3
 72
23
 73
19
 74
0
 42
0.0000001
 43
0.0000001
 44
0.0000000001
 40
0.0
 40
0.0
 40
0.0
 40
0.0
 40
0.050920447
 40
0.1039732908
 40
0.1595182506
 40
0.2177076048
 40
0.2785054686
 40
0.3417047413
 40
0.4069642319
 40
0.4738357644
 40
0.5417918119
 40
0.6102570971
 40
0.6786322036
 40
0.7463242869
 40
0.8127659822
 40
0.8774470781
 40
0.9399821267
 40
1.0
 40
1.0
 40
1.0
 40
1.0
 10
5.0595283289
 20
4.1298591031
 30
0.0
 10
5.0609587204
 20
4.1261209458
 30
0.0
 10
5.0645694698
 20
4.1187369953
 30
0.0
 10
5.0718679693
 20
4.1084824525
 30
0.0
 10
5.08100367
 20
4.0990171751
 30
0.0
 10
5.0918099411
 20
4.0905038571
 30
0.0
 10
5.10409672
 20
4.083082816
 30
0.0
 10
5.1176490644
 20
4.0768764222
 30
0.0
 10
5.1322324444
 20
4.0719888171
 30
0.0
 10
5.1475948082
 20
4.0685042331
 30
0.0
 10
5.1634696658
 20
4.0664803232
 30
0.0
 10
5.179582052
 20
4.0659516183
 30
0.0
 10
5.1956527807
 20
4.0669286207
 30
0.0
 10
5.2114031156
 20
4.0693936679
 30
0.0
 10
5.2265597963
 20
4.0733036677
 30
0.0
 10
5.2408631611
 20
4.0785943662
 30
0.0
 10
5.2540589323
 20
4.0851757153
 30
0.0
 10
5.2621451177
 20
4.0904632993
 30
0.0
 10
5.2659170143
 20
4.0932967025
 30
0.0
  0
SPLINE
  5
39C
100
AcDbEntity
  8
ALL_ASSEMBLY_MEMBERS
100
AcDbSpline
 62
7
  6
CONTINUOUS
 70
0
 71
3
 72
11
 73
7
 74
0
 42
0.0000001
 43
0.0000001
 44
0.0000000001
 40
0.0
 40
0.0
 40
0.0
 40
0.0
 40
0.2395906492
 40
0.4876647963
 40
0.741986723
 40
1.0
 40
1.0
 40
1.0
 40
1.0
 10
5.1129544385
 20
4.0310593912
 30
0.0
 10
5.117565347
 20
4.0289235326
 30
0.0
 10
5.1272315262
 20
4.0251630849
 30
0.0
 10
5.1424808521
 20
4.0211539422
 30
0.0
 10
5.1584581683
 20
4.0187510565
 30
0.0
 10
5.1693360508
 20
4.0182582005
 30
0.0
 10
5.1748082561
 20
4.018291088
 30
0.0
  0
SPLINE
  5
39D
100
AcDbEntity
  8
ALL_ASSEMBLY_MEMBERS
100
AcDbSpline
 62
7
  6
CONTINUOUS
 70
0
 71
3
 72
11
 73
7
 74
0
 42
0.0000001
 43
0.0000001
 44
0.0000000001
 40
0.0
 40
0.0
 40
0.0
 40
0.0
 40
0.2554090208
 40
0.5087961323
 40
0.7577136833
 40
1.0
 40
1.0
 40
1.0
 40
1.0
 10
5.1772085352
 20
4.0183234992
 30
0.0
 10
5.1825953722
 20
4.0184365948
 30
0.0
 10
5.1933229792
 20
4.0192026467
 30
0.0
 10
5.2090956555
 20
4.0219606707
 30
0.0
 10
5.2242282356
 20
4.0262771832
 30
0.0
 10
5.2338456913
 20
4.0302058952
 30
0.0
 10
5.2384530197
 20
4.0324187684
 30
0.0
  0
SPLINE
  5
39E
100
AcDbEntity
  8
ALL_ASSEMBLY_MEMBERS
100
AcDbSpline
 62
7
  6
CONTINUOUS
 70
0
 71
3
 72
34
 73
30
 74
0
 42
0.0000001
 43
0.0000001
 44
0.0000000001
 40
0.0
 40
0.0
 40
0.0
 40
0.0
 40
0.1605826679
 40
0.245993379
 40
0.3328923688
 40
0.4198023122
 40
0.5052243118
 40
0.5876991027
 40
0.6658202991
 40
0.7382466524
 40
0.8037477188
 40
0.8335430906
 40
0.8612010804
 40
0.886600429
 40
0.9096299291
 40
0.9301989869
 40
0.9482199973
 40
0.9636118324
 40
0.9763193248
 40
0.9816522266
 40
0.9862975711
 40
0.9902511355
 40
0.9935122797
 40
0.9960858512
 40
0.9971184701
 40
0.997985135
 40
0.9986911503
 40
0.9992466405
 40
1.0
 40
1.0
 40
1.0
 40
1.0
 10
5.2331662417
 20
5.6155907623
 30
0.0
 10
5.224161223
 20
5.6152738168
 30
0.0
 10
5.2103653261
 20
5.614825139
 30
0.0
 10
5.1916950899
 20
5.6142462189
 30
0.0
 10
5.1771565349
 20
5.6138032436
 30
0.0
 10
5.1626173502
 20
5.6133602052
 30
0.0
 10
5.1483265255
 20
5.6129173365
 30
0.0
 10
5.1345290876
 20
5.6124747524
 30
0.0
 10
5.1214612301
 20
5.6120327262
 30
0.0
 10
5.109346359
 20
5.6115913479
 30
0.0
 10
5.0999426586
 20
5.6112137217
 30
0.0
 10
5.0930502435
 20
5.6109075091
 30
0.0
 10
5.088406522
 20
5.6106853621
 30
0.0
 10
5.0841429023
 20
5.6104634583
 30
0.0
 10
5.0802776275
 20
5.6102417965
 30
0.0
 10
5.0768270915
 20
5.6100205778
 30
0.0
 10
5.0738060407
 20
5.6098000911
 30
0.0
 10
5.071227428
 20
5.6095802971
 30
0.0
 10
5.0693610709
 20
5.6093890905
 30
0.0
 10
5.0680977804
 20
5.6092322199
 30
0.0
 10
5.067323825
 20
5.6091218181
 30
0.0
 10
5.0666673671
 20
5.6090119209
 30
0.0
 10
5.0661290278
 20
5.6089024635
 30
0.0
 10
5.0657554452
 20
5.6088067019
 30
0.0
 10
5.0655172009
 20
5.6087270803
 30
0.0
 10
5.0653817521
 20
5.6086723565
 30
0.0
 10
5.0652750329
 20
5.6086167052
 30
0.0
 10
5.0651834958
 20
5.6085535842
 30
0.0
 10
5.0651341833
 20
5.608485595
 30
0.0
 10
5.0651340789
 20
5.6084433228
 30
0.0
  0
SPLINE
  5
39F
100
AcDbEntity
  8
ALL_ASSEMBLY_MEMBERS
100
AcDbSpline
 62
7
  6
CONTINUOUS
 70
0
 71
3
 72
29
 73
25
 74
0
 42
0.0000001
 43
0.0000001
 44
0.0000000001
 40
0.0
 40
0.0
 40
0.0
 40
0.0
 40
0.1565769478
 40
0.3245924439
 40
0.4095148463
 40
0.4931982083
 40
0.5742843817
 40
0.651457389
 40
0.7234607368
 40
0.7891304545
 40
0.8473936072
 40
0.8734529821
 40
0.8973155005
 40
0.9188872484
 40
0.9380864131
 40
0.9548321016
 40
0.9690562331
 40
0.9807124986
 40
0.9855649202
 40
0.9897607677
 40
0.9932972232
 40
0.9961762699
 40
0.9984047795
 40
1.0
 40
1.0
 40
1.0
 40
1.0
 10
5.2331662417
 20
5.6102327623
 30
0.0
 10
5.2243986103
 20
5.609924172
 30
0.0
 10
5.2062211835
 20
5.609331817
 30
0.0
 10
5.1832866122
 20
5.608631811
 30
0.0
 10
5.1644343435
 20
5.6080577753
 30
0.0
 10
5.1504506872
 20
5.6076258215
 30
0.0
 10
5.1369014349
 20
5.6071941295
 30
0.0
 10
5.1240069487
 20
5.6067628631
 30
0.0
 10
5.1119767374
 20
5.6063322218
 30
0.0
 10
5.1010067511
 20
5.6059025576
 30
0.0
 10
5.0926106901
 20
5.605533328
 30
0.0
 10
5.0865564549
 20
5.6052333691
 30
0.0
 10
5.0825564705
 20
5.6050170409
 30
0.0
 10
5.0789414602
 20
5.6048010215
 30
0.0
 10
5.0757259692
 20
5.6045854736
 30
0.0
 10
5.0729231368
 20
5.6043706436
 30
0.0
 10
5.0705443325
 20
5.6041565464
 30
0.0
 10
5.0688322675
 20
5.6039701328
 30
0.0
 10
5.0676823042
 20
5.6038168711
 30
0.0
 10
5.0669853278
 20
5.6037093948
 30
0.0
 10
5.066400444
 20
5.6036023535
 30
0.0
 10
5.0659275345
 20
5.6034961472
 30
0.0
 10
5.0655670647
 20
5.6033909831
 30
0.0
 10
5.0653673238
 20
5.6033097485
 30
0.0
 10
5.065289931
 20
5.6032650353
 30
0.0
  0
LINE
  5
3A0
100
AcDbEntity
  8
ALL_ASSEMBLY_MEMBERS
100
AcDbLine
 62
7
  6
CONTINUOUS
 10
5.2894171691
 20
5.5975499856
 11
5.2881177529
 21
5.5971799085
  0
SPLINE
  5
3A1
100
AcDbEntity
  8
ALL_ASSEMBLY_MEMBERS
100
AcDbSpline
 62
7
  6
CONTINUOUS
 70
0
 71
3
 72
22
 73
18
 74
0
 42
0.0000001
 43
0.0000001
 44
0.0000000001
 40
0.0
 40
0.0
 40
0.0
 40
0.0
 40
0.0078256091
 40
0.0178848362
 40
0.0301598833
 40
0.0446167816
 40
0.0798789762
 40
0.1232481376
 40
0.1741692609
 40
0.2320120192
 40
0.2960349504
 40
0.3654385114
 40
0.4393364999
 40
0.5168011456
 40
0.6784668617
 40
0.8422849527
 40
1.0
 40
1.0
 40
1.0
 40
1.0
 10
5.2881177529
 20
5.5971799085
 30
0.0
 10
5.2877226886
 20
5.597105179
 30
0.0
 10
5.2868141798
 20
5.5969646519
 30
0.0
 10
5.2852759344
 20
5.5967769685
 30
0.0
 10
5.283394976
 20
5.5965881376
 30
0.0
 10
5.2802212969
 20
5.5963169186
 30
0.0
 10
5.2754495168
 20
5.595989024
 30
0.0
 10
5.2688038389
 20
5.5956130193
 30
0.0
 10
5.2609965006
 20
5.5952351224
 30
0.0
 10
5.2521270039
 20
5.5948559256
 30
0.0
 10
5.2423071609
 20
5.5944758304
 30
0.0
 10
5.2316618767
 20
5.5940952776
 30
0.0
 10
5.2203255787
 20
5.5937142879
 30
0.0
 10
5.2042508329
 20
5.5931987366
 30
0.0
 10
5.1835574844
 20
5.5925667583
 30
0.0
 10
5.1587426202
 20
5.591818254
 30
0.0
 10
5.1422306976
 20
5.5913021248
 30
0.0
 10
5.1341318442
 20
5.5910366669
 30
0.0
  0
SPLINE
  5
3A2
100
AcDbEntity
  8
ALL_ASSEMBLY_MEMBERS
100
AcDbSpline
 62
7
  6
CONTINUOUS
 70
0
 71
3
 72
11
 73
7
 74
0
 42
0.0000001
 43
0.0000001
 44
0.0000000001
 40
0.0
 40
0.0
 40
0.0
 40
0.0
 40
0.2347577815
 40
0.4820980976
 40
0.7386272696
 40
1.0
 40
1.0
 40
1.0
 40
1.0
 10
5.0965226231
 20
4.0969439639
 30
0.0
 10
5.1019883681
 20
4.0931535797
 30
0.0
 10
5.1139551797
 20
4.0864053676
 30
0.0
 10
5.1336613053
 20
4.0791373681
 30
0.0
 10
5.15494869
 20
4.0746623837
 30
0.0
 10
5.1696417593
 20
4.0736520304
 30
0.0
 10
5.177047261
 20
4.0736462727
 30
0.0
  0
SPLINE
  5
3A3
100
AcDbEntity
  8
ALL_ASSEMBLY_MEMBERS
100
AcDbSpline
 62
7
  6
CONTINUOUS
 70
0
 71
3
 72
11
 73
7
 74
0
 42
0.0000001
 43
0.0000001
 44
0.0000000001
 40
0.0
 40
0.0
 40
0.0
 40
0.0
 40
0.2613691898
 40
0.5179175725
 40
0.7652675632
 40
1.0
 40
1.0
 40
1.0
 40
1.0
 10
5.177047261
 20
4.0736462727
 30
0.0
 10
5.1844775021
 20
4.0736404958
 30
0.0
 10
5.199221972
 20
4.0746346737
 30
0.0
 10
5.2205860155
 20
4.0791051017
 30
0.0
 10
5.2403624867
 20
4.0863875417
 30
0.0
 10
5.2523696231
 20
4.0931581992
 30
0.0
 10
5.2578519671
 20
4.0969625338
 30
0.0
  0
SPLINE
  5
3A4
100
AcDbEntity
  8
ALL_ASSEMBLY_MEMBERS
100
AcDbSpline
 62
7
  6
CONTINUOUS
 70
0
 71
3
 72
31
 73
27
 74
0
 42
0.0000001
 43
0.0000001
 44
0.0000000001
 40
0.0
 40
0.0
 40
0.0
 40
0.0
 40
0.0008619836
 40
0.0022581098
 40
0.004216284
 40
0.0067451515
 40
0.0098480005
 40
0.0135260824
 40
0.022608225
 40
0.0339795741
 40
0.0476131427
 40
0.0634799721
 40
0.0815503259
 40
0.1017859807
 40
0.1241358049
 40
0.1485474257
 40
0.1749683562
 40
0.2335928408
 40
0.2994472193
 40
0.371923793
 40
0.4503274264
 40
0.5339207054
 40
0.6218826361
 40
0.7133690103
 40
0.8075192341
 40
1.0
 40
1.0
 40
1.0
 40
1.0
 10
5.0575523002
 20
5.6562899634
 30
0.0
 10
5.0575767374
 20
5.6563141705
 30
0.0
 10
5.0576603394
 20
5.6563544796
 30
0.0
 10
5.0578198732
 20
5.6564045485
 30
0.0
 10
5.0580497862
 20
5.6564556096
 30
0.0
 10
5.0583480054
 20
5.6565074742
 30
0.0
 10
5.0587159468
 20
5.6565597212
 30
0.0
 10
5.0593444421
 20
5.6566351371
 30
0.0
 10
5.0603032232
 20
5.6567262761
 30
0.0
 10
5.0616594613
 20
5.6568306691
 30
0.0
 10
5.0632870871
 20
5.6569356726
 30
0.0
 10
5.0651824569
 20
5.6570412147
 30
0.0
 10
5.0673416218
 20
5.6571470755
 30
0.0
 10
5.069759749
 20
5.6572531923
 30
0.0
 10
5.072431131
 20
5.6573595465
 30
0.0
 10
5.0753495037
 20
5.6574661081
 30
0.0
 10
5.0797148572
 20
5.6576135652
 30
0.0
 10
5.0857337103
 20
5.6577958497
 30
0.0
 10
5.0935902627
 20
5.6580087224
 30
0.0
 10
5.102236339
 20
5.6582222639
 30
0.0
 10
5.1115904591
 20
5.6584365263
 30
0.0
 10
5.1215626552
 20
5.6586513293
 30
0.0
 10
5.1320570152
 20
5.6588667049
 30
0.0
 10
5.1429727207
 20
5.6590825739
 30
0.0
 10
5.1580585429
 20
5.659373215
 30
0.0
 10
5.1694944148
 20
5.6595883032
 30
0.0
 10
5.177173913
 20
5.659733329
 30
0.0
  0
LINE
  5
3A5
100
AcDbEntity
  8
ALL_ASSEMBLY_MEMBERS
100
AcDbLine
 62
7
  6
CONTINUOUS
 10
5.28772468
 20
5.6618339804
 11
5.2864693844
 21
5.6614704673
  0
SPLINE
  5
3A6
100
AcDbEntity
  8
ALL_ASSEMBLY_MEMBERS
100
AcDbSpline
 62
7
  6
CONTINUOUS
 70
0
 71
3
 72
42
 73
38
 74
0
 42
0.0000001
 43
0.0000001
 44
0.0000000001
 40
0.0
 40
0.0
 40
0.0
 40
0.0
 40
0.0043245713
 40
0.0097036821
 40
0.0235980205
 40
0.0415799298
 40
0.0634961508
 40
0.0891660276
 40
0.1183609093
 40
0.1508361273
 40
0.1863038602
 40
0.2649748319
 40
0.3516502735
 40
0.4433295367
 40
0.5368397205
 40
0.6289458504
 40
0.6734722299
 40
0.7164630016
 40
0.7575454203
 40
0.7963666437
 40
0.8325863305
 40
0.8658977971
 40
0.8960068906
 40
0.9226606226
 40
0.9456261278
 40
0.964709703
 40
0.9727463683
 40
0.9797542691
 40
0.9857204427
 40
0.9906375851
 40
0.9927012535
 40
0.9945012747
 40
0.9960380612
 40
0.9973130768
 40
0.9983301464
 40
0.9990988222
 40
1.0
 40
1.0
 40
1.0
 40
1.0
 10
5.2864693844
 20
5.6614704673
 30
0.0
 10
5.2861570452
 20
5.6614100666
 30
0.0
 10
5.2854523784
 20
5.6612945095
 30
0.0
 10
5.2837313794
 20
5.6610664499
 30
0.0
 10
5.2810036551
 20
5.6607952738
 30
0.0
 10
5.2770586598
 20
5.6604853008
 30
0.0
 10
5.2722452709
 20
5.660173419
 30
0.0
 10
5.2666057517
 20
5.659859837
 30
0.0
 10
5.2601884807
 20
5.659545261
 30
0.0
 10
5.2530497217
 20
5.6592301304
 30
0.0
 10
5.242273248
 20
5.6587941265
 30
0.0
 10
5.2275104746
 20
5.658260196
 30
0.0
 10
5.2086133136
 20
5.6576369424
 30
0.0
 10
5.188624021
 20
5.6570126665
 30
0.0
 10
5.1682350626
 20
5.6563879836
 30
0.0
 10
5.1513133816
 20
5.6558620555
 30
0.0
 10
5.1381067414
 20
5.6554356789
 30
0.0
 10
5.1286519269
 20
5.6551196295
 30
0.0
 10
5.1196170354
 20
5.6548037337
 30
0.0
 10
5.11108055
 20
5.6544881201
 30
0.0
 10
5.1031161201
 20
5.6541727353
 30
0.0
 10
5.0957930911
 20
5.6538578812
 30
0.0
 10
5.089174446
 20
5.6535435033
 30
0.0
 10
5.0833177599
 20
5.653230166
 30
0.0
 10
5.0782734105
 20
5.6529179551
 30
0.0
 10
5.0745988119
 20
5.652646583
 30
0.0
 10
5.0720981133
 20
5.6524238683
 30
0.0
 10
5.0705604368
 20
5.6522669738
 30
0.0
 10
5.0692535594
 20
5.6521105983
 30
0.0
 10
5.0683107611
 20
5.6519745388
 30
0.0
 10
5.0676744354
 20
5.6518629105
 30
0.0
 10
5.0672850596
 20
5.6517844525
 30
0.0
 10
5.0669545419
 20
5.651705911
 30
0.0
 10
5.0666846282
 20
5.6516287921
 30
0.0
 10
5.0664704373
 20
5.6515493912
 30
0.0
 10
5.0663000182
 20
5.6514666069
 30
0.0
 10
5.0661870161
 20
5.651368361
 30
0.0
 10
5.0661870638
 20
5.6513020682
 30
0.0
  0
SPLINE
  5
3A7
100
AcDbEntity
  8
ALL_ASSEMBLY_MEMBERS
100
AcDbSpline
 62
7
  6
CONTINUOUS
 70
0
 71
3
 72
11
 73
7
 74
0
 42
0.0000001
 43
0.0000001
 44
0.0000000001
 40
0.0
 40
0.0
 40
0.0
 40
0.0
 40
0.2376849579
 40
0.4855075009
 40
0.7406892263
 40
1.0
 40
1.0
 40
1.0
 40
1.0
 10
5.1077160729
 20
4.0483178753
 30
0.0
 10
5.112762523
 20
4.0456930191
 30
0.0
 10
5.1234753861
 20
4.0410837396
 30
0.0
 10
5.1405732379
 20
4.0362415204
 30
0.0
 10
5.1586426148
 20
4.0334359985
 30
0.0
 10
5.1709797395
 20
4.0329820796
 30
0.0
 10
5.1771842194
 20
4.0331114908
 30
0.0
  0
SPLINE
  5
3A8
100
AcDbEntity
  8
ALL_ASSEMBLY_MEMBERS
100
AcDbSpline
 62
7
  6
CONTINUOUS
 70
0
 71
3
 72
10
 73
6
 74
0
 42
0.0000001
 43
0.0000001
 44
0.0000000001
 40
0.0
 40
0.0
 40
0.0
 40
0.0
 40
0.2565039059
 40
0.5104813337
 40
1.0
 40
1.0
 40
1.0
 40
1.0
 10
5.179162888
 20
4.0331649775
 30
0.0
 10
5.1847676931
 20
4.033351119
 30
0.0
 10
5.1959150372
 20
4.0343062144
 30
0.0
 10
5.2173997129
 20
4.0384608721
 30
0.0
 10
5.2328377606
 20
4.0441361399
 30
0.0
 10
5.2423334334
 20
4.0490727776
 30
0.0
  0
LINE
  5
3A9
100
AcDbEntity
  8
ALL_ASSEMBLY_MEMBERS
100
AcDbLine
 62
7
  6
CONTINUOUS
 10
5.2882647802
 20
5.6404064186
 11
5.2872503531
 21
5.6400919667
  0
SPLINE
  5
3AA
100
AcDbEntity
  8
ALL_ASSEMBLY_MEMBERS
100
AcDbSpline
 62
7
  6
CONTINUOUS
 70
0
 71
3
 72
43
 73
39
 74
0
 42
0.0000001
 43
0.0000001
 44
0.0000000001
 40
0.0
 40
0.0
 40
0.0
 40
0.0
 40
0.0040097038
 40
0.0090862462
 40
0.0152216845
 40
0.0224058475
 40
0.0398689985
 40
0.0613252078
 40
0.086592374
 40
0.1154517937
 40
0.1476482737
 40
0.1829055908
 40
0.2613317451
 40
0.3479893708
 40
0.43984924
 40
0.533700676
 40
0.6262642147
 40
0.671046749
 40
0.7143067041
 40
0.7556622652
 40
0.7947553183
 40
0.8312425806
 40
0.864805587
 40
0.8951545959
 40
0.9220204371
 40
0.9451778469
 40
0.9644192337
 40
0.9725223697
 40
0.9795912995
 40
0.9856099595
 40
0.9905673409
 40
0.9926471659
 40
0.9944611316
 40
0.9960099612
 40
0.9972954074
 40
0.9983213052
 40
0.9990963287
 40
1.0
 40
1.0
 40
1.0
 40
1.0
 10
5.2872503531
 20
5.6400919667
 30
0.0
 10
5.2869600546
 20
5.6400304827
 30
0.0
 10
5.2862974712
 20
5.6399139056
 30
0.0
 10
5.2851818381
 20
5.6397573914
 30
0.0
 10
5.2838294559
 20
5.6395999507
 30
0.0
 10
5.2815625259
 20
5.6393742132
 30
0.0
 10
5.2781613278
 20
5.6391010576
 30
0.0
 10
5.2734214992
 20
5.6387875045
 30
0.0
 10
5.2678367883
 20
5.6384726567
 30
0.0
 10
5.2614562378
 20
5.6381566818
 30
0.0
 10
5.2543355931
 20
5.6378399858
 30
0.0
 10
5.2435486358
 20
5.6374015138
 30
0.0
 10
5.2287320537
 20
5.6368646961
 30
0.0
 10
5.2097272387
 20
5.636238527
 30
0.0
 10
5.1895803314
 20
5.6356112534
 30
0.0
 10
5.1689961711
 20
5.6349835328
 30
0.0
 10
5.1518945546
 20
5.6344551808
 30
0.0
 10
5.1385356704
 20
5.6340267717
 30
0.0
 10
5.128964833
 20
5.6337091586
 30
0.0
 10
5.1198152815
 20
5.6333916874
 30
0.0
 10
5.1111672498
 20
5.633074477
 30
0.0
 10
5.1030963057
 20
5.632757574
 30
0.0
 10
5.095672982
 20
5.6324410747
 30
0.0
 10
5.0889623683
 20
5.6321252392
 30
0.0
 10
5.0830227114
 20
5.6318102382
 30
0.0
 10
5.0779063294
 20
5.6314965771
 30
0.0
 10
5.0741787193
 20
5.6312238534
 30
0.0
 10
5.0716417612
 20
5.6309999871
 30
0.0
 10
5.0700814265
 20
5.6308423405
 30
0.0
 10
5.0687551988
 20
5.6306852597
 30
0.0
 10
5.0677985724
 20
5.6305485009
 30
0.0
 10
5.0671531147
 20
5.630436301
 30
0.0
 10
5.0667582044
 20
5.6303574515
 30
0.0
 10
5.066422898
 20
5.6302785095
 30
0.0
 10
5.0661489715
 20
5.6302010146
 30
0.0
 10
5.0659313333
 20
5.6301212135
 30
0.0
 10
5.0657585811
 20
5.6300383191
 30
0.0
 10
5.0656431645
 20
5.6299395726
 30
0.0
 10
5.0656433289
 20
5.6298726966
 30
0.0
  0
SPLINE
  5
3AB
100
AcDbEntity
  8
ALL_ASSEMBLY_MEMBERS
100
AcDbSpline
 62
7
  6
CONTINUOUS
 70
0
 71
3
 72
26
 73
22
 74
0
 42
0.0000001
 43
0.0000001
 44
0.0000000001
 40
0.0
 40
0.0
 40
0.0
 40
0.0
 40
0.0015983781
 40
0.0037204917
 40
0.0095888901
 40
0.0176548229
 40
0.0279140679
 40
0.040349851
 40
0.0549413553
 40
0.0716638919
 40
0.0904785393
 40
0.1342036575
 40
0.1857419804
 40
0.24462227
 40
0.3103206765
 40
0.3822443464
 40
0.4597472144
 40
0.5421293567
 40
0.6286321467
 40
0.8109182245
 40
1.0
 40
1.0
 40
1.0
 40
1.0
 10
5.2989012112
 20
5.6465554841
 30
0.0
 10
5.2988449857
 20
5.6465229675
 30
0.0
 10
5.2987058881
 20
5.6464619446
 30
0.0
 10
5.2983350617
 20
5.6463418292
 30
0.0
 10
5.2976965256
 20
5.646201948
 30
0.0
 10
5.2967265144
 20
5.6460424167
 30
0.0
 10
5.2954866078
 20
5.6458817279
 30
0.0
 10
5.2939801179
 20
5.645719593
 30
0.0
 10
5.2922097078
 20
5.6455568941
 30
0.0
 10
5.2901792135
 20
5.6453937563
 30
0.0
 10
5.2869664991
 20
5.6451641902
 30
0.0
 10
5.2823392816
 20
5.6448831156
 30
0.0
 10
5.2760839167
 20
5.6445587483
 30
0.0
 10
5.2689346597
 20
5.6442333147
 30
0.0
 10
5.260956311
 20
5.6439071487
 30
0.0
 10
5.2522206704
 20
5.64358047
 30
0.0
 10
5.2428066545
 20
5.6432534237
 30
0.0
 10
5.2327998817
 20
5.6429261396
 30
0.0
 10
5.2185367518
 20
5.642481718
 30
0.0
 10
5.1999389386
 20
5.6419344761
 30
0.0
 10
5.1848542669
 20
5.6415059181
 30
0.0
 10
5.177173913
 20
5.6412877078
 30
0.0
  0
SPLINE
  5
3AC
100
AcDbEntity
  8
ALL_ASSEMBLY_MEMBERS
100
AcDbSpline
 62
7
  6
CONTINUOUS
 70
0
 71
3
 72
23
 73
19
 74
0
 42
0.0000001
 43
0.0000001
 44
0.0000000001
 40
0.0
 40
0.0
 40
0.0
 40
0.0
 40
0.0046518596
 40
0.0111053659
 40
0.0194084689
 40
0.0295797222
 40
0.0416262668
 40
0.0555463147
 40
0.0889554474
 40
0.129689155
 40
0.1776157842
 40
0.2325697203
 40
0.2943204066
 40
0.3626276084
 40
0.4372451549
 40
0.6042649648
 40
0.7929304942
 40
1.0
 40
1.0
 40
1.0
 40
1.0
 10
5.2888370911
 20
5.618978249
 30
0.0
 10
5.2887621227
 20
5.6189349607
 30
0.0
 10
5.2885697698
 20
5.6188559553
 30
0.0
 10
5.2882234585
 20
5.6187534994
 30
0.0
 10
5.2877708972
 20
5.6186500624
 30
0.0
 10
5.2872125162
 20
5.6185458447
 30
0.0
 10
5.2865481152
 20
5.618441202
 30
0.0
 10
5.2854532185
 20
5.6182921029
 30
0.0
 10
5.2838242695
 20
5.6181107269
 30
0.0
 10
5.2815621252
 20
5.617902405
 30
0.0
 10
5.2788976596
 20
5.6176933214
 30
0.0
 10
5.2758411049
 20
5.617483653
 30
0.0
 10
5.2724045194
 20
5.6172735516
 30
0.0
 10
5.2686014124
 20
5.6170631371
 30
0.0
 10
5.2628408704
 20
5.6167713279
 30
0.0
 10
5.254841152
 20
5.6164121047
 30
0.0
 10
5.2443768802
 20
5.6159943364
 30
0.0
 10
5.237017314
 20
5.6157263692
 30
0.0
 10
5.2331662417
 20
5.6155907623
 30
0.0
  0
SPLINE
  5
3AD
100
AcDbEntity
  8
ALL_ASSEMBLY_MEMBERS
100
AcDbSpline
 62
7
  6
CONTINUOUS
 70
0
 71
3
 72
23
 73
19
 74
0
 42
0.0000001
 43
0.0000001
 44
0.0000000001
 40
0.0
 40
0.0
 40
0.0
 40
0.0
 40
0.2077770048
 40
0.3969593978
 40
0.5643421743
 40
0.6390712118
 40
0.7074442964
 40
0.7692032484
 40
0.8240920834
 40
0.8718951139
 40
0.9124520216
 40
0.9456109766
 40
0.9593757116
 40
0.9712542966
 40
0.9812451001
 40
0.9893515443
 40
0.9955882476
 40
1.0
 40
1.0
 40
1.0
 40
1.0
 10
5.2381500931
 20
5.6213419676
 30
0.0
 10
5.2423659781
 20
5.621480284
 30
0.0
 10
5.2504201687
 20
5.621753519
 30
0.0
 10
5.2618691735
 20
5.6221795814
 30
0.0
 10
5.2706174192
 20
5.622545893
 30
0.0
 10
5.2769136637
 20
5.6228435789
 30
0.0
 10
5.2810670971
 20
5.6230581451
 30
0.0
 10
5.2848171821
 20
5.6232723502
 30
0.0
 10
5.2881489339
 20
5.6234861589
 30
0.0
 10
5.2910493199
 20
5.6236993329
 30
0.0
 10
5.2935072275
 20
5.6239116249
 30
0.0
 10
5.2952737621
 20
5.6240965293
 30
0.0
 10
5.2964578311
 20
5.6242487411
 30
0.0
 10
5.2971734409
 20
5.6243553765
 30
0.0
 10
5.2977726883
 20
5.6244615323
 30
0.0
 10
5.2982557586
 20
5.6245667689
 30
0.0
 10
5.2986218578
 20
5.6246709245
 30
0.0
 10
5.2988240367
 20
5.6247515894
 30
0.0
 10
5.298901583
 20
5.6247964043
 30
0.0
  0
SPLINE
  5
3AE
100
AcDbEntity
  8
ALL_ASSEMBLY_MEMBERS
100
AcDbSpline
 62
7
  6
CONTINUOUS
 70
0
 71
3
 72
48
 73
44
 74
0
 42
0.0000001
 43
0.0000001
 44
0.0000000001
 40
0.0
 40
0.0
 40
0.0
 40
0.0
 40
0.0009435636
 40
0.0017595557
 40
0.0028418252
 40
0.004199841
 40
0.0058381572
 40
0.0077588743
 40
0.0099621042
 40
0.0152130869
 40
0.0215828928
 40
0.029060555
 40
0.0376333139
 40
0.057980084
 40
0.0824334702
 40
0.1107756177
 40
0.1427364847
 40
0.1780268204
 40
0.2163120288
 40
0.257241153
 40
0.3004299508
 40
0.3454783661
 40
0.3919669784
 40
0.4875246831
 40
0.5835565927
 40
0.676500342
 40
0.7207304556
 40
0.7629102792
 40
0.8026532015
 40
0.8395857029
 40
0.8733701248
 40
0.9036905818
 40
0.9302689724
 40
0.9528616368
 40
0.9625955569
 40
0.9712606517
 40
0.9788378301
 40
0.9853086765
 40
0.9906602561
 40
0.9948881869
 40
0.9979940213
 40
0.9991314857
 40
1.0
 40
1.0
 40
1.0
 40
1.0
 10
5.2878816498
 20
5.6566577412
 30
0.0
 10
5.2878815134
 20
5.6565879182
 30
0.0
 10
5.2877581751
 20
5.6564863203
 30
0.0
 10
5.2875763239
 20
5.6564009117
 30
0.0
 10
5.2873459375
 20
5.6563184824
 30
0.0
 10
5.2870560885
 20
5.6562384367
 30
0.0
 10
5.2867009431
 20
5.6561568973
 30
0.0
 10
5.2862824772
 20
5.6560754751
 30
0.0
 10
5.2855983677
 20
5.6559596097
 30
0.0
 10
5.284585037
 20
5.6558184277
 30
0.0
 10
5.2831810283
 20
5.6556561615
 30
0.0
 10
5.2815298978
 20
5.6554933104
 30
0.0
 10
5.2788464079
 20
5.6552622458
 30
0.0
 10
5.2749067041
 20
5.6549808478
 30
0.0
 10
5.269503861
 20
5.6546569349
 30
0.0
 10
5.2632403061
 20
5.6543320088
 30
0.0
 10
5.2561739464
 20
5.6540060002
 30
0.0
 10
5.2483711222
 20
5.6536795627
 30
0.0
 10
5.2399041441
 20
5.6533526349
 30
0.0
 10
5.2308522881
 20
5.6530255054
 30
0.0
 10
5.2212996599
 20
5.6526981515
 30
0.0
 10
5.2113354069
 20
5.6523706848
 30
0.0
 10
5.1974975249
 20
5.6519299298
 30
0.0
 10
5.1798882517
 20
5.6513867643
 30
0.0
 10
5.1588428706
 20
5.6507406697
 30
0.0
 10
5.1415944216
 20
5.6501944085
 30
0.0
 10
5.1283297675
 20
5.6497508127
 30
0.0
 10
5.119000257
 20
5.6494237657
 30
0.0
 10
5.1102111016
 20
5.649097059
 30
0.0
 10
5.1020436448
 20
5.648770656
 30
0.0
 10
5.0945740231
 20
5.6484448045
 30
0.0
 10
5.0878713557
 20
5.648119703
 30
0.0
 10
5.081997923
 20
5.6477955612
 30
0.0
 10
5.0776479124
 20
5.6475149598
 30
0.0
 10
5.0746231953
 20
5.6472856778
 30
0.0
 10
5.0727078678
 20
5.6471226677
 30
0.0
 10
5.0710349156
 20
5.6469601669
 30
0.0
 10
5.0696084841
 20
5.6467982084
 30
0.0
 10
5.0684314128
 20
5.6466375105
 30
0.0
 10
5.0675064115
 20
5.6464779092
 30
0.0
 10
5.0668941952
 20
5.6463379605
 30
0.0
 10
5.066535158
 20
5.6462183563
 30
0.0
 10
5.0663990238
 20
5.6461575995
 30
0.0
 10
5.0663433837
 20
5.6461254319
 30
0.0
  0
SPLINE
  5
3AF
100
AcDbEntity
  8
ALL_ASSEMBLY_MEMBERS
100
AcDbSpline
 62
7
  6
CONTINUOUS
 70
0
 71
3
 72
48
 73
44
 74
0
 42
0.0000001
 43
0.0000001
 44
0.0000000001
 40
0.0
 40
0.0
 40
0.0
 40
0.0
 40
0.0009414359
 40
0.001757261
 40
0.0028394421
 40
0.0041971384
 40
0.005834637
 40
0.0077541333
 40
0.0099566503
 40
0.0152080056
 40
0.0215791632
 40
0.0290574527
 40
0.0376290637
 40
0.0579781411
 40
0.0824335531
 40
0.1107782422
 40
0.1427434106
 40
0.1780367282
 40
0.2163277092
 40
0.2572606769
 40
0.3004558235
 40
0.3455090573
 40
0.3920037914
 40
0.4875722373
 40
0.5836135558
 40
0.6765641636
 40
0.7207958947
 40
0.7629772216
 40
0.8027187682
 40
0.8396509909
 40
0.8734308807
 40
0.9037486565
 40
0.9303196192
 40
0.95290648
 40
0.9626363066
 40
0.9712957481
 40
0.9788673284
 40
0.9853341489
 40
0.99068111
 40
0.9949021807
 40
0.99800054
 40
0.999134535
 40
1.0
 40
1.0
 40
1.0
 40
1.0
 10
5.2884216341
 20
5.6352293332
 30
0.0
 10
5.2884214653
 20
5.6351593282
 30
0.0
 10
5.2882970812
 20
5.6350578161
 30
0.0
 10
5.2881144327
 20
5.6349724742
 30
0.0
 10
5.2878827873
 20
5.6348900404
 30
0.0
 10
5.287591532
 20
5.6348099898
 30
0.0
 10
5.2872347435
 20
5.6347284342
 30
0.0
 10
5.2868143778
 20
5.6346469796
 30
0.0
 10
5.2861269595
 20
5.6345310881
 30
0.0
 10
5.28510852
 20
5.6343899033
 30
0.0
 10
5.2836974016
 20
5.6342276318
 30
0.0
 10
5.282038085
 20
5.6340647646
 30
0.0
 10
5.2793412941
 20
5.6338335937
 30
0.0
 10
5.2753820507
 20
5.6335522171
 30
0.0
 10
5.2699522716
 20
5.6332282169
 30
0.0
 10
5.2636574465
 20
5.6329032279
 30
0.0
 10
5.2565558401
 20
5.6325771763
 30
0.0
 10
5.2487139475
 20
5.6322506433
 30
0.0
 10
5.2402047002
 20
5.6319236807
 30
0.0
 10
5.2311074798
 20
5.6315964525
 30
0.0
 10
5.221507118
 20
5.6312690546
 30
0.0
 10
5.2114929591
 20
5.6309415
 30
0.0
 10
5.1975859464
 20
5.6305006658
 30
0.0
 10
5.1798888057
 20
5.6299573798
 30
0.0
 10
5.1587387383
 20
5.6293111536
 30
0.0
 10
5.1414048014
 20
5.6287647892
 30
0.0
 10
5.1280746784
 20
5.6283210922
 30
0.0
 10
5.1186995076
 20
5.6279940039
 30
0.0
 10
5.1098674656
 20
5.6276672095
 30
0.0
 10
5.1016605946
 20
5.6273407929
 30
0.0
 10
5.094155056
 20
5.6270148374
 30
0.0
 10
5.0874207298
 20
5.6266897474
 30
0.0
 10
5.0815197717
 20
5.6263655009
 30
0.0
 10
5.0771497615
 20
5.6260848938
 30
0.0
 10
5.0741113782
 20
5.6258555815
 30
0.0
 10
5.072187795
 20
5.6256925398
 30
0.0
 10
5.0705077573
 20
5.6255299967
 30
0.0
 10
5.0690753495
 20
5.6253680456
 30
0.0
 10
5.0678935935
 20
5.6252073796
 30
0.0
 10
5.0669653837
 20
5.6250477556
 30
0.0
 10
5.0663513944
 20
5.6249077802
 30
0.0
 10
5.0659915239
 20
5.6247881359
 30
0.0
 10
5.0658551336
 20
5.624727364
 30
0.0
 10
5.0657994004
 20
5.6246951846
 30
0.0
  0
SPLINE
  5
3B0
100
AcDbEntity
  8
ALL_ASSEMBLY_MEMBERS
100
AcDbSpline
 62
7
  6
CONTINUOUS
 70
0
 71
3
 72
27
 73
23
 74
0
 42
0.0000001
 43
0.0000001
 44
0.0000000001
 40
0.0
 40
0.0
 40
0.0
 40
0.0
 40
0.0022585238
 40
0.0039232067
 40
0.0060386743
 40
0.0086351007
 40
0.0117281666
 40
0.0194346459
 40
0.0291959485
 40
0.0410250004
 40
0.0549247678
 40
0.0708853003
 40
0.1089199845
 40
0.1549826176
 40
0.2089101794
 40
0.270469438
 40
0.3393815331
 40
0.415364466
 40
0.4981066376
 40
0.5872623139
 40
0.7833641461
 40
1.0
 40
1.0
 40
1.0
 40
1.0
 10
5.2889931961
 20
5.6138002371
 30
0.0
 10
5.288993163
 20
5.6137580227
 30
0.0
 10
5.2889440174
 20
5.6136900519
 30
0.0
 10
5.2888526752
 20
5.6136269705
 30
0.0
 10
5.2887461979
 20
5.613571357
 30
0.0
 10
5.2886110601
 20
5.6135166741
 30
0.0
 10
5.2883734197
 20
5.613437122
 30
0.0
 10
5.2880008818
 20
5.6133414456
 30
0.0
 10
5.2874642042
 20
5.6132320842
 30
0.0
 10
5.2868099026
 20
5.6131222568
 30
0.0
 10
5.2860384752
 20
5.6130119582
 30
0.0
 10
5.2847790968
 20
5.6128552571
 30
0.0
 10
5.2829184926
 20
5.6126642909
 30
0.0
 10
5.2803479414
 20
5.6124447489
 30
0.0
 10
5.2773363757
 20
5.6122245215
 30
0.0
 10
5.2738967999
 20
5.6120036455
 30
0.0
 10
5.2700442576
 20
5.6117823369
 30
0.0
 10
5.2657952109
 20
5.6115607862
 30
0.0
 10
5.2611673293
 20
5.6113390515
 30
0.0
 10
5.2542957752
 20
5.6110333306
 30
0.0
 10
5.2449223401
 20
5.6106564608
 30
0.0
 10
5.2372129092
 20
5.6103752566
 30
0.0
 10
5.2331662417
 20
5.6102327623
 30
0.0
  0
SPLINE
  5
3B1
100
AcDbEntity
  8
ALL_ASSEMBLY_MEMBERS
100
AcDbSpline
 62
7
  6
CONTINUOUS
 70
0
 71
3
 72
17
 73
13
 74
0
 42
0.0000001
 43
0.0000001
 44
0.0000000001
 40
0.0
 40
0.0
 40
0.0
 40
0.0
 40
0.1159440718
 40
0.1764427723
 40
0.2383613668
 40
0.3014877695
 40
0.3655774785
 40
0.4955211823
 40
0.6260512136
 40
0.7549391274
 40
0.8801413064
 40
1.0
 40
1.0
 40
1.0
 40
1.0
 10
5.0979321093
 20
4.0832698904
 30
0.0
 10
5.1032341753
 20
4.0798356571
 30
0.0
 10
5.1117855584
 20
4.0753212813
 30
0.0
 10
5.1238933197
 20
4.0706062362
 30
0.0
 10
5.1335670827
 20
4.0676372535
 30
0.0
 10
5.143616519
 20
4.0653197124
 30
0.0
 10
5.1574616783
 20
4.063111241
 30
0.0
 10
5.1751727012
 20
4.0620960873
 30
0.0
 10
5.1963882416
 20
4.063655713
 30
0.0
 10
5.2169656501
 20
4.0679528939
 30
0.0
 10
5.2362033342
 20
4.0748587839
 30
0.0
 10
5.2480127296
 20
4.0812313486
 30
0.0
 10
5.2534732553
 20
4.0848130656
 30
0.0
  0
SPLINE
  5
3B2
100
AcDbEntity
  8
ALL_ASSEMBLY_MEMBERS
100
AcDbSpline
 62
7
  6
CONTINUOUS
 70
0
 71
3
 72
29
 73
25
 74
0
 42
0.0000001
 43
0.0000001
 44
0.0000000001
 40
0.0
 40
0.0
 40
0.0
 40
0.0
 40
0.0252179795
 40
0.0507110712
 40
0.0765562508
 40
0.1028161481
 40
0.1295427208
 40
0.1567768205
 40
0.1845486544
 40
0.2128783902
 40
0.271215071
 40
0.3318100746
 40
0.3945439459
 40
0.4592043391
 40
0.5254969656
 40
0.5930568572
 40
0.6614630955
 40
0.7302565344
 40
0.7989612244
 40
0.8331406223
 40
0.8671207714
 40
0.9342558106
 40
0.9673338803
 40
1.0
 40
1.0
 40
1.0
 40
1.0
 10
4.5356948103
 20
3.3759020848
 30
0.0
 10
4.5371001126
 20
3.3663091322
 30
0.0
 10
4.5407647361
 20
3.347131474
 30
0.0
 10
4.5487272913
 20
3.3187619309
 30
0.0
 10
4.559157083
 20
3.2907748642
 30
0.0
 10
4.5720050788
 20
3.2632901538
 30
0.0
 10
4.5872225582
 20
3.2364291893
 30
0.0
 10
4.6047362773
 20
3.2103054248
 30
0.0
 10
4.6244721421
 20
3.1850311828
 30
0.0
 10
4.6539064565
 20
3.1522903804
 30
0.0
 10
4.6959213632
 20
3.1140876328
 30
0.0
 10
4.7530537228
 20
3.0736469736
 30
0.0
 10
4.8164818783
 20
3.0387018776
 30
0.0
 10
4.8852153458
 20
3.0097247191
 30
0.0
 10
4.9582248204
 20
2.9870901844
 30
0.0
 10
5.0344336399
 20
2.9710912071
 30
0.0
 10
5.112728012
 20
2.9619352723
 30
0.0
 10
5.191960549
 20
2.959741415
 30
0.0
 10
5.2579367067
 20
2.963746903
 30
0.0
 10
5.3101426251
 20
2.9704540155
 30
0.0
 10
5.3613953615
 20
2.9794073895
 30
0.0
 10
5.4115793936
 20
2.9917632941
 30
0.0
 10
5.4601927528
 20
3.0075145701
 30
0.0
 10
5.4838410966
 20
3.0164753261
 30
0.0
 10
5.4954683893
 20
3.0212220181
 30
0.0
  0
SPLINE
  5
3B3
100
AcDbEntity
  8
ALL_ASSEMBLY_MEMBERS
100
AcDbSpline
 62
7
  6
CONTINUOUS
 70
0
 71
3
 72
22
 73
18
 74
0
 42
0.0000001
 43
0.0000001
 44
0.0000000001
 40
0.0
 40
0.0
 40
0.0
 40
0.0
 40
0.070611115
 40
0.1402576144
 40
0.2762806504
 40
0.3426276542
 40
0.4078159147
 40
0.4718268346
 40
0.5346570442
 40
0.5963184955
 40
0.6568399141
 40
0.7162683424
 40
0.7746679121
 40
0.8321249904
 40
0.888743496
 40
0.9446511857
 40
1.0
 40
1.0
 40
1.0
 40
1.0
 10
5.5014904632
 20
3.0237115906
 30
0.0
 10
5.5122416365
 20
3.028211896
 30
0.0
 10
5.5333897292
 20
3.0376599199
 30
0.0
 10
5.5740741961
 20
3.0582868664
 30
0.0
 10
5.6125584704
 20
3.0816082365
 30
0.0
 10
5.6483295371
 20
3.1075395815
 30
0.0
 10
5.6733619376
 20
3.1279451204
 30
0.0
 10
5.6967217347
 20
3.1493968941
 30
0.0
 10
5.7183172083
 20
3.1718245072
 30
0.0
 10
5.7380674772
 20
3.1951447122
 30
0.0
 10
5.755889231
 20
3.2192770132
 30
0.0
 10
5.7717162491
 20
3.2441275967
 30
0.0
 10
5.7854809287
 20
3.2696053319
 30
0.0
 10
5.7971316113
 20
3.2956102225
 30
0.0
 10
5.8066253268
 20
3.3220429431
 30
0.0
 10
5.8139248392
 20
3.3488022048
 30
0.0
 10
5.8173304263
 20
3.3668716905
 30
0.0
 10
5.8186542877
 20
3.3759111312
 30
0.0
  0
SPLINE
  5
3B4
100
AcDbEntity
  8
ALL_ASSEMBLY_MEMBERS
100
AcDbSpline
 62
7
  6
CONTINUOUS
 70
0
 71
3
 72
24
 73
20
 74
0
 42
0.0000001
 43
0.0000001
 44
0.0000000001
 40
0.0
 40
0.0
 40
0.0
 40
0.0
 40
0.072688898
 40
0.1442682289
 40
0.2145926417
 40
0.2835404627
 40
0.3510117269
 40
0.4169366468
 40
0.4812734054
 40
0.5440161388
 40
0.6051927106
 40
0.6648714241
 40
0.7231580038
 40
0.7518305552
 40
0.7802119522
 40
0.836181493
 40
0.8913041725
 40
0.945830307
 40
1.0
 40
1.0
 40
1.0
 40
1.0
 10
5.349713914
 20
3.92204928
 30
0.0
 10
5.3608722446
 20
3.9190416431
 30
0.0
 10
5.3828571732
 20
3.9124517865
 30
0.0
 10
5.4149363135
 20
3.9007812081
 30
0.0
 10
5.4457165701
 20
3.8874491601
 30
0.0
 10
5.4750302491
 20
3.872530941
 30
0.0
 10
5.5027155742
 20
3.8561008797
 30
0.0
 10
5.5286229056
 20
3.8382492809
 30
0.0
 10
5.5526071398
 20
3.8190656911
 30
0.0
 10
5.5745378572
 20
3.798654294
 30
0.0
 10
5.5942891195
 20
3.7771181295
 30
0.0
 10
5.6117505698
 20
3.754575038
 30
0.0
 10
5.6243766722
 20
3.7349357398
 30
0.0
 10
5.633205595
 20
3.7188567146
 30
0.0
 10
5.6411098349
 20
3.7027130661
 30
0.0
 10
5.6494240434
 20
3.6821154195
 30
0.0
 10
5.6568206849
 20
3.6567980899
 30
0.0
 10
5.661537081
 20
3.6311385752
 30
0.0
 10
5.6628807047
 20
3.6138723516
 30
0.0
 10
5.6630966861
 20
3.6052628009
 30
0.0
  0
SPLINE
  5
3B5
100
AcDbEntity
  8
ALL_ASSEMBLY_MEMBERS
100
AcDbSpline
 62
7
  6
CONTINUOUS
 70
0
 71
3
 72
22
 73
18
 74
0
 42
0.0000001
 43
0.0000001
 44
0.0000000001
 40
0.0
 40
0.0
 40
0.0
 40
0.0
 40
0.0555343667
 40
0.1113087658
 40
0.1675133137
 40
0.2243540117
 40
0.2820242302
 40
0.3406891862
 40
0.4004893765
 40
0.4615401003
 40
0.523930776
 40
0.5877225508
 40
0.7195499627
 40
0.787642189
 40
0.8571303799
 40
0.9279583346
 40
1.0
 40
1.0
 40
1.0
 40
1.0
 10
4.691173913
 20
3.5991075674
 30
0.0
 10
4.691173913
 20
3.6066880609
 30
0.0
 10
4.6918794137
 20
3.6218910028
 30
0.0
 10
4.6950383058
 20
3.644568249
 30
0.0
 10
4.7002892142
 20
3.6670386336
 30
0.0
 10
4.7075998618
 20
3.6891965824
 30
0.0
 10
4.7169368089
 20
3.7109444144
 30
0.0
 10
4.7282505203
 20
3.7321895263
 30
0.0
 10
4.7414912035
 20
3.752838769
 30
0.0
 10
4.7565934174
 20
3.7728072407
 30
0.0
 10
4.7734928311
 20
3.7920110372
 30
0.0
 10
4.7985846455
 20
3.8167573278
 30
0.0
 10
4.8267566732
 20
3.8393581395
 30
0.0
 10
4.8574360035
 20
3.8596606885
 30
0.0
 10
4.8820613095
 20
3.8739397598
 30
0.0
 10
4.9079365712
 20
3.8870365156
 30
0.0
 10
4.9258018378
 20
3.8948844469
 30
0.0
 10
4.9349061262
 20
3.8986012571
 30
0.0
  0
SPLINE
  5
3B6
100
AcDbEntity
  8
ALL_ASSEMBLY_MEMBERS
100
AcDbSpline
 62
7
  6
CONTINUOUS
 70
0
 71
3
 72
9
 73
5
 74
0
 42
0.0000001
 43
0.0000001
 44
0.0000000001
 40
0.0
 40
0.0
 40
0.0
 40
0.0
 40
0.2462849312
 40
1.0
 40
1.0
 40
1.0
 40
1.0
 10
4.8973196661
 20
3.9101927346
 30
0.0
 10
4.9058222474
 20
3.9136127418
 30
0.0
 10
4.9406321866
 20
3.9267791432
 30
0.0
 10
4.9765049616
 20
3.9371070623
 30
0.0
 10
5.0038514249
 20
3.9433357451
 30
0.0
  0
LINE
  5
3B7
100
AcDbEntity
  8
ALL_ASSEMBLY_MEMBERS
100
AcDbLine
 62
7
  6
CONTINUOUS
 10
5.0038514249
 20
3.9433357451
 11
5.0047382528
 21
3.9435371681
  0
SPLINE
  5
3B8
100
AcDbEntity
  8
ALL_ASSEMBLY_MEMBERS
100
AcDbSpline
 62
7
  6
CONTINUOUS
 70
0
 71
3
 72
23
 73
19
 74
0
 42
0.0000001
 43
0.0000001
 44
0.0000000001
 40
0.0
 40
0.0
 40
0.0
 40
0.0
 40
0.0722301634
 40
0.1434550693
 40
0.2135109307
 40
0.2822587754
 40
0.3495857128
 40
0.4154103412
 40
0.4796857647
 40
0.5424023233
 40
0.6035905517
 40
0.6633218443
 40
0.7217092923
 40
0.7789061404
 40
0.8351001806
 40
0.8905139852
 40
0.9453957776
 40
1.0
 40
1.0
 40
1.0
 40
1.0
 10
5.3495758984
 20
3.9435447079
 30
0.0
 10
5.3637323892
 20
3.9403392716
 30
0.0
 10
5.3916697015
 20
3.9331490784
 30
0.0
 10
5.4325263625
 20
3.919964832
 30
0.0
 10
5.4718340658
 20
3.9045163931
 30
0.0
 10
5.509354359
 20
3.8868942746
 30
0.0
 10
5.5448593274
 20
3.8671934083
 30
0.0
 10
5.5781331529
 20
3.8455233023
 30
0.0
 10
5.6089714828
 20
3.8220020498
 30
0.0
 10
5.6371802188
 20
3.7967560596
 30
0.0
 10
5.6625804857
 20
3.7699253267
 30
0.0
 10
5.6849999165
 20
3.7416553987
 30
0.0
 10
5.7042846462
 20
3.7121093096
 30
0.0
 10
5.7202881206
 20
3.6814596493
 30
0.0
 10
5.7328846158
 20
3.6498984324
 30
0.0
 10
5.7419671083
 20
3.6176308851
 30
0.0
 10
5.7474486315
 20
3.584886395
 30
0.0
 10
5.748673913
 20
3.5628657197
 30
0.0
 10
5.748673913
 20
3.5518928464
 30
0.0
  0
SPLINE
  5
3B9
100
AcDbEntity
  8
ALL_ASSEMBLY_MEMBERS
100
AcDbSpline
 62
7
  6
CONTINUOUS
 70
0
 71
3
 72
22
 73
18
 74
0
 42
0.0000001
 43
0.0000001
 44
0.0000000001
 40
0.0
 40
0.0
 40
0.0
 40
0.0
 40
0.0562087152
 40
0.1126174447
 40
0.1694069891
 40
0.2267600595
 40
0.2848461402
 40
0.3438182625
 40
0.403808116
 40
0.4649275858
 40
0.5272645196
 40
0.5908835711
 40
0.6558242901
 40
0.7220977534
 40
0.8585390112
 40
0.9287001163
 40
1.0
 40
1.0
 40
1.0
 40
1.0
 10
4.605673913
 20
3.5518928464
 30
0.0
 10
4.605673913
 20
3.5610149499
 30
0.0
 10
4.6065194658
 20
3.5793026183
 30
0.0
 10
4.6103051639
 20
3.6065705451
 30
0.0
 10
4.6165924576
 20
3.633564615
 30
0.0
 10
4.6253346649
 20
3.6601509507
 30
0.0
 10
4.6364847691
 20
3.6862047924
 30
0.0
 10
4.649973573
 20
3.7116115981
 30
0.0
 10
4.6657328254
 20
3.736260164
 30
0.0
 10
4.6836772546
 20
3.7600516002
 30
0.0
 10
4.7037229309
 20
3.7828889851
 30
0.0
 10
4.7257729176
 20
3.8046860712
 30
0.0
 10
4.7497313664
 20
3.8253574858
 30
0.0
 10
4.7844019775
 20
3.8515650527
 30
0.0
 10
4.8221794932
 20
3.8749142545
 30
0.0
 10
4.862425555
 20
3.89530107
 30
0.0
 10
4.8834568195
 20
3.9045427456
 30
0.0
 10
4.8941697124
 20
3.9089162658
 30
0.0
  0
SPLINE
  5
3BA
100
AcDbEntity
  8
ALL_ASSEMBLY_MEMBERS
100
AcDbSpline
 62
7
  6
CONTINUOUS
 70
0
 71
3
 72
15
 73
11
 74
0
 42
0.0000001
 43
0.0000001
 44
0.0000000001
 40
0.0
 40
0.0
 40
0.0
 40
0.0
 40
0.1317065785
 40
0.2609864906
 40
0.3880449445
 40
0.513127925
 40
0.6365271294
 40
0.7585704563
 40
0.8796126034
 40
1.0
 40
1.0
 40
1.0
 40
1.0
 10
5.7267698716
 20
3.6650838857
 30
0.0
 10
5.7338386702
 20
3.6568199686
 30
0.0
 10
5.7472801997
 20
3.6399488402
 30
0.0
 10
5.7653647736
 20
3.6134654681
 30
0.0
 10
5.7810959707
 20
3.5861453089
 30
0.0
 10
5.7943981049
 20
3.558098333
 30
0.0
 10
5.8051992092
 20
3.5294368854
 30
0.0
 10
5.8134455871
 20
3.5002830582
 30
0.0
 10
5.8190832379
 20
3.47076899
 30
0.0
 10
5.8210903219
 20
3.4509049218
 30
0.0
 10
5.8216474754
 20
3.4409803987
 30
0.0
  0
SPLINE
  5
3BB
100
AcDbEntity
  8
ALL_ASSEMBLY_MEMBERS
100
AcDbSpline
 62
7
  6
CONTINUOUS
 70
0
 71
3
 72
15
 73
11
 74
0
 42
0.0000001
 43
0.0000001
 44
0.0000000001
 40
0.0
 40
0.0
 40
0.0
 40
0.0
 40
0.120377012
 40
0.2414059428
 40
0.3634390023
 40
0.4868336009
 40
0.6119179982
 40
0.7389827441
 40
0.8682747662
 40
1.0
 40
1.0
 40
1.0
 40
1.0
 10
4.5327003507
 20
3.4409803987
 30
0.0
 10
4.5332584869
 20
3.4509224263
 30
0.0
 10
4.5352702003
 20
3.470821303
 30
0.0
 10
4.5409250423
 20
3.5003859724
 30
0.0
 10
4.5491969843
 20
3.5295885131
 30
0.0
 10
4.5600323357
 20
3.5582965529
 30
0.0
 10
4.5733772385
 20
3.5863871765
 30
0.0
 10
4.5891584585
 20
3.6137478555
 30
0.0
 10
4.6073016827
 20
3.6402667873
 30
0.0
 10
4.620784829
 20
3.6571590992
 30
0.0
 10
4.627876024
 20
3.6654323593
 30
0.0
  0
SPLINE
  5
3BC
100
AcDbEntity
  8
ALL_ASSEMBLY_MEMBERS
100
AcDbSpline
 62
9
  6
CONTINUOUS
 70
0
 71
3
 72
22
 73
18
 74
0
 42
0.0000001
 43
0.0000001
 44
0.0000000001
 40
0.0
 40
0.0
 40
0.0
 40
0.0
 40
0.0723873266
 40
0.1435339722
 40
0.2815714342
 40
0.3484250451
 40
0.4137891642
 40
0.4776643525
 40
0.5400808387
 40
0.6010993847
 40
0.660808607
 40
0.7193267142
 40
0.7767986067
 40
0.8333975786
 40
0.8893185725
 40
0.9447768663
 40
1.0
 40
1.0
 40
1.0
 40
1.0
 10
5.420173913
 20
3.2942845283
 30
0.0
 10
5.4292757849
 20
3.2980003519
 30
0.0
 10
5.4471348778
 20
3.3058449085
 30
0.0
 10
5.481267565
 20
3.3231149631
 30
0.0
 10
5.5132664594
 20
3.3428499259
 30
0.0
 10
5.542590448
 20
3.3649578073
 30
0.0
 10
5.5627949755
 20
3.3823391862
 30
0.0
 10
5.5813522302
 20
3.4006209782
 30
0.0
 10
5.5981819383
 20
3.419727109
 30
0.0
 10
5.6132126551
 20
3.4395751903
 30
0.0
 10
5.6263764478
 20
3.4600831769
 30
0.0
 10
5.6376189603
 20
3.4811616624
 30
0.0
 10
5.6468855494
 20
3.5027230926
 30
0.0
 10
5.6541396436
 20
3.524672328
 30
0.0
 10
5.6593429094
 20
3.5469169674
 30
0.0
 10
5.6624764124
 20
3.5693562424
 30
0.0
 10
5.6631736877
 20
3.5843975086
 30
0.0
 10
5.663173496
 20
3.591897532
 30
0.0
  0
SPLINE
  5
3BD
100
AcDbEntity
  8
ALL_ASSEMBLY_MEMBERS
100
AcDbSpline
 62
9
  6
CONTINUOUS
 70
0
 71
3
 72
21
 73
17
 74
0
 42
0.0000001
 43
0.0000001
 44
0.0000000001
 40
0.0
 40
0.0
 40
0.0
 40
0.0
 40
0.0725869197
 40
0.1438944363
 40
0.2821191058
 40
0.349002677
 40
0.4143538754
 40
0.5404247015
 40
0.6013354329
 40
0.6609252044
 40
0.7193249107
 40
0.7766957082
 40
0.8332270015
 40
0.8891316059
 40
0.9446413891
 40
1.0
 40
1.0
 40
1.0
 40
1.0
 10
5.4219537031
 20
3.2882288944
 30
0.0
 10
5.4313501682
 20
3.2920649852
 30
0.0
 10
5.4497780801
 20
3.3001736918
 30
0.0
 10
5.4849507514
 20
3.3180614143
 30
0.0
 10
5.5178560953
 20
3.3385514595
 30
0.0
 10
5.5479090269
 20
3.3615460877
 30
0.0
 10
5.5750892099
 20
3.385359054
 30
0.0
 10
5.5991909671
 20
3.4113316936
 30
0.0
 10
5.619573352
 20
3.4391742497
 30
0.0
 10
5.6327014899
 20
3.4605009544
 30
0.0
 10
5.6437794856
 20
3.4824082069
 30
0.0
 10
5.6527543316
 20
3.5047998384
 30
0.0
 10
5.65958616
 20
3.5275728152
 30
0.0
 10
5.6642380606
 20
3.5506252792
 30
0.0
 10
5.6666923706
 20
3.5738477537
 30
0.0
 10
5.6668514754
 20
3.5893765151
 30
0.0
 10
5.6665641557
 20
3.597111604
 30
0.0
  0
SPLINE
  5
3BE
100
AcDbEntity
  8
ALL_ASSEMBLY_MEMBERS
100
AcDbSpline
 62
9
  6
CONTINUOUS
 70
0
 71
3
 72
11
 73
7
 74
0
 42
0.0000001
 43
0.0000001
 44
0.0000000001
 40
0.0
 40
0.0
 40
0.0
 40
0.0
 40
0.2477537435
 40
0.4965566718
 40
0.7470903354
 40
1.0
 40
1.0
 40
1.0
 40
1.0
 10
5.6665641557
 20
3.597111604
 30
0.0
 10
5.6663344361
 20
3.603296012
 30
0.0
 10
5.6654041513
 20
3.6156786073
 30
0.0
 10
5.6626046014
 20
3.6341461522
 30
0.0
 10
5.6584098923
 20
3.6524793904
 30
0.0
 10
5.6547118314
 20
3.6645124895
 30
0.0
 10
5.6526415476
 20
3.6704810965
 30
0.0
  0
SPLINE
  5
3BF
100
AcDbEntity
  8
ALL_ASSEMBLY_MEMBERS
100
AcDbSpline
 62
9
  6
CONTINUOUS
 70
0
 71
3
 72
9
 73
5
 74
0
 42
0.0000001
 43
0.0000001
 44
0.0000000001
 40
0.0
 40
0.0
 40
0.0
 40
0.0
 40
0.4946548972
 40
1.0
 40
1.0
 40
1.0
 40
1.0
 10
4.8980981258
 20
3.9082239047
 30
0.0
 10
4.9150994846
 20
3.9151646804
 30
0.0
 10
4.950080779
 20
3.9277358854
 30
0.0
 10
4.9859514836
 20
3.9374643272
 30
0.0
 10
5.0042328376
 20
3.9416769047
 30
0.0
  0
LINE
  5
3C0
100
AcDbEntity
  8
ALL_ASSEMBLY_MEMBERS
100
AcDbLine
 62
9
  6
CONTINUOUS
 10
5.0042328376
 20
3.9416769047
 11
5.004684206
 21
3.9417807636
  0
LINE
  5
3C1
100
AcDbEntity
  8
ALL_ASSEMBLY_MEMBERS
100
AcDbLine
 62
9
  6
CONTINUOUS
 10
5.3496516747
 20
3.9417834034
 11
5.3501170022
 21
3.9416763412
  0
SPLINE
  5
3C2
100
AcDbEntity
  8
ALL_ASSEMBLY_MEMBERS
100
AcDbSpline
 62
9
  6
CONTINUOUS
 70
0
 71
3
 72
39
 73
35
 74
0
 42
0.0000001
 43
0.0000001
 44
0.0000000001
 40
0.0
 40
0.0
 40
0.0
 40
0.0
 40
0.0371971027
 40
0.0738942964
 40
0.1100144896
 40
0.1454900643
 40
0.1802623
 40
0.2142850061
 40
0.2475236852
 40
0.2799594351
 40
0.3115878413
 40
0.3424228239
 40
0.3724951323
 40
0.4018555585
 40
0.4305727039
 40
0.4587347027
 40
0.4864457998
 40
0.5138257219
 40
0.5410048898
 40
0.5681212202
 40
0.5953146808
 40
0.6227224532
 40
0.6504744181
 40
0.6786883299
 40
0.7074676163
 40
0.7368975092
 40
0.7670457141
 40
0.7979603329
 40
0.8296716947
 40
0.8621888996
 40
0.8955064339
 40
0.9296094401
 40
0.9644656096
 40
1.0
 40
1.0
 40
1.0
 40
1.0
 10
5.3501170022
 20
3.9416763412
 30
0.0
 10
5.3627703607
 20
3.9387607268
 30
0.0
 10
5.3877584437
 20
3.9322985716
 30
0.0
 10
5.4243765671
 20
3.9206601614
 30
0.0
 10
5.459720618
 20
3.9071888959
 30
0.0
 10
5.49360833
 20
3.8919579446
 30
0.0
 10
5.5258637857
 20
3.8750411873
 30
0.0
 10
5.5563223547
 20
3.8565288633
 30
0.0
 10
5.5848245964
 20
3.8365113881
 30
0.0
 10
5.6112256188
 20
3.8150945782
 30
0.0
 10
5.6353855207
 20
3.7923834637
 30
0.0
 10
5.6571817879
 20
3.7684973645
 30
0.0
 10
5.6764963088
 20
3.7435542004
 30
0.0
 10
5.6932311839
 20
3.7176847913
 30
0.0
 10
5.7072921229
 20
3.6910185939
 30
0.0
 10
5.7186080384
 20
3.6636961456
 30
0.0
 10
5.7271109698
 20
3.6358572689
 30
0.0
 10
5.73275935
 20
3.6076501092
 30
0.0
 10
5.7355148681
 20
3.5792227494
 30
0.0
 10
5.7353682819
 20
3.5507272628
 30
0.0
 10
5.7323137951
 20
3.5223157475
 30
0.0
 10
5.7263755162
 20
3.4941387439
 30
0.0
 10
5.7175805223
 20
3.4663467806
 30
0.0
 10
5.7059842522
 20
3.4390836494
 30
0.0
 10
5.6916443935
 20
3.4124938704
 30
0.0
 10
5.6746444933
 20
3.3867114042
 30
0.0
 10
5.6550700566
 20
3.3618719273
 30
0.0
 10
5.6330290366
 20
3.3380982059
 30
0.0
 10
5.6086326299
 20
3.3155160625
 30
0.0
 10
5.582013176
 20
3.2942354952
 30
0.0
 10
5.553304018
 20
3.2743683683
 30
0.0
 10
5.5226526026
 20
3.2560111845
 30
0.0
 10
5.4902214849
 20
3.2392658484
 30
0.0
 10
5.4677340344
 20
3.2293190862
 30
0.0
 10
5.4562497003
 20
3.2246306264
 30
0.0
  0
SPLINE
  5
3C3
100
AcDbEntity
  8
ALL_ASSEMBLY_MEMBERS
100
AcDbSpline
 62
7
  6
CONTINUOUS
 70
0
 71
3
 72
21
 73
17
 74
0
 42
0.0000001
 43
0.0000001
 44
0.0000000001
 40
0.0
 40
0.0
 40
0.0
 40
0.0
 40
0.0549821461
 40
0.1104695247
 40
0.1666289469
 40
0.2236111993
 40
0.2815502166
 40
0.3405601824
 40
0.4007339985
 40
0.4621452619
 40
0.5248451101
 40
0.5888662479
 40
0.7208338649
 40
0.8580014735
 40
0.9284531341
 40
1.0
 40
1.0
 40
1.0
 40
1.0
 10
5.8187225093
 20
3.3759010045
 30
0.0
 10
5.817411183
 20
3.3669504356
 30
0.0
 10
5.8140286562
 20
3.3490680353
 30
0.0
 10
5.8067541471
 20
3.3226063665
 30
0.0
 10
5.7972814993
 20
3.2964984185
 30
0.0
 10
5.7856502707
 20
3.2708364475
 30
0.0
 10
5.7718992551
 20
3.2457104756
 30
0.0
 10
5.7560790618
 20
3.2212075507
 30
0.0
 10
5.7382467571
 20
3.1974114495
 30
0.0
 10
5.7184631547
 20
3.1744064402
 30
0.0
 10
5.696800085
 20
3.1522680058
 30
0.0
 10
5.665193558
 20
3.1237291828
 30
0.0
 10
5.6212857802
 20
3.0907023735
 30
0.0
 10
5.5731500367
 20
3.0621263642
 30
0.0
 10
5.5319875677
 20
3.0417159098
 30
0.0
 10
5.5105627603
 20
3.0323708544
 30
0.0
 10
5.4996644843
 20
3.0279216519
 30
0.0
  0
SPLINE
  5
3C4
100
AcDbEntity
  8
ALL_ASSEMBLY_MEMBERS
100
AcDbSpline
 62
9
  6
CONTINUOUS
 70
0
 71
3
 72
26
 73
22
 74
0
 42
0.0000001
 43
0.0000001
 44
0.0000000001
 40
0.0
 40
0.0
 40
0.0
 40
0.0
 40
0.0739891898
 40
0.14624664
 40
0.2165953505
 40
0.2849693789
 40
0.3513398768
 40
0.4157291664
 40
0.478228836
 40
0.5389966649
 40
0.5982552813
 40
0.627418147
 40
0.6563160826
 40
0.7134730632
 40
0.7418532953
 40
0.7701602414
 40
0.7984455278
 40
0.8267610783
 40
0.8836630016
 40
0.9412888199
 40
1.0
 40
1.0
 40
1.0
 40
1.0
 10
5.4775092299
 20
3.0859612266
 30
0.0
 10
5.4922136036
 20
3.0919642621
 30
0.0
 10
5.5208825701
 20
3.1048315507
 30
0.0
 10
5.5618497739
 20
3.1269046003
 30
0.0
 10
5.6000071879
 20
3.1513862852
 30
0.0
 10
5.6350686152
 20
3.17809497
 30
0.0
 10
5.6667821639
 20
3.2068387366
 30
0.0
 10
5.6949096129
 20
3.2374144956
 30
0.0
 10
5.7192410836
 20
3.2696019629
 30
0.0
 10
5.7395930192
 20
3.3031648701
 30
0.0
 10
5.7531776053
 20
3.332244766
 30
0.0
 10
5.7618608542
 20
3.3558976584
 30
0.0
 10
5.7690355344
 20
3.3795778967
 30
0.0
 10
5.7740869066
 20
3.4036881159
 30
0.0
 10
5.7769178043
 20
3.427973027
 30
0.0
 10
5.7779321718
 20
3.4461966974
 30
0.0
 10
5.7778404244
 20
3.4644343337
 30
0.0
 10
5.7762399374
 20
3.4887585926
 30
0.0
 10
5.7714457019
 20
3.5191267218
 30
0.0
 10
5.7613086835
 20
3.5549882511
 30
0.0
 10
5.7517788886
 20
3.5781390967
 30
0.0
 10
5.746353802
 20
3.5895146393
 30
0.0
  0
SPLINE
  5
3C5
100
AcDbEntity
  8
ALL_ASSEMBLY_MEMBERS
100
AcDbSpline
 62
9
  6
CONTINUOUS
 70
0
 71
3
 72
29
 73
25
 74
0
 42
0.0000001
 43
0.0000001
 44
0.0000000001
 40
0.0
 40
0.0
 40
0.0
 40
0.0
 40
0.0740917191
 40
0.14620618
 40
0.2161515109
 40
0.2838607502
 40
0.349320726
 40
0.4126079037
 40
0.473892937
 40
0.5038771179
 40
0.5334676489
 40
0.5627115807
 40
0.5916606492
 40
0.620371571
 40
0.6489041952
 40
0.6773212941
 40
0.7056876326
 40
0.7340685307
 40
0.7625293726
 40
0.7911339599
 40
0.8199439881
 40
0.8783806299
 40
0.938287702
 40
1.0
 40
1.0
 40
1.0
 40
1.0
 10
5.4923363041
 20
3.0518614634
 30
0.0
 10
5.5096127451
 20
3.0589145409
 30
0.0
 10
5.5431874615
 20
3.0741481459
 30
0.0
 10
5.5908187357
 20
3.1006364123
 30
0.0
 10
5.634657505
 20
3.1302490421
 30
0.0
 10
5.6742934984
 20
3.1627118413
 30
0.0
 10
5.7093626768
 20
3.1977395588
 30
0.0
 10
5.7395332534
 20
3.235012353
 30
0.0
 10
5.7605118285
 20
3.2679176898
 30
0.0
 10
5.7744901514
 20
3.2949762099
 30
0.0
 10
5.7835185948
 20
3.315459592
 30
0.0
 10
5.7911448192
 20
3.336227731
 30
0.0
 10
5.797347981
 20
3.3572341705
 30
0.0
 10
5.8021159029
 20
3.378428824
 30
0.0
 10
5.8054369881
 20
3.3997626016
 30
0.0
 10
5.8073004683
 20
3.4211858376
 30
0.0
 10
5.8077052699
 20
3.4426479633
 30
0.0
 10
5.8066490078
 20
3.4640990386
 30
0.0
 10
5.8041326592
 20
3.4854882003
 30
0.0
 10
5.8001651833
 20
3.506766799
 30
0.0
 10
5.7929190246
 20
3.5350493323
 30
0.0
 10
5.7801905328
 20
3.569977319
 30
0.0
 10
5.7594060491
 20
3.6104004628
 30
0.0
 10
5.7422329983
 20
3.635860942
 30
0.0
 10
5.7328495213
 20
3.6482516445
 30
0.0
  0
SPLINE
  5
3C6
100
AcDbEntity
  8
ALL_ASSEMBLY_MEMBERS
100
AcDbSpline
 62
9
  6
CONTINUOUS
 70
0
 71
3
 72
47
 73
43
 74
0
 42
0.0000001
 43
0.0000001
 44
0.0000000001
 40
0.0
 40
0.0
 40
0.0
 40
0.0
 40
0.0343875522
 40
0.069488202
 40
0.1051359394
 40
0.1411845454
 40
0.1774661651
 40
0.2138062166
 40
0.2500308698
 40
0.2859685612
 40
0.3214546616
 40
0.3563357023
 40
0.3904744703
 40
0.4237537566
 40
0.4560812158
 40
0.4873949939
 40
0.5176672985
 40
0.5469095406
 40
0.5751765316
 40
0.6025676034
 40
0.6159849484
 40
0.6292410845
 40
0.6423606179
 40
0.655369929
 40
0.6682973619
 40
0.6811726179
 40
0.6940260941
 40
0.7068887343
 40
0.7197912044
 40
0.732763504
 40
0.745834676
 40
0.7590318873
 40
0.7723804836
 40
0.7859037456
 40
0.8135404861
 40
0.8420873944
 40
0.8716309908
 40
0.8867955942
 40
0.9022203185
 40
0.9338362922
 40
0.9664604856
 40
1.0
 40
1.0
 40
1.0
 40
1.0
 10
5.417821072
 20
3.3085189428
 30
0.0
 10
5.4040412126
 20
3.3028933387
 30
0.0
 10
5.3757290793
 20
3.2926380736
 30
0.0
 10
5.3318576474
 20
3.2804037979
 30
0.0
 10
5.2865043985
 20
3.2712616394
 30
0.0
 10
5.2401117164
 20
3.2652979248
 30
0.0
 10
5.1931174749
 20
3.2625660632
 30
0.0
 10
5.145970843
 20
3.263094073
 30
0.0
 10
5.0991223189
 20
3.2668777335
 30
0.0
 10
5.0530185318
 20
3.2738788509
 30
0.0
 10
5.0080994596
 20
3.2840324352
 30
0.0
 10
4.9647940063
 20
3.2972436966
 30
0.0
 10
4.9235144094
 20
3.3133856721
 30
0.0
 10
4.8846547847
 20
3.3323081481
 30
0.0
 10
4.8485865983
 20
3.3538344973
 30
0.0
 10
4.815653436
 20
3.3777615923
 30
0.0
 10
4.7861729298
 20
3.4038681622
 30
0.0
 10
4.7604309935
 20
3.4319127023
 30
0.0
 10
4.7386800548
 20
3.4616280816
 30
0.0
 10
4.7239590443
 20
3.4877450268
 30
0.0
 10
4.7144464517
 20
3.5091399006
 30
0.0
 10
4.7084741026
 20
3.5253083671
 30
0.0
 10
4.7036291757
 20
3.5416653694
 30
0.0
 10
4.6999251101
 20
3.5581726088
 30
0.0
 10
4.6973724251
 20
3.5747898409
 30
0.0
 10
4.6959746102
 20
3.5914762464
 30
0.0
 10
4.6957368404
 20
3.6081914973
 30
0.0
 10
4.6966611311
 20
3.6248945991
 30
0.0
 10
4.6987421164
 20
3.6415449883
 30
0.0
 10
4.7019760153
 20
3.6581021569
 30
0.0
 10
4.7063563358
 20
3.6745253541
 30
0.0
 10
4.7118690694
 20
3.6907753696
 30
0.0
 10
4.7185021729
 20
3.706813306
 30
0.0
 10
4.7288922558
 20
3.7280099324
 30
0.0
 10
4.7446799128
 20
3.7538150247
 30
0.0
 10
4.7676339047
 20
3.7830629584
 30
0.0
 10
4.7898402203
 20
3.8057831442
 30
0.0
 10
4.8093880801
 20
3.8229803636
 30
0.0
 10
4.8304555296
 20
3.8397611418
 30
0.0
 10
4.8589380215
 20
3.8592908417
 30
0.0
 10
4.8958667748
 20
3.8800633124
 30
0.0
 10
4.9219432657
 20
3.8919911713
 30
0.0
 10
4.9353709054
 20
3.8975082982
 30
0.0
  0
LINE
  5
3C7
100
AcDbEntity
  8
ALL_ASSEMBLY_MEMBERS
100
AcDbLine
 62
9
  6
CONTINUOUS
 10
4.9353709054
 20
3.8975082982
 11
4.9365267541
 21
3.8979816903
  0
SPLINE
  5
3C8
100
AcDbEntity
  8
ALL_ASSEMBLY_MEMBERS
100
AcDbSpline
 62
9
  6
CONTINUOUS
 70
0
 71
3
 72
30
 73
26
 74
0
 42
0.0000001
 43
0.0000001
 44
0.0000000001
 40
0.0
 40
0.0
 40
0.0
 40
0.0
 40
0.033052087
 40
0.0665973058
 40
0.1348473441
 40
0.2042571178
 40
0.274275484
 40
0.3443168799
 40
0.4137983037
 40
0.4821593494
 40
0.5488890887
 40
0.6135516661
 40
0.6758136113
 40
0.7059892909
 40
0.7355017368
 40
0.7643499897
 40
0.7925459244
 40
0.8201122413
 40
0.8470853241
 40
0.8735133521
 40
0.8994575747
 40
0.9249907157
 40
0.9501961858
 40
0.9751663383
 40
1.0
 40
1.0
 40
1.0
 40
1.0
 10
5.420173913
 20
3.3014945636
 30
0.0
 10
5.411016669
 20
3.2977561344
 30
0.0
 10
5.3923627603
 20
3.290709896
 30
0.0
 10
5.3539265195
 20
3.2783751999
 30
0.0
 10
5.3040274329
 20
3.2663740499
 30
0.0
 10
5.242413847
 20
3.2575980849
 30
0.0
 10
5.1797173668
 20
3.2545006781
 30
0.0
 10
5.1169793548
 20
3.2571349834
 30
0.0
 10
5.0552378455
 20
3.2654567105
 30
0.0
 10
4.9955153336
 20
3.279330435
 30
0.0
 10
4.9387980766
 20
3.2985313819
 30
0.0
 10
4.886029733
 20
3.3227456886
 30
0.0
 10
4.8456426742
 20
3.3470382234
 30
0.0
 10
4.816205936
 20
3.3686430351
 30
0.0
 10
4.7958637275
 20
3.3856483225
 30
0.0
 10
4.7771196786
 20
3.4035539256
 30
0.0
 10
4.7600490433
 20
3.4222827888
 30
0.0
 10
4.7447274107
 20
3.4417602595
 30
0.0
 10
4.731217618
 20
3.4619033033
 30
0.0
 10
4.7195794588
 20
3.4826294832
 30
0.0
 10
4.7098629853
 20
3.5038516471
 30
0.0
 10
4.7021100478
 20
3.5254802518
 30
0.0
 10
4.6963573647
 20
3.547425054
 30
0.0
 10
4.6926271824
 20
3.5695893101
 30
0.0
 10
4.6915015233
 20
3.5844753948
 30
0.0
 10
4.6912812329
 20
3.5919036903
 30
0.0
  0
SPLINE
  5
3C9
100
AcDbEntity
  8
ALL_ASSEMBLY_MEMBERS
100
AcDbSpline
 62
9
  6
CONTINUOUS
 70
0
 71
3
 72
38
 73
34
 74
0
 42
0.0000001
 43
0.0000001
 44
0.0000000001
 40
0.0
 40
0.0
 40
0.0
 40
0.0
 40
0.0258758221
 40
0.0514524433
 40
0.0768565779
 40
0.1022213227
 40
0.1276810169
 40
0.1533668055
 40
0.1794013544
 40
0.205895618
 40
0.232945052
 40
0.2606282933
 40
0.2890054443
 40
0.3181183338
 40
0.3785885713
 40
0.4099822157
 40
0.4421070114
 40
0.474925019
 40
0.5083861894
 40
0.5424302099
 40
0.5769874992
 40
0.6119810533
 40
0.6473274427
 40
0.6829384544
 40
0.7187220645
 40
0.7545839243
 40
0.7904292116
 40
0.82616303
 40
0.8616904439
 40
0.8969194832
 40
0.9317700353
 40
0.9661631631
 40
1.0
 40
1.0
 40
1.0
 40
1.0
 10
4.7016736567
 20
3.6703857107
 30
0.0
 10
4.6988624877
 20
3.6622716327
 30
0.0
 10
4.6940521879
 20
3.6458535563
 30
0.0
 10
4.68936847
 20
3.620738656
 30
0.0
 10
4.6872906446
 20
3.5954421481
 30
0.0
 10
4.6878344029
 20
3.5701055038
 30
0.0
 10
4.6909940669
 20
3.5448669358
 30
0.0
 10
4.6967529517
 20
3.5198649634
 30
0.0
 10
4.7050761311
 20
3.495235068
 30
0.0
 10
4.7159168514
 20
3.4711102691
 30
0.0
 10
4.7292134566
 20
3.4476189398
 30
0.0
 10
4.7448919181
 20
3.424885873
 30
0.0
 10
4.7628678964
 20
3.4030293534
 30
0.0
 10
4.7901022548
 20
3.3748625107
 30
0.0
 10
4.8212852129
 20
3.349306763
 30
0.0
 10
4.8556164914
 20
3.3265893457
 30
0.0
 10
4.8833995769
 20
3.3107217948
 30
0.0
 10
4.9127371374
 20
3.2963317222
 30
0.0
 10
4.9434758592
 20
3.2834901361
 30
0.0
 10
4.9754529776
 20
3.2722675026
 30
0.0
 10
5.0084984797
 20
3.2627200459
 30
0.0
 10
5.0424380447
 20
3.2549009239
 30
0.0
 10
5.0770912394
 20
3.2488482521
 30
0.0
 10
5.1122750033
 20
3.2445972823
 30
0.0
 10
5.1478024434
 20
3.2421668759
 30
0.0
 10
5.1834856239
 20
3.241573462
 30
0.0
 10
5.2191355829
 20
3.2428165317
 30
0.0
 10
5.2545629613
 20
3.2458937235
 30
0.0
 10
5.2895796964
 20
3.2507839026
 30
0.0
 10
5.3240009931
 20
3.257465317
 30
0.0
 10
5.357647895
 20
3.2659010273
 30
0.0
 10
5.3903344967
 20
3.2760489845
 30
0.0
 10
5.4115574577
 20
3.2839846449
 30
0.0
 10
5.4219537031
 20
3.2882288944
 30
0.0
  0
SPLINE
  5
3CA
100
AcDbEntity
  8
ALL_ASSEMBLY_MEMBERS
100
AcDbSpline
 62
9
  6
CONTINUOUS
 70
0
 71
3
 72
47
 73
43
 74
0
 42
0.0000001
 43
0.0000001
 44
0.0000000001
 40
0.0
 40
0.0
 40
0.0
 40
0.0
 40
0.0343915754
 40
0.069493178
 40
0.1051428991
 40
0.1411941526
 40
0.1774783625
 40
0.2138220425
 40
0.2500518358
 40
0.2859961944
 40
0.321490912
 40
0.3563829367
 40
0.3905347264
 40
0.4238293455
 40
0.456174496
 40
0.4875073749
 40
0.5178001404
 40
0.547063648
 40
0.5753511543
 40
0.5891642922
 40
0.6027740895
 40
0.6162001047
 40
0.6294641417
 40
0.6425903983
 40
0.6556054495
 40
0.6685373528
 40
0.681415629
 40
0.6942707298
 40
0.7071333687
 40
0.7200342905
 40
0.7330034456
 40
0.7460697352
 40
0.7592606277
 40
0.7726013579
 40
0.7861151726
 40
0.8137295691
 40
0.8422496115
 40
0.8717630612
 40
0.9023121841
 40
0.9338959896
 40
0.9664871587
 40
1.0
 40
1.0
 40
1.0
 40
1.0
 10
5.4562497003
 20
3.2246306264
 30
0.0
 10
5.4402875968
 20
3.218114125
 30
0.0
 10
5.4074940841
 20
3.2062334388
 30
0.0
 10
5.3566793141
 20
3.1920563683
 30
0.0
 10
5.3041494445
 20
3.1814562014
 30
0.0
 10
5.2504146598
 20
3.1745321675
 30
0.0
 10
5.1959813012
 20
3.1713487794
 30
0.0
 10
5.1413688696
 20
3.1719362129
 30
0.0
 10
5.0870975441
 20
3.1762898162
 30
0.0
 10
5.0336839103
 20
3.1843682545
 30
0.0
 10
4.9816362333
 20
3.1960939918
 30
0.0
 10
4.9314500916
 20
3.2113578435
 30
0.0
 10
4.883603221
 20
3.2300165622
 30
0.0
 10
4.8385502348
 20
3.2518934898
 30
0.0
 10
4.7967203971
 20
3.2767851329
 30
0.0
 10
4.7585137974
 20
3.304460202
 30
0.0
 10
4.7242949536
 20
3.334661103
 30
0.0
 10
4.6943966479
 20
3.3671038641
 30
0.0
 10
4.6731545951
 20
3.3959981127
 30
0.0
 10
4.6586753372
 20
3.4198970888
 30
0.0
 10
4.6491452326
 20
3.4380378831
 30
0.0
 10
4.6408820307
 20
3.4564884078
 30
0.0
 10
4.633905809
 20
3.4752052751
 30
0.0
 10
4.628236556
 20
3.4941440245
 30
0.0
 10
4.6238852391
 20
3.5132579029
 30
0.0
 10
4.6208635758
 20
3.5325010734
 30
0.0
 10
4.6191814301
 20
3.5518269496
 30
0.0
 10
4.6188396475
 20
3.5711881956
 30
0.0
 10
4.6198405851
 20
3.590537987
 30
0.0
 10
4.6221834031
 20
3.6098289086
 30
0.0
 10
4.6258588986
 20
3.629014485
 30
0.0
 10
4.6308598976
 20
3.6480480657
 30
0.0
 10
4.6371747356
 20
3.6668829124
 30
0.0
 10
4.6447852668
 20
3.6854753164
 30
0.0
 10
4.6567207101
 20
3.7100519602
 30
0.0
 10
4.6748856737
 20
3.7399790409
 30
0.0
 10
4.7013301806
 20
3.7739169084
 30
0.0
 10
4.7323199815
 20
3.8058388499
 30
0.0
 10
4.7675502625
 20
3.8354424451
 30
0.0
 10
4.8066849633
 20
3.8624578981
 30
0.0
 10
4.8493445179
 20
3.8866267988
 30
0.0
 10
4.8794785705
 20
3.9005184605
 30
0.0
 10
4.894999509
 20
3.9069494717
 30
0.0
  0
SPLINE
  5
3CB
100
AcDbEntity
  8
ALL_ASSEMBLY_MEMBERS
100
AcDbSpline
 62
9
  6
CONTINUOUS
 70
0
 71
3
 72
32
 73
28
 74
0
 42
0.0000001
 43
0.0000001
 44
0.0000000001
 40
0.0
 40
0.0
 40
0.0
 40
0.0
 40
0.0327910247
 40
0.0660566295
 40
0.1337138827
 40
0.2025156625
 40
0.2719595951
 40
0.3415058267
 40
0.4106153266
 40
0.4787646667
 40
0.5123352013
 40
0.545488858
 40
0.5781744408
 40
0.610346965
 40
0.6419663566
 40
0.6730002999
 40
0.7331920091
 40
0.7623512852
 40
0.7908761145
 40
0.8187791733
 40
0.8460827288
 40
0.8728214773
 40
0.8990403788
 40
0.9247961586
 40
0.9501557235
 40
0.9751954592
 40
1.0
 40
1.0
 40
1.0
 40
1.0
 10
5.462923913
 20
3.2019219994
 30
0.0
 10
5.4525440571
 20
3.1976844409
 30
0.0
 10
5.4314126901
 20
3.1896794304
 30
0.0
 10
5.3879059858
 20
3.1755874077
 30
0.0
 10
5.3314659953
 20
3.1616990719
 30
0.0
 10
5.2617639835
 20
3.1511743449
 30
0.0
 10
5.1907566124
 20
3.1468478921
 30
0.0
 10
5.1195392756
 20
3.1487893193
 30
0.0
 10
5.0492134981
 20
3.1569665681
 30
0.0
 10
4.9919526783
 20
3.1689369326
 30
0.0
 10
4.9475788723
 20
3.1815404018
 30
0.0
 10
4.9153526872
 20
3.1923881445
 30
0.0
 10
4.8841462292
 20
3.2046389824
 30
0.0
 10
4.8540790651
 20
3.2182409792
 30
0.0
 10
4.8252677446
 20
3.2331467192
 30
0.0
 10
4.7890556219
 20
3.2544543139
 30
0.0
 10
4.7553633218
 20
3.2782975095
 30
0.0
 10
4.7247559241
 20
3.3045512127
 30
0.0
 10
4.7038003515
 20
3.3250077897
 30
0.0
 10
4.6846869274
 20
3.3463512567
 30
0.0
 10
4.6674938167
 20
3.3685040692
 30
0.0
 10
4.6522859357
 20
3.3913773442
 30
0.0
 10
4.6391263883
 20
3.4148846396
 30
0.0
 10
4.6280675122
 20
3.438933563
 30
0.0
 10
4.6191529336
 20
3.4634305821
 30
0.0
 10
4.6124230307
 20
3.4882778213
 30
0.0
 10
4.6093966722
 20
3.5050750237
 30
0.0
 10
4.6082617075
 20
3.5134796167
 30
0.0
  0
SPLINE
  5
3CC
100
AcDbEntity
  8
ALL_ASSEMBLY_MEMBERS
100
AcDbSpline
 62
9
  6
CONTINUOUS
 70
0
 71
3
 72
22
 73
18
 74
0
 42
0.0000001
 43
0.0000001
 44
0.0000000001
 40
0.0
 40
0.0
 40
0.0
 40
0.0
 40
0.0552231337
 40
0.1106814275
 40
0.1666024214
 40
0.2232013933
 40
0.2806732858
 40
0.339191393
 40
0.3989006153
 40
0.4599191613
 40
0.5223356474
 40
0.5862108358
 40
0.6515749549
 40
0.7184285657
 40
0.8564660278
 40
0.9276126734
 40
1.0
 40
1.0
 40
1.0
 40
1.0
 10
5.663173496
 20
3.5991075679
 30
0.0
 10
5.6631736877
 20
3.5916075444
 30
0.0
 10
5.6624764125
 20
3.5765662783
 30
0.0
 10
5.6593429095
 20
3.5541270033
 30
0.0
 10
5.6541396437
 20
3.5318823638
 30
0.0
 10
5.6468855495
 20
3.5099331283
 30
0.0
 10
5.6376189605
 20
3.4883716981
 30
0.0
 10
5.626376448
 20
3.4672932126
 30
0.0
 10
5.6132126553
 20
3.4467852259
 30
0.0
 10
5.5981819385
 20
3.4269371446
 30
0.0
 10
5.5813522304
 20
3.4078310137
 30
0.0
 10
5.5627949757
 20
3.3895492217
 30
0.0
 10
5.5425904482
 20
3.3721678428
 30
0.0
 10
5.5132664595
 20
3.3500599613
 30
0.0
 10
5.4812675651
 20
3.3303249985
 30
0.0
 10
5.4471348778
 20
3.3130549439
 30
0.0
 10
5.4292757849
 20
3.3052103872
 30
0.0
 10
5.420173913
 20
3.3014945636
 30
0.0
  0
SPLINE
  5
3CD
100
AcDbEntity
  8
ALL_ASSEMBLY_MEMBERS
100
AcDbSpline
 62
9
  6
CONTINUOUS
 70
0
 71
3
 72
38
 73
34
 74
0
 42
0.0000001
 43
0.0000001
 44
0.0000000001
 40
0.0
 40
0.0
 40
0.0
 40
0.0
 40
0.0370168605
 40
0.0734898337
 40
0.1093501554
 40
0.1445392068
 40
0.2126833499
 40
0.2456109443
 40
0.277745775
 40
0.3090929556
 40
0.3396742189
 40
0.3695289174
 40
0.3987137217
 40
0.4273036494
 40
0.4553897959
 40
0.4830792212
 40
0.5104908994
 40
0.5377535532
 40
0.5650006081
 40
0.5923661849
 40
0.6199803627
 40
0.647964838
 40
0.6764295637
 40
0.7054696491
 40
0.7351635382
 40
0.7655727011
 40
0.7967406075
 40
0.8286929495
 40
0.8614359873
 40
0.8949647151
 40
0.9292648574
 40
0.9643016715
 40
1.0
 40
1.0
 40
1.0
 40
1.0
 10
5.3497009391
 20
3.920959795
 30
0.0
 10
5.3601668155
 20
3.9181182299
 30
0.0
 10
5.3808002418
 20
3.9119260047
 30
0.0
 10
5.4109514762
 20
3.9010544936
 30
0.0
 10
5.4399527791
 20
3.8887083267
 30
0.0
 10
5.4764923489
 20
3.8705678713
 30
0.0
 10
5.5106169345
 20
3.8496045769
 30
0.0
 10
5.5416694061
 20
3.8259263897
 30
0.0
 10
5.5629012053
 20
3.8072608522
 30
0.0
 10
5.5822297202
 20
3.7875823762
 30
0.0
 10
5.5995581625
 20
3.7669843906
 30
0.0
 10
5.6148015531
 20
3.7455695133
 30
0.0
 10
5.6278791053
 20
3.7234400278
 30
0.0
 10
5.6387281311
 20
3.7007073597
 30
0.0
 10
5.6472866833
 20
3.6774814886
 30
0.0
 10
5.6535157945
 20
3.6538806658
 30
0.0
 10
5.6573752845
 20
3.6300218671
 30
0.0
 10
5.6588513006
 20
3.6060272207
 30
0.0
 10
5.6579288544
 20
3.5820183483
 30
0.0
 10
5.654619471
 20
3.5581173657
 30
0.0
 10
5.648935395
 20
3.534446229
 30
0.0
 10
5.6409118795
 20
3.5111233087
 30
0.0
 10
5.6305878044
 20
3.4882663589
 30
0.0
 10
5.6180196381
 20
3.4659878727
 30
0.0
 10
5.6032709247
 20
3.4443979888
 30
0.0
 10
5.5864167598
 20
3.4236024071
 30
0.0
 10
5.5675423878
 20
3.4037019682
 30
0.0
 10
5.5467415192
 20
3.3847954126
 30
0.0
 10
5.5241203636
 20
3.3669718267
 30
0.0
 10
5.499786841
 20
3.3503203124
 30
0.0
 10
5.4738602311
 20
3.3349184301
 30
0.0
 10
5.4464733572
 20
3.3208483964
 30
0.0
 10
5.4275037456
 20
3.3124718777
 30
0.0
 10
5.417821072
 20
3.3085189428
 30
0.0
  0
SPLINE
  5
3CE
100
AcDbEntity
  8
ALL_ASSEMBLY_MEMBERS
100
AcDbSpline
 62
9
  6
CONTINUOUS
 70
0
 71
3
 72
22
 73
18
 74
0
 42
0.0000001
 43
0.0000001
 44
0.0000000001
 40
0.0
 40
0.0
 40
0.0
 40
0.0
 40
0.0552231337
 40
0.1106814275
 40
0.1666024214
 40
0.2232013933
 40
0.2806732858
 40
0.339191393
 40
0.3989006153
 40
0.4599191613
 40
0.5223356474
 40
0.5862108358
 40
0.6515749549
 40
0.7184285658
 40
0.8564660278
 40
0.9276126734
 40
1.0
 40
1.0
 40
1.0
 40
1.0
 10
5.7486734227
 20
3.5518928466
 30
0.0
 10
5.748673648
 20
3.5430733746
 30
0.0
 10
5.747853704
 20
3.5253859598
 30
0.0
 10
5.7441689366
 20
3.4989990345
 30
0.0
 10
5.7380502814
 20
3.4728409863
 30
0.0
 10
5.729520004
 20
3.4470303113
 30
0.0
 10
5.7186231817
 20
3.4216756665
 30
0.0
 10
5.7054028197
 20
3.3968889289
 30
0.0
 10
5.6899231747
 20
3.3727730558
 30
0.0
 10
5.6722481651
 20
3.3494331824
 30
0.0
 10
5.6524576749
 20
3.3269657878
 30
0.0
 10
5.6306357181
 20
3.3054677546
 30
0.0
 10
5.6068766904
 20
3.2850285405
 30
0.0
 10
5.5723938519
 20
3.2590313095
 30
0.0
 10
5.5347655224
 20
3.2358244552
 30
0.0
 10
5.4946280105
 20
3.2155161502
 30
0.0
 10
5.4736270401
 20
3.2062915327
 30
0.0
 10
5.462923913
 20
3.2019219994
 30
0.0
  0
SPLINE
  5
3CF
100
AcDbEntity
  8
ALL_ASSEMBLY_MEMBERS
100
AcDbSpline
 62
9
  6
CONTINUOUS
 70
0
 71
3
 72
11
 73
7
 74
0
 42
0.0000001
 43
0.0000001
 44
0.0000000001
 40
0.0
 40
0.0
 40
0.0
 40
0.0
 40
0.2482912388
 40
0.497273851
 40
0.747626263
 40
1.0
 40
1.0
 40
1.0
 40
1.0
 10
5.748673913
 20
3.5130623262
 30
0.0
 10
5.748673913
 20
3.5059361293
 30
0.0
 10
5.7481386527
 20
3.4916582394
 30
0.0
 10
5.7457362926
 20
3.4703163635
 30
0.0
 10
5.7417389772
 20
3.4490959426
 30
0.0
 10
5.7380367777
 20
3.4351349696
 30
0.0
 10
5.7359317697
 20
3.4282042172
 30
0.0
  0
SPLINE
  5
3D0
100
AcDbEntity
  8
ALL_ASSEMBLY_MEMBERS
100
AcDbSpline
 62
9
  6
CONTINUOUS
 70
0
 71
3
 72
18
 73
14
 74
0
 42
0.0000001
 43
0.0000001
 44
0.0000000001
 40
0.0
 40
0.0
 40
0.0
 40
0.0
 40
0.0551654716
 40
0.1110136037
 40
0.1676521537
 40
0.2251765309
 40
0.283667597
 40
0.3431930858
 40
0.4654922658
 40
0.5923822276
 40
0.7238949537
 40
0.8598816944
 40
1.0
 40
1.0
 40
1.0
 40
1.0
 10
5.7359317697
 20
3.4282042172
 30
0.0
 10
5.7338315907
 20
3.4212893642
 30
0.0
 10
5.7291079303
 20
3.4075200343
 30
0.0
 10
5.72055561
 20
3.3872733875
 30
0.0
 10
5.7105202798
 20
3.3673720726
 30
0.0
 10
5.6990298779
 20
3.3478723705
 30
0.0
 10
5.6861170671
 20
3.3288254122
 30
0.0
 10
5.6668801609
 20
3.3038840286
 30
0.0
 10
5.6393585342
 20
3.2741189974
 30
0.0
 10
5.6016298243
 20
3.2413666268
 30
0.0
 10
5.5593064889
 20
3.211587014
 30
0.0
 10
5.5128564806
 20
3.1851017959
 30
0.0
 10
5.4799179789
 20
3.1700292775
 30
0.0
 10
5.462923913
 20
3.1630914792
 30
0.0
  0
SPLINE
  5
3D1
100
AcDbEntity
  8
ALL_ASSEMBLY_MEMBERS
100
AcDbSpline
 62
9
  6
CONTINUOUS
 70
0
 71
3
 72
39
 73
35
 74
0
 42
0.0000001
 43
0.0000001
 44
0.0000000001
 40
0.0
 40
0.0
 40
0.0
 40
0.0
 40
0.028044985
 40
0.0553842761
 40
0.0821181405
 40
0.1083700143
 40
0.1342834059
 40
0.1600160858
 40
0.1728716718
 40
0.1857445313
 40
0.2116144781
 40
0.2377961736
 40
0.2644358654
 40
0.2916610765
 40
0.3195760775
 40
0.3482609533
 40
0.3777697956
 40
0.4081318641
 40
0.4393529782
 40
0.4714163515
 40
0.5042861256
 40
0.5379080462
 40
0.5722128203
 40
0.6071178668
 40
0.6425292308
 40
0.6783444295
 40
0.7144536045
 40
0.7507422731
 40
0.7870926308
 40
0.8594765784
 40
0.8953055345
 40
0.9307362863
 40
0.9656730655
 40
1.0
 40
1.0
 40
1.0
 40
1.0
 10
4.6216259542
 20
3.6484205825
 30
0.0
 10
4.6137133564
 20
3.6379821171
 30
0.0
 10
4.5990267453
 20
3.616631635
 30
0.0
 10
4.5804763392
 20
3.5829910724
 30
0.0
 10
4.565824662
 20
3.5483776471
 30
0.0
 10
4.5551792204
 20
3.5130210991
 30
0.0
 10
4.5486116344
 20
3.4771596196
 30
0.0
 10
4.5465819912
 20
3.4470309127
 30
0.0
 10
4.5470280073
 20
3.422988655
 30
0.0
 10
4.5488511936
 20
3.3989470635
 30
0.0
 10
4.5537296275
 20
3.3689475548
 30
0.0
 10
4.563666077
 20
3.3334875214
 30
0.0
 10
4.577620094
 20
3.2987264159
 30
0.0
 10
4.5954974002
 20
3.2648980615
 30
0.0
 10
4.6171698916
 20
3.2322194645
 30
0.0
 10
4.6424934465
 20
3.2009033452
 30
0.0
 10
4.6712975098
 20
3.1711496976
 30
0.0
 10
4.7033908956
 20
3.1431475189
 30
0.0
 10
4.7385650088
 20
3.1170782197
 30
0.0
 10
4.7765877593
 20
3.093104884
 30
0.0
 10
4.8172135299
 20
3.0713840133
 30
0.0
 10
4.8601771686
 20
3.0520530559
 30
0.0
 10
4.9051996723
 20
3.0352359618
 30
0.0
 10
4.9519893223
 20
3.0210430863
 30
0.0
 10
5.0002412943
 20
3.009562477
 30
0.0
 10
5.0496432484
 20
3.0008717439
 30
0.0
 10
5.0998729482
 20
2.995024467
 30
0.0
 10
5.1506073742
 20
2.9920592506
 30
0.0
 10
5.2183675563
 20
2.9919748383
 30
0.0
 10
5.2858262616
 20
2.9976636953
 30
0.0
 10
5.351959543
 20
3.0091221811
 30
0.0
 10
5.4002737281
 20
3.0204814039
 30
0.0
 10
5.4471312905
 20
3.034559861
 30
0.0
 10
5.4774930864
 20
3.0458017451
 30
0.0
 10
5.4923363041
 20
3.0518614634
 30
0.0
  0
SPLINE
  5
3D2
100
AcDbEntity
  8
ALL_ASSEMBLY_MEMBERS
100
AcDbSpline
 62
7
  6
CONTINUOUS
 70
0
 71
3
 72
32
 73
28
 74
0
 42
0.0000001
 43
0.0000001
 44
0.0000000001
 40
0.0
 40
0.0
 40
0.0
 40
0.0
 40
0.0328537322
 40
0.0661641139
 40
0.0998614679
 40
0.1338905278
 40
0.1681977462
 40
0.2027218754
 40
0.2721411961
 40
0.3416372231
 40
0.4106808551
 40
0.47875961
 40
0.5453996107
 40
0.6101865617
 40
0.6727880765
 40
0.7032058035
 40
0.7330023425
 40
0.7621691121
 40
0.7907079538
 40
0.8186296047
 40
0.8459564593
 40
0.8727207479
 40
0.8989665016
 40
0.924747967
 40
0.9501299976
 40
0.9751866705
 40
1.0
 40
1.0
 40
1.0
 40
1.0
 10
5.4938178359
 20
3.0255635209
 30
0.0
 10
5.4821425096
 20
3.0209115601
 30
0.0
 10
5.4583908
 20
3.0121312999
 30
0.0
 10
5.4219494285
 20
3.0006241287
 30
0.0
 10
5.3845704815
 20
2.9907340701
 30
0.0
 10
5.3464036816
 20
2.9824965006
 30
0.0
 10
5.3075904347
 20
2.9759442128
 30
0.0
 10
5.2550865569
 20
2.9694727815
 30
0.0
 10
5.1887506538
 20
2.9657327978
 30
0.0
 10
5.1091369136
 20
2.9681978812
 30
0.0
 10
5.0305492025
 20
2.9775696164
 30
0.0
 10
4.9541807283
 20
2.9937083153
 30
0.0
 10
4.8811830992
 20
3.0163744396
 30
0.0
 10
4.8126660583
 20
3.0452285119
 30
0.0
 10
4.7596451588
 20
3.0743617413
 30
0.0
 10
4.7205150242
 20
3.1004051427
 30
0.0
 10
4.6931866074
 20
3.1209888472
 30
0.0
 10
4.6677092121
 20
3.1427328467
 30
0.0
 10
4.6441764392
 20
3.1655514041
 30
0.0
 10
4.6226828225
 20
3.1893621626
 30
0.0
 10
4.6033078402
 20
3.2140715173
 30
0.0
 10
4.5861299858
 20
3.2395885732
 30
0.0
 10
4.5712143047
 20
3.2658145902
 30
0.0
 10
4.5586207632
 20
3.2926501867
 30
0.0
 10
4.5483999722
 20
3.319993204
 30
0.0
 10
4.5405913769
 20
3.3477348398
 30
0.0
 10
4.5370032813
 20
3.366500237
 30
0.0
 10
4.5356271182
 20
3.3758921226
 30
0.0
  0
SPLINE
  5
3D3
100
AcDbEntity
  8
ALL_ASSEMBLY_MEMBERS
100
AcDbSpline
 62
9
  6
CONTINUOUS
 70
0
 71
3
 72
28
 73
24
 74
0
 42
0.0000001
 43
0.0000001
 44
0.0000000001
 40
0.0
 40
0.0
 40
0.0
 40
0.0
 40
0.0248650503
 40
0.049835839
 40
0.0750151667
 40
0.1004994942
 40
0.1263772037
 40
0.1527255366
 40
0.2070443919
 40
0.2351484958
 40
0.2639085863
 40
0.3234118207
 40
0.3855628009
 40
0.4501683408
 40
0.5168978559
 40
0.5853126868
 40
0.6548946671
 40
0.7250729581
 40
0.7952519098
 40
0.8648327015
 40
0.933250022
 40
0.9668741979
 40
1.0
 40
1.0
 40
1.0
 40
1.0
 10
4.6911743301
 20
3.5918975313
 30
0.0
 10
4.6911745217
 20
3.5843974896
 30
0.0
 10
4.6918716336
 20
3.5693562751
 30
0.0
 10
4.695004342
 20
3.546916809
 30
0.0
 10
4.7002091047
 20
3.5246725269
 30
0.0
 10
4.7074611664
 20
3.5027228688
 30
0.0
 10
4.7167305435
 20
3.4811614092
 30
0.0
 10
4.7318649544
 20
3.4527770069
 30
0.0
 10
4.7508126276
 20
3.4258003907
 30
0.0
 10
4.7729956165
 20
3.4006226421
 30
0.0
 10
4.7980174316
 20
3.3759687631
 30
0.0
 10
4.833527454
 20
3.3475079309
 30
0.0
 10
4.8814536145
 20
3.3179518455
 30
0.0
 10
4.9343758929
 20
3.2930737613
 30
0.0
 10
4.9913948735
 20
3.2732853836
 30
0.0
 10
5.0515504327
 20
3.2589112601
 30
0.0
 10
5.1138272234
 20
3.2501901844
 30
0.0
 10
5.1771738184
 20
3.2472665457
 30
0.0
 10
5.2405210527
 20
3.250190316
 30
0.0
 10
5.3027955022
 20
3.2589103611
 30
0.0
 10
5.3532329619
 20
3.2709619927
 30
0.0
 10
5.3920761143
 20
3.2833945148
 30
0.0
 10
5.4109233676
 20
3.2905080089
 30
0.0
 10
5.420173913
 20
3.2942845283
 30
0.0
  0
SPLINE
  5
3D4
100
AcDbEntity
  8
ALL_ASSEMBLY_MEMBERS
100
AcDbSpline
 62
9
  6
CONTINUOUS
 70
0
 71
3
 72
11
 73
7
 74
0
 42
0.0000001
 43
0.0000001
 44
0.0000000001
 40
0.0
 40
0.0
 40
0.0
 40
0.0
 40
0.2482912375
 40
0.4972738493
 40
0.7476262637
 40
1.0
 40
1.0
 40
1.0
 40
1.0
 10
4.605673913
 20
3.5130623262
 30
0.0
 10
4.605673913
 20
3.5059361293
 30
0.0
 10
4.6062091731
 20
3.4916582395
 30
0.0
 10
4.6086115333
 20
3.4703163636
 30
0.0
 10
4.6126088493
 20
3.4490959427
 30
0.0
 10
4.6163110489
 20
3.4351349697
 30
0.0
 10
4.6184160567
 20
3.4282042172
 30
0.0
  0
SPLINE
  5
3D5
100
AcDbEntity
  8
ALL_ASSEMBLY_MEMBERS
100
AcDbSpline
 62
9
  6
CONTINUOUS
 70
0
 71
3
 72
25
 73
21
 74
0
 42
0.0000001
 43
0.0000001
 44
0.0000000001
 40
0.0
 40
0.0
 40
0.0
 40
0.0
 40
0.0249904489
 40
0.0503362504
 40
0.0760980906
 40
0.1023280604
 40
0.1563250779
 40
0.2125951907
 40
0.2712270476
 40
0.3321763932
 40
0.3952828906
 40
0.4602887489
 40
0.5268575181
 40
0.5945923711
 40
0.6630537012
 40
0.7317761774
 40
0.8002853085
 40
0.8681142184
 40
0.9348195942
 40
1.0
 40
1.0
 40
1.0
 40
1.0
 10
4.6184160567
 20
3.4282042172
 30
0.0
 10
4.6207837253
 20
3.4204086525
 30
0.0
 10
4.6261858572
 20
3.4048917164
 30
0.0
 10
4.6361459392
 20
3.3821450888
 30
0.0
 10
4.647981608
 20
3.3598553839
 30
0.0
 10
4.6663758685
 20
3.3305745197
 30
0.0
 10
4.6940009314
 20
3.2954971769
 30
0.0
 10
4.7334607495
 20
3.2568985392
 30
0.0
 10
4.7790056762
 20
3.2218733616
 30
0.0
 10
4.8300000193
 20
3.190891042
 30
0.0
 10
4.885744408
 20
3.1643601276
 30
0.0
 10
4.9454755333
 20
3.1426349588
 30
0.0
 10
5.0083767762
 20
3.126006643
 30
0.0
 10
5.073587955
 20
3.1146991627
 30
0.0
 10
5.140216888
 20
3.1088652254
 30
0.0
 10
5.2073518069
 20
3.1085838786
 30
0.0
 10
5.2740732382
 20
3.1138586486
 30
0.0
 10
5.3394699155
 20
3.1246190666
 30
0.0
 10
5.4026398557
 20
3.1407165788
 30
0.0
 10
5.4432506053
 20
3.1550598849
 30
0.0
 10
5.462923913
 20
3.1630914792
 30
0.0
  0
SPLINE
  5
3D6
100
AcDbEntity
  8
ALL_ASSEMBLY_MEMBERS
100
AcDbSpline
 62
9
  6
CONTINUOUS
 70
0
 71
3
 72
22
 73
18
 74
0
 42
0.0000001
 43
0.0000001
 44
0.0000000001
 40
0.0
 40
0.0
 40
0.0
 40
0.0
 40
0.0624218766
 40
0.1239733172
 40
0.1848259607
 40
0.2451675241
 40
0.3051972551
 40
0.3651224194
 40
0.4251524388
 40
0.4854944773
 40
0.5463478286
 40
0.6079004169
 40
0.6703231616
 40
0.733769646
 40
0.7983702264
 40
0.864234712
 40
1.0
 40
1.0
 40
1.0
 40
1.0
 10
4.6080550201
 20
3.5896417384
 30
0.0
 10
4.6042945025
 20
3.581764041
 30
0.0
 10
4.5974121056
 20
3.5658298593
 30
0.0
 10
4.5890439058
 20
3.5413479655
 30
0.0
 10
4.5827415369
 20
3.5165523222
 30
0.0
 10
4.5785253356
 20
3.4915334485
 30
0.0
 10
4.5764160319
 20
3.4663792377
 30
0.0
 10
4.5764161055
 20
3.4411802067
 30
0.0
 10
4.5785303214
 20
3.4160262886
 30
0.0
 10
4.58274748
 20
3.3910073487
 30
0.0
 10
4.5890530434
 20
3.366212422
 30
0.0
 10
4.5974245139
 20
3.3417300802
 30
0.0
 10
4.6078283754
 20
3.3176453914
 30
0.0
 10
4.6202303377
 20
3.2940454286
 30
0.0
 10
4.6345826019
 20
3.2710084873
 30
0.0
 10
4.6564665154
 20
3.2408613556
 30
0.0
 10
4.6753559824
 20
3.2197840626
 30
0.0
 10
4.6888682396
 20
3.2064469527
 30
0.0
  0
SPLINE
  5
3D7
100
AcDbEntity
  8
ALL_ASSEMBLY_MEMBERS
100
AcDbSpline
 62
9
  6
CONTINUOUS
 70
0
 71
3
 72
23
 73
19
 74
0
 42
0.0000001
 43
0.0000001
 44
0.0000000001
 40
0.0
 40
0.0
 40
0.0
 40
0.0
 40
0.0547456797
 40
0.1112630142
 40
0.1695138599
 40
0.229408036
 40
0.2908088931
 40
0.3535400009
 40
0.4173929183
 40
0.4821326715
 40
0.5475042332
 40
0.613239079
 40
0.6790605105
 40
0.7446913701
 40
0.8098555788
 40
0.8742869676
 40
0.9377547283
 40
1.0
 40
1.0
 40
1.0
 40
1.0
 10
4.6888682396
 20
3.2064469527
 30
0.0
 10
4.6997732306
 20
3.1956833134
 30
0.0
 10
4.723027722
 20
3.1748895661
 30
0.0
 10
4.761170885
 20
3.146578482
 30
0.0
 10
4.8028163209
 20
3.1208689981
 30
0.0
 10
4.8476095999
 20
3.097978741
 30
0.0
 10
4.8951751558
 20
3.0780966646
 30
0.0
 10
4.9451119454
 20
3.0613862375
 30
0.0
 10
4.9970006168
 20
3.0479870667
 30
0.0
 10
5.0504050614
 20
3.0380119506
 30
0.0
 10
5.1048757789
 20
3.0315423291
 30
0.0
 10
5.15995469
 20
3.0286327442
 30
0.0
 10
5.2151786629
 20
3.0293086636
 30
0.0
 10
5.27008283
 20
3.0335633683
 30
0.0
 10
5.3242043794
 20
3.0413606034
 30
0.0
 10
5.3770928319
 20
3.0526369443
 30
0.0
 10
5.4282940287
 20
3.0672985139
 30
0.0
 10
5.4613801787
 20
3.0793765691
 30
0.0
 10
5.4775092299
 20
3.0859612266
 30
0.0
  0
SPLINE
  5
3D8
100
AcDbEntity
  8
ALL_ASSEMBLY_MEMBERS
100
AcDbSpline
 62
40
  6
CONTINUOUS
 70
0
 71
3
 72
107
 73
103
 74
0
 42
0.0000001
 43
0.0000001
 44
0.0000000001
 40
0.0
 40
0.0
 40
0.0
 40
0.0
 40
0.0625
 40
0.09375
 40
0.109375
 40
0.125
 40
0.140625
 40
0.1484375
 40
0.15625
 40
0.16015625
 40
0.1640625
 40
0.166015625
 40
0.1669921875
 40
0.16796875
 40
0.169921875
 40
0.171875
 40
0.1796875
 40
0.1875
 40
0.1953125
 40
0.203125
 40
0.21875
 40
0.25
 40
0.28125
 40
0.296875
 40
0.3046875
 40
0.3125
 40
0.3203125
 40
0.328125
 40
0.330078125
 40
0.33203125
 40
0.3330078125
 40
0.333984375
 40
0.3359375
 40
0.33984375
 40
0.34375
 40
0.3515625
 40
0.359375
 40
0.375
 40
0.390625
 40
0.40625
 40
0.421875
 40
0.4375
 40
0.453125
 40
0.46875
 40
0.4765625
 40
0.484375
 40
0.4921875
 40
0.49609375
 40
0.498046875
 40
0.5
 40
0.501953125
 40
0.50390625
 40
0.5078125
 40
0.515625
 40
0.5234375
 40
0.53125
 40
0.546875
 40
0.5625
 40
0.578125
 40
0.59375
 40
0.609375
 40
0.625
 40
0.640625
 40
0.6484375
 40
0.65234375
 40
0.65625
 40
0.66015625
 40
0.6640625
 40
0.6650390625
 40
0.666015625
 40
0.6665039062
 40
0.6669921875
 40
0.66796875
 40
0.669921875
 40
0.671875
 40
0.67578125
 40
0.6796875
 40
0.6875
 40
0.6953125
 40
0.703125
 40
0.71875
 40
0.734375
 40
0.75
 40
0.78125
 40
0.796875
 40
0.8046875
 40
0.8125
 40
0.8203125
 40
0.828125
 40
0.830078125
 40
0.83203125
 40
0.833984375
 40
0.8359375
 40
0.83984375
 40
0.84375
 40
0.8515625
 40
0.859375
 40
0.875
 40
0.890625
 40
0.90625
 40
0.9375
 40
1.0
 40
1.0
 40
1.0
 40
1.0
 10
4.9355869592
 20
3.8988414314
 30
0.0
 10
4.937038095
 20
3.8975555027
 30
0.0
 10
4.9392147987
 20
3.8956266102
 30
0.0
 10
4.9417542865
 20
3.893376234
 30
0.0
 10
4.9432054221
 20
3.892090307
 30
0.0
 10
4.9442937747
 20
3.8911258553
 30
0.0
 10
4.9452007322
 20
3.8903221663
 30
0.0
 10
4.9459263051
 20
3.8896791684
 30
0.0
 10
4.9463797722
 20
3.8892774011
 30
0.0
 10
4.9467425826
 20
3.8889557437
 30
0.0
 10
4.9469692552
 20
3.8887552636
 30
0.0
 10
4.9471280941
 20
3.8886138136
 30
0.0
 10
4.9472185963
 20
3.8885347278
 30
0.0
 10
4.9473081083
 20
3.888462206
 30
0.0
 10
4.9474203368
 20
3.8883693101
 30
0.0
 10
4.9476894065
 20
3.8881482066
 30
0.0
 10
4.9480931282
 20
3.8878157757
 30
0.0
 10
4.9486313568
 20
3.8873729778
 30
0.0
 10
4.9491696033
 20
3.8869300614
 30
0.0
 10
4.9498872591
 20
3.8863395475
 30
0.0
 10
4.9511431596
 20
3.8853061287
 30
0.0
 10
4.9529373015
 20
3.8838298274
 30
0.0
 10
4.9547314447
 20
3.8823535185
 30
0.0
 10
4.9559873435
 20
3.8813201102
 30
0.0
 10
4.956705002
 20
3.8807295799
 30
0.0
 10
4.9572432404
 20
3.8802867138
 30
0.0
 10
4.9577814995
 20
3.8798437268
 30
0.0
 10
4.9581851357
 20
3.8795118256
 30
0.0
 10
4.9584543169
 20
3.8792900308
 30
0.0
 10
4.9585663412
 20
3.8791984009
 30
0.0
 10
4.9586562745
 20
3.8791232667
 30
0.0
 10
4.95874506
 20
3.8790548261
 30
0.0
 10
4.9588999014
 20
3.8789381651
 30
0.0
 10
4.9591213817
 20
3.8787698839
 30
0.0
 10
4.9594755946
 20
3.8785015408
 30
0.0
 10
4.9599184139
 20
3.8781658013
 30
0.0
 10
4.9606268951
 20
3.8776287918
 30
0.0
 10
4.9615125069
 20
3.8769574703
 30
0.0
 10
4.9625752366
 20
3.8761519101
 30
0.0
 10
4.9636379673
 20
3.8753463429
 30
0.0
 10
4.9647006983
 20
3.8745407778
 30
0.0
 10
4.9657634273
 20
3.8737352115
 30
0.0
 10
4.966826164
 20
3.872929648
 30
0.0
 10
4.9677117541
 20
3.8722583367
 30
0.0
 10
4.9684202794
 20
3.8717213064
 30
0.0
 10
4.9689515278
 20
3.8713184823
 30
0.0
 10
4.9693946981
 20
3.8709829592
 30
0.0
 10
4.969704008
 20
3.8707477718
 30
0.0
 10
4.9698821764
 20
3.8706138805
 30
0.0
 10
4.9700118029
 20
3.8705120495
 30
0.0
 10
4.9701567187
 20
3.8704156176
 30
0.0
 10
4.9703446067
 20
3.8702851585
 30
0.0
 10
4.9706758955
 20
3.8700577324
 30
0.0
 10
4.9711478662
 20
3.8697323793
 30
0.0
 10
4.9717147871
 20
3.8693421519
 30
0.0
 10
4.9724704873
 20
3.8688217802
 30
0.0
 10
4.9734151792
 20
3.868171339
 30
0.0
 10
4.974548781
 20
3.8673907995
 30
0.0
 10
4.9756823904
 20
3.8666102627
 30
0.0
 10
4.9768159977
 20
3.8658297252
 30
0.0
 10
4.9779496058
 20
3.8650491877
 30
0.0
 10
4.9790832129
 20
3.8642686512
 30
0.0
 10
4.980027888
 20
3.8636182007
 30
0.0
 10
4.9806891558
 20
3.863162892
 30
0.0
 10
4.9810670305
 20
3.8629027053
 30
0.0
 10
4.9813504157
 20
3.8627075942
 30
0.0
 10
4.9816338805
 20
3.8625123727
 30
0.0
 10
4.9818462561
 20
3.8623662661
 30
0.0
 10
4.9819881866
 20
3.8622683803
 30
0.0
 10
4.9820468083
 20
3.8622283108
 30
0.0
 10
4.9820949093
 20
3.8621945843
 30
0.0
 10
4.982138609
 20
3.8621669686
 30
0.0
 10
4.9822130385
 20
3.8621214802
 30
0.0
 10
4.9823204334
 20
3.8620550155
 30
0.0
 10
4.9824916689
 20
3.8619494998
 30
0.0
 10
4.9827059175
 20
3.8618173217
 30
0.0
 10
4.9830486012
 20
3.8616059953
 30
0.0
 10
4.9834769949
 20
3.8613417828
 30
0.0
 10
4.9839910505
 20
3.8610247511
 30
0.0
 10
4.984676464
 20
3.8606020341
 30
0.0
 10
4.9855332287
 20
3.8600736405
 30
0.0
 10
4.9865613474
 20
3.8594395672
 30
0.0
 10
4.9879321716
 20
3.8585941362
 30
0.0
 10
4.9893029976
 20
3.8577487063
 30
0.0
 10
4.9905024662
 20
3.8570089521
 30
0.0
 10
4.9911878831
 20
3.8565862401
 30
0.0
 10
4.991701928
 20
3.8562691931
 30
0.0
 10
4.9922160409
 20
3.8559521956
 30
0.0
 10
4.9926014349
 20
3.8557143086
 30
0.0
 10
4.9928586608
 20
3.8555559333
 30
0.0
 10
4.9929867442
 20
3.8554763599
 30
0.0
 10
4.9931168865
 20
3.8553982864
 30
0.0
 10
4.9933002061
 20
3.8553013259
 30
0.0
 10
4.9935260013
 20
3.8551776814
 30
0.0
 10
4.9938891482
 20
3.8549812158
 30
0.0
 10
4.99434244
 20
3.8547351663
 30
0.0
 10
4.9950680656
 20
3.8543417485
 30
0.0
 10
4.9959749745
 20
3.8538498864
 30
0.0
 10
4.9970633179
 20
3.8532596904
 30
0.0
 10
4.998514424
 20
3.852472749
 30
0.0
 10
5.0010538683
 20
3.8510956077
 30
0.0
 10
5.003230532
 20
3.8499151988
 30
0.0
 10
5.0046816417
 20
3.84912826
 30
0.0
  0
ELLIPSE
  5
3D9
100
AcDbEntity
  8
ALL_ASSEMBLY_MEMBERS
100
AcDbEllipse
 62
7
  6
CONTINUOUS
 10
5.177173913
 20
3.9758823249
 30
0.0
 11
0.1356890165
 21
0.0483587457
 31
0.0
 40
0.084133201
 41
4.9269927592
 42
5.4850315861
  0
ENDSEC
  0
SECTION
  2
OBJECTS
  0
DICTIONARY
  5
C
100
AcDbDictionary
280
0
281
1
  3
ACAD_GROUP
350
D
  3
ACAD_MLINESTYLE
350
17
  3
ACAD_LAYOUT
350
1A
  3
ACAD_PLOTSETTINGS
350
19
  3
ACAD_PLOTSTYLENAME
350
E
  0
DICTIONARY
  5
D
102
{ACAD_REACTORS
330
C
102
}
100
AcDbDictionary
280
0
281
1
  0
ACDBDICTIONARYWDFLT
  5
E
102
{ACAD_REACTORS
330
C
102
}
100
AcDbDictionary
281
1
  3
Normal
350
F
100
AcDbDictionaryWithDefault
340
F
  0
DICTIONARY
  5
17
102
{ACAD_REACTORS
330
C
102
}
100
AcDbDictionary
280
0
281
1
  3
Standard
350
18
  0
DICTIONARY
  5
19
102
{ACAD_REACTORS
330
C
102
}
100
AcDbDictionary
281
1
  0
DICTIONARY
  5
1A
102
{ACAD_REACTORS
330
C
102
}
100
AcDbDictionary
281
1
  3
Model
350
3DA
  3
Layout1
350
3DB
  0
ACDBPLACEHOLDER
  5
F
102
{ACAD_REACTORS
330
E
102
}
  0
MLINESTYLE
  5
18
102
{ACAD_REACTORS
330
17
102
}
100
AcDbMlineStyle
  2
STANDARD
 70
0
  3

 62
256
 51
90.0
 52
90.0
 71
2
 49
0.5
 62
256
  6
BYLAYER
 49
-0.5
 62
256
  6
BYLAYER
  0
LAYOUT
  5
3DA
102
{ACAD_REACTORS
330
1A
102
}
100
AcDbPlotSettings
  1

  2
none_device
  4
ANSI_A_(11.00_x_8.50_Inches)
  6

 40
0.0
 41
0.0
 42
0.0
 43
0.0
 44
279.4
 45
215.9
 46
0.0
 47
0.0
 48
0.0
 49
0.0
140
0.0
141
0.0
142
1.0
143
1.0
 70
1024
 72
0
 73
0
 74
0
  7

 75
0
147
1.0
148
0.0
149
0.0
100
AcDbLayout
  1
Model
 70
0
 71
0
 10
0.0
 20
0.0
 11
11.0
 21
8.5
 12
0.0
 22
0.0
 32
0.0
 14
0.0
 24
0.0
 34
0.0
 15
0.0
 25
0.0
 35
0.0
146
0.0
 13
0.0
 23
0.0
 33
0.0
 16
1.0
 26
0.0
 36
0.0
 17
0.0
 27
1.0
 37
0.0
 76
0
330
258
345
0
346
0
  0
LAYOUT
  5
3DB
102
{ACAD_REACTORS
330
1A
102
}
100
AcDbPlotSettings
  1

  2
none_device
  4
ANSI_A_(11.00_x_8.50_Inches)
  6

 40
0.0
 41
0.0
 42
0.0
 43
0.0
 44
279.4
 45
215.9
 46
0.0
 47
0.0
 48
0.0
 49
0.0
140
0.0
141
0.0
142
1.0
143
1.0
 70
0
 72
0
 73
0
 74
0
  7

 75
0
147
1.0
148
0.0
149
0.0
100
AcDbLayout
  1
Layout1
 70
0
 71
1
 10
0.0
 20
0.0
 11
11.0
 21
8.5
 12
0.0
 22
0.0
 32
0.0
 14
0.0
 24
0.0
 34
0.0
 15
0.0
 25
0.0
 35
0.0
146
0.0
 13
0.0
 23
0.0
 33
0.0
 16
1.0
 26
0.0
 36
0.0
 17
0.0
 27
1.0
 37
0.0
 76
0
330
259
345
0
346
0
  0
ENDSEC
  0
EOF
