  0
SECTION
  2
HEADER
  9
$ACADVER
  1
AC1015
  9
$DWGCODEPAGE
  3
ANSI_1252
  9
$EXTMAX
 10
11.6929133858
 20
8.2677165354
 30
0.0
  9
$EXTMIN
 10
0.0
 20
0.0
 30
0.0
  9
$LIMMIN
 10
0.0
 20
0.0
  9
$LIMMAX
 10
11.6929133858
 20
8.2677165354
  9
$VIEWCTR
 10
5.8464566929
 20
4.1338582677
  9
$VIEWSIZE
 40
8.2677165354
  9
$CLAYER
  8
0
  9
$LTSCALE
 40
0.6431102362
  9
$CELTYPE
  6
BYLAYER
  9
$DIMSCALE
 40
1.0
  9
$DIMASZ
 40
0.1875
  9
$DIMEXO
 40
0.0730807087
  9
$DIMDLI
 40
0.4443307087
  9
$DIMEXE
 40
0.2104724409
  9
$DIMCEN
 40
0.1052362205
  9
$DIMLFAC
 40
1.0
  9
$DIMBLK
  1
_CLOSED
  9
$DIMTXT
 40
0.15625
  9
$DIMTOL
 70
0
  9
$DIMLIM
 70
0
  9
$DIMTFAC
 40
1.0
  9
$PDMODE
 70
3
  9
$PDSIZE
 40
0.3125
  9
$HANDSEED
  5
333
  9
$TILEMODE
 70
1
  9
$MEASUREMENT
 70
0
  9
$INSUNITS
 70
1
  0
ENDSEC
  0
SECTION
  2
CLASSES
  0
CLASS
  1
ACDBDICTIONARYWDFLT
  2
AcDbDictionaryWithDefault
  3
AutoCAD 2000
 90
0
280
0
281
0
  0
CLASS
  1
ACDBPLACEHOLDER
  2
AcDbPlaceHolder
  3
AutoCAD 2000
 90
0
280
0
281
0
  0
CLASS
  1
LAYOUT
  2
AcDbLayout
  3
AutoCAD 2000
 90
0
280
0
281
0
  0
ENDSEC
  0
SECTION
  2
TABLES
  0
TABLE
  2
VPORT
  5
8
100
AcDbSymbolTable
 70
2
  0
VPORT
  5
1F4
100
AcDbSymbolTableRecord
100
AcDbViewportTableRecord
  2
*ACTIVE
 70
0
 10
0.0
 20
0.0
 11
1.0
 21
1.0
 12
5.8464566929
 22
4.1338582677
 13
0.0
 23
0.0
 14
1.0
 24
1.0
 15
0.0
 25
0.0
 16
0.0
 26
0.0
 36
1.0
 17
0.0
 27
0.0
 37
0.0
 40
8.2677165354
 41
1.4142857143
 42
50.0
 43
0.0
 44
0.0
 50
0.0
 51
0.0
 71
0
 72
100
 73
1
 74
1
 75
0
 76
0
 77
0
 78
0
  0
ENDTAB
  0
TABLE
  2
LTYPE
  5
5
100
AcDbSymbolTable
 70
6
  0
LTYPE
  5
14
100
AcDbSymbolTableRecord
100
AcDbLinetypeTableRecord
  2
BYBLOCK
 70
0
  3

 72
65
 73
0
 40
0.0
  0
LTYPE
  5
15
100
AcDbSymbolTableRecord
100
AcDbLinetypeTableRecord
  2
BYLAYER
 70
0
  3

 72
65
 73
0
 40
0.0
  0
LTYPE
  5
16
100
AcDbSymbolTableRecord
100
AcDbLinetypeTableRecord
  2
CONTINUOUS
 70
64
  3
Solid line
 72
65
 73
0
 40
0.0
  0
LTYPE
  5
1F5
100
AcDbSymbolTableRecord
100
AcDbLinetypeTableRecord
  2
CENTER
 70
64
  3
____ _ ____ _ ____ _ ____ _ ____ _ ____ _ ____
 72
65
 73
4
 40
0.6
 49
0.375
 74
0
 49
-0.075
 74
0
 49
0.075
 74
0
 49
-0.075
 74
0
  0
LTYPE
  5
1F6
100
AcDbSymbolTableRecord
100
AcDbLinetypeTableRecord
  2
HIDDEN
 70
64
  3
- - - - - - - - - - - - - - - - - - - -
 72
65
 73
2
 40
0.2
 49
0.1
 74
0
 49
-0.1
 74
0
  0
LTYPE
  5
1F7
100
AcDbSymbolTableRecord
100
AcDbLinetypeTableRecord
  2
PHANTOM
 70
64
  3
_____ _ _ _____ _ _ _____ _ _ _____
 72
65
 73
6
 40
0.8
 49
0.45
 74
0
 49
-0.05
 74
0
 49
0.1
 74
0
 49
-0.05
 74
0
 49
0.1
 74
0
 49
-0.05
 74
0
  0
LTYPE
  5
1F8
100
AcDbSymbolTableRecord
100
AcDbLinetypeTableRecord
  2
DOT
 70
64
  3
. . . . . . . . . . . . . . . . . . . .
 72
65
 73
2
 40
0.2
 49
0.1
 74
0
 49
-0.1
 74
0
  0
LTYPE
  5
1F9
100
AcDbSymbolTableRecord
100
AcDbLinetypeTableRecord
  2
DASHED
 70
64
  3
- - - - - - - - - - - - - - - - - - - -
 72
65
 73
2
 40
0.2
 49
0.1
 74
0
 49
-0.1
 74
0
  0
ENDTAB
  0
TABLE
  2
LAYER
  5
2
100
AcDbSymbolTable
 70
36
  0
LAYER
  5
10
100
AcDbSymbolTableRecord
100
AcDbLayerTableRecord
  2
0
 70
0
 62
7
  6
CONTINUOUS
370
-3
390
F
  0
LAYER
  5
1FA
100
AcDbSymbolTableRecord
100
AcDbLayerTableRecord
  2
DEFAULT_1
 70
0
 62
7
  6
CENTER
370
-3
390
F
  0
LAYER
  5
1FB
100
AcDbSymbolTableRecord
100
AcDbLayerTableRecord
  2
DEFAULT_2
 70
0
 62
8
  6
HIDDEN
370
-3
390
F
  0
LAYER
  5
1FC
100
AcDbSymbolTableRecord
100
AcDbLayerTableRecord
  2
DEFAULT_3
 70
0
 62
7
  6
PHANTOM
370
-3
390
F
  0
LAYER
  5
1FD
100
AcDbSymbolTableRecord
100
AcDbLayerTableRecord
  2
DEFAULT_COORDINATE_SYSTEM
 70
0
 62
7
  6
CONTINUOUS
370
-3
390
F
  0
LAYER
  5
1FE
100
AcDbSymbolTableRecord
100
AcDbLayerTableRecord
  2
DEFAULT_DATUM_AXES
 70
0
 62
7
  6
CONTINUOUS
370
-3
390
F
  0
LAYER
  5
1FF
100
AcDbSymbolTableRecord
100
AcDbLayerTableRecord
  2
DEFAULT_DATUM_CURVES
 70
0
 62
7
  6
CONTINUOUS
370
-3
390
F
  0
LAYER
  5
200
100
AcDbSymbolTableRecord
100
AcDbLayerTableRecord
  2
DEFAULT_DATUM_PLANES
 70
0
 62
7
  6
CONTINUOUS
370
-3
390
F
  0
ENDTAB
  0
TABLE
  2
STYLE
  5
3
100
AcDbSymbolTable
 70
1
  0
STYLE
  5
11
100
AcDbSymbolTableRecord
100
AcDbTextStyleTableRecord
  2
STANDARD
 70
0
 40
0.0
 41
0.8
 50
0.0
 71
0
 42
0.2
  3
txt
  4

  0
STYLE
  5
201
100
AcDbSymbolTableRecord
100
AcDbTextStyleTableRecord
  2
TEXTSTYLE_1
 70
0
 40
0.0
 41
0.8
 50
0.0
 71
0
 42
0.2
  3
gdt
  4

  0
ENDTAB
  0
TABLE
  2
VIEW
  5
6
100
AcDbSymbolTable
 70
0
  0
ENDTAB
  0
TABLE
  2
UCS
  5
7
100
AcDbSymbolTable
 70
0
  0
ENDTAB
  0
TABLE
  2
APPID
  5
9
100
AcDbSymbolTable
 70
1
  0
APPID
  5
202
100
AcDbSymbolTableRecord
100
AcDbRegAppTableRecord
  2
ACAD
 70
0
  0
ENDTAB
  0
TABLE
  2
BLOCK_RECORD
  5
1
100
AcDbSymbolTable
 70
0
  0
BLOCK_RECORD
  5
203
100
AcDbSymbolTableRecord
100
AcDbBlockTableRecord
  2
*Model_Space
  0
BLOCK_RECORD
  5
204
100
AcDbSymbolTableRecord
100
AcDbBlockTableRecord
  2
*Paper_Space
  0
ENDTAB
  0
TABLE
  2
DIMSTYLE
  5
A
100
AcDbSymbolTable
 70
1
100
AcDbDimStyleTable
 71
0
  0
DIMSTYLE
105
205
100
AcDbSymbolTableRecord
100
AcDbDimStyleTableRecord
  2
STANDARD
 70
0
  3

  4

 40
1.0
 41
0.1875
 42
0.0625
 43
0.38
 44
0.18
 45
0.0
 46
0.0
 47
0.01
 48
0.01
140
0.15625
141
0.09
142
0.0
143
25.4
144
1.0
145
0.0
146
1.0
147
0.09
 71
0.0
 72
0.0
 73
1
 74
1
 75
0
 76
0
 77
0
 78
4
170
0
171
2
172
0
173
0
174
0
175
0
176
0
177
0
178
0
270
2
271
2
272
2
273
2
274
2
275
0
280
0
281
0
282
0
283
1
284
4
285
0
286
0
287
3
288
0
340
11
  0
ENDTAB
  0
ENDSEC
  0
SECTION
  2
BLOCKS
  0
BLOCK
  5
20
100
AcDbEntity
  8
0
100
AcDbBlockBegin
  2
*Model_Space
 70
0
 10
0.0
 20
0.0
 30
0.0
  3
*Model_Space
  1

  0
ENDBLK
  5
21
100
AcDbEntity
  8
0
100
AcDbBlockEnd
  0
BLOCK
  5
1C
100
AcDbEntity
  8
0
100
AcDbBlockBegin
  2
*Paper_Space
 70
0
 10
0.0
 20
0.0
 30
0.0
  3
*Paper_Space
  1

  0
ENDBLK
  5
1D
100
AcDbEntity
  8
0
100
AcDbBlockEnd
  0
ENDSEC
  0
SECTION
  2
ENTITIES
  0
LINE
  5
206
100
AcDbEntity
  8
0
100
AcDbLine
 62
6
  6
CONTINUOUS
 10
2.31065877
 20
6.0791342146
 11
2.31065877
 21
5.9281342146
  0
LINE
  5
207
100
AcDbEntity
  8
0
100
AcDbLine
 62
6
  6
CONTINUOUS
 10
5.17465877
 20
2.1498409075
 11
5.19465877
 21
2.1298409075
  0
LINE
  5
208
100
AcDbEntity
  8
0
100
AcDbLine
 62
6
  6
CONTINUOUS
 10
5.19465877
 20
2.1298409075
 11
5.65465877
 21
2.1298409075
  0
LINE
  5
209
100
AcDbEntity
  8
0
100
AcDbLine
 62
6
  6
CONTINUOUS
 10
6.46665877
 20
2.1298409075
 11
6.92665877
 21
2.1298409075
  0
LINE
  5
20A
100
AcDbEntity
  8
0
100
AcDbLine
 62
6
  6
CONTINUOUS
 10
5.19465877
 20
2.7858409075
 11
5.65465877
 21
2.7858409075
  0
LINE
  5
20B
100
AcDbEntity
  8
0
100
AcDbLine
 62
6
  6
CONTINUOUS
 10
6.46665877
 20
2.7858409075
 11
6.92665877
 21
2.7858409075
  0
LINE
  5
20C
100
AcDbEntity
  8
0
100
AcDbLine
 62
6
  6
CONTINUOUS
 10
5.07565877
 20
5.2675416949
 11
5.07565877
 21
5.5228339064
  0
LINE
  5
20D
100
AcDbEntity
  8
0
100
AcDbLine
 62
6
  6
CONTINUOUS
 10
5.09065877
 20
3.8108409075
 11
5.09065877
 21
4.8738409075
  0
LINE
  5
20E
100
AcDbEntity
  8
0
100
AcDbLine
 62
6
  6
CONTINUOUS
 10
5.09115877
 20
5.1691164981
 11
5.09115877
 21
4.9919511438
  0
LINE
  5
20F
100
AcDbEntity
  8
0
100
AcDbLine
 62
7
  6
CONTINUOUS
 10
5.0914965681
 20
5.1691164981
 11
5.0914965681
 21
4.9919511438
  0
LINE
  5
210
100
AcDbEntity
  8
0
100
AcDbLine
 62
6
  6
CONTINUOUS
 10
5.0960918409
 20
5.2675416949
 11
5.0960918409
 21
4.8738409075
  0
LINE
  5
211
100
AcDbEntity
  8
0
100
AcDbLine
 62
6
  6
CONTINUOUS
 10
5.1206703718
 20
5.0466713635
 11
5.1206703718
 21
5.0357273206
  0
LINE
  5
212
100
AcDbEntity
  8
0
100
AcDbLine
 62
7
  6
CONTINUOUS
 10
5.1212799843
 20
5.1196316548
 11
5.1212799843
 21
5.1086876118
  0
LINE
  5
213
100
AcDbEntity
  8
0
100
AcDbLine
 62
7
  6
CONTINUOUS
 10
5.1455391264
 20
5.1196316548
 11
5.1455391264
 21
5.1086876118
  0
LINE
  5
214
100
AcDbEntity
  8
0
100
AcDbLine
 62
7
  6
CONTINUOUS
 10
5.1463559898
 20
5.0466713635
 11
5.1463559898
 21
5.0357273206
  0
LINE
  5
215
100
AcDbEntity
  8
0
100
AcDbLine
 62
7
  6
CONTINUOUS
 10
5.1531028834
 20
5.1634078367
 11
5.1531028834
 21
5.0685594545
  0
LINE
  5
216
100
AcDbEntity
  8
0
100
AcDbLine
 62
7
  6
CONTINUOUS
 10
5.1575110807
 20
5.1451677651
 11
5.1575110807
 21
5.086799526
  0
LINE
  5
217
100
AcDbEntity
  8
0
100
AcDbLine
 62
6
  6
CONTINUOUS
 10
5.17465877
 20
2.1498409075
 11
5.17465877
 21
2.7658409075
  0
LINE
  5
218
100
AcDbEntity
  8
0
100
AcDbLine
 62
7
  6
CONTINUOUS
 10
5.1828135641
 20
5.0503193778
 11
5.1828135641
 21
5.0430233492
  0
LINE
  5
219
100
AcDbEntity
  8
0
100
AcDbLine
 62
6
  6
CONTINUOUS
 10
5.1859911908
 20
5.1634078367
 11
5.1859911908
 21
5.1451677651
  0
LINE
  5
21A
100
AcDbEntity
  8
0
100
AcDbLine
 62
7
  6
CONTINUOUS
 10
5.1881394576
 20
5.0539673921
 11
5.1881394576
 21
5.0393753349
  0
LINE
  5
21B
100
AcDbEntity
  8
0
100
AcDbLine
 62
7
  6
CONTINUOUS
 10
5.1906487331
 20
5.1634078367
 11
5.1906487331
 21
5.1451677651
  0
LINE
  5
21C
100
AcDbEntity
  8
0
100
AcDbLine
 62
6
  6
CONTINUOUS
 10
5.19465877
 20
2.1298409075
 11
5.19465877
 21
2.7858409075
  0
LINE
  5
21D
100
AcDbEntity
  8
0
100
AcDbLine
 62
7
  6
CONTINUOUS
 10
6.0108779328
 20
5.1597598224
 11
5.9971256746
 21
5.1488157795
  0
LINE
  5
21E
100
AcDbEntity
  8
0
100
AcDbLine
 62
7
  6
CONTINUOUS
 10
6.1318977845
 20
5.1597598224
 11
6.1181455184
 21
5.1488157795
  0
LINE
  5
21F
100
AcDbEntity
  8
0
100
AcDbLine
 62
6
  6
CONTINUOUS
 10
5.25315877
 20
3.8108409075
 11
5.25315877
 21
3.4988409075
  0
LINE
  5
220
100
AcDbEntity
  8
0
100
AcDbLine
 62
6
  6
CONTINUOUS
 10
5.4838076157
 20
5.1691164981
 11
5.4838076157
 21
4.9919511438
  0
LINE
  5
221
100
AcDbEntity
  8
0
100
AcDbLine
 62
7
  6
CONTINUOUS
 10
5.5257327203
 20
5.1691164981
 11
5.5257327203
 21
4.9919511438
  0
LINE
  5
222
100
AcDbEntity
  8
0
100
AcDbLine
 62
6
  6
CONTINUOUS
 10
5.9393662011
 20
5.1634078367
 11
5.9228634944
 21
5.1378717365
  0
LINE
  5
223
100
AcDbEntity
  8
0
100
AcDbLine
 62
7
  6
CONTINUOUS
 10
5.9393662011
 20
5.1342237222
 11
5.9228634944
 21
5.1086876118
  0
LINE
  5
224
100
AcDbEntity
  8
0
100
AcDbLine
 62
7
  6
CONTINUOUS
 10
5.9971256746
 20
5.1488157795
 11
5.9888743212
 21
5.1378717365
  0
LINE
  5
225
100
AcDbEntity
  8
0
100
AcDbLine
 62
7
  6
CONTINUOUS
 10
6.1181455184
 20
5.1488157795
 11
6.109894165
 21
5.1378717365
  0
LINE
  5
226
100
AcDbEntity
  8
0
100
AcDbLine
 62
7
  6
CONTINUOUS
 10
6.0658869577
 20
5.0174872465
 11
6.0576356043
 21
5.0065432023
  0
LINE
  5
227
100
AcDbEntity
  8
0
100
AcDbLine
 62
7
  6
CONTINUOUS
 10
6.0576356043
 20
5.0065432023
 11
6.0438833461
 21
4.9955991584
  0
LINE
  5
228
100
AcDbEntity
  8
0
100
AcDbLine
 62
7
  6
CONTINUOUS
 10
6.1786554482
 20
5.0065432023
 11
6.1649031978
 21
4.9955991584
  0
LINE
  5
229
100
AcDbEntity
  8
0
100
AcDbLine
 62
6
  6
CONTINUOUS
 10
6.37315877
 20
3.4678409075
 11
5.74815877
 21
3.4678409075
  0
LINE
  5
22A
100
AcDbEntity
  8
0
100
AcDbLine
 62
6
  6
CONTINUOUS
 10
6.86815877
 20
3.4988409075
 11
5.25315877
 21
3.4988409075
  0
LINE
  5
22B
100
AcDbEntity
  8
0
100
AcDbLine
 62
6
  6
CONTINUOUS
 10
5.65465877
 20
2.0894882326
 11
5.65465877
 21
2.8261935825
  0
LINE
  5
22C
100
AcDbEntity
  8
0
100
AcDbLine
 62
6
  6
CONTINUOUS
 10
5.74815877
 20
3.4678409075
 11
5.74815877
 21
2.8621731124
  0
LINE
  5
22D
100
AcDbEntity
  8
0
100
AcDbLine
 62
7
  6
CONTINUOUS
 10
5.9833734203
 20
5.1232796793
 11
5.9806229679
 21
5.1123356262
  0
LINE
  5
22E
100
AcDbEntity
  8
0
100
AcDbLine
 62
7
  6
CONTINUOUS
 10
5.9888743212
 20
5.1378717365
 11
5.9833734203
 21
5.1232796793
  0
LINE
  5
22F
100
AcDbEntity
  8
0
100
AcDbLine
 62
7
  6
CONTINUOUS
 10
6.109894165
 20
5.1378717365
 11
6.1043932681
 21
5.1232796793
  0
LINE
  5
230
100
AcDbEntity
  8
0
100
AcDbLine
 62
7
  6
CONTINUOUS
 10
6.0713878547
 20
5.0320793063
 11
6.0658869577
 21
5.0174872465
  0
LINE
  5
231
100
AcDbEntity
  8
0
100
AcDbLine
 62
7
  6
CONTINUOUS
 10
6.1869068015
 20
5.0174872465
 11
6.1786554482
 21
5.0065432023
  0
LINE
  5
232
100
AcDbEntity
  8
0
100
AcDbLine
 62
6
  6
CONTINUOUS
 10
7.0306508672
 20
3.8108409075
 11
5.0906666729
 21
3.8108409075
  0
LINE
  5
233
100
AcDbEntity
  8
0
100
AcDbLine
 62
6
  6
CONTINUOUS
 10
6.92665877
 20
2.7858409075
 11
6.94665877
 21
2.7658409075
  0
LINE
  5
234
100
AcDbEntity
  8
0
100
AcDbLine
 62
6
  6
CONTINUOUS
 10
5.81705877
 20
2.0894852321
 11
5.81705877
 21
2.7568423518
  0
LINE
  5
235
100
AcDbEntity
  8
0
100
AcDbLine
 62
6
  6
CONTINUOUS
 10
5.90265877
 20
3.4988409075
 11
5.90265877
 21
3.4678409075
  0
LINE
  5
236
100
AcDbEntity
  8
0
100
AcDbLine
 62
6
  6
CONTINUOUS
 10
5.9228634944
 20
5.1378717365
 11
5.9228634944
 21
5.1086876118
  0
LINE
  5
237
100
AcDbEntity
  8
0
100
AcDbLine
 62
7
  6
CONTINUOUS
 10
5.9393662011
 20
5.1342237222
 11
5.9393662011
 21
4.9919511438
  0
LINE
  5
238
100
AcDbEntity
  8
0
100
AcDbLine
 62
7
  6
CONTINUOUS
 10
5.9558689078
 20
5.1634078367
 11
5.9558689078
 21
4.9919511438
  0
LINE
  5
239
100
AcDbEntity
  8
0
100
AcDbLine
 62
7
  6
CONTINUOUS
 10
5.9778725154
 20
5.0940955546
 11
5.9778725154
 21
5.0612634258
  0
LINE
  5
23A
100
AcDbEntity
  8
0
100
AcDbLine
 62
6
  6
CONTINUOUS
 10
5.97945877
 20
2.649294149
 11
5.97945877
 21
2.0894852321
  0
LINE
  5
23B
100
AcDbEntity
  8
0
100
AcDbLine
 62
7
  6
CONTINUOUS
 10
6.0768887517
 20
5.0940955546
 11
6.0768887517
 21
5.0612634258
  0
LINE
  5
23C
100
AcDbEntity
  8
0
100
AcDbLine
 62
7
  6
CONTINUOUS
 10
5.9806229679
 20
5.1123356262
 11
5.9778725154
 21
5.0940955546
  0
LINE
  5
23D
100
AcDbEntity
  8
0
100
AcDbLine
 62
7
  6
CONTINUOUS
 10
6.0768887517
 20
5.0612634258
 11
6.074138311
 21
5.0430233492
  0
LINE
  5
23E
100
AcDbEntity
  8
0
100
AcDbLine
 62
7
  6
CONTINUOUS
 10
6.1016428117
 20
5.1123356262
 11
6.0988923711
 21
5.0940955546
  0
LINE
  5
23F
100
AcDbEntity
  8
0
100
AcDbLine
 62
6
  6
CONTINUOUS
 10
6.1979085955
 20
5.0612634258
 11
6.1951581549
 21
5.0430233492
  0
LINE
  5
240
100
AcDbEntity
  8
0
100
AcDbLine
 62
7
  6
CONTINUOUS
 10
6.074138311
 20
5.0430233492
 11
6.0713878547
 21
5.0320793063
  0
LINE
  5
241
100
AcDbEntity
  8
0
100
AcDbLine
 62
7
  6
CONTINUOUS
 10
6.1043932681
 20
5.1232796793
 11
6.1016428117
 21
5.1123356262
  0
LINE
  5
242
100
AcDbEntity
  8
0
100
AcDbLine
 62
7
  6
CONTINUOUS
 10
6.1951581549
 20
5.0430233492
 11
6.1924077142
 21
5.0320793063
  0
LINE
  5
243
100
AcDbEntity
  8
0
100
AcDbLine
 62
6
  6
CONTINUOUS
 10
6.1924077142
 20
5.0320793063
 11
6.1869068015
 21
5.0174872465
  0
LINE
  5
244
100
AcDbEntity
  8
0
100
AcDbLine
 62
7
  6
CONTINUOUS
 10
6.0988923711
 20
5.0940955546
 11
6.0988923711
 21
5.0612634258
  0
LINE
  5
245
100
AcDbEntity
  8
0
100
AcDbLine
 62
6
  6
CONTINUOUS
 10
6.14185877
 20
2.649294149
 11
6.14185877
 21
2.0894852321
  0
LINE
  5
246
100
AcDbEntity
  8
0
100
AcDbLine
 62
6
  6
CONTINUOUS
 10
6.1979085955
 20
5.0940955546
 11
6.1979085955
 21
5.0612634258
  0
LINE
  5
247
100
AcDbEntity
  8
0
100
AcDbLine
 62
6
  6
CONTINUOUS
 10
6.21865877
 20
3.4988409075
 11
6.21865877
 21
3.4678409075
  0
LINE
  5
248
100
AcDbEntity
  8
0
100
AcDbLine
 62
6
  6
CONTINUOUS
 10
6.30425877
 20
2.0894852321
 11
6.30425877
 21
2.7568423518
  0
LINE
  5
249
100
AcDbEntity
  8
0
100
AcDbLine
 62
6
  6
CONTINUOUS
 10
6.37315877
 20
3.4678409075
 11
6.37315877
 21
2.8621732148
  0
LINE
  5
24A
100
AcDbEntity
  8
0
100
AcDbLine
 62
6
  6
CONTINUOUS
 10
5.17465877
 20
2.7658409075
 11
5.19465877
 21
2.7858409075
  0
LINE
  5
24B
100
AcDbEntity
  8
0
100
AcDbLine
 62
7
  6
CONTINUOUS
 10
5.9888743212
 20
5.0174872465
 11
5.9833734203
 21
5.0320793063
  0
LINE
  5
24C
100
AcDbEntity
  8
0
100
AcDbLine
 62
7
  6
CONTINUOUS
 10
5.9833734203
 20
5.0320793063
 11
5.9806229679
 21
5.0430233492
  0
LINE
  5
24D
100
AcDbEntity
  8
0
100
AcDbLine
 62
7
  6
CONTINUOUS
 10
6.074138311
 20
5.1123356262
 11
6.0713878547
 21
5.1232796793
  0
LINE
  5
24E
100
AcDbEntity
  8
0
100
AcDbLine
 62
7
  6
CONTINUOUS
 10
6.1043932681
 20
5.0320793063
 11
6.1016428117
 21
5.0430233492
  0
LINE
  5
24F
100
AcDbEntity
  8
0
100
AcDbLine
 62
7
  6
CONTINUOUS
 10
5.9806229679
 20
5.0430233492
 11
5.9778725154
 21
5.0612634258
  0
LINE
  5
250
100
AcDbEntity
  8
0
100
AcDbLine
 62
7
  6
CONTINUOUS
 10
6.0768887517
 20
5.0940955546
 11
6.074138311
 21
5.1123356262
  0
LINE
  5
251
100
AcDbEntity
  8
0
100
AcDbLine
 62
7
  6
CONTINUOUS
 10
6.1016428117
 20
5.0430233492
 11
6.0988923711
 21
5.0612634258
  0
LINE
  5
252
100
AcDbEntity
  8
0
100
AcDbLine
 62
6
  6
CONTINUOUS
 10
6.1979085955
 20
5.0940955546
 11
6.1951581549
 21
5.1123356262
  0
LINE
  5
253
100
AcDbEntity
  8
0
100
AcDbLine
 62
6
  6
CONTINUOUS
 10
6.46665877
 20
2.0894882326
 11
6.46665877
 21
2.8261935825
  0
LINE
  5
254
100
AcDbEntity
  8
0
100
AcDbLine
 62
7
  6
CONTINUOUS
 10
6.5955848198
 20
5.1691164981
 11
6.5955848198
 21
4.9919511438
  0
LINE
  5
255
100
AcDbEntity
  8
0
100
AcDbLine
 62
6
  6
CONTINUOUS
 10
6.6375099244
 20
5.1691164981
 11
6.6375099244
 21
4.9919511438
  0
LINE
  5
256
100
AcDbEntity
  8
0
100
AcDbLine
 62
7
  6
CONTINUOUS
 10
5.9971256746
 20
5.0065432023
 11
5.9888743212
 21
5.0174872465
  0
LINE
  5
257
100
AcDbEntity
  8
0
100
AcDbLine
 62
7
  6
CONTINUOUS
 10
6.109894165
 20
5.0174872465
 11
6.1043932681
 21
5.0320793063
  0
LINE
  5
258
100
AcDbEntity
  8
0
100
AcDbLine
 62
7
  6
CONTINUOUS
 10
6.0713878547
 20
5.1232796793
 11
6.0658869577
 21
5.1378717365
  0
LINE
  5
259
100
AcDbEntity
  8
0
100
AcDbLine
 62
6
  6
CONTINUOUS
 10
6.1924077142
 20
5.1232796793
 11
6.1869068015
 21
5.1378717365
  0
LINE
  5
25A
100
AcDbEntity
  8
0
100
AcDbLine
 62
6
  6
CONTINUOUS
 10
6.1951581549
 20
5.1123356262
 11
6.1924077142
 21
5.1232796793
  0
LINE
  5
25B
100
AcDbEntity
  8
0
100
AcDbLine
 62
6
  6
CONTINUOUS
 10
6.86815877
 20
3.8108409075
 11
6.86815877
 21
3.4988409075
  0
LINE
  5
25C
100
AcDbEntity
  8
0
100
AcDbLine
 62
7
  6
CONTINUOUS
 10
6.9153131767
 20
5.1378717365
 11
6.9153131767
 21
5.1086876118
  0
LINE
  5
25D
100
AcDbEntity
  8
0
100
AcDbLine
 62
7
  6
CONTINUOUS
 10
6.9253063613
 20
5.1342237222
 11
6.9253063613
 21
4.9919511438
  0
LINE
  5
25E
100
AcDbEntity
  8
0
100
AcDbLine
 62
6
  6
CONTINUOUS
 10
6.92665877
 20
2.1298409075
 11
6.92665877
 21
2.7858409075
  0
LINE
  5
25F
100
AcDbEntity
  8
0
100
AcDbLine
 62
7
  6
CONTINUOUS
 10
6.9348444766
 20
5.1634078367
 11
6.9348444766
 21
4.9919511438
  0
LINE
  5
260
100
AcDbEntity
  8
0
100
AcDbLine
 62
6
  6
CONTINUOUS
 10
6.94665877
 20
2.1498409075
 11
6.94665877
 21
2.7658409075
  0
LINE
  5
261
100
AcDbEntity
  8
0
100
AcDbLine
 62
7
  6
CONTINUOUS
 10
6.9468597113
 20
5.1378717365
 11
6.9468597113
 21
5.1086876118
  0
LINE
  5
262
100
AcDbEntity
  8
0
100
AcDbLine
 62
6
  6
CONTINUOUS
 10
5.09065877
 20
4.8738409075
 11
7.03065877
 21
4.8738409075
  0
LINE
  5
263
100
AcDbEntity
  8
0
100
AcDbLine
 62
7
  6
CONTINUOUS
 10
6.0108779328
 20
4.9955991584
 11
5.9971256746
 21
5.0065432023
  0
LINE
  5
264
100
AcDbEntity
  8
0
100
AcDbLine
 62
7
  6
CONTINUOUS
 10
6.1318977845
 20
4.9955991584
 11
6.1181455184
 21
5.0065432023
  0
LINE
  5
265
100
AcDbEntity
  8
0
100
AcDbLine
 62
7
  6
CONTINUOUS
 10
6.0576356043
 20
5.1488157795
 11
6.0438833461
 21
5.1597598224
  0
LINE
  5
266
100
AcDbEntity
  8
0
100
AcDbLine
 62
7
  6
CONTINUOUS
 10
6.1181455184
 20
5.0065432023
 11
6.109894165
 21
5.0174872465
  0
LINE
  5
267
100
AcDbEntity
  8
0
100
AcDbLine
 62
7
  6
CONTINUOUS
 10
6.0658869577
 20
5.1378717365
 11
6.0576356043
 21
5.1488157795
  0
LINE
  5
268
100
AcDbEntity
  8
0
100
AcDbLine
 62
7
  6
CONTINUOUS
 10
6.1869068015
 20
5.1378717365
 11
6.1786554482
 21
5.1488157795
  0
LINE
  5
269
100
AcDbEntity
  8
0
100
AcDbLine
 62
7
  6
CONTINUOUS
 10
6.9553476942
 20
5.1342237222
 11
6.9553476942
 21
4.9919511438
  0
LINE
  5
26A
100
AcDbEntity
  8
0
100
AcDbLine
 62
7
  6
CONTINUOUS
 10
6.9633889701
 20
5.1634078367
 11
6.9633889701
 21
4.9919511438
  0
LINE
  5
26B
100
AcDbEntity
  8
0
100
AcDbLine
 62
7
  6
CONTINUOUS
 10
6.9734175077
 20
5.1634078367
 11
6.9734175077
 21
5.0685594545
  0
LINE
  5
26C
100
AcDbEntity
  8
0
100
AcDbLine
 62
6
  6
CONTINUOUS
 10
6.9792833586
 20
5.1451677651
 11
6.9792833586
 21
5.086799526
  0
LINE
  5
26D
100
AcDbEntity
  8
0
100
AcDbLine
 62
7
  6
CONTINUOUS
 10
7.0040290355
 20
5.0539673921
 11
7.0040290355
 21
5.0393753349
  0
LINE
  5
26E
100
AcDbEntity
  8
0
100
AcDbLine
 62
7
  6
CONTINUOUS
 10
7.0047787358
 20
5.0503193778
 11
7.0047787358
 21
5.0430233492
  0
LINE
  5
26F
100
AcDbEntity
  8
0
100
AcDbLine
 62
6
  6
CONTINUOUS
 10
7.0071752694
 20
5.1634078367
 11
7.0071752694
 21
5.1451677651
  0
LINE
  5
270
100
AcDbEntity
  8
0
100
AcDbLine
 62
6
  6
CONTINUOUS
 10
7.0087095415
 20
5.0539673921
 11
7.0087095415
 21
5.0393753349
  0
LINE
  5
271
100
AcDbEntity
  8
0
100
AcDbLine
 62
6
  6
CONTINUOUS
 10
7.0252256992
 20
5.2675416949
 11
7.0252256992
 21
4.8738409075
  0
LINE
  5
272
100
AcDbEntity
  8
0
100
AcDbLine
 62
7
  6
CONTINUOUS
 10
7.029820972
 20
5.1691164981
 11
7.029820972
 21
4.9919511438
  0
LINE
  5
273
100
AcDbEntity
  8
0
100
AcDbLine
 62
6
  6
CONTINUOUS
 10
7.03015877
 20
5.1691164981
 11
7.03015877
 21
4.9919511438
  0
LINE
  5
274
100
AcDbEntity
  8
0
100
AcDbLine
 62
6
  6
CONTINUOUS
 10
7.03065877
 20
3.8108409075
 11
7.03065877
 21
4.8738409075
  0
LINE
  5
275
100
AcDbEntity
  8
0
100
AcDbLine
 62
6
  6
CONTINUOUS
 10
7.04565877
 20
5.2675416949
 11
7.04565877
 21
5.5228339064
  0
LINE
  5
276
100
AcDbEntity
  8
0
100
AcDbLine
 62
7
  6
CONTINUOUS
 10
6.1649031978
 20
4.9955991584
 11
6.1484004911
 21
4.9919511438
  0
LINE
  5
277
100
AcDbEntity
  8
0
100
AcDbLine
 62
7
  6
CONTINUOUS
 10
6.0438833461
 20
4.9955991584
 11
6.0273806394
 21
4.9919511438
  0
LINE
  5
278
100
AcDbEntity
  8
0
100
AcDbLine
 62
7
  6
CONTINUOUS
 10
6.1484004911
 20
5.1634078367
 11
6.1318977845
 21
5.1597598224
  0
LINE
  5
279
100
AcDbEntity
  8
0
100
AcDbLine
 62
7
  6
CONTINUOUS
 10
6.0273806394
 20
5.1634078367
 11
6.0108779328
 21
5.1597598224
  0
LINE
  5
27A
100
AcDbEntity
  8
0
100
AcDbLine
 62
7
  6
CONTINUOUS
 10
7.03015877
 20
4.9919511438
 11
7.029820972
 21
4.9919511438
  0
LINE
  5
27B
100
AcDbEntity
  8
0
100
AcDbLine
 62
7
  6
CONTINUOUS
 10
6.9959712497
 20
4.9919511438
 11
6.9900861125
 21
4.9919511438
  0
LINE
  5
27C
100
AcDbEntity
  8
0
100
AcDbLine
 62
7
  6
CONTINUOUS
 10
6.9633889701
 20
4.9919511438
 11
6.9553476942
 21
4.9919511438
  0
LINE
  5
27D
100
AcDbEntity
  8
0
100
AcDbLine
 62
7
  6
CONTINUOUS
 10
6.9348444766
 20
4.9919511438
 11
6.9253063613
 21
4.9919511438
  0
LINE
  5
27E
100
AcDbEntity
  8
0
100
AcDbLine
 62
7
  6
CONTINUOUS
 10
6.6375099244
 20
4.9919511438
 11
6.5955848198
 21
4.9919511438
  0
LINE
  5
27F
100
AcDbEntity
  8
0
100
AcDbLine
 62
7
  6
CONTINUOUS
 10
5.9558689078
 20
4.9919511438
 11
5.9393662011
 21
4.9919511438
  0
LINE
  5
280
100
AcDbEntity
  8
0
100
AcDbLine
 62
7
  6
CONTINUOUS
 10
5.5257327203
 20
4.9919511438
 11
5.4838076157
 21
4.9919511438
  0
LINE
  5
281
100
AcDbEntity
  8
0
100
AcDbLine
 62
7
  6
CONTINUOUS
 10
5.1726082286
 20
4.9919511438
 11
5.1667696002
 21
4.9919511438
  0
LINE
  5
282
100
AcDbEntity
  8
0
100
AcDbLine
 62
7
  6
CONTINUOUS
 10
5.1347218449
 20
4.9919511438
 11
5.1304401123
 21
4.9919511438
  0
LINE
  5
283
100
AcDbEntity
  8
0
100
AcDbLine
 62
7
  6
CONTINUOUS
 10
5.0914965681
 20
4.9919511438
 11
5.09115877
 21
4.9919511438
  0
LINE
  5
284
100
AcDbEntity
  8
0
100
AcDbLine
 62
7
  6
CONTINUOUS
 10
5.1828135641
 20
5.0065432023
 11
5.1874677595
 21
5.0065432023
  0
LINE
  5
285
100
AcDbEntity
  8
0
100
AcDbLine
 62
7
  6
CONTINUOUS
 10
6.9959712497
 20
5.0101912179
 11
6.9900861125
 21
5.0101912179
  0
LINE
  5
286
100
AcDbEntity
  8
0
100
AcDbLine
 62
7
  6
CONTINUOUS
 10
5.1726082286
 20
5.0101912179
 11
5.1667696002
 21
5.0101912179
  0
LINE
  5
287
100
AcDbEntity
  8
0
100
AcDbLine
 62
7
  6
CONTINUOUS
 10
7.0022684696
 20
5.0211352608
 11
6.9976052757
 21
5.0211352608
  0
LINE
  5
288
100
AcDbEntity
  8
0
100
AcDbLine
 62
6
  6
CONTINUOUS
 10
5.1859911908
 20
5.0211352608
 11
5.1906487331
 21
5.0211352608
  0
LINE
  5
289
100
AcDbEntity
  8
0
100
AcDbLine
 62
7
  6
CONTINUOUS
 10
7.0039545982
 20
5.0320793063
 11
6.9992874816
 21
5.0320793063
  0
LINE
  5
28A
100
AcDbEntity
  8
0
100
AcDbLine
 62
7
  6
CONTINUOUS
 10
6.9804194056
 20
5.0357273206
 11
6.9734175077
 21
5.0357273206
  0
LINE
  5
28B
100
AcDbEntity
  8
0
100
AcDbLine
 62
7
  6
CONTINUOUS
 10
5.1584103909
 20
5.0357273206
 11
5.1531028834
 21
5.0357273206
  0
LINE
  5
28C
100
AcDbEntity
  8
0
100
AcDbLine
 62
7
  6
CONTINUOUS
 10
7.0045050758
 20
5.0393753349
 11
7.0040290355
 21
5.0393753349
  0
LINE
  5
28D
100
AcDbEntity
  8
0
100
AcDbLine
 62
7
  6
CONTINUOUS
 10
5.1881394576
 20
5.0393753349
 11
5.192799388
 21
5.0393753349
  0
LINE
  5
28E
100
AcDbEntity
  8
0
100
AcDbLine
 62
6
  6
CONTINUOUS
 10
7.0045050759
 20
5.0539673921
 11
7.0040290355
 21
5.0539673921
  0
LINE
  5
28F
100
AcDbEntity
  8
0
100
AcDbLine
 62
7
  6
CONTINUOUS
 10
5.1881394576
 20
5.0539673921
 11
5.192799388
 21
5.0539673921
  0
LINE
  5
290
100
AcDbEntity
  8
0
100
AcDbLine
 62
7
  6
CONTINUOUS
 10
7.0039545982
 20
5.0612634258
 11
6.9992874816
 21
5.0612634258
  0
LINE
  5
291
100
AcDbEntity
  8
0
100
AcDbLine
 62
7
  6
CONTINUOUS
 10
6.9815430749
 20
5.0685594545
 11
6.9734175077
 21
5.0685594545
  0
LINE
  5
292
100
AcDbEntity
  8
0
100
AcDbLine
 62
7
  6
CONTINUOUS
 10
5.1593156
 20
5.0685594545
 11
5.1531028834
 21
5.0685594545
  0
LINE
  5
293
100
AcDbEntity
  8
0
100
AcDbLine
 62
7
  6
CONTINUOUS
 10
7.0022684696
 20
5.0722074688
 11
6.9976052757
 21
5.0722074688
  0
LINE
  5
294
100
AcDbEntity
  8
0
100
AcDbLine
 62
6
  6
CONTINUOUS
 10
5.1859911908
 20
5.0722074688
 11
5.1906487331
 21
5.0722074688
  0
LINE
  5
295
100
AcDbEntity
  8
0
100
AcDbLine
 62
7
  6
CONTINUOUS
 10
6.9959712497
 20
5.0831515117
 11
6.9900861125
 21
5.0831515117
  0
LINE
  5
296
100
AcDbEntity
  8
0
100
AcDbLine
 62
7
  6
CONTINUOUS
 10
5.1726082286
 20
5.0831515117
 11
5.1667696002
 21
5.0831515117
  0
LINE
  5
297
100
AcDbEntity
  8
0
100
AcDbLine
 62
7
  6
CONTINUOUS
 10
5.1828135641
 20
5.086799526
 11
5.1874677595
 21
5.086799526
  0
LINE
  5
298
100
AcDbEntity
  8
0
100
AcDbLine
 62
7
  6
CONTINUOUS
 10
6.9959712497
 20
5.1013915832
 11
6.9900861125
 21
5.1013915832
  0
LINE
  5
299
100
AcDbEntity
  8
0
100
AcDbLine
 62
7
  6
CONTINUOUS
 10
5.1726082286
 20
5.1013915832
 11
5.1667696002
 21
5.1013915832
  0
LINE
  5
29A
100
AcDbEntity
  8
0
100
AcDbLine
 62
7
  6
CONTINUOUS
 10
6.9468597113
 20
5.1086876118
 11
6.9422131894
 21
5.1086876118
  0
LINE
  5
29B
100
AcDbEntity
  8
0
100
AcDbLine
 62
7
  6
CONTINUOUS
 10
6.9153131767
 20
5.1086876118
 11
6.9106298163
 21
5.1086876118
  0
LINE
  5
29C
100
AcDbEntity
  8
0
100
AcDbLine
 62
7
  6
CONTINUOUS
 10
6.9468597113
 20
5.1378717365
 11
6.9422131894
 21
5.1378717365
  0
LINE
  5
29D
100
AcDbEntity
  8
0
100
AcDbLine
 62
7
  6
CONTINUOUS
 10
6.9153131767
 20
5.1378717365
 11
6.9106298163
 21
5.1378717365
  0
LINE
  5
29E
100
AcDbEntity
  8
0
100
AcDbLine
 62
7
  6
CONTINUOUS
 10
7.0071752694
 20
5.1451677651
 11
6.9792833586
 21
5.1451677651
  0
LINE
  5
29F
100
AcDbEntity
  8
0
100
AcDbLine
 62
7
  6
CONTINUOUS
 10
5.1575110807
 20
5.1451677651
 11
5.1906487331
 21
5.1451677651
  0
LINE
  5
2A0
100
AcDbEntity
  8
0
100
AcDbLine
 62
7
  6
CONTINUOUS
 10
7.0071752694
 20
5.1634078367
 11
6.9734175077
 21
5.1634078367
  0
LINE
  5
2A1
100
AcDbEntity
  8
0
100
AcDbLine
 62
7
  6
CONTINUOUS
 10
6.9633889701
 20
5.1634078367
 11
6.950707114
 21
5.1634078367
  0
LINE
  5
2A2
100
AcDbEntity
  8
0
100
AcDbLine
 62
7
  6
CONTINUOUS
 10
6.9348444766
 20
5.1634078367
 11
6.9206368619
 21
5.1634078367
  0
LINE
  5
2A3
100
AcDbEntity
  8
0
100
AcDbLine
 62
7
  6
CONTINUOUS
 10
5.9558689078
 20
5.1634078367
 11
5.9393662011
 21
5.1634078367
  0
LINE
  5
2A4
100
AcDbEntity
  8
0
100
AcDbLine
 62
7
  6
CONTINUOUS
 10
5.1339934376
 20
5.1634078367
 11
5.1311389415
 21
5.1634078367
  0
LINE
  5
2A5
100
AcDbEntity
  8
0
100
AcDbLine
 62
7
  6
CONTINUOUS
 10
5.1531028834
 20
5.1634078367
 11
5.1906487331
 21
5.1634078367
  0
LINE
  5
2A6
100
AcDbEntity
  8
0
100
AcDbLine
 62
7
  6
CONTINUOUS
 10
7.03015877
 20
5.1691164981
 11
7.029820972
 21
5.1691164981
  0
LINE
  5
2A7
100
AcDbEntity
  8
0
100
AcDbLine
 62
7
  6
CONTINUOUS
 10
6.6375099244
 20
5.1691164981
 11
6.5955848198
 21
5.1691164981
  0
LINE
  5
2A8
100
AcDbEntity
  8
0
100
AcDbLine
 62
7
  6
CONTINUOUS
 10
5.5257327203
 20
5.1691164981
 11
5.4838076157
 21
5.1691164981
  0
LINE
  5
2A9
100
AcDbEntity
  8
0
100
AcDbLine
 62
7
  6
CONTINUOUS
 10
5.0914965681
 20
5.1691164981
 11
5.09115877
 21
5.1691164981
  0
LINE
  5
2AA
100
AcDbEntity
  8
0
100
AcDbLine
 62
7
  6
CONTINUOUS
 10
6.0273806394
 20
4.9919511438
 11
6.0108779328
 21
4.9955991584
  0
LINE
  5
2AB
100
AcDbEntity
  8
0
100
AcDbLine
 62
7
  6
CONTINUOUS
 10
6.1484004911
 20
4.9919511438
 11
6.1318977845
 21
4.9955991584
  0
LINE
  5
2AC
100
AcDbEntity
  8
0
100
AcDbLine
 62
7
  6
CONTINUOUS
 10
6.0438833461
 20
5.1597598224
 11
6.0273806394
 21
5.1634078367
  0
LINE
  5
2AD
100
AcDbEntity
  8
0
100
AcDbLine
 62
7
  6
CONTINUOUS
 10
6.1649031978
 20
5.1597598224
 11
6.1484004911
 21
5.1634078367
  0
LINE
  5
2AE
100
AcDbEntity
  8
0
100
AcDbLine
 62
7
  6
CONTINUOUS
 10
6.1786554482
 20
5.1488157795
 11
6.1649031978
 21
5.1597598224
  0
LINE
  5
2AF
100
AcDbEntity
  8
0
100
AcDbLine
 62
6
  6
CONTINUOUS
 10
5.07565877
 20
5.2675416949
 11
7.04565877
 21
5.2675416949
  0
LINE
  5
2B0
100
AcDbEntity
  8
0
100
AcDbLine
 62
6
  6
CONTINUOUS
 10
3.68565877
 20
5.5228339064
 11
8.43565877
 21
5.5228339064
  0
LINE
  5
2B1
100
AcDbEntity
  8
0
100
AcDbLine
 62
6
  6
CONTINUOUS
 10
3.06865877
 20
5.5853011247
 11
9.05265877
 21
5.5853011247
  0
LINE
  5
2B2
100
AcDbEntity
  8
0
100
AcDbLine
 62
9
  6
CONTINUOUS
 10
9.217986785
 20
5.6478290617
 11
2.9033307551
 21
5.6478290617
  0
LINE
  5
2B3
100
AcDbEntity
  8
0
100
AcDbLine
 62
6
  6
CONTINUOUS
 10
2.56065877
 20
5.6781342146
 11
9.56065877
 21
5.6781342146
  0
LINE
  5
2B4
100
AcDbEntity
  8
0
100
AcDbLine
 62
6
  6
CONTINUOUS
 10
6.92665877
 20
2.1298409075
 11
6.94665877
 21
2.1498409075
  0
LINE
  5
2B5
100
AcDbEntity
  8
0
100
AcDbLine
 62
9
  6
CONTINUOUS
 10
9.81065877
 20
5.9281342146
 11
2.31065877
 21
5.9281342146
  0
LINE
  5
2B6
100
AcDbEntity
  8
0
100
AcDbLine
 62
6
  6
CONTINUOUS
 10
9.81065877
 20
6.0791342146
 11
2.31065877
 21
6.0791342146
  0
LINE
  5
2B7
100
AcDbEntity
  8
0
100
AcDbLine
 62
6
  6
CONTINUOUS
 10
9.81065877
 20
6.0791342146
 11
9.81065877
 21
5.9281342146
  0
ARC
  5
2B8
100
AcDbEntity
  8
0
100
AcDbCircle
 62
6
  6
CONTINUOUS
 10
5.73585877
 20
2.7788409075
 40
0.094
100
AcDbArc
 50
90.1219060058
 51
149.7493496838
  0
ARC
  5
2B9
100
AcDbEntity
  8
0
100
AcDbCircle
 62
6
  6
CONTINUOUS
 10
5.73585877
 20
2.1368409075
 40
0.094
100
AcDbArc
 50
210.2506503162
 51
329.7493496838
  0
ARC
  5
2BA
100
AcDbEntity
  8
0
100
AcDbCircle
 62
6
  6
CONTINUOUS
 10
5.89825877
 20
2.1368409075
 40
0.094
100
AcDbArc
 50
210.2506503162
 51
329.7493496838
  0
ARC
  5
2BB
100
AcDbEntity
  8
0
100
AcDbCircle
 62
6
  6
CONTINUOUS
 10
3.68565877
 20
5.8981342146
 40
0.3753003082
100
AcDbArc
 50
236.4754042605
 51
270.0
  0
ARC
  5
2BC
100
AcDbEntity
  8
0
100
AcDbCircle
 62
6
  6
CONTINUOUS
 10
2.73765877
 20
5.4601342146
 40
0.2503528755
100
AcDbArc
 50
48.5662292994
 51
60.5675751058
  0
ARC
  5
2BD
100
AcDbEntity
  8
0
100
AcDbCircle
 62
6
  6
CONTINUOUS
 10
2.56065877
 20
5.9281342146
 40
0.25
100
AcDbArc
 50
180.0
 51
270.0
  0
ARC
  5
2BE
100
AcDbEntity
  8
0
100
AcDbCircle
 62
6
  6
CONTINUOUS
 10
3.06865877
 20
5.8351342146
 40
0.2498330899
100
AcDbArc
 50
228.5662292994
 51
270.0
  0
ARC
  5
2BF
100
AcDbEntity
  8
0
100
AcDbCircle
 62
7
  6
CONTINUOUS
 10
6.0606578504
 20
4.2178399879
 40
0.1349982983
100
AcDbArc
 50
89.9996162828
 51
270.0003903057
  0
ARC
  5
2C0
100
AcDbEntity
  8
0
100
AcDbCircle
 62
6
  6
CONTINUOUS
 10
6.38545877
 20
2.7788409075
 40
0.094
100
AcDbArc
 50
30.2506503162
 51
89.8780939942
  0
ARC
  5
2C1
100
AcDbEntity
  8
0
100
AcDbCircle
 62
6
  6
CONTINUOUS
 10
6.06065877
 20
2.1368409075
 40
0.094
100
AcDbArc
 50
210.2506503162
 51
329.7493496838
  0
ARC
  5
2C2
100
AcDbEntity
  8
0
100
AcDbCircle
 62
6
  6
CONTINUOUS
 10
6.22305877
 20
2.1368409075
 40
0.094
100
AcDbArc
 50
210.2506503162
 51
329.7493496838
  0
ARC
  5
2C3
100
AcDbEntity
  8
0
100
AcDbCircle
 62
6
  6
CONTINUOUS
 10
6.38545877
 20
2.1368409075
 40
0.094
100
AcDbArc
 50
210.2506503162
 51
329.7493496838
  0
ARC
  5
2C4
100
AcDbEntity
  8
0
100
AcDbCircle
 62
7
  6
CONTINUOUS
 10
6.0606596883
 20
4.2178418258
 40
0.1349983
100
AcDbArc
 50
269.9996165348
 51
90.0003897362
  0
CIRCLE
  5
2C5
100
AcDbEntity
  8
0
100
AcDbCircle
 62
9
  6
CONTINUOUS
 10
6.06065877
 20
4.2178409075
 40
0.13
  0
CIRCLE
  5
2C6
100
AcDbEntity
  8
0
100
AcDbCircle
 62
9
  6
CONTINUOUS
 10
6.06065877
 20
4.2178409075
 40
0.0903041475
  0
ARC
  5
2C7
100
AcDbEntity
  8
0
100
AcDbCircle
 62
6
  6
CONTINUOUS
 10
8.43565877
 20
5.8981342146
 40
0.3753003082
100
AcDbArc
 50
270.0
 51
303.5245957395
  0
ARC
  5
2C8
100
AcDbEntity
  8
0
100
AcDbCircle
 62
6
  6
CONTINUOUS
 10
9.38365877
 20
5.4601342146
 40
0.2503528755
100
AcDbArc
 50
119.4324248942
 51
131.4337707006
  0
ARC
  5
2C9
100
AcDbEntity
  8
0
100
AcDbCircle
 62
6
  6
CONTINUOUS
 10
9.56065877
 20
5.9281342146
 40
0.25
100
AcDbArc
 50
270.0
 51
360.0
  0
ARC
  5
2CA
100
AcDbEntity
  8
0
100
AcDbCircle
 62
6
  6
CONTINUOUS
 10
9.05265877
 20
5.8351342146
 40
0.2498330899
100
AcDbArc
 50
270.0
 51
311.4337707006
  0
SPLINE
  5
2CB
100
AcDbEntity
  8
0
100
AcDbSpline
 62
6
  6
CONTINUOUS
 70
0
 71
3
 72
36
 73
32
 74
30
 42
0.0000001
 43
0.0000001
 44
0.0000000001
 12
-0.1136805942
 22
-0.0878030983
 32
0.0
 13
-0.046437118
 23
-0.1359270677
 33
0.0
 40
0.0
 40
0.0
 40
0.0
 40
0.0
 40
0.0010094334
 40
0.0040401898
 40
0.0090960561
 40
0.0161809525
 40
0.0252989488
 40
0.0364547821
 40
0.0649041316
 40
0.0822126416
 40
0.1015855383
 40
0.1230200414
 40
0.1465132001
 40
0.1720643526
 40
0.1996724623
 40
0.229318002
 40
0.2609749895
 40
0.2946210896
 40
0.3302345491
 40
0.4071661851
 40
0.4913586233
 40
0.5360271481
 40
0.5822990376
 40
0.6300967076
 40
0.6793414964
 40
0.7299414807
 40
0.7818078542
 40
0.8348572373
 40
0.8889862368
 40
0.9440727513
 40
1.0
 40
1.0
 40
1.0
 40
1.0
 10
6.38565877
 20
2.8728406948
 30
0.0
 10
6.385620519
 20
2.872811151
 30
0.0
 10
6.3854675911
 20
2.8726926858
 30
0.0
 10
6.3851245719
 20
2.8724243244
 30
0.0
 10
6.3845542882
 20
2.8719743717
 30
0.0
 10
6.3837581889
 20
2.8713401024
 30
0.0
 10
6.3827371988
 20
2.8705194098
 30
0.0
 10
6.3809278864
 20
2.8690467403
 30
0.0
 10
6.3788385111
 20
2.8672970414
 30
0.0
 10
6.376477545
 20
2.8652596486
 30
0.0
 10
6.3743911988
 20
2.8634183442
 30
0.0
 10
6.372109327
 20
2.8613514242
 30
0.0
 10
6.3696404985
 20
2.8590507287
 30
0.0
 10
6.3669935958
 20
2.8565081262
 30
0.0
 10
6.364178084
 20
2.8537164978
 30
0.0
 10
6.3612064126
 20
2.850667963
 30
0.0
 10
6.3580925653
 20
2.8473552842
 30
0.0
 10
6.3548508762
 20
2.8437717377
 30
0.0
 10
6.3502592615
 20
2.8384879986
 30
0.0
 10
6.3443099133
 20
2.8311806202
 30
0.0
 10
6.3384407341
 20
2.8232610338
 30
0.0
 10
6.3336929169
 20
2.8163483663
 30
0.0
 10
6.3300711935
 20
2.8107788018
 30
0.0
 10
6.3264819039
 20
2.8049295392
 30
0.0
 10
6.3229486908
 20
2.7988056733
 30
0.0
 10
6.3194939401
 20
2.7924147778
 30
0.0
 10
6.3161407259
 20
2.7857652536
 30
0.0
 10
6.3129132359
 20
2.7788667026
 30
0.0
 10
6.3098338979
 20
2.7717324165
 30
0.0
 10
6.3069240737
 20
2.764378947
 30
0.0
 10
6.3051244701
 20
2.7593763608
 30
0.0
 10
6.30425877
 20
2.7568423518
 30
0.0
 11
6.38565877
 21
2.8728406948
 31
0.0
 11
6.3855441371
 21
2.8727519087
 31
0.0
 11
6.3852010785
 21
2.8724838956
 31
0.0
 11
6.3846308546
 21
2.8720341734
 31
0.0
 11
6.3838347255
 21
2.87140026
 31
0.0
 11
6.382814003
 21
2.8705796058
 31
0.0
 11
6.381571403
 21
2.8695678138
 31
0.0
 11
6.3784376823
 21
2.8669450123
 31
0.0
 11
6.3765552359
 21
2.8653209448
 31
0.0
 11
6.3744690005
 21
2.8634794196
 31
0.0
 11
6.3721870695
 21
2.8614124949
 31
0.0
 11
6.3697181946
 21
2.8591119815
 31
0.0
 11
6.3670711272
 21
2.8565696901
 31
0.0
 11
6.364255064
 21
2.8537775414
 31
0.0
 11
6.3612826455
 21
2.8507283068
 31
0.0
 11
6.3581681204
 21
2.8474151552
 31
0.0
 11
6.3549257462
 21
2.8438312576
 31
0.0
 11
6.3515701602
 21
2.8399700768
 31
0.0
 11
6.3445926655
 21
2.8314010645
 31
0.0
 11
6.3373910821
 21
2.821685693
 31
0.0
 11
6.3337584351
 21
2.8163968767
 31
0.0
 11
6.3301351472
 21
2.8108248092
 31
0.0
 11
6.326544373
 21
2.8049729826
 31
0.0
 11
6.3230092713
 21
2.7988461512
 31
0.0
 11
6.3195530129
 21
2.7924523213
 31
0.0
 11
6.3161987701
 21
2.7858000158
 31
0.0
 11
6.3129696925
 21
2.7788979863
 31
0.0
 11
6.3098884781
 21
2.7717594642
 31
0.0
 11
6.3069774134
 21
2.7644017645
 31
0.0
 11
6.30425877
 21
2.7568423518
 31
0.0
  0
SPLINE
  5
2CC
100
AcDbEntity
  8
0
100
AcDbSpline
 62
6
  6
CONTINUOUS
 70
0
 71
3
 72
44
 73
40
 74
38
 42
0.0000001
 43
0.0000001
 44
0.0000000001
 12
-0.1416566936
 22
0.183827541
 32
0.0
 13
-0.0601992476
 23
-0.2241321804
 33
0.0
 40
0.0
 40
0.0
 40
0.0
 40
0.0
 40
0.0141846561
 40
0.0280820752
 40
0.0417284112
 40
0.0551571279
 40
0.0684142125
 40
0.0815531244
 40
0.0946206325
 40
0.1076563742
 40
0.1206966399
 40
0.1337747745
 40
0.1469183713
 40
0.1601493613
 40
0.186934173
 40
0.2142551785
 40
0.2281423421
 40
0.242184713
 40
0.27074292
 40
0.2999452762
 40
0.3297779067
 40
0.3602166862
 40
0.3912257341
 40
0.4227609287
 40
0.45477893
 40
0.4872309349
 40
0.5200658348
 40
0.5532416763
 40
0.5867149119
 40
0.6204394346
 40
0.6543811296
 40
0.7227690193
 40
0.757166703
 40
0.791672328
 40
0.8262695425
 40
0.8609362588
 40
0.8956554561
 40
0.9304180734
 40
1.0
 40
1.0
 40
1.0
 40
1.0
 10
6.30425877
 20
2.7568423518
 30
0.0
 10
6.3035889862
 20
2.7577115286
 30
0.0
 10
6.3022005362
 20
2.7593852636
 30
0.0
 10
6.2999616183
 20
2.7617144895
 30
0.0
 10
6.2976016179
 20
2.7638345984
 30
0.0
 10
6.2951317164
 20
2.7657455132
 30
0.0
 10
6.2925622152
 20
2.7674500132
 30
0.0
 10
6.2899026705
 20
2.7689539756
 30
0.0
 10
6.2871614779
 20
2.770263751
 30
0.0
 10
6.284346783
 20
2.7713861243
 30
0.0
 10
6.2814656167
 20
2.7723269594
 30
0.0
 10
6.2785243085
 20
2.7730915474
 30
0.0
 10
6.2755288974
 20
2.773685445
 30
0.0
 10
6.2714550264
 20
2.7742594325
 30
0.0
 10
6.2662456173
 20
2.7745730933
 30
0.0
 10
6.2609816244
 20
2.774379461
 30
0.0
 10
6.2567288623
 20
2.7739422415
 30
0.0
 10
6.2524034777
 20
2.7733127329
 30
0.0
 10
6.2469597483
 20
2.772177929
 30
0.0
 10
6.240442811
 20
2.7703012583
 30
0.0
 10
6.2339361046
 20
2.7679254676
 30
0.0
 10
6.2274717692
 20
2.7650720154
 30
0.0
 10
6.2210806527
 20
2.7617618524
 30
0.0
 10
6.2147928441
 20
2.7580153896
 30
0.0
 10
6.2086360572
 20
2.7538549789
 30
0.0
 10
6.2026368924
 20
2.7493023091
 30
0.0
 10
6.1968211612
 20
2.7443780391
 30
0.0
 10
6.1912096915
 20
2.7391064241
 30
0.0
 10
6.1858215215
 20
2.7335110745
 30
0.0
 10
6.1806753336
 20
2.7276134337
 30
0.0
 10
6.1741382783
 20
2.7193608545
 30
0.0
 10
6.1681492964
 20
2.7106221172
 30
0.0
 10
6.1627281111
 20
2.7014866421
 30
0.0
 10
6.1589319163
 20
2.694434385
 30
0.0
 10
6.1554130059
 20
2.6872170299
 30
0.0
 10
6.1521696377
 20
2.679853791
 30
0.0
 10
6.1491975666
 20
2.6723632205
 30
0.0
 10
6.1455839821
 20
2.662228849
 30
0.0
 10
6.1432550299
 20
2.6544926653
 30
0.0
 10
6.14185877
 20
2.649294149
 30
0.0
 11
6.30425877
 21
2.7568423518
 31
0.0
 11
6.3021561564
 21
2.7593752798
 31
0.0
 11
6.2999204831
 21
2.7616999376
 31
0.0
 11
6.2975640514
 21
2.7638158348
 31
0.0
 11
6.2950990328
 21
2.7657226995
 31
0.0
 11
6.2925354666
 21
2.7674238449
 31
0.0
 11
6.2898816487
 21
2.7689255157
 31
0.0
 11
6.2871458236
 21
2.7702340426
 31
0.0
 11
6.2843361721
 21
2.771355729
 31
0.0
 11
6.2814597463
 21
2.7722963932
 31
0.0
 11
6.27852263
 21
2.7730614382
 31
0.0
 11
6.275530876
 21
2.7736562531
 31
0.0
 11
6.2724905368
 21
2.7740862271
 31
0.0
 11
6.2662863541
 21
2.7744710696
 31
0.0
 11
6.259949684
 21
2.7742494469
 31
0.0
 11
6.2567435725
 21
2.7739211613
 31
0.0
 11
6.2535184907
 21
2.7734529285
 31
0.0
 11
6.2470285614
 21
2.7721087498
 31
0.0
 11
6.240513944
 21
2.7702406851
 31
0.0
 11
6.2340082934
 21
2.7678720525
 31
0.0
 11
6.22754358
 21
2.7650244124
 31
0.0
 11
6.2211512606
 21
2.761718789
 31
0.0
 11
6.2148619413
 21
2.7579763667
 31
0.0
 11
6.2087032685
 21
2.7538188891
 31
0.0
 11
6.2027022452
 21
2.7492682207
 31
0.0
 11
6.1968847362
 21
2.7443464501
 31
0.0
 11
6.1912714603
 21
2.7390766764
 31
0.0
 11
6.1858816822
 21
2.7334822847
 31
0.0
 11
6.1807340287
 21
2.7275866887
 31
0.0
 11
6.1758411223
 21
2.7214135753
 31
0.0
 11
6.1668568119
 21
2.7083301366
 31
0.0
 11
6.1627806048
 21
2.701466409
 31
0.0
 11
6.1589829545
 21
2.6944162564
 31
0.0
 11
6.1554623596
 21
2.6872000877
 31
0.0
 11
6.1522172503
 21
2.6798382794
 31
0.0
 11
6.1492430755
 21
2.6723497973
 31
0.0
 11
6.1465312135
 21
2.6647516809
 31
0.0
 11
6.14185877
 21
2.649294149
 31
0.0
  0
SPLINE
  5
2CD
100
AcDbEntity
  8
0
100
AcDbSpline
 62
6
  6
CONTINUOUS
 70
0
 71
3
 72
47
 73
43
 74
41
 42
0.0000001
 43
0.0000001
 44
0.0000000001
 12
-0.0738607023
 22
0.2123438733
 32
0.0
 13
-0.0738607023
 23
-0.2123438733
 33
0.0
 40
0.0
 40
0.0
 40
0.0
 40
0.0
 40
0.0312440715
 40
0.0624855655
 40
0.0937065837
 40
0.1249098411
 40
0.1560887418
 40
0.1872465129
 40
0.2184084403
 40
0.2495749805
 40
0.2651647894
 40
0.2807613061
 40
0.3119709656
 40
0.3432110905
 40
0.3588506292
 40
0.3745018253
 40
0.3901632924
 40
0.4058340741
 40
0.4215139056
 40
0.4372030647
 40
0.4685945463
 40
0.4999999988
 40
0.5314054458
 40
0.5627969126
 40
0.5784860621
 40
0.5941658842
 40
0.6098366566
 40
0.6254981143
 40
0.6411493006
 40
0.6567888299
 40
0.68802895
 40
0.7192386103
 40
0.7348351261
 40
0.7504249402
 40
0.7815914999
 40
0.8127534379
 40
0.843911217
 40
0.8750901287
 40
0.906293393
 40
0.9375144201
 40
0.9687559238
 40
1.0
 40
1.0
 40
1.0
 40
1.0
 10
6.14185877
 20
2.649294149
 30
0.0
 10
6.1410895337
 20
2.6515056447
 30
0.0
 10
6.1394501712
 20
2.6558942483
 30
0.0
 10
6.1366659075
 20
2.6623445275
 30
0.0
 10
6.1335338678
 20
2.6686307523
 30
0.0
 10
6.1300339022
 20
2.6747151315
 30
0.0
 10
6.1261518637
 20
2.680558262
 30
0.0
 10
6.1218763008
 20
2.6861171524
 30
0.0
 10
6.1171997295
 20
2.6913426381
 30
0.0
 10
6.112973446
 20
2.6953818391
 30
0.0
 10
6.10940258
 20
2.6983976296
 30
0.0
 10
6.1057053455
 20
2.7012624114
 30
0.0
 10
6.1008552825
 20
2.70454511
 30
0.0
 10
6.0957332893
 20
2.7073927932
 30
0.0
 10
6.0914915191
 20
2.7093877753
 30
0.0
 10
6.088241455
 20
2.7107393793
 30
0.0
 10
6.08493101
 20
2.7119422329
 30
0.0
 10
6.081566851
 20
2.7129927293
 30
0.0
 10
6.0781556764
 20
2.7138873437
 30
0.0
 10
6.0735541214
 20
2.7148672509
 30
0.0
 10
6.067720728
 20
2.7156893447
 30
0.0
 10
6.0606587707
 20
2.7160213505
 30
0.0
 10
6.0535968145
 20
2.7156893452
 30
0.0
 10
6.0477634232
 20
2.7148672523
 30
0.0
 10
6.0431618707
 20
2.7138873452
 30
0.0
 10
6.0397506981
 20
2.7129927317
 30
0.0
 10
6.0363865408
 20
2.711942237
 30
0.0
 10
6.0330760974
 20
2.7107393852
 30
0.0
 10
6.029826035
 20
2.7093877827
 30
0.0
 10
6.025584267
 20
2.7073928001
 30
0.0
 10
6.0204622736
 20
2.7045451197
 30
0.0
 10
6.0156122089
 20
2.701262424
 30
0.0
 10
6.0119149751
 20
2.6983976406
 30
0.0
 10
6.0083441077
 20
2.6953818491
 30
0.0
 10
6.0041178205
 20
2.6913426483
 30
0.0
 10
5.9994412461
 20
2.6861171614
 30
0.0
 10
5.9951656818
 20
2.6805582692
 30
0.0
 10
5.9912836413
 20
2.6747151377
 30
0.0
 10
5.9877836746
 20
2.6686307568
 30
0.0
 10
5.984651634
 20
2.6623445303
 30
0.0
 10
5.9818673695
 20
2.6558942496
 30
0.0
 10
5.9802280065
 20
2.651505645
 30
0.0
 10
5.97945877
 20
2.649294149
 30
0.0
 11
6.14185877
 21
2.649294149
 31
0.0
 11
6.139395788
 21
2.6558725728
 31
0.0
 11
6.1366070788
 21
2.6623190371
 31
0.0
 11
6.1334715471
 21
2.668598973
 31
0.0
 11
6.1299688456
 21
2.6746771468
 31
0.0
 11
6.1260850643
 21
2.6805126038
 31
0.0
 11
6.1218095756
 21
2.6860614717
 31
0.0
 11
6.1171342791
 21
2.6912791756
 31
0.0
 11
6.1120656438
 21
2.6961171813
 31
0.0
 11
6.1093874892
 21
2.6983781838
 31
0.0
 11
6.1066154781
 21
2.7005255476
 31
0.0
 11
6.1008033956
 21
2.7044565791
 31
0.0
 11
6.0946633214
 21
2.707866706
 31
0.0
 11
6.0914814768
 21
2.7093630371
 31
0.0
 11
6.0882324723
 21
2.7107141661
 31
0.0
 11
6.0849230579
 21
2.711916502
 31
0.0
 11
6.0815599995
 21
2.7129664664
 31
0.0
 11
6.0781500632
 21
2.7138604808
 31
0.0
 11
6.0747001527
 21
2.7145952152
 31
0.0
 11
6.0677116936
 21
2.7155801373
 31
0.0
 11
6.0606587703
 21
2.7159106656
 31
0.0
 11
6.0536058482
 21
2.7155801377
 31
0.0
 11
6.0466173923
 21
2.7145952165
 31
0.0
 11
6.043167484
 21
2.7138604824
 31
0.0
 11
6.0397575496
 21
2.7129664689
 31
0.0
 11
6.0363944929
 21
2.7119165061
 31
0.0
 11
6.0330850801
 21
2.7107141719
 31
0.0
 11
6.0298360775
 21
2.7093630442
 31
0.0
 11
6.0266542349
 21
2.7078667136
 31
0.0
 11
6.0205141607
 21
2.7044565891
 31
0.0
 11
6.0147020767
 21
2.7005255595
 31
0.0
 11
6.0119300661
 21
2.6983781953
 31
0.0
 11
6.0092519106
 21
2.6961171921
 31
0.0
 11
6.0041832705
 21
2.691279185
 31
0.0
 11
5.9995079714
 21
2.6860614803
 31
0.0
 11
5.9952324812
 21
2.6805126113
 31
0.0
 11
5.9913486979
 21
2.6746771527
 31
0.0
 11
5.9878459954
 21
2.6685989777
 31
0.0
 11
5.9847104628
 21
2.66231904
 31
0.0
 11
5.9819217526
 21
2.6558725738
 31
0.0
 11
5.97945877
 21
2.649294149
 31
0.0
  0
SPLINE
  5
2CE
100
AcDbEntity
  8
0
100
AcDbSpline
 62
6
  6
CONTINUOUS
 70
0
 71
3
 72
44
 73
40
 74
38
 42
0.0000001
 43
0.0000001
 44
0.0000000001
 12
-0.0601992476
 22
0.2241321805
 32
0.0
 13
-0.1416566937
 23
-0.1838275411
 33
0.0
 40
0.0
 40
0.0
 40
0.0
 40
0.0
 40
0.0695819962
 40
0.1043446676
 40
0.1390639011
 40
0.1737306245
 40
0.2083278456
 40
0.2428334653
 40
0.2772311133
 40
0.345618865
 40
0.3795605057
 40
0.413284997
 40
0.4467582147
 40
0.4799340488
 40
0.5127689561
 40
0.5452209761
 40
0.5772389922
 40
0.6087742046
 40
0.6397832731
 40
0.6702220724
 40
0.7000547223
 40
0.7292570974
 40
0.7578153214
 40
0.7718576995
 40
0.7857448701
 40
0.8130658899
 40
0.8398507078
 40
0.8530816988
 40
0.8662252985
 40
0.8793034355
 40
0.8923437009
 40
0.9053794397
 40
0.9184469475
 40
0.9315858568
 40
0.9448429292
 40
0.9582716196
 40
0.9719179363
 40
0.9858153461
 40
1.0
 40
1.0
 40
1.0
 40
1.0
 10
5.97945877
 20
2.649294149
 30
0.0
 10
5.9780625088
 20
2.6544926705
 30
0.0
 10
5.9757335504
 20
2.6622288624
 30
0.0
 10
5.9721199597
 20
2.6723632448
 30
0.0
 10
5.9691478869
 20
2.6798538227
 30
0.0
 10
5.965904521
 20
2.6872170669
 30
0.0
 10
5.9623856068
 20
2.6944344209
 30
0.0
 10
5.958589409
 20
2.7014866734
 30
0.0
 10
5.95316823
 20
2.710622136
 30
0.0
 10
5.9471792625
 20
2.7193608618
 30
0.0
 10
5.9406422162
 20
2.7276134262
 30
0.0
 10
5.9354960311
 20
2.7335110586
 30
0.0
 10
5.930107865
 20
2.7391064058
 30
0.0
 10
5.9244963985
 20
2.7443780223
 30
0.0
 10
5.918680667
 20
2.7493022938
 30
0.0
 10
5.9126815001
 20
2.7538549656
 30
0.0
 10
5.9065247113
 20
2.75801538
 30
0.0
 10
5.9002368997
 20
2.7617618459
 30
0.0
 10
5.8938457793
 20
2.7650720113
 30
0.0
 10
5.8873814399
 20
2.7679254657
 30
0.0
 10
5.8808747293
 20
2.7703012582
 30
0.0
 10
5.8743577879
 20
2.7721779304
 30
0.0
 10
5.8689140552
 20
2.7733127347
 30
0.0
 10
5.8645886681
 20
2.7739422427
 30
0.0
 10
5.8603359037
 20
2.7743794613
 30
0.0
 10
5.8550719087
 20
2.7745730939
 30
0.0
 10
5.8498624979
 20
2.7742594316
 30
0.0
 10
5.8457886264
 20
2.7736854417
 30
0.0
 10
5.842793215
 20
2.7730915436
 30
0.0
 10
5.8398519065
 20
2.7723269552
 30
0.0
 10
5.8369707404
 20
2.7713861193
 30
0.0
 10
5.8341560469
 20
2.7702637433
 30
0.0
 10
5.8314148556
 20
2.7689539661
 30
0.0
 10
5.8287553124
 20
2.7674500036
 30
0.0
 10
5.8261858136
 20
2.7657455058
 30
0.0
 10
5.8237159147
 20
2.7638345949
 30
0.0
 10
5.821355918
 20
2.7617144882
 30
0.0
 10
5.8191170027
 20
2.7593852631
 30
0.0
 10
5.8177285537
 20
2.7577115285
 30
0.0
 10
5.81705877
 20
2.7568423518
 30
0.0
 11
5.97945877
 21
2.649294149
 31
0.0
 11
5.9747863182
 21
2.6647516953
 31
0.0
 11
5.9720744507
 21
2.6723498231
 31
0.0
 11
5.969100274
 21
2.6798383134
 31
0.0
 11
5.9658551661
 21
2.6872001242
 31
0.0
 11
5.9623345681
 21
2.694416293
 31
0.0
 11
5.9585369148
 21
2.7014664426
 31
0.0
 11
5.9544607111
 21
2.7083301626
 31
0.0
 11
5.9454764217
 21
2.7214135769
 31
0.0
 11
5.9405835221
 21
2.7275866796
 31
0.0
 11
5.9354358716
 21
2.7334822685
 31
0.0
 11
5.930046097
 21
2.7390766579
 31
0.0
 11
5.9244328241
 21
2.7443464322
 31
0.0
 11
5.9186153146
 21
2.7492682049
 31
0.0
 11
5.9126142889
 21
2.753818876
 31
0.0
 11
5.9064556141
 21
2.7579763569
 31
0.0
 11
5.9001662918
 21
2.7617187822
 31
0.0
 11
5.8937739684
 21
2.7650244083
 31
0.0
 11
5.887309251
 21
2.7678720507
 31
0.0
 11
5.8808035962
 21
2.7702406851
 31
0.0
 11
5.8742889746
 21
2.7721087511
 31
0.0
 11
5.8677990414
 21
2.7734529301
 31
0.0
 11
5.8645739579
 21
2.7739211625
 31
0.0
 11
5.8613678447
 21
2.7742494475
 31
0.0
 11
5.8550311712
 21
2.7744710698
 31
0.0
 11
5.8488269872
 21
2.7740862255
 31
0.0
 11
5.845786648
 21
2.77365625
 31
0.0
 11
5.8427948934
 21
2.7730614344
 31
0.0
 11
5.8398577767
 21
2.7722963889
 31
0.0
 11
5.8369813513
 21
2.7713557236
 31
0.0
 11
5.8341717014
 21
2.7702340352
 31
0.0
 11
5.8314358773
 21
2.7689255064
 31
0.0
 11
5.8287820602
 21
2.7674238352
 31
0.0
 11
5.8262184962
 21
2.7657226916
 31
0.0
 11
5.8237534818
 21
2.7638158314
 31
0.0
 11
5.8213970539
 21
2.7616999368
 31
0.0
 11
5.8191613828
 21
2.7593752798
 31
0.0
 11
5.81705877
 21
2.7568423518
 31
0.0
  0
SPLINE
  5
2CF
100
AcDbEntity
  8
0
100
AcDbSpline
 62
6
  6
CONTINUOUS
 70
0
 71
3
 72
36
 73
32
 74
30
 42
0.0000001
 43
0.0000001
 44
0.0000000001
 12
-0.046437118
 22
0.1359270676
 32
0.0
 13
-0.1136797824
 23
0.0878041486
 33
0.0
 40
0.0
 40
0.0
 40
0.0
 40
0.0
 40
0.0559272622
 40
0.1110138195
 40
0.165142895
 40
0.2181923811
 40
0.2700588248
 40
0.320658847
 40
0.3699036531
 40
0.4177013013
 40
0.4639731093
 40
0.5086415371
 40
0.5928338682
 40
0.6697654696
 40
0.7053789315
 40
0.7390250379
 40
0.7706820351
 40
0.8003275921
 40
0.8279357297
 40
0.8534868955
 40
0.8769800505
 40
0.898414546
 40
0.917787445
 40
0.9350959614
 40
0.9635452911
 40
0.9747011055
 40
0.9838190828
 40
0.9909039641
 40
0.9959598194
 40
0.998990569
 40
1.0
 40
1.0
 40
1.0
 40
1.0
 10
5.81705877
 20
2.7568423518
 30
0.0
 10
5.8161930697
 20
2.7593763614
 30
0.0
 10
5.8143934647
 20
2.7643789499
 30
0.0
 10
5.8114836369
 20
2.7717324248
 30
0.0
 10
5.808404294
 20
2.7788667204
 30
0.0
 10
5.8051768009
 20
2.7857652831
 30
0.0
 10
5.8018235804
 20
2.7924148155
 30
0.0
 10
5.7983688242
 20
2.7988057148
 30
0.0
 10
5.7948356096
 20
2.8049295816
 30
0.0
 10
5.791246324
 20
2.8107788419
 30
0.0
 10
5.7876246049
 20
2.8163483978
 30
0.0
 10
5.782876793
 20
2.8232610524
 30
0.0
 10
5.7770076187
 20
2.831180628
 30
0.0
 10
5.7710582752
 20
2.8384880017
 30
0.0
 10
5.7664666617
 20
2.8437717401
 30
0.0
 10
5.7632249724
 20
2.8473552876
 30
0.0
 10
5.760111124
 20
2.8506679677
 30
0.0
 10
5.7571394507
 20
2.8537165043
 30
0.0
 10
5.7543239357
 20
2.8565081334
 30
0.0
 10
5.751677032
 20
2.8590507374
 30
0.0
 10
5.7492082043
 20
2.8613514338
 30
0.0
 10
5.7469263334
 20
2.8634183543
 30
0.0
 10
5.7448399854
 20
2.8652596568
 30
0.0
 10
5.742479018
 20
2.867297047
 30
0.0
 10
5.7403896473
 20
2.8690467492
 30
0.0
 10
5.7385803376
 20
2.8705194176
 30
0.0
 10
5.7375593449
 20
2.8713401029
 30
0.0
 10
5.7367632462
 20
2.8719743695
 30
0.0
 10
5.7361929645
 20
2.8724243221
 30
0.0
 10
5.7358499472
 20
2.8726926846
 30
0.0
 10
5.7356970207
 20
2.8728111507
 30
0.0
 10
5.73565877
 20
2.8728406948
 30
0.0
 11
5.81705877
 21
2.7568423518
 31
0.0
 11
5.8143401253
 21
2.7644017661
 31
0.0
 11
5.8114290573
 21
2.771759471
 31
0.0
 11
5.8083478383
 21
2.778898003
 31
0.0
 11
5.8051187553
 21
2.7858000464
 31
0.0
 11
5.8017645067
 21
2.7924523602
 31
0.0
 11
5.7983082435
 21
2.7988461938
 31
0.0
 11
5.79477314
 21
2.804973027
 31
0.0
 11
5.7911823683
 21
2.8108248514
 31
0.0
 11
5.7875590862
 21
2.8163969087
 31
0.0
 11
5.7839264454
 21
2.8216857123
 31
0.0
 11
5.7767248692
 21
2.83140107
 31
0.0
 11
5.7697473778
 21
2.8399700786
 31
0.0
 11
5.7663917919
 21
2.84383126
 31
0.0
 11
5.7631494174
 21
2.8474151585
 31
0.0
 11
5.7600348914
 21
2.8507283112
 31
0.0
 11
5.7570624709
 21
2.8537775472
 31
0.0
 11
5.754246404
 21
2.856569698
 31
0.0
 11
5.7515993354
 21
2.8591119908
 31
0.0
 11
5.7491304616
 21
2.8614125047
 31
0.0
 11
5.7468485316
 21
2.8634794289
 31
0.0
 11
5.7447622947
 21
2.8653209528
 31
0.0
 11
5.7428798467
 21
2.8669450199
 31
0.0
 11
5.7397461308
 21
2.8695678227
 31
0.0
 11
5.7385035323
 21
2.8705796122
 31
0.0
 11
5.7374828087
 21
2.8714002608
 31
0.0
 11
5.7366866803
 21
2.8720341715
 31
0.0
 11
5.7361164584
 21
2.8724838937
 31
0.0
 11
5.7357734019
 21
2.8727519079
 31
0.0
 11
5.73565877
 21
2.8728406948
 31
0.0
  0
ELLIPSE
  5
2D0
100
AcDbEntity
  8
0
100
AcDbEllipse
 62
7
  6
CONTINUOUS
 10
6.06065877
 20
5.1377515328
 30
0.0
 11
0.9337024059
 21
0.417850873
 31
0.0
 40
0.6246663258
 41
2.6012078026
 42
2.6063101801
  0
ELLIPSE
  5
2D1
100
AcDbEntity
  8
0
100
AcDbEllipse
 62
7
  6
CONTINUOUS
 10
6.06065877
 20
5.021255462
 30
0.0
 11
0.9337024059
 21
-0.417850873
 31
0.0
 40
0.6246663258
 41
-2.6063101801
 42
-2.6012078026
  0
ELLIPSE
  5
2D2
100
AcDbEntity
  8
0
100
AcDbEllipse
 62
7
  6
CONTINUOUS
 10
6.06065877
 20
4.9593593975
 30
0.0
 11
-0.5157921422
 21
1.4028664959
 31
0.0
 40
0.5851642007
 41
1.2648458323
 42
1.272503669
  0
ELLIPSE
  5
2D3
100
AcDbEntity
  8
0
100
AcDbEllipse
 62
7
  6
CONTINUOUS
 10
6.06065877
 20
4.8246232365
 30
0.0
 11
-0.3678479124
 21
2.8676273828
 31
0.0
 40
0.3128039274
 41
1.4315508783
 42
1.436659149
  0
ELLIPSE
  5
2D4
100
AcDbEntity
  8
0
100
AcDbEllipse
 62
7
  6
CONTINUOUS
 10
6.06065877
 20
5.4747123229
 30
0.0
 11
0.3541172166
 21
3.5863136606
 31
0.0
 40
0.2516550235
 41
-4.5935119134
 42
-4.5884036427
  0
ELLIPSE
  5
2D5
100
AcDbEntity
  8
0
100
AcDbEllipse
 62
7
  6
CONTINUOUS
 10
6.06065877
 20
5.2726078936
 30
0.0
 11
0.5157921422
 21
1.4028664959
 31
0.0
 40
0.5851642007
 41
-4.4140963225
 42
-4.4064384859
  0
ELLIPSE
  5
2D6
100
AcDbEntity
  8
0
100
AcDbEllipse
 62
7
  6
CONTINUOUS
 10
6.06065877
 20
5.2230910444
 30
0.0
 11
0.8713243747
 21
0.6194169187
 31
0.0
 40
0.6863173103
 41
-3.8709533301
 42
-3.8582013196
  0
ELLIPSE
  5
2D7
100
AcDbEntity
  8
0
100
AcDbEllipse
 62
7
  6
CONTINUOUS
 10
6.06065877
 20
5.1808702297
 30
0.0
 11
0.9690592843
 21
0.1062436467
 31
0.0
 40
0.2751160055
 41
2.8232569308
 42
2.835996958
  0
ELLIPSE
  5
2D8
100
AcDbEntity
  8
0
100
AcDbEllipse
 62
7
  6
CONTINUOUS
 10
6.06065877
 20
5.1488638522
 30
0.0
 11
0.969059284
 21
-0.1062436643
 31
0.0
 40
0.2751160439
 41
-2.8130721217
 42
-2.8003483937
  0
ELLIPSE
  5
2D9
100
AcDbEntity
  8
0
100
AcDbEllipse
 62
7
  6
CONTINUOUS
 10
6.06065877
 20
5.1270719211
 30
0.0
 11
-0.8713244492
 21
0.6194167252
 31
0.0
 40
0.686317278
 41
0.7650090563
 42
0.7777266395
  0
ELLIPSE
  5
2DA
100
AcDbEntity
  8
0
100
AcDbEllipse
 62
7
  6
CONTINUOUS
 10
6.06065877
 20
5.1125760087
 30
0.0
 11
-0.5157921422
 21
1.4028664959
 31
0.0
 40
0.5851642007
 41
1.3336218178
 42
1.3412502738
  0
ELLIPSE
  5
2DB
100
AcDbEntity
  8
0
100
AcDbEllipse
 62
7
  6
CONTINUOUS
 10
6.06065877
 20
5.0746324117
 30
0.0
 11
-0.3541172399
 21
3.5863118948
 31
0.0
 40
0.2516551449
 41
1.5283236754
 42
1.5334087178
  0
ELLIPSE
  5
2DC
100
AcDbEntity
  8
0
100
AcDbEllipse
 62
7
  6
CONTINUOUS
 10
6.06065877
 20
5.1446869861
 30
0.0
 11
0.367847951
 21
2.8676259677
 31
0.0
 40
0.3128040763
 41
-4.6597412434
 42
-4.654656201
  0
ELLIPSE
  5
2DD
100
AcDbEntity
  8
0
100
AcDbEllipse
 62
7
  6
CONTINUOUS
 10
6.06065877
 20
5.1193912824
 30
0.0
 11
0.5157921422
 21
1.4028664959
 31
0.0
 40
0.5851642007
 41
-4.4828429274
 42
-4.4752144714
  0
ELLIPSE
  5
2DE
100
AcDbEntity
  8
0
100
AcDbEllipse
 62
7
  6
CONTINUOUS
 10
6.06065877
 20
5.1012713884
 30
0.0
 11
0.9337024772
 21
0.4178505642
 31
0.0
 40
0.6246661769
 41
2.5451923044
 42
2.5502787336
  0
ELLIPSE
  5
2DF
100
AcDbEntity
  8
0
100
AcDbEllipse
 62
7
  6
CONTINUOUS
 10
6.06065877
 20
5.0577356063
 30
0.0
 11
0.9337024772
 21
-0.4178505642
 31
0.0
 40
0.6246661769
 41
-2.5502787336
 42
-2.5451923044
  0
ELLIPSE
  5
2E0
100
AcDbEntity
  8
0
100
AcDbEllipse
 62
7
  6
CONTINUOUS
 10
6.06065877
 20
5.0486756485
 30
0.0
 11
-0.7093073323
 21
0.9587320664
 31
0.0
 40
0.6893673371
 41
1.0739067891
 42
1.0840778115
  0
ELLIPSE
  5
2E1
100
AcDbEntity
  8
0
100
AcDbEllipse
 62
7
  6
CONTINUOUS
 10
6.06065877
 20
5.0107921583
 30
0.0
 11
-0.3541172532
 21
3.5863108888
 31
0.0
 40
0.251655214
 41
1.530866227
 42
1.5359510908
  0
ELLIPSE
  5
2E2
100
AcDbEntity
  8
0
100
AcDbEllipse
 62
7
  6
CONTINUOUS
 10
6.06065877
 20
5.0716065207
 30
0.0
 11
0.3541172599
 21
3.5863103858
 31
0.0
 40
0.2516552486
 41
-4.677543737
 42
-4.6724588732
  0
ELLIPSE
  5
2E3
100
AcDbEntity
  8
0
100
AcDbEllipse
 62
7
  6
CONTINUOUS
 10
6.06065877
 20
5.039134966
 30
0.0
 11
0.515792087
 21
1.4028666799
 31
0.0
 40
0.5851641487
 41
-4.485385561
 42
-4.4777574963
  0
ELLIPSE
  5
2E4
100
AcDbEntity
  8
0
100
AcDbEllipse
 62
7
  6
CONTINUOUS
 10
6.06065877
 20
5.0260982674
 30
0.0
 11
0.8713241055
 21
0.6194176174
 31
0.0
 40
0.6863174268
 41
-3.9218630593
 42
-3.9091464651
  0
ELLIPSE
  5
2E5
100
AcDbEntity
  8
0
100
AcDbEllipse
 62
7
  6
CONTINUOUS
 10
6.06065877
 20
5.0057655222
 30
0.0
 11
0.9690592844
 21
0.1062436398
 31
0.0
 40
0.2751159905
 41
2.7978044598
 42
2.8105267963
  0
ELLIPSE
  5
2E6
100
AcDbEntity
  8
0
100
AcDbEllipse
 62
7
  6
CONTINUOUS
 10
6.06065877
 20
4.973759146
 30
0.0
 11
0.9690592841
 21
-0.1062436575
 31
0.0
 40
0.275116029
 41
-2.8385463295
 42
-2.8258040739
  0
ELLIPSE
  5
2E7
100
AcDbEntity
  8
0
100
AcDbEllipse
 62
7
  6
CONTINUOUS
 10
6.06065877
 20
4.9300791164
 30
0.0
 11
-0.8713242918
 21
0.6194171338
 31
0.0
 40
0.6863173461
 41
0.7140568349
 42
0.7268114943
  0
ELLIPSE
  5
2E8
100
AcDbEntity
  8
0
100
AcDbEllipse
 62
7
  6
CONTINUOUS
 10
6.06065877
 20
4.8791030509
 30
0.0
 11
-0.5157920588
 21
1.4028667739
 31
0.0
 40
0.5851641221
 41
1.2622921148
 42
1.2699517446
  0
ELLIPSE
  5
2E9
100
AcDbEntity
  8
0
100
AcDbEllipse
 62
7
  6
CONTINUOUS
 10
6.06065877
 20
4.6715267804
 30
0.0
 11
-0.3541172387
 21
3.5863119911
 31
0.0
 40
0.2516551382
 41
1.4442558639
 42
1.4493654161
  0
ELLIPSE
  5
2EA
100
AcDbEntity
  8
0
100
AcDbEllipse
 62
7
  6
CONTINUOUS
 10
6.06065877
 20
5.4108719546
 30
0.0
 11
0.354117232
 21
3.5863124941
 31
0.0
 40
0.2516551037
 41
-4.5909580771
 42
-4.5858485249
  0
ELLIPSE
  5
2EB
100
AcDbEntity
  8
0
100
AcDbEllipse
 62
7
  6
CONTINUOUS
 10
6.06065877
 20
5.1686995701
 30
0.0
 11
0.7093075179
 21
0.9587317148
 31
0.0
 40
0.6893673822
 41
-4.1543810131
 42
-4.1441693573
  0
ELLIPSE
  5
2EC
100
AcDbEntity
  8
0
100
AcDbEllipse
 62
7
  6
CONTINUOUS
 10
6.06065877
 20
5.0382830716
 30
0.0
 11
0.7093079262
 21
0.9587309413
 31
0.0
 40
0.6893674814
 41
-4.2790663028
 42
-4.2688917277
  0
ELLIPSE
  5
2ED
100
AcDbEntity
  8
0
100
AcDbEllipse
 62
7
  6
CONTINUOUS
 10
6.06065877
 20
5.0669560136
 30
0.0
 11
0.8713241511
 21
0.619417499
 31
0.0
 40
0.6863174071
 41
-3.9803437747
 42
-3.9676270558
  0
ELLIPSE
  5
2EE
100
AcDbEntity
  8
0
100
AcDbEllipse
 62
7
  6
CONTINUOUS
 10
6.06065877
 20
5.0874810505
 30
0.0
 11
0.9690592834
 21
0.1062436996
 31
0.0
 40
0.2751161207
 41
2.7138845034
 42
2.7266070117
  0
ELLIPSE
  5
2EF
100
AcDbEntity
  8
0
100
AcDbEllipse
 62
7
  6
CONTINUOUS
 10
6.06065877
 20
5.1196797139
 30
0.0
 11
0.9690592856
 21
-0.1062435584
 31
0.0
 40
0.2751158134
 41
-2.6986070031
 42
-2.6858644385
  0
ELLIPSE
  5
2F0
100
AcDbEntity
  8
0
100
AcDbEllipse
 62
7
  6
CONTINUOUS
 10
6.06065877
 20
5.1635520791
 30
0.0
 11
-0.8713241511
 21
0.619417499
 31
0.0
 40
0.6863174071
 41
0.879493768
 42
0.8922487784
  0
ELLIPSE
  5
2F1
100
AcDbEntity
  8
0
100
AcDbEllipse
 62
7
  6
CONTINUOUS
 10
6.06065877
 20
4.9297906424
 30
0.0
 11
0.8713241055
 21
0.6194176174
 31
0.0
 40
0.6863174268
 41
-4.0338415392
 42
-4.0210865289
  0
ELLIPSE
  5
2F2
100
AcDbEntity
  8
0
100
AcDbEllipse
 62
7
  6
CONTINUOUS
 10
6.06065877
 20
4.9736630115
 30
0.0
 11
0.9690592854
 21
0.1062435692
 31
0.0
 40
0.2751158369
 41
2.6858644329
 42
2.6986069975
  0
ELLIPSE
  5
2F3
100
AcDbEntity
  8
0
100
AcDbEllipse
 62
7
  6
CONTINUOUS
 10
6.06065877
 20
5.0058616777
 30
0.0
 11
0.9690592833
 21
-0.1062437105
 31
0.0
 40
0.2751161442
 41
-2.726607006
 42
-2.7138844977
  0
ELLIPSE
  5
2F4
100
AcDbEntity
  8
0
100
AcDbEllipse
 62
7
  6
CONTINUOUS
 10
6.06065877
 20
5.0506398415
 30
0.0
 11
-0.4220345965
 21
1.9034763023
 31
0.0
 40
0.4585406789
 41
1.4848993014
 42
1.4925274221
  0
ELLIPSE
  5
2F5
100
AcDbEntity
  8
0
100
AcDbEllipse
 62
7
  6
CONTINUOUS
 10
6.06065877
 20
5.0653922201
 30
0.0
 11
-0.367847825
 21
2.8676305881
 31
0.0
 40
0.3128035903
 41
1.5410292945
 42
1.5461141727
  0
ELLIPSE
  5
2F6
100
AcDbEntity
  8
0
100
AcDbEllipse
 62
7
  6
CONTINUOUS
 10
6.06065877
 20
5.1091682103
 30
0.0
 11
-0.3678480496
 21
2.867622355
 31
0.0
 40
0.3128044563
 41
1.556285014
 42
1.5613714981
  0
ELLIPSE
  5
2F7
100
AcDbEntity
  8
0
100
AcDbEllipse
 62
7
  6
CONTINUOUS
 10
6.06065877
 20
5.0504796281
 30
0.0
 11
-0.8042255874
 21
0.7734501439
 31
0.0
 40
0.7000252448
 41
0.9722826009
 42
0.9799138428
  0
ELLIPSE
  5
2F8
100
AcDbEntity
  8
0
100
AcDbEllipse
 62
7
  6
CONTINUOUS
 10
6.06065877
 20
5.0275793938
 30
0.0
 11
0.9683361372
 21
-0.1390629144
 31
0.0
 40
0.3415058114
 41
-2.7052120566
 42
-2.6950335265
  0
ELLIPSE
  5
2F9
100
AcDbEntity
  8
0
100
AcDbEllipse
 62
7
  6
CONTINUOUS
 10
6.06065877
 20
4.987331048
 30
0.0
 11
0.9683361446
 21
0.139062664
 31
0.0
 40
0.3415053426
 41
2.6695629887
 42
2.6797561081
  0
ELLIPSE
  5
2FA
100
AcDbEntity
  8
0
100
AcDbEllipse
 62
7
  6
CONTINUOUS
 10
6.06065877
 20
4.9431507073
 30
0.0
 11
0.8042255874
 21
0.7734501439
 31
0.0
 40
0.7000252448
 41
-4.164805553
 42
-4.15715572
  0
ELLIPSE
  5
2FB
100
AcDbEntity
  8
0
100
AcDbEllipse
 62
7
  6
CONTINUOUS
 10
6.06065877
 20
4.8456698072
 30
0.0
 11
0.4003291789
 21
2.146142711
 31
0.0
 40
0.4114299686
 41
1.5606800957
 42
1.5657826121
  0
ELLIPSE
  5
2FC
100
AcDbEntity
  8
0
100
AcDbEllipse
 62
7
  6
CONTINUOUS
 10
6.06065877
 20
4.6592614618
 30
0.0
 11
0.346985054
 21
4.3042755209
 31
0.0
 40
0.2103210759
 41
1.498485551
 42
1.5010376571
  0
ELLIPSE
  5
2FD
100
AcDbEntity
  8
0
100
AcDbEllipse
 62
7
  6
CONTINUOUS
 10
6.06065877
 20
5.4340814443
 30
0.0
 11
-0.3469850391
 21
4.3042775318
 31
0.0
 40
0.210320979
 41
-4.6426302942
 42
-4.6400781881
  0
ELLIPSE
  5
2FE
100
AcDbEntity
  8
0
100
AcDbEllipse
 62
7
  6
CONTINUOUS
 10
6.06065877
 20
5.2476728814
 30
0.0
 11
-0.4003292157
 21
2.1461422031
 31
0.0
 40
0.4114300582
 41
-4.7073753074
 42
-4.7022727909
  0
ELLIPSE
  5
2FF
100
AcDbEntity
  8
0
100
AcDbEllipse
 62
7
  6
CONTINUOUS
 10
6.06065877
 20
5.1501920222
 30
0.0
 11
-0.8042255874
 21
0.7734501439
 31
0.0
 40
0.7000252448
 41
1.0155630664
 42
1.0232128994
  0
ELLIPSE
  5
300
100
AcDbEntity
  8
0
100
AcDbEllipse
 62
7
  6
CONTINUOUS
 10
6.06065877
 20
5.1060116816
 30
0.0
 11
0.9683361446
 21
-0.139062664
 31
0.0
 40
0.3415053426
 41
-2.6797561081
 42
-2.6695629887
  0
ELLIPSE
  5
301
100
AcDbEntity
  8
0
100
AcDbEllipse
 62
7
  6
CONTINUOUS
 10
6.06065877
 20
5.0657633358
 30
0.0
 11
0.9683361372
 21
0.1390629144
 31
0.0
 40
0.3415058114
 41
2.6950335265
 42
2.7052120566
  0
ELLIPSE
  5
302
100
AcDbEntity
  8
0
100
AcDbEllipse
 62
7
  6
CONTINUOUS
 10
6.06065877
 20
5.0727393782
 30
0.0
 11
0.9565963575
 21
0.2912588706
 31
0.0
 40
0.541272552
 41
-0.4887317412
 42
-0.4702995801
  0
ELLIPSE
  5
303
100
AcDbEntity
  8
0
100
AcDbEllipse
 62
7
  6
CONTINUOUS
 10
6.06065877
 20
5.0894088482
 30
0.0
 11
0.9694070459
 21
0.0702989135
 31
0.0
 40
0.1909695906
 41
-0.3208119948
 42
-0.3023654873
  0
ELLIPSE
  5
304
100
AcDbEntity
  8
0
100
AcDbEllipse
 62
7
  6
CONTINUOUS
 10
6.06065877
 20
5.1177519508
 30
0.0
 11
0.9694070454
 21
-0.070299
 31
0.0
 40
0.1909698069
 41
0.2617015324
 42
0.2802019031
  0
ELLIPSE
  5
305
100
AcDbEntity
  8
0
100
AcDbEllipse
 62
7
  6
CONTINUOUS
 10
6.06065877
 20
5.2445087736
 30
0.0
 11
-0.5600268661
 21
1.2734705078
 31
0.0
 40
0.6214445296
 41
-1.968459128
 42
-1.9573185418
  0
ELLIPSE
  5
306
100
AcDbEntity
  8
0
100
AcDbEllipse
 62
7
  6
CONTINUOUS
 10
6.06065877
 20
4.6980708851
 30
0.0
 11
0.3817367379
 21
2.4714842758
 31
0.0
 40
0.3605861895
 41
-1.3842710587
 42
-1.3768349866
  0
ELLIPSE
  5
307
100
AcDbEntity
  8
0
100
AcDbEllipse
 62
7
  6
CONTINUOUS
 10
6.06065877
 20
4.8488339408
 30
0.0
 11
0.5600268144
 21
1.2734706421
 31
0.0
 40
0.6214444929
 41
-1.1842741772
 42
-1.1731335909
  0
ELLIPSE
  5
308
100
AcDbEntity
  8
0
100
AcDbEllipse
 62
7
  6
CONTINUOUS
 10
6.06065877
 20
4.9755907748
 30
0.0
 11
0.9694070454
 21
0.0702990066
 31
0.0
 40
0.1909698234
 41
-0.2802019056
 42
-0.2617015349
  0
ELLIPSE
  5
309
100
AcDbEntity
  8
0
100
AcDbEllipse
 62
7
  6
CONTINUOUS
 10
6.06065877
 20
5.0039338798
 30
0.0
 11
0.9694070458
 21
-0.0702989201
 31
0.0
 40
0.1909696071
 41
0.3023654898
 42
0.3208119973
  0
ELLIPSE
  5
30A
100
AcDbEntity
  8
0
100
AcDbEllipse
 62
7
  6
CONTINUOUS
 10
6.06065877
 20
5.0206033513
 30
0.0
 11
0.9565963516
 21
-0.2912589154
 31
0.0
 40
0.5412725914
 41
0.4702996175
 42
0.4887317785
  0
ELLIPSE
  5
30B
100
AcDbEntity
  8
0
100
AcDbEllipse
 62
7
  6
CONTINUOUS
 10
6.06065877
 20
5.0377879659
 30
0.0
 11
-0.5600268144
 21
1.2734706421
 31
0.0
 40
0.6214444929
 41
-1.8612406191
 42
-1.8501855787
  0
ELLIPSE
  5
30C
100
AcDbEntity
  8
0
100
AcDbEllipse
 62
7
  6
CONTINUOUS
 10
6.06065877
 20
5.0461143087
 30
0.0
 11
-0.414991546
 21
1.9716482775
 31
0.0
 40
0.4443956471
 41
-1.6766755349
 42
-1.6693064443
  0
ELLIPSE
  5
30D
100
AcDbEntity
  8
0
100
AcDbEllipse
 62
7
  6
CONTINUOUS
 10
6.06065877
 20
5.0898904672
 30
0.0
 11
-0.414991546
 21
1.9716482775
 31
0.0
 40
0.4443956471
 41
-1.6987885097
 42
-1.6914161614
  0
ELLIPSE
  5
30E
100
AcDbEntity
  8
0
100
AcDbEllipse
 62
7
  6
CONTINUOUS
 10
6.06065877
 20
5.0440536698
 30
0.0
 11
0.9468855627
 21
-0.3536864557
 31
0.0
 40
0.588594106
 41
0.5196885314
 42
0.5307507159
  0
ELLIPSE
  5
30F
100
AcDbEntity
  8
0
100
AcDbEllipse
 62
7
  6
CONTINUOUS
 10
6.06065877
 20
5.0251696409
 30
0.0
 11
0.9692645818
 21
-0.0897659728
 31
0.0
 40
0.2379966242
 41
0.3105556307
 42
0.3253141803
  0
ELLIPSE
  5
310
100
AcDbEntity
  8
0
100
AcDbEllipse
 62
7
  6
CONTINUOUS
 10
6.06065877
 20
4.9897407467
 30
0.0
 11
0.9692645804
 21
0.0897661165
 31
0.0
 40
0.2379969588
 41
-0.2883920801
 42
-0.2735943692
  0
ELLIPSE
  5
311
100
AcDbEntity
  8
0
100
AcDbEllipse
 62
7
  6
CONTINUOUS
 10
6.06065877
 20
4.9495766656
 30
0.0
 11
0.9468855627
 21
0.3536864557
 31
0.0
 40
0.588594106
 41
-0.4679686539
 42
-0.4568564648
  0
ELLIPSE
  5
312
100
AcDbEntity
  8
0
100
AcDbEllipse
 62
7
  6
CONTINUOUS
 10
6.06065877
 20
4.6881761884
 30
0.0
 11
0.3652517101
 21
2.9683376859
 31
0.0
 40
0.3025482548
 41
-1.4175480146
 42
-1.4138378854
  0
ELLIPSE
  5
313
100
AcDbEntity
  8
0
100
AcDbEllipse
 62
7
  6
CONTINUOUS
 10
6.06065877
 20
5.4051667043
 30
0.0
 11
-0.3652516763
 21
2.968339076
 31
0.0
 40
0.3025481177
 41
-1.7277547305
 42
-1.7240446013
  0
ELLIPSE
  5
314
100
AcDbEntity
  8
0
100
AcDbEllipse
 62
7
  6
CONTINUOUS
 10
6.06065877
 20
5.143766064
 30
0.0
 11
0.9468855627
 21
-0.3536864557
 31
0.0
 40
0.588594106
 41
0.4568564648
 42
0.4679686539
  0
ELLIPSE
  5
315
100
AcDbEntity
  8
0
100
AcDbEllipse
 62
7
  6
CONTINUOUS
 10
6.06065877
 20
5.1036019828
 30
0.0
 11
0.9692645804
 21
-0.0897661165
 31
0.0
 40
0.2379969588
 41
0.2735943692
 42
0.2883920801
  0
ELLIPSE
  5
316
100
AcDbEntity
  8
0
100
AcDbEllipse
 62
7
  6
CONTINUOUS
 10
6.06065877
 20
5.0681730887
 30
0.0
 11
0.9692645818
 21
0.0897659728
 31
0.0
 40
0.2379966242
 41
-0.3253141803
 42
-0.3105556307
  0
ELLIPSE
  5
317
100
AcDbEntity
  8
0
100
AcDbEllipse
 62
7
  6
CONTINUOUS
 10
6.06065877
 20
5.3020533219
 30
0.0
 11
0.6486801538
 21
1.0636132001
 31
0.0
 40
0.6711698637
 41
-1.3256157268
 42
-1.3032004624
  0
ELLIPSE
  5
318
100
AcDbEntity
  8
0
100
AcDbEllipse
 62
6
  6
CONTINUOUS
 10
6.06065877
 20
5.2728692629
 30
0.0
 11
0.6519973776
 21
1.0690534399
 31
0.0
 40
0.6711697407
 41
-1.3248817727
 42
-1.3025825674
  0
ELLIPSE
  5
319
100
AcDbEntity
  8
0
100
AcDbEllipse
 62
7
  6
CONTINUOUS
 10
6.06065877
 20
5.2728692629
 30
0.0
 11
0.6486798435
 21
1.063613815
 31
0.0
 40
0.6711697407
 41
-1.3256161613
 42
-1.3152367453
  0
ELLIPSE
  5
31A
100
AcDbEntity
  8
0
100
AcDbEllipse
 62
7
  6
CONTINUOUS
 10
6.06065877
 20
5.2169329712
 30
0.0
 11
0.6486803386
 21
1.0636128338
 31
0.0
 40
0.6711699369
 41
-1.2511147927
 42
-1.2288578778
  0
ELLIPSE
  5
31B
100
AcDbEntity
  8
0
100
AcDbEllipse
 62
6
  6
CONTINUOUS
 10
6.06065877
 20
5.1877488782
 30
0.0
 11
0.6519975633
 21
1.0690530718
 31
0.0
 40
0.671169814
 41
-1.2507643659
 42
-1.2286210799
  0
ELLIPSE
  5
31C
100
AcDbEntity
  8
0
100
AcDbEllipse
 62
7
  6
CONTINUOUS
 10
6.06065877
 20
5.1877488782
 30
0.0
 11
0.6486800283
 21
1.0636134487
 31
0.0
 40
0.671169814
 41
-1.2511152273
 42
-1.2390715504
  0
ELLIPSE
  5
31D
100
AcDbEntity
  8
0
100
AcDbEllipse
 62
6
  6
CONTINUOUS
 10
6.06065877
 20
5.0455122469
 30
0.0
 11
0.9261183632
 21
0.4490223105
 31
0.0
 40
0.6386464466
 41
-0.6183052266
 42
-0.6035566623
  0
ELLIPSE
  5
31E
100
AcDbEntity
  8
0
100
AcDbEllipse
 62
7
  6
CONTINUOUS
 10
6.06065877
 20
5.2332140009
 30
0.0
 11
-0.4977182253
 21
1.4501651948
 31
0.0
 40
0.569753021
 41
-1.880540491
 42
-1.8730865367
  0
ELLIPSE
  5
31F
100
AcDbEntity
  8
0
100
AcDbEllipse
 62
7
  6
CONTINUOUS
 10
6.06065877
 20
4.8601286911
 30
0.0
 11
0.4977181254
 21
1.4501655677
 31
0.0
 40
0.5697529161
 41
-1.2685062378
 42
-1.2610522835
  0
ELLIPSE
  5
320
100
AcDbEntity
  8
0
100
AcDbEllipse
 62
6
  6
CONTINUOUS
 10
6.06065877
 20
4.9355740076
 30
0.0
 11
0.9565963516
 21
0.2912589154
 31
0.0
 40
0.5412725914
 41
-0.4111891223
 42
-0.3926539211
  0
ELLIPSE
  5
321
100
AcDbEntity
  8
0
100
AcDbEllipse
 62
6
  6
CONTINUOUS
 10
6.06065877
 20
5.3952718897
 30
0.0
 11
-0.3817367223
 21
2.4714846244
 31
0.0
 40
0.3605861413
 41
-1.7647576494
 42
-1.7573215773
  0
ELLIPSE
  5
322
100
AcDbEntity
  8
0
100
AcDbEllipse
 62
7
  6
CONTINUOUS
 10
6.06065877
 20
5.3952718897
 30
0.0
 11
-0.3797943455
 21
2.4589090609
 31
0.0
 40
0.3605861413
 41
-1.7654696597
 42
-1.762496858
  0
ELLIPSE
  5
323
100
AcDbEntity
  8
0
100
AcDbEllipse
 62
6
  6
CONTINUOUS
 10
6.06065877
 20
5.1577687145
 30
0.0
 11
0.9565963575
 21
-0.2912588706
 31
0.0
 40
0.541272552
 41
0.3926538838
 42
0.411189085
  0
ELLIPSE
  5
324
100
AcDbEntity
  8
0
100
AcDbEllipse
 62
6
  6
CONTINUOUS
 10
6.06065877
 20
5.0263867164
 30
0.0
 11
-0.8713241055
 21
0.6194176174
 31
0.0
 40
0.6863174268
 41
0.8260345095
 42
0.8387512283
  0
ELLIPSE
  5
325
100
AcDbEntity
  8
0
100
AcDbEllipse
 62
7
  6
CONTINUOUS
 10
6.06065877
 20
4.8359820232
 30
0.0
 11
0.4198869703
 21
1.8937927656
 31
0.0
 40
0.4585402825
 41
-4.7084918227
 42
-4.7007924332
  0
ELLIPSE
  5
326
100
AcDbEntity
  8
0
100
AcDbEllipse
 62
7
  6
CONTINUOUS
 10
6.06065877
 20
4.673972591
 30
0.0
 11
0.3523153507
 21
3.5680674066
 31
0.0
 40
0.2516548955
 41
1.4930826931
 42
1.4982188066
  0
ELLIPSE
  5
327
100
AcDbEntity
  8
0
100
AcDbEllipse
 62
7
  6
CONTINUOUS
 10
6.06065877
 20
5.4193701872
 30
0.0
 11
-0.3523153441
 21
3.5680679071
 31
0.0
 40
0.251654861
 41
-4.6398114528
 42
-4.6346753393
  0
ELLIPSE
  5
328
100
AcDbEntity
  8
0
100
AcDbEllipse
 62
7
  6
CONTINUOUS
 10
6.06065877
 20
5.2573606901
 30
0.0
 11
-0.419886989
 21
1.8937925956
 31
0.0
 40
0.4585403189
 41
1.5591997581
 42
1.5668991476
  0
ELLIPSE
  5
329
100
AcDbEntity
  8
0
100
AcDbEllipse
 62
6
  6
CONTINUOUS
 10
6.06065877
 20
5.2169329712
 30
0.0
 11
0.6519978752
 21
1.0690524538
 31
0.0
 40
0.6711699369
 41
-1.2507639313
 42
-1.2286206453
  0
ELLIPSE
  5
32A
100
AcDbEntity
  8
0
100
AcDbEllipse
 62
6
  6
CONTINUOUS
 10
6.06065877
 20
4.8359820232
 30
0.0
 11
0.4220343922
 21
1.9034781629
 31
0.0
 40
0.4585402825
 41
-4.7079945563
 42
-4.7003346858
  0
ELLIPSE
  5
32B
100
AcDbEntity
  8
0
100
AcDbEllipse
 62
6
  6
CONTINUOUS
 10
6.06065877
 20
4.673972591
 30
0.0
 11
0.354117192
 21
3.5863155228
 31
0.0
 40
0.2516548955
 41
1.4936063544
 42
1.498716073
  0
ELLIPSE
  5
32C
100
AcDbEntity
  8
0
100
AcDbEllipse
 62
6
  6
CONTINUOUS
 10
6.06065877
 20
5.4193701872
 30
0.0
 11
-0.3541171854
 21
3.5863160258
 31
0.0
 40
0.251654861
 41
-4.6403087193
 42
-4.6351990007
  0
ELLIPSE
  5
32D
100
AcDbEntity
  8
0
100
AcDbEllipse
 62
6
  6
CONTINUOUS
 10
6.06065877
 20
5.2573606901
 30
0.0
 11
-0.422034411
 21
1.9034779921
 31
0.0
 40
0.4585403189
 41
1.5587420108
 42
1.5664018812
  0
ELLIPSE
  5
32E
100
AcDbEntity
  8
0
100
AcDbEllipse
 62
6
  6
CONTINUOUS
 10
6.06065877
 20
5.2332140009
 30
0.0
 11
-0.5002636985
 21
1.457581754
 31
0.0
 40
0.569753021
 41
-1.8799443451
 42
-1.8725288025
  0
ELLIPSE
  5
32F
100
AcDbEntity
  8
0
100
AcDbEllipse
 62
6
  6
CONTINUOUS
 10
6.06065877
 20
4.8601286911
 30
0.0
 11
0.5002635981
 21
1.4575821287
 31
0.0
 40
0.5697529161
 41
-1.269063972
 42
-1.2616484294
  0
ELLIPSE
  5
330
100
AcDbEntity
  8
0
100
AcDbEllipse
 62
6
  6
CONTINUOUS
 10
6.06065877
 20
5.3020533219
 30
0.0
 11
0.6519976894
 21
1.0690528219
 31
0.0
 40
0.6711698637
 41
-1.3248813381
 42
-1.3025821329
  0
ENDSEC
  0
SECTION
  2
OBJECTS
  0
DICTIONARY
  5
C
100
AcDbDictionary
280
0
281
1
  3
ACAD_GROUP
350
D
  3
ACAD_MLINESTYLE
350
17
  3
ACAD_LAYOUT
350
1A
  3
ACAD_PLOTSETTINGS
350
19
  3
ACAD_PLOTSTYLENAME
350
E
  0
DICTIONARY
  5
D
102
{ACAD_REACTORS
330
C
102
}
100
AcDbDictionary
280
0
281
1
  0
ACDBDICTIONARYWDFLT
  5
E
102
{ACAD_REACTORS
330
C
102
}
100
AcDbDictionary
281
1
  3
Normal
350
F
100
AcDbDictionaryWithDefault
340
F
  0
DICTIONARY
  5
17
102
{ACAD_REACTORS
330
C
102
}
100
AcDbDictionary
280
0
281
1
  3
Standard
350
18
  0
DICTIONARY
  5
19
102
{ACAD_REACTORS
330
C
102
}
100
AcDbDictionary
281
1
  0
DICTIONARY
  5
1A
102
{ACAD_REACTORS
330
C
102
}
100
AcDbDictionary
281
1
  3
Model
350
331
  3
Layout1
350
332
  0
ACDBPLACEHOLDER
  5
F
102
{ACAD_REACTORS
330
E
102
}
  0
MLINESTYLE
  5
18
102
{ACAD_REACTORS
330
17
102
}
100
AcDbMlineStyle
  2
STANDARD
 70
0
  3

 62
256
 51
90.0
 52
90.0
 71
2
 49
0.5
 62
256
  6
BYLAYER
 49
-0.5
 62
256
  6
BYLAYER
  0
LAYOUT
  5
331
102
{ACAD_REACTORS
330
1A
102
}
100
AcDbPlotSettings
  1

  2
none_device
  4
ISO_A4_(297.00_x_210.00_MM)
  6

 40
0.0
 41
0.0
 42
0.0
 43
0.0
 44
297.0
 45
210.0
 46
0.0
 47
0.0
 48
0.0
 49
0.0
140
0.0
141
0.0
142
1.0
143
1.0
 70
1024
 72
0
 73
0
 74
0
  7

 75
0
147
1.0
148
0.0
149
0.0
100
AcDbLayout
  1
Model
 70
0
 71
0
 10
0.0
 20
0.0
 11
11.6929133858
 21
8.2677165354
 12
0.0
 22
0.0
 32
0.0
 14
0.0
 24
0.0
 34
0.0
 15
0.0
 25
0.0
 35
0.0
146
0.0
 13
0.0
 23
0.0
 33
0.0
 16
1.0
 26
0.0
 36
0.0
 17
0.0
 27
1.0
 37
0.0
 76
0
330
203
345
0
346
0
  0
LAYOUT
  5
332
102
{ACAD_REACTORS
330
1A
102
}
100
AcDbPlotSettings
  1

  2
none_device
  4
ISO_A4_(297.00_x_210.00_MM)
  6

 40
0.0
 41
0.0
 42
0.0
 43
0.0
 44
297.0
 45
210.0
 46
0.0
 47
0.0
 48
0.0
 49
0.0
140
0.0
141
0.0
142
1.0
143
1.0
 70
0
 72
0
 73
0
 74
0
  7

 75
0
147
1.0
148
0.0
149
0.0
100
AcDbLayout
  1
Layout1
 70
0
 71
1
 10
0.0
 20
0.0
 11
11.6929133858
 21
8.2677165354
 12
0.0
 22
0.0
 32
0.0
 14
0.0
 24
0.0
 34
0.0
 15
0.0
 25
0.0
 35
0.0
146
0.0
 13
0.0
 23
0.0
 33
0.0
 16
1.0
 26
0.0
 36
0.0
 17
0.0
 27
1.0
 37
0.0
 76
0
330
204
345
0
346
0
  0
ENDSEC
  0
EOF
