  0
SECTION
  2
HEADER
  9
$ACADVER
  1
AC1015
  9
$DWGCODEPAGE
  3
ANSI_1252
  9
$EXTMAX
 10
11.6929133858
 20
8.2677165354
 30
0.0
  9
$EXTMIN
 10
0.0
 20
0.0
 30
0.0
  9
$LIMMIN
 10
0.0
 20
0.0
  9
$LIMMAX
 10
11.6929133858
 20
8.2677165354
  9
$VIEWCTR
 10
5.8464566929
 20
4.1338582677
  9
$VIEWSIZE
 40
8.2677165354
  9
$CLAYER
  8
0
  9
$LTSCALE
 40
0.6431102362
  9
$CELTYPE
  6
BYLAYER
  9
$DIMSCALE
 40
1.0
  9
$DIMASZ
 40
0.1875
  9
$DIMEXO
 40
0.0730807087
  9
$DIMDLI
 40
0.4443307087
  9
$DIMEXE
 40
0.2104724409
  9
$DIMCEN
 40
0.1052362205
  9
$DIMLFAC
 40
1.0
  9
$DIMBLK
  1
_CLOSED
  9
$DIMTXT
 40
0.15625
  9
$DIMTOL
 70
0
  9
$DIMLIM
 70
0
  9
$DIMTFAC
 40
1.0
  9
$PDMODE
 70
3
  9
$PDSIZE
 40
0.3125
  9
$HANDSEED
  5
32F
  9
$TILEMODE
 70
1
  9
$MEASUREMENT
 70
0
  9
$INSUNITS
 70
1
  0
ENDSEC
  0
SECTION
  2
CLASSES
  0
CLASS
  1
ACDBDICTIONARYWDFLT
  2
AcDbDictionaryWithDefault
  3
AutoCAD 2000
 90
0
280
0
281
0
  0
CLASS
  1
ACDBPLACEHOLDER
  2
AcDbPlaceHolder
  3
AutoCAD 2000
 90
0
280
0
281
0
  0
CLASS
  1
LAYOUT
  2
AcDbLayout
  3
AutoCAD 2000
 90
0
280
0
281
0
  0
ENDSEC
  0
SECTION
  2
TABLES
  0
TABLE
  2
VPORT
  5
8
100
AcDbSymbolTable
 70
2
  0
VPORT
  5
1F4
100
AcDbSymbolTableRecord
100
AcDbViewportTableRecord
  2
*ACTIVE
 70
0
 10
0.0
 20
0.0
 11
1.0
 21
1.0
 12
5.8464566929
 22
4.1338582677
 13
0.0
 23
0.0
 14
1.0
 24
1.0
 15
0.0
 25
0.0
 16
0.0
 26
0.0
 36
1.0
 17
0.0
 27
0.0
 37
0.0
 40
8.2677165354
 41
1.4142857143
 42
50.0
 43
0.0
 44
0.0
 50
0.0
 51
0.0
 71
0
 72
100
 73
1
 74
1
 75
0
 76
0
 77
0
 78
0
  0
ENDTAB
  0
TABLE
  2
LTYPE
  5
5
100
AcDbSymbolTable
 70
6
  0
LTYPE
  5
14
100
AcDbSymbolTableRecord
100
AcDbLinetypeTableRecord
  2
BYBLOCK
 70
0
  3

 72
65
 73
0
 40
0.0
  0
LTYPE
  5
15
100
AcDbSymbolTableRecord
100
AcDbLinetypeTableRecord
  2
BYLAYER
 70
0
  3

 72
65
 73
0
 40
0.0
  0
LTYPE
  5
16
100
AcDbSymbolTableRecord
100
AcDbLinetypeTableRecord
  2
CONTINUOUS
 70
64
  3
Solid line
 72
65
 73
0
 40
0.0
  0
LTYPE
  5
1F5
100
AcDbSymbolTableRecord
100
AcDbLinetypeTableRecord
  2
CENTER
 70
64
  3
____ _ ____ _ ____ _ ____ _ ____ _ ____ _ ____
 72
65
 73
4
 40
0.6
 49
0.375
 74
0
 49
-0.075
 74
0
 49
0.075
 74
0
 49
-0.075
 74
0
  0
LTYPE
  5
1F6
100
AcDbSymbolTableRecord
100
AcDbLinetypeTableRecord
  2
HIDDEN
 70
64
  3
- - - - - - - - - - - - - - - - - - - -
 72
65
 73
2
 40
0.2
 49
0.1
 74
0
 49
-0.1
 74
0
  0
LTYPE
  5
1F7
100
AcDbSymbolTableRecord
100
AcDbLinetypeTableRecord
  2
PHANTOM
 70
64
  3
_____ _ _ _____ _ _ _____ _ _ _____
 72
65
 73
6
 40
0.8
 49
0.45
 74
0
 49
-0.05
 74
0
 49
0.1
 74
0
 49
-0.05
 74
0
 49
0.1
 74
0
 49
-0.05
 74
0
  0
LTYPE
  5
1F8
100
AcDbSymbolTableRecord
100
AcDbLinetypeTableRecord
  2
DOT
 70
64
  3
. . . . . . . . . . . . . . . . . . . .
 72
65
 73
2
 40
0.2
 49
0.1
 74
0
 49
-0.1
 74
0
  0
LTYPE
  5
1F9
100
AcDbSymbolTableRecord
100
AcDbLinetypeTableRecord
  2
DASHED
 70
64
  3
- - - - - - - - - - - - - - - - - - - -
 72
65
 73
2
 40
0.2
 49
0.1
 74
0
 49
-0.1
 74
0
  0
ENDTAB
  0
TABLE
  2
LAYER
  5
2
100
AcDbSymbolTable
 70
36
  0
LAYER
  5
10
100
AcDbSymbolTableRecord
100
AcDbLayerTableRecord
  2
0
 70
0
 62
7
  6
CONTINUOUS
370
-3
390
F
  0
LAYER
  5
1FA
100
AcDbSymbolTableRecord
100
AcDbLayerTableRecord
  2
DEFAULT_1
 70
0
 62
7
  6
CENTER
370
-3
390
F
  0
LAYER
  5
1FB
100
AcDbSymbolTableRecord
100
AcDbLayerTableRecord
  2
DEFAULT_2
 70
0
 62
8
  6
HIDDEN
370
-3
390
F
  0
LAYER
  5
1FC
100
AcDbSymbolTableRecord
100
AcDbLayerTableRecord
  2
DEFAULT_3
 70
0
 62
7
  6
PHANTOM
370
-3
390
F
  0
LAYER
  5
1FD
100
AcDbSymbolTableRecord
100
AcDbLayerTableRecord
  2
DEFAULT_COORDINATE_SYSTEM
 70
0
 62
7
  6
CONTINUOUS
370
-3
390
F
  0
LAYER
  5
1FE
100
AcDbSymbolTableRecord
100
AcDbLayerTableRecord
  2
DEFAULT_DATUM_AXES
 70
0
 62
7
  6
CONTINUOUS
370
-3
390
F
  0
LAYER
  5
1FF
100
AcDbSymbolTableRecord
100
AcDbLayerTableRecord
  2
DEFAULT_DATUM_CURVES
 70
0
 62
7
  6
CONTINUOUS
370
-3
390
F
  0
LAYER
  5
200
100
AcDbSymbolTableRecord
100
AcDbLayerTableRecord
  2
DEFAULT_DATUM_PLANES
 70
0
 62
7
  6
CONTINUOUS
370
-3
390
F
  0
ENDTAB
  0
TABLE
  2
STYLE
  5
3
100
AcDbSymbolTable
 70
1
  0
STYLE
  5
11
100
AcDbSymbolTableRecord
100
AcDbTextStyleTableRecord
  2
STANDARD
 70
0
 40
0.0
 41
0.8
 50
0.0
 71
0
 42
0.2
  3
txt
  4

  0
STYLE
  5
201
100
AcDbSymbolTableRecord
100
AcDbTextStyleTableRecord
  2
TEXTSTYLE_1
 70
0
 40
0.0
 41
0.8
 50
0.0
 71
0
 42
0.2
  3
gdt
  4

  0
ENDTAB
  0
TABLE
  2
VIEW
  5
6
100
AcDbSymbolTable
 70
0
  0
ENDTAB
  0
TABLE
  2
UCS
  5
7
100
AcDbSymbolTable
 70
0
  0
ENDTAB
  0
TABLE
  2
APPID
  5
9
100
AcDbSymbolTable
 70
1
  0
APPID
  5
202
100
AcDbSymbolTableRecord
100
AcDbRegAppTableRecord
  2
ACAD
 70
0
  0
ENDTAB
  0
TABLE
  2
BLOCK_RECORD
  5
1
100
AcDbSymbolTable
 70
0
  0
BLOCK_RECORD
  5
203
100
AcDbSymbolTableRecord
100
AcDbBlockTableRecord
  2
*Model_Space
  0
BLOCK_RECORD
  5
204
100
AcDbSymbolTableRecord
100
AcDbBlockTableRecord
  2
*Paper_Space
  0
ENDTAB
  0
TABLE
  2
DIMSTYLE
  5
A
100
AcDbSymbolTable
 70
1
100
AcDbDimStyleTable
 71
0
  0
DIMSTYLE
105
205
100
AcDbSymbolTableRecord
100
AcDbDimStyleTableRecord
  2
STANDARD
 70
0
  3

  4

 40
1.0
 41
0.1875
 42
0.0625
 43
0.38
 44
0.18
 45
0.0
 46
0.0
 47
0.01
 48
0.01
140
0.15625
141
0.09
142
0.0
143
25.4
144
1.0
145
0.0
146
1.0
147
0.09
 71
0.0
 72
0.0
 73
1
 74
1
 75
0
 76
0
 77
0
 78
4
170
0
171
2
172
0
173
0
174
0
175
0
176
0
177
0
178
0
270
2
271
2
272
2
273
2
274
2
275
0
280
0
281
0
282
0
283
1
284
4
285
0
286
0
287
3
288
0
340
11
  0
ENDTAB
  0
ENDSEC
  0
SECTION
  2
BLOCKS
  0
BLOCK
  5
20
100
AcDbEntity
  8
0
100
AcDbBlockBegin
  2
*Model_Space
 70
0
 10
0.0
 20
0.0
 30
0.0
  3
*Model_Space
  1

  0
ENDBLK
  5
21
100
AcDbEntity
  8
0
100
AcDbBlockEnd
  0
BLOCK
  5
1C
100
AcDbEntity
  8
0
100
AcDbBlockBegin
  2
*Paper_Space
 70
0
 10
0.0
 20
0.0
 30
0.0
  3
*Paper_Space
  1

  0
ENDBLK
  5
1D
100
AcDbEntity
  8
0
100
AcDbBlockEnd
  0
ENDSEC
  0
SECTION
  2
ENTITIES
  0
LINE
  5
206
100
AcDbEntity
  8
0
100
AcDbLine
 62
6
  6
CONTINUOUS
 10
7.448199871
 20
0.7729771925
 11
7.636199871
 21
0.7729771925
  0
LINE
  5
207
100
AcDbEntity
  8
0
100
AcDbLine
 62
6
  6
CONTINUOUS
 10
4.4297488709
 20
4.0229771925
 11
4.4297365104
 21
4.0263607919
  0
LINE
  5
208
100
AcDbEntity
  8
0
100
AcDbLine
 62
6
  6
CONTINUOUS
 10
4.429736702
 20
4.0195923123
 11
4.4297488709
 21
4.0229771925
  0
LINE
  5
209
100
AcDbEntity
  8
0
100
AcDbLine
 62
6
  6
CONTINUOUS
 10
6.824449871
 20
3.0379771925
 11
7.164199871
 21
3.0379771925
  0
LINE
  5
20A
100
AcDbEntity
  8
0
100
AcDbLine
 62
6
  6
CONTINUOUS
 10
6.4307490836
 20
3.0529771925
 11
5.3677490836
 21
3.0529771925
  0
LINE
  5
20B
100
AcDbEntity
  8
0
100
AcDbLine
 62
7
  6
CONTINUOUS
 10
6.7203160128
 20
3.0534773727
 11
6.6984279269
 21
3.0534773727
  0
LINE
  5
20C
100
AcDbEntity
  8
0
100
AcDbLine
 62
7
  6
CONTINUOUS
 10
6.6510037307
 20
3.0535330909
 11
6.6291156448
 21
3.0535330909
  0
LINE
  5
20D
100
AcDbEntity
  8
0
100
AcDbLine
 62
7
  6
CONTINUOUS
 10
6.6984279269
 20
3.0569446073
 11
6.6510037307
 21
3.0569446073
  0
LINE
  5
20E
100
AcDbEntity
  8
0
100
AcDbLine
 62
7
  6
CONTINUOUS
 10
6.6291156448
 20
3.0569446073
 11
6.5488593198
 21
3.0569446073
  0
LINE
  5
20F
100
AcDbEntity
  8
0
100
AcDbLine
 62
6
  6
CONTINUOUS
 10
6.824449871
 20
3.0584102634
 11
6.7203160128
 21
3.0584102634
  0
LINE
  5
210
100
AcDbEntity
  8
0
100
AcDbLine
 62
6
  6
CONTINUOUS
 10
6.5488593198
 20
3.0584102634
 11
6.4307490836
 21
3.0584102634
  0
LINE
  5
211
100
AcDbEntity
  8
0
100
AcDbLine
 62
6
  6
CONTINUOUS
 10
6.7203160128
 20
3.0584862747
 11
6.5488593198
 21
3.0584862747
  0
LINE
  5
212
100
AcDbEntity
  8
0
100
AcDbLine
 62
6
  6
CONTINUOUS
 10
6.6653131955
 20
3.0634450975
 11
6.5488593198
 21
3.0634450975
  0
LINE
  5
213
100
AcDbEntity
  8
0
100
AcDbLine
 62
6
  6
CONTINUOUS
 10
5.3677490836
 20
3.2154771925
 11
5.0557490836
 21
3.2154771925
  0
LINE
  5
214
100
AcDbEntity
  8
0
100
AcDbLine
 62
6
  6
CONTINUOUS
 10
5.0247490836
 20
3.7104771925
 11
5.0247490836
 21
4.3354771925
  0
LINE
  5
215
100
AcDbEntity
  8
0
100
AcDbLine
 62
6
  6
CONTINUOUS
 10
5.0557490836
 20
3.2154771925
 11
5.0557490836
 21
4.8304771925
  0
LINE
  5
216
100
AcDbEntity
  8
0
100
AcDbLine
 62
6
  6
CONTINUOUS
 10
5.3677490836
 20
3.0529771925
 11
5.3677490836
 21
4.9929771925
  0
LINE
  5
217
100
AcDbEntity
  8
0
100
AcDbLine
 62
6
  6
CONTINUOUS
 10
7.164199871
 20
5.0829771925
 11
7.323199871
 21
5.1479771925
  0
LINE
  5
218
100
AcDbEntity
  8
0
100
AcDbLine
 62
7
  6
CONTINUOUS
 10
6.6510037307
 20
3.565755581
 11
6.6181716019
 21
3.565755581
  0
LINE
  5
219
100
AcDbEntity
  8
0
100
AcDbLine
 62
6
  6
CONTINUOUS
 10
6.6510037307
 20
3.6557187794
 11
6.6181716019
 21
3.6557187794
  0
LINE
  5
21A
100
AcDbEntity
  8
0
100
AcDbLine
 62
7
  6
CONTINUOUS
 10
6.6510037307
 20
3.6574073093
 11
6.6181716019
 21
3.6574073093
  0
LINE
  5
21B
100
AcDbEntity
  8
0
100
AcDbLine
 62
7
  6
CONTINUOUS
 10
6.6801878554
 20
3.6761839361
 11
6.6728918165
 21
3.6761839361
  0
LINE
  5
21C
100
AcDbEntity
  8
0
100
AcDbLine
 62
6
  6
CONTINUOUS
 10
6.5670993939
 20
3.6761839361
 11
6.5488593198
 21
3.6761839361
  0
LINE
  5
21D
100
AcDbEntity
  8
0
100
AcDbLine
 62
7
  6
CONTINUOUS
 10
6.6801878554
 20
3.6916449544
 11
6.6728918165
 21
3.6916449544
  0
LINE
  5
21E
100
AcDbEntity
  8
0
100
AcDbLine
 62
6
  6
CONTINUOUS
 10
5.0247490836
 20
3.7104771925
 11
4.2876178367
 21
3.7104771925
  0
LINE
  5
21F
100
AcDbEntity
  8
0
100
AcDbLine
 62
7
  6
CONTINUOUS
 10
6.5670993939
 20
3.7703934078
 11
6.5488593198
 21
3.7703934078
  0
LINE
  5
220
100
AcDbEntity
  8
0
100
AcDbLine
 62
7
  6
CONTINUOUS
 10
6.7203160128
 20
3.7918015375
 11
6.5488593198
 21
3.7918015375
  0
LINE
  5
221
100
AcDbEntity
  8
0
100
AcDbLine
 62
6
  6
CONTINUOUS
 10
7.164199871
 20
2.9629771925
 11
7.323199871
 21
2.8979771925
  0
LINE
  5
222
100
AcDbEntity
  8
0
100
AcDbLine
 62
6
  6
CONTINUOUS
 10
5.6447490836
 20
4.9923012298
 11
5.6447490836
 21
5.0540332824
  0
LINE
  5
223
100
AcDbEntity
  8
0
100
AcDbLine
 62
6
  6
CONTINUOUS
 10
6.6911318983
 20
3.8079716595
 11
6.5488593198
 21
3.8079716595
  0
LINE
  5
224
100
AcDbEntity
  8
0
100
AcDbLine
 62
7
  6
CONTINUOUS
 10
6.6884584104
 20
3.8096722995
 11
6.5488593198
 21
3.8096722995
  0
LINE
  5
225
100
AcDbEntity
  8
0
100
AcDbLine
 62
7
  6
CONTINUOUS
 10
6.6947799126
 20
3.8242401658
 11
6.6655957879
 21
3.8242401658
  0
LINE
  5
226
100
AcDbEntity
  8
0
100
AcDbLine
 62
6
  6
CONTINUOUS
 10
5.0557490836
 20
3.8649771925
 11
5.0247490836
 21
3.8649771925
  0
LINE
  5
227
100
AcDbEntity
  8
0
100
AcDbLine
 62
7
  6
CONTINUOUS
 10
6.7260246742
 20
3.9973866413
 11
6.5488593198
 21
3.9973866413
  0
LINE
  5
228
100
AcDbEntity
  8
0
100
AcDbLine
 62
7
  6
CONTINUOUS
 10
6.7260246742
 20
4.0485677437
 11
6.5488593198
 21
4.0485677437
  0
LINE
  5
229
100
AcDbEntity
  8
0
100
AcDbLine
 62
6
  6
CONTINUOUS
 10
5.9047490836
 20
4.9923012037
 11
5.9047490836
 21
5.0540332824
  0
LINE
  5
22A
100
AcDbEntity
  8
0
100
AcDbLine
 62
6
  6
CONTINUOUS
 10
5.0557490836
 20
4.1809771925
 11
5.0247490836
 21
4.1809771925
  0
LINE
  5
22B
100
AcDbEntity
  8
0
100
AcDbLine
 62
7
  6
CONTINUOUS
 10
6.6108755682
 20
4.2257824803
 11
6.596283511
 21
4.2257824803
  0
LINE
  5
22C
100
AcDbEntity
  8
0
100
AcDbLine
 62
7
  6
CONTINUOUS
 10
6.7203160128
 20
4.2311247409
 11
6.7020759412
 21
4.2311247409
  0
LINE
  5
22D
100
AcDbEntity
  8
0
100
AcDbLine
 62
6
  6
CONTINUOUS
 10
6.7203160128
 20
4.2328265822
 11
6.7020759412
 21
4.2328265822
  0
LINE
  5
22E
100
AcDbEntity
  8
0
100
AcDbLine
 62
7
  6
CONTINUOUS
 10
6.6072275539
 20
4.2433580904
 11
6.5999315253
 21
4.2433580904
  0
LINE
  5
22F
100
AcDbEntity
  8
0
100
AcDbLine
 62
7
  6
CONTINUOUS
 10
6.7020759412
 20
4.3329112422
 11
6.6437077021
 21
4.3329112422
  0
LINE
  5
230
100
AcDbEntity
  8
0
100
AcDbLine
 62
6
  6
CONTINUOUS
 10
5.0247490836
 20
4.3354771925
 11
4.2876178367
 21
4.3354771925
  0
LINE
  5
231
100
AcDbEntity
  8
0
100
AcDbLine
 62
7
  6
CONTINUOUS
 10
6.7203160128
 20
4.3497825425
 11
6.6254676305
 21
4.3497825425
  0
LINE
  5
232
100
AcDbEntity
  8
0
100
AcDbLine
 62
7
  6
CONTINUOUS
 10
6.7203160128
 20
4.376542513
 11
6.5488593198
 21
4.376542513
  0
LINE
  5
233
100
AcDbEntity
  8
0
100
AcDbLine
 62
6
  6
CONTINUOUS
 10
6.6911318983
 20
4.3964232782
 11
6.5488593198
 21
4.3964232782
  0
LINE
  5
234
100
AcDbEntity
  8
0
100
AcDbLine
 62
7
  6
CONTINUOUS
 10
6.6947799126
 20
4.4161414606
 11
6.6655957879
 21
4.4161414606
  0
LINE
  5
235
100
AcDbEntity
  8
0
100
AcDbLine
 62
7
  6
CONTINUOUS
 10
6.7203160128
 20
4.442178338
 11
6.5488593198
 21
4.442178338
  0
LINE
  5
236
100
AcDbEntity
  8
0
100
AcDbLine
 62
6
  6
CONTINUOUS
 10
6.6911318983
 20
4.4615142981
 11
6.5488593198
 21
4.4615142981
  0
LINE
  5
237
100
AcDbEntity
  8
0
100
AcDbLine
 62
7
  6
CONTINUOUS
 10
6.6947799126
 20
4.4806846265
 11
6.6655957879
 21
4.4806846265
  0
LINE
  5
238
100
AcDbEntity
  8
0
100
AcDbLine
 62
7
  6
CONTINUOUS
 10
6.7260246742
 20
4.8021902543
 11
6.5488593198
 21
4.8021902543
  0
LINE
  5
239
100
AcDbEntity
  8
0
100
AcDbLine
 62
6
  6
CONTINUOUS
 10
6.4307490836
 20
4.9929771925
 11
6.4307490836
 21
3.0529771925
  0
LINE
  5
23A
100
AcDbEntity
  8
0
100
AcDbLine
 62
7
  6
CONTINUOUS
 10
6.5488593198
 20
4.988498627
 11
6.5488593198
 21
4.9835451241
  0
LINE
  5
23B
100
AcDbEntity
  8
0
100
AcDbLine
 62
7
  6
CONTINUOUS
 10
6.5488593198
 20
4.2781649967
 11
6.5488593198
 21
4.2764719696
  0
LINE
  5
23C
100
AcDbEntity
  8
0
100
AcDbLine
 62
7
  6
CONTINUOUS
 10
6.5488593198
 20
3.0569446073
 11
6.5488593198
 21
3.0634450975
  0
LINE
  5
23D
100
AcDbEntity
  8
0
100
AcDbLine
 62
7
  6
CONTINUOUS
 10
6.5488593198
 20
3.6102991652
 11
6.5488593198
 21
3.611993363
  0
LINE
  5
23E
100
AcDbEntity
  8
0
100
AcDbLine
 62
6
  6
CONTINUOUS
 10
6.5488593198
 20
3.6761839361
 11
6.5488593198
 21
3.7703934078
  0
LINE
  5
23F
100
AcDbEntity
  8
0
100
AcDbLine
 62
7
  6
CONTINUOUS
 10
6.5488593198
 20
3.7703934078
 11
6.5488593198
 21
3.7720868342
  0
LINE
  5
240
100
AcDbEntity
  8
0
100
AcDbLine
 62
7
  6
CONTINUOUS
 10
6.5488593198
 20
3.7918015375
 11
6.5488593198
 21
3.8096722995
  0
LINE
  5
241
100
AcDbEntity
  8
0
100
AcDbLine
 62
7
  6
CONTINUOUS
 10
6.5488593198
 20
3.9973866413
 11
6.5488593198
 21
4.0485677437
  0
LINE
  5
242
100
AcDbEntity
  8
0
100
AcDbLine
 62
6
  6
CONTINUOUS
 10
6.5488593198
 20
4.2781649967
 11
6.5488593198
 21
4.2988305322
  0
LINE
  5
243
100
AcDbEntity
  8
0
100
AcDbLine
 62
7
  6
CONTINUOUS
 10
6.5488593198
 20
4.376542513
 11
6.5488593198
 21
4.3964232782
  0
LINE
  5
244
100
AcDbEntity
  8
0
100
AcDbLine
 62
7
  6
CONTINUOUS
 10
6.5488593198
 20
4.442178338
 11
6.5488593198
 21
4.4615142981
  0
LINE
  5
245
100
AcDbEntity
  8
0
100
AcDbLine
 62
7
  6
CONTINUOUS
 10
6.5488593198
 20
4.8021902543
 11
6.5488593198
 21
4.8315465286
  0
LINE
  5
246
100
AcDbEntity
  8
0
100
AcDbLine
 62
6
  6
CONTINUOUS
 10
6.5525073345
 20
4.9868565155
 11
6.5525073345
 21
4.9818945299
  0
LINE
  5
247
100
AcDbEntity
  8
0
100
AcDbLine
 62
6
  6
CONTINUOUS
 10
6.5634513784
 20
4.9852697852
 11
6.5634513784
 21
4.9802995754
  0
LINE
  5
248
100
AcDbEntity
  8
0
100
AcDbLine
 62
7
  6
CONTINUOUS
 10
6.5670993939
 20
3.6761839361
 11
6.5670993939
 21
3.7491579881
  0
LINE
  5
249
100
AcDbEntity
  8
0
100
AcDbLine
 62
7
  6
CONTINUOUS
 10
6.5670993939
 20
3.7703934078
 11
6.5670993939
 21
3.7720868342
  0
LINE
  5
24A
100
AcDbEntity
  8
0
100
AcDbLine
 62
6
  6
CONTINUOUS
 10
6.5670993939
 20
4.2781649967
 11
6.5670993939
 21
4.2988305322
  0
LINE
  5
24B
100
AcDbEntity
  8
0
100
AcDbLine
 62
7
  6
CONTINUOUS
 10
6.5743954226
 20
4.9842220544
 11
6.5743954226
 21
4.979246399
  0
LINE
  5
24C
100
AcDbEntity
  8
0
100
AcDbLine
 62
7
  6
CONTINUOUS
 10
6.5780434369
 20
4.2328265822
 11
6.5780434369
 21
4.2311247409
  0
LINE
  5
24D
100
AcDbEntity
  8
0
100
AcDbLine
 62
7
  6
CONTINUOUS
 10
6.5889874823
 20
3.6506292325
 11
6.5889874823
 21
3.6523181702
  0
LINE
  5
24E
100
AcDbEntity
  8
0
100
AcDbLine
 62
7
  6
CONTINUOUS
 10
6.5926354967
 20
4.3295234748
 11
6.5926354967
 21
4.3497825425
  0
LINE
  5
24F
100
AcDbEntity
  8
0
100
AcDbLine
 62
7
  6
CONTINUOUS
 10
6.596283511
 20
4.2257824803
 11
6.596283511
 21
4.2240789154
  0
LINE
  5
250
100
AcDbEntity
  8
0
100
AcDbLine
 62
7
  6
CONTINUOUS
 10
6.5999315253
 20
3.6531726753
 11
6.5999315253
 21
3.6548614022
  0
LINE
  5
251
100
AcDbEntity
  8
0
100
AcDbLine
 62
7
  6
CONTINUOUS
 10
6.6108755682
 20
4.2257824803
 11
6.6108755682
 21
4.2240789154
  0
LINE
  5
252
100
AcDbEntity
  8
0
100
AcDbLine
 62
7
  6
CONTINUOUS
 10
6.6181716019
 20
3.6557187794
 11
6.6181716019
 21
3.6574073093
  0
LINE
  5
253
100
AcDbEntity
  8
0
100
AcDbLine
 62
7
  6
CONTINUOUS
 10
6.6254676305
 20
4.3261311913
 11
6.6254676305
 21
4.3497825425
  0
LINE
  5
254
100
AcDbEntity
  8
0
100
AcDbLine
 62
6
  6
CONTINUOUS
 10
6.6291156448
 20
4.2328265822
 11
6.6291156448
 21
4.2311247409
  0
LINE
  5
255
100
AcDbEntity
  8
0
100
AcDbLine
 62
7
  6
CONTINUOUS
 10
6.6291156448
 20
3.0535330909
 11
6.6291156448
 21
3.0569446073
  0
LINE
  5
256
100
AcDbEntity
  8
0
100
AcDbLine
 62
6
  6
CONTINUOUS
 10
6.6400596878
 20
4.2781649967
 11
6.6400596878
 21
4.2988305322
  0
LINE
  5
257
100
AcDbEntity
  8
0
100
AcDbLine
 62
7
  6
CONTINUOUS
 10
6.6437077021
 20
4.2433580904
 11
6.6437077021
 21
4.2416586484
  0
LINE
  5
258
100
AcDbEntity
  8
0
100
AcDbLine
 62
7
  6
CONTINUOUS
 10
6.6510037307
 20
3.0535330909
 11
6.6510037307
 21
3.0569446073
  0
LINE
  5
259
100
AcDbEntity
  8
0
100
AcDbLine
 62
7
  6
CONTINUOUS
 10
6.6510037307
 20
3.6557187794
 11
6.6510037307
 21
3.6574073093
  0
LINE
  5
25A
100
AcDbEntity
  8
0
100
AcDbLine
 62
7
  6
CONTINUOUS
 10
6.6582997593
 20
4.2781649967
 11
6.6582997593
 21
4.2764719696
  0
LINE
  5
25B
100
AcDbEntity
  8
0
100
AcDbLine
 62
7
  6
CONTINUOUS
 10
6.6582997593
 20
3.6968199735
 11
6.6582997593
 21
3.6985072132
  0
LINE
  5
25C
100
AcDbEntity
  8
0
100
AcDbLine
 62
6
  6
CONTINUOUS
 10
6.6582997593
 20
4.2781649967
 11
6.6582997593
 21
4.2988305322
  0
LINE
  5
25D
100
AcDbEntity
  8
0
100
AcDbLine
 62
6
  6
CONTINUOUS
 10
6.6590955403
 20
3.0713649428
 11
6.6590955403
 21
3.0663650017
  0
LINE
  5
25E
100
AcDbEntity
  8
0
100
AcDbLine
 62
7
  6
CONTINUOUS
 10
6.6655957879
 20
4.4806846265
 11
6.6655957879
 21
4.4789800228
  0
LINE
  5
25F
100
AcDbEntity
  8
0
100
AcDbLine
 62
7
  6
CONTINUOUS
 10
6.6655957879
 20
4.4161414606
 11
6.6655957879
 21
4.414450265
  0
LINE
  5
260
100
AcDbEntity
  8
0
100
AcDbLine
 62
7
  6
CONTINUOUS
 10
6.6655957879
 20
3.8242401658
 11
6.6655957879
 21
3.8259447695
  0
LINE
  5
261
100
AcDbEntity
  8
0
100
AcDbLine
 62
7
  6
CONTINUOUS
 10
6.5674611084
 20
4.9924771925
 11
6.5634513784
 21
4.992472479
  0
LINE
  5
262
100
AcDbEntity
  8
0
100
AcDbLine
 62
6
  6
CONTINUOUS
 10
5.3677490836
 20
4.8304771925
 11
5.0557490836
 21
4.8304771925
  0
LINE
  5
263
100
AcDbEntity
  8
0
100
AcDbLine
 62
7
  6
CONTINUOUS
 10
6.7260246742
 20
4.8315465286
 11
6.5488593198
 21
4.8315465286
  0
LINE
  5
264
100
AcDbEntity
  8
0
100
AcDbLine
 62
7
  6
CONTINUOUS
 10
6.6473557164
 20
4.9796054953
 11
6.6218196162
 21
4.9796054953
  0
LINE
  5
265
100
AcDbEntity
  8
0
100
AcDbLine
 62
7
  6
CONTINUOUS
 10
6.6510037307
 20
4.9827129558
 11
6.6181716019
 21
4.9827129558
  0
LINE
  5
266
100
AcDbEntity
  8
0
100
AcDbLine
 62
6
  6
CONTINUOUS
 10
6.824449871
 20
4.9875441216
 11
6.7181319718
 21
4.9875441216
  0
LINE
  5
267
100
AcDbEntity
  8
0
100
AcDbLine
 62
6
  6
CONTINUOUS
 10
6.5488593198
 20
4.9875441216
 11
6.4307490836
 21
4.9875441216
  0
LINE
  5
268
100
AcDbEntity
  8
0
100
AcDbLine
 62
7
  6
CONTINUOUS
 10
6.6510037307
 20
4.9917230011
 11
6.6181716019
 21
4.9917230011
  0
LINE
  5
269
100
AcDbEntity
  8
0
100
AcDbLine
 62
7
  6
CONTINUOUS
 10
6.6510037307
 20
4.9923413334
 11
6.6181716019
 21
4.9923413334
  0
LINE
  5
26A
100
AcDbEntity
  8
0
100
AcDbLine
 62
6
  6
CONTINUOUS
 10
6.7017142294
 20
4.9924771925
 11
6.567461105
 21
4.9924771925
  0
LINE
  5
26B
100
AcDbEntity
  8
0
100
AcDbLine
 62
6
  6
CONTINUOUS
 10
6.4307490836
 20
4.9929771925
 11
5.9097490836
 21
4.9929771925
  0
LINE
  5
26C
100
AcDbEntity
  8
0
100
AcDbLine
 62
6
  6
CONTINUOUS
 10
5.6397490836
 20
4.9929771925
 11
5.3677490836
 21
4.9929771925
  0
LINE
  5
26D
100
AcDbEntity
  8
0
100
AcDbLine
 62
6
  6
CONTINUOUS
 10
6.824449871
 20
5.0079771925
 11
7.164199871
 21
5.0079771925
  0
LINE
  5
26E
100
AcDbEntity
  8
0
100
AcDbLine
 62
9
  6
CONTINUOUS
 10
5.6447490836
 20
5.0540332824
 11
5.9047490836
 21
5.0540332824
  0
LINE
  5
26F
100
AcDbEntity
  8
0
100
AcDbLine
 62
7
  6
CONTINUOUS
 10
6.7017142259
 20
4.9924771925
 11
6.7057239555
 21
4.992472479
  0
LINE
  5
270
100
AcDbEntity
  8
0
100
AcDbLine
 62
6
  6
CONTINUOUS
 10
6.6801878554
 20
3.7544506992
 11
6.6801878554
 21
3.7677295544
  0
LINE
  5
271
100
AcDbEntity
  8
0
100
AcDbLine
 62
7
  6
CONTINUOUS
 10
6.6801878554
 20
3.7677295544
 11
6.6801878554
 21
3.7694225725
  0
LINE
  5
272
100
AcDbEntity
  8
0
100
AcDbLine
 62
7
  6
CONTINUOUS
 10
6.6947799126
 20
4.9842220544
 11
6.6947799126
 21
4.979246399
  0
LINE
  5
273
100
AcDbEntity
  8
0
100
AcDbLine
 62
7
  6
CONTINUOUS
 10
6.6947799126
 20
3.7650683973
 11
6.6947799126
 21
3.7667610211
  0
LINE
  5
274
100
AcDbEntity
  8
0
100
AcDbLine
 62
7
  6
CONTINUOUS
 10
6.6947799126
 20
3.8242401658
 11
6.6947799126
 21
3.8259447695
  0
LINE
  5
275
100
AcDbEntity
  8
0
100
AcDbLine
 62
7
  6
CONTINUOUS
 10
6.6984279269
 20
3.0534771925
 11
6.6984279269
 21
3.0569446073
  0
LINE
  5
276
100
AcDbEntity
  8
0
100
AcDbLine
 62
7
  6
CONTINUOUS
 10
6.7020759412
 20
3.717626851
 11
6.7020759412
 21
3.7280944008
  0
LINE
  5
277
100
AcDbEntity
  8
0
100
AcDbLine
 62
6
  6
CONTINUOUS
 10
6.7020759412
 20
4.2311247409
 11
6.7020759412
 21
4.3329112422
  0
LINE
  5
278
100
AcDbEntity
  8
0
100
AcDbLine
 62
6
  6
CONTINUOUS
 10
6.7057239555
 20
4.9852697852
 11
6.7057239555
 21
4.9802995754
  0
LINE
  5
279
100
AcDbEntity
  8
0
100
AcDbLine
 62
7
  6
CONTINUOUS
 10
6.7057239555
 20
3.6379522241
 11
6.7057239555
 21
3.6396424229
  0
LINE
  5
27A
100
AcDbEntity
  8
0
100
AcDbLine
 62
7
  6
CONTINUOUS
 10
6.7093719698
 20
3.7544506992
 11
6.7093719698
 21
3.7561418862
  0
LINE
  5
27B
100
AcDbEntity
  8
0
100
AcDbLine
 62
7
  6
CONTINUOUS
 10
6.7166679985
 20
4.9868565155
 11
6.7166679985
 21
4.9818945299
  0
LINE
  5
27C
100
AcDbEntity
  8
0
100
AcDbLine
 62
7
  6
CONTINUOUS
 10
6.7166679985
 20
3.6253422776
 11
6.7166679985
 21
3.6270340841
  0
LINE
  5
27D
100
AcDbEntity
  8
0
100
AcDbLine
 62
7
  6
CONTINUOUS
 10
6.7203160128
 20
3.0534771925
 11
6.7203160128
 21
3.0634450975
  0
LINE
  5
27E
100
AcDbEntity
  8
0
100
AcDbLine
 62
7
  6
CONTINUOUS
 10
6.7203160128
 20
3.7150166399
 11
6.7203160128
 21
3.7254735045
  0
LINE
  5
27F
100
AcDbEntity
  8
0
100
AcDbLine
 62
7
  6
CONTINUOUS
 10
6.7203160128
 20
3.7918015375
 11
6.7203160128
 21
3.8096722995
  0
LINE
  5
280
100
AcDbEntity
  8
0
100
AcDbLine
 62
6
  6
CONTINUOUS
 10
6.7203160128
 20
4.2311247409
 11
6.7203160128
 21
4.3497825425
  0
LINE
  5
281
100
AcDbEntity
  8
0
100
AcDbLine
 62
7
  6
CONTINUOUS
 10
6.7203160128
 20
4.376542513
 11
6.7203160128
 21
4.3964232782
  0
LINE
  5
282
100
AcDbEntity
  8
0
100
AcDbLine
 62
7
  6
CONTINUOUS
 10
6.7203160128
 20
4.442178338
 11
6.7203160128
 21
4.4615142981
  0
LINE
  5
283
100
AcDbEntity
  8
0
100
AcDbLine
 62
6
  6
CONTINUOUS
 10
6.7260246742
 20
3.0713649213
 11
6.7260246742
 21
3.0663650023
  0
LINE
  5
284
100
AcDbEntity
  8
0
100
AcDbLine
 62
7
  6
CONTINUOUS
 10
6.7260246742
 20
3.9973866413
 11
6.7260246742
 21
4.0485677437
  0
LINE
  5
285
100
AcDbEntity
  8
0
100
AcDbLine
 62
7
  6
CONTINUOUS
 10
6.7260246742
 20
4.8021902543
 11
6.7260246742
 21
4.8315465286
  0
LINE
  5
286
100
AcDbEntity
  8
0
100
AcDbLine
 62
6
  6
CONTINUOUS
 10
6.824449871
 20
5.0079771925
 11
6.824449871
 21
3.0379771925
  0
LINE
  5
287
100
AcDbEntity
  8
0
100
AcDbLine
 62
9
  6
CONTINUOUS
 10
5.8650532311
 20
5.1097858598
 11
5.6844449362
 21
5.1097858598
  0
LINE
  5
288
100
AcDbEntity
  8
0
100
AcDbLine
 62
6
  6
CONTINUOUS
 10
7.164199871
 20
2.9629792316
 11
7.164199871
 21
5.0829751534
  0
LINE
  5
289
100
AcDbEntity
  8
0
100
AcDbLine
 62
6
  6
CONTINUOUS
 10
7.323199871
 20
0.8879771925
 11
7.323199871
 21
7.1579771925
  0
LINE
  5
28A
100
AcDbEntity
  8
0
100
AcDbLine
 62
6
  6
CONTINUOUS
 10
7.448199871
 20
0.7729771925
 11
7.448199871
 21
7.2729771925
  0
LINE
  5
28B
100
AcDbEntity
  8
0
100
AcDbLine
 62
6
  6
CONTINUOUS
 10
7.636199871
 20
0.7729771925
 11
7.636199871
 21
7.2729771925
  0
LINE
  5
28C
100
AcDbEntity
  8
0
100
AcDbLine
 62
6
  6
CONTINUOUS
 10
7.448199871
 20
7.2729771925
 11
7.636199871
 21
7.2729771925
  0
ARC
  5
28D
100
AcDbEntity
  8
0
100
AcDbCircle
 62
6
  6
CONTINUOUS
 10
4.282060357
 20
3.7761785351
 40
0.0511801094
100
AcDbArc
 50
316.4672473231
 51
317.2979802127
  0
ARC
  5
28E
100
AcDbEntity
  8
0
100
AcDbCircle
 62
6
  6
CONTINUOUS
 10
4.2825598595
 20
3.775716224
 40
0.050499497
100
AcDbArc
 50
317.2991066026
 51
318.0201042092
  0
ARC
  5
28F
100
AcDbEntity
  8
0
100
AcDbCircle
 62
6
  6
CONTINUOUS
 10
4.0147490836
 20
4.0229771925
 40
0.415
100
AcDbArc
 50
0.4597351719
 51
359.5399387297
  0
CIRCLE
  5
290
100
AcDbEntity
  8
0
100
AcDbCircle
 62
6
  6
CONTINUOUS
 10
4.0147490836
 20
4.0229771925
 40
0.3683556755
  0
CIRCLE
  5
291
100
AcDbEntity
  8
0
100
AcDbCircle
 62
6
  6
CONTINUOUS
 10
4.0147490836
 20
4.0229771925
 40
0.328
  0
CIRCLE
  5
292
100
AcDbEntity
  8
0
100
AcDbCircle
 62
6
  6
CONTINUOUS
 10
4.0147490836
 20
4.0229771925
 40
0.308
  0
ARC
  5
293
100
AcDbEntity
  8
0
100
AcDbCircle
 62
6
  6
CONTINUOUS
 10
4.2821497677
 20
4.2698595438
 40
0.0510576429
100
AcDbArc
 50
42.7010340567
 51
43.534254254
  0
ARC
  5
294
100
AcDbEntity
  8
0
100
AcDbCircle
 62
6
  6
CONTINUOUS
 10
4.2826350781
 20
4.2703066828
 40
0.0503977496
100
AcDbArc
 50
41.979435691
 51
42.7016261802
  0
ARC
  5
295
100
AcDbEntity
  8
0
100
AcDbCircle
 62
6
  6
CONTINUOUS
 10
7.323199871
 20
0.7625424099
 40
0.1254347826
100
AcDbArc
 50
4.7718880608
 51
90.0
  0
ARC
  5
296
100
AcDbEntity
  8
0
100
AcDbCircle
 62
6
  6
CONTINUOUS
 10
5.7747490836
 20
4.8489771925
 40
0.276
100
AcDbArc
 50
70.9017558761
 51
109.0982441239
  0
ARC
  5
297
100
AcDbEntity
  8
0
100
AcDbCircle
 62
6
  6
CONTINUOUS
 10
7.323199871
 20
7.2834119751
 40
0.1254347826
100
AcDbArc
 50
270.0
 51
355.2281119392
  0
ARC
  5
298
100
AcDbEntity
  8
0
100
AcDbCircle
 62
6
  6
CONTINUOUS
 10
5.7037490836
 20
5.0540332824
 40
0.059
100
AcDbArc
 50
109.0982441239
 51
180.0
  0
ARC
  5
299
100
AcDbEntity
  8
0
100
AcDbCircle
 62
6
  6
CONTINUOUS
 10
5.8457490836
 20
5.0540332824
 40
0.059
100
AcDbArc
 50
0.0
 51
70.9017558761
  0
SPLINE
  5
29A
100
AcDbEntity
  8
0
100
AcDbSpline
 62
7
  6
CONTINUOUS
 70
0
 71
3
 72
19
 73
15
 74
13
 42
0.0000001
 43
0.0000001
 44
0.0000000001
 12
-0.1354363486
 22
0.0
 32
0.0
 13
-0.1341397877
 23
0.0186750202
 33
0.0
 40
0.0
 40
0.0
 40
0.0
 40
0.0
 40
0.0977389173
 40
0.1946747132
 40
0.2424949157
 40
0.2897143701
 40
0.3362270811
 40
0.3819276313
 40
0.4704697996
 40
0.5545181939
 40
0.6332746083
 40
0.7059727579
 40
0.9233254729
 40
1.0
 40
1.0
 40
1.0
 40
1.0
 10
5.7747490836
 20
4.9835369252
 30
0.0
 10
5.7703366163
 20
4.9835369252
 30
0.0
 10
5.7615478347
 20
4.9835985645
 30
0.0
 10
5.7506022537
 20
4.9838232944
 30
0.0
 10
5.7419394772
 20
4.9840898408
 30
0.0
 10
5.7355534816
 20
4.9843295736
 30
0.0
 10
5.7292647951
 20
4.9846068897
 30
0.0
 10
5.7211148561
 20
4.9850185706
 30
0.0
 10
5.7112773782
 20
4.9856081694
 30
0.0
 10
5.6999593156
 20
4.9864238049
 30
0.0
 10
5.6893638908
 20
4.9873063901
 30
0.0
 10
5.6727866733
 20
4.988862803
 30
0.0
 10
5.6563341547
 20
4.9907369736
 30
0.0
 10
5.6431774519
 20
4.9924998931
 30
0.0
 10
5.6397490836
 20
4.9929771925
 30
0.0
 11
5.7747490836
 21
4.9835369252
 31
0.0
 11
5.7615120001
 21
4.9836287577
 31
0.0
 11
5.748386147
 21
4.9838987821
 31
0.0
 11
5.7419126186
 21
4.9840980174
 31
0.0
 11
5.7355218847
 21
4.9843377948
 31
0.0
 11
5.7292284872
 21
4.9846152775
 31
0.0
 11
5.7230468557
 21
4.9849275838
 31
0.0
 11
5.7110765081
 21
4.9856450212
 31
0.0
 11
5.6997227124
 21
4.9864627857
 31
0.0
 11
5.6890930637
 21
4.9873484434
 31
0.0
 11
5.6792901796
 21
4.9882685672
 31
0.0
 11
5.6500416269
 21
4.9915981471
 31
0.0
 11
5.6397490836
 21
4.9929771925
 31
0.0
  0
SPLINE
  5
29B
100
AcDbEntity
  8
0
100
AcDbSpline
 62
6
  6
CONTINUOUS
 70
0
 71
3
 72
31
 73
27
 74
25
 42
0.0000001
 43
0.0000001
 44
0.0000000001
 12
-0.0345694031
 22
0.0
 32
0.0
 13
-0.0000035328
 23
0.0345694029
 33
0.0
 40
0.0
 40
0.0
 40
0.0
 40
0.0
 40
0.0952521786
 40
0.1897978807
 40
0.2825431568
 40
0.3724664293
 40
0.4587475088
 40
0.5406052928
 40
0.6172964086
 40
0.6881506704
 40
0.7525206701
 40
0.7820973923
 40
0.80986746
 40
0.8357866701
 40
0.8598143944
 40
0.8819150307
 40
0.9020626966
 40
0.9202586163
 40
0.9365250188
 40
0.9509053468
 40
0.9634768447
 40
0.9743720243
 40
0.9838158542
 40
0.992176318
 40
0.9961192098
 40
1.0
 40
1.0
 40
1.0
 40
1.0
 10
6.6925601072
 20
3.0614417827
 30
0.0
 10
6.6914625036
 20
3.0614417827
 30
0.0
 10
6.6892754115
 20
3.0614557264
 30
0.0
 10
6.68602014
 20
3.0615181393
 30
0.0
 10
6.6828273462
 20
3.0616219024
 30
0.0
 10
6.6797314866
 20
3.0617669892
 30
0.0
 10
6.676763468
 20
3.0619526516
 30
0.0
 10
6.6739511304
 20
3.0621782697
 30
0.0
 10
6.6713207685
 20
3.062443104
 30
0.0
 10
6.6688973793
 20
3.0627454781
 30
0.0
 10
6.6670201687
 20
3.0630350654
 30
0.0
 10
6.6656405521
 20
3.0632881818
 30
0.0
 10
6.6647005779
 20
3.0634810944
 30
0.0
 10
6.6638277919
 20
3.0636821405
 30
0.0
 10
6.6630241519
 20
3.063891008
 30
0.0
 10
6.6622915588
 20
3.064107358
 30
0.0
 10
6.6616317012
 20
3.0643309951
 30
0.0
 10
6.6610458173
 20
3.0645614276
 30
0.0
 10
6.6605347591
 20
3.0647981574
 30
0.0
 10
6.6600992027
 20
3.0650408239
 30
0.0
 10
6.6597396965
 20
3.065289228
 30
0.0
 10
6.6594566762
 20
3.0655437296
 30
0.0
 10
6.6592509879
 20
3.0658053113
 30
0.0
 10
6.6591437866
 20
3.0660352407
 30
0.0
 10
6.6591027194
 20
3.0662177483
 30
0.0
 10
6.6590959912
 20
3.0663080458
 30
0.0
 10
6.6590959867
 20
3.0663527647
 30
0.0
 11
6.6925601072
 21
3.0614417827
 31
0.0
 11
6.6892673635
 21
3.061462826
 31
0.0
 11
6.6859995829
 21
3.0615258588
 31
0.0
 11
6.6827951499
 21
3.0616307355
 31
0.0
 11
6.679690009
 21
3.061777214
 31
0.0
 11
6.676713227
 21
3.0619647812
 31
0.0
 11
6.67389266
 21
3.0621928747
 31
0.0
 11
6.6712550568
 21
3.0624607014
 31
0.0
 11
6.6688248935
 21
3.0627669941
 31
0.0
 11
6.6666263219
 21
3.0631104214
 31
0.0
 11
6.6656207735
 21
3.0632955582
 31
0.0
 11
6.6646805242
 21
3.0634892618
 31
0.0
 11
6.6638075723
 21
3.0636912317
 31
0.0
 11
6.6630039161
 21
3.0639011674
 31
0.0
 11
6.6622715536
 21
3.0641187683
 31
0.0
 11
6.6616123878
 21
3.0643437184
 31
0.0
 11
6.6610276639
 21
3.064575595
 31
0.0
 11
6.6605183509
 21
3.0648139306
 31
0.0
 11
6.6600854168
 21
3.0650582577
 31
0.0
 11
6.6597298294
 21
3.0653081084
 31
0.0
 11
6.6594525568
 21
3.0655630152
 31
0.0
 11
6.6592544318
 21
3.0658224907
 31
0.0
 11
6.6591355995
 21
3.0660859471
 31
0.0
 11
6.6591058952
 21
3.0662189745
 31
0.0
 11
6.6590959867
 21
3.0663527647
 31
0.0
  0
SPLINE
  5
29C
100
AcDbEntity
  8
0
100
AcDbSpline
 62
7
  6
CONTINUOUS
 70
0
 71
3
 72
30
 73
26
 74
24
 42
0.0000001
 43
0.0000001
 44
0.0000000001
 12
-0.0348380416
 22
0.0
 32
0.0
 13
0.0000128841
 23
-0.0348380392
 33
0.0
 40
0.0
 40
0.0
 40
0.0
 40
0.0
 40
0.0947646674
 40
0.1888231955
 40
0.2810821282
 40
0.3705339169
 40
0.4563818992
 40
0.5378637722
 40
0.6142627041
 40
0.6849412556
 40
0.7492810625
 40
0.8067656455
 40
0.8328224867
 40
0.8570323756
 40
0.879358757
 40
0.8997739806
 40
0.9182749426
 40
0.9348764537
 40
0.9496120233
 40
0.9625447727
 40
0.9737860055
 40
0.9835289327
 40
0.9920997291
 40
0.9960996707
 40
1.0
 40
1.0
 40
1.0
 40
1.0
 10
6.6925601072
 20
3.0774987883
 30
0.0
 10
6.6914596354
 20
3.0774987883
 30
0.0
 10
6.6892668305
 20
3.0774766272
 30
0.0
 10
6.6860039746
 20
3.0773787775
 30
0.0
 10
6.682805368
 20
3.0772177788
 30
0.0
 10
6.6797060291
 20
3.0769952338
 30
0.0
 10
6.6767369649
 20
3.0767158387
 30
0.0
 10
6.6739258703
 20
3.0763837864
 30
0.0
 10
6.671298712
 20
3.0760036797
 30
0.0
 10
6.668879668
 20
3.0755819917
 30
0.0
 10
6.6666910457
 20
3.0751244907
 30
0.0
 10
6.6650248612
 20
3.0747058949
 30
0.0
 10
6.6638238751
 20
3.0743541979
 30
0.0
 10
6.6630218888
 20
3.0740940139
 30
0.0
 10
6.6622905858
 20
3.073829549
 30
0.0
 10
6.6616316163
 20
3.0735614834
 30
0.0
 10
6.6610462411
 20
3.0732906457
 30
0.0
 10
6.6605353997
 20
3.0730178039
 30
0.0
 10
6.6600998849
 20
3.0727436129
 30
0.0
 10
6.6597403804
 20
3.0724685968
 30
0.0
 10
6.6594574482
 20
3.0721927803
 30
0.0
 10
6.6592518991
 20
3.071915659
 30
0.0
 10
6.6591441986
 20
3.0716768239
 30
0.0
 10
6.6591027881
 20
3.071489516
 30
0.0
 10
6.6590959748
 20
3.071397634
 30
0.0
 10
6.6590959916
 20
3.0713523407
 30
0.0
 11
6.6925601072
 21
3.0774987883
 31
0.0
 11
6.689258859
 21
3.0774655698
 31
0.0
 11
6.6859835281
 21
3.0773669592
 31
0.0
 11
6.6827735147
 21
3.0772045257
 31
0.0
 11
6.6796652497
 21
3.0769805372
 31
0.0
 11
6.6766877543
 21
3.0766990059
 31
0.0
 11
6.6738688968
 21
3.0763642175
 31
0.0
 11
6.6712350386
 21
3.0759810099
 31
0.0
 11
6.6688098312
 21
3.0755552146
 31
0.0
 11
6.6666165811
 21
3.0750927707
 31
0.0
 11
6.6646755551
 21
3.0745997938
 31
0.0
 11
6.6638046157
 21
3.0743438449
 31
0.0
 11
6.6630026524
 21
3.074082654
 31
0.0
 11
6.6622716101
 21
3.0738170197
 31
0.0
 11
6.6616133327
 21
3.0735477358
 31
0.0
 11
6.6610290793
 21
3.0732755662
 31
0.0
 11
6.6605198999
 21
3.0730012645
 31
0.0
 11
6.6600868442
 21
3.0727255843
 31
0.0
 11
6.6597309618
 21
3.0724492791
 31
0.0
 11
6.6594533026
 21
3.0721731025
 31
0.0
 11
6.6592547779
 21
3.07189779
 31
0.0
 11
6.6591356502
 21
3.0716239937
 31
0.0
 11
6.6591058827
 21
3.0714878601
 31
0.0
 11
6.6590959916
 21
3.0713523407
 31
0.0
  0
SPLINE
  5
29D
100
AcDbEntity
  8
0
100
AcDbSpline
 62
6
  6
CONTINUOUS
 70
0
 71
3
 72
31
 73
27
 74
25
 42
0.0000001
 43
0.0000001
 44
0.0000000001
 12
-0.0000049481
 22
-0.0345693671
 32
0.0
 13
-0.0345693675
 23
0.0
 33
0.0
 40
0.0
 40
0.0
 40
0.0
 40
0.0
 40
0.0038807836
 40
0.0078236894
 40
0.0161842304
 40
0.0256281715
 40
0.0365234673
 40
0.0490950792
 40
0.0634755218
 40
0.0797420469
 40
0.0979381071
 40
0.1180859421
 40
0.1401867667
 40
0.1642146749
 40
0.1901340452
 40
0.2179042306
 40
0.247481009
 40
0.3118509043
 40
0.382704919
 40
0.4593958274
 40
0.5412535804
 40
0.6275346978
 40
0.7174578889
 40
0.8102028619
 40
0.9047481717
 40
1.0
 40
1.0
 40
1.0
 40
1.0
 10
6.7260242278
 20
3.0663527288
 30
0.0
 10
6.7260242214
 20
3.06630801
 30
0.0
 10
6.7260174896
 20
3.0662177129
 30
0.0
 10
6.7259764151
 20
3.0660352061
 30
0.0
 10
6.7258692054
 20
3.0658052785
 30
0.0
 10
6.7256635094
 20
3.0655436992
 30
0.0
 10
6.7253804826
 20
3.0652891995
 30
0.0
 10
6.7250209709
 20
3.0650407973
 30
0.0
 10
6.7245854094
 20
3.0647981327
 30
0.0
 10
6.7240743462
 20
3.0645614048
 30
0.0
 10
6.723488457
 20
3.064330974
 30
0.0
 10
6.7228285935
 20
3.0641073386
 30
0.0
 10
6.7220959943
 20
3.06389099
 30
0.0
 10
6.7212923486
 20
3.0636821236
 30
0.0
 10
6.7204195579
 20
3.0634810786
 30
0.0
 10
6.7194795805
 20
3.0632881669
 30
0.0
 10
6.7180999643
 20
3.0630350521
 30
0.0
 10
6.7162227588
 20
3.0627454667
 30
0.0
 10
6.7137993783
 20
3.0624430955
 30
0.0
 10
6.7111690245
 20
3.0621782641
 30
0.0
 10
6.7083566919
 20
3.0619526484
 30
0.0
 10
6.7053886771
 20
3.061766987
 30
0.0
 10
6.7022928247
 20
3.0616219007
 30
0.0
 10
6.6991000432
 20
3.0615181382
 30
0.0
 10
6.695844787
 20
3.0614557262
 30
0.0
 10
6.6936577057
 20
3.0614417827
 30
0.0
 10
6.6925601072
 20
3.0614417827
 30
0.0
 11
6.7260242278
 21
3.0663527288
 31
0.0
 11
6.7260143139
 21
3.0662189394
 31
0.0
 11
6.7259846045
 21
3.0660859128
 31
0.0
 11
6.7258657625
 21
3.0658224582
 31
0.0
 11
6.7256676293
 21
3.0655629845
 31
0.0
 11
6.72539035
 21
3.0653080796
 31
0.0
 11
6.725034757
 21
3.0650582308
 31
0.0
 11
6.7246018179
 21
3.0648139057
 31
0.0
 11
6.7240924999
 21
3.064575572
 31
0.0
 11
6.7235077708
 21
3.0643436972
 31
0.0
 11
6.722848599
 21
3.0641187487
 31
0.0
 11
6.7221162302
 21
3.0639011492
 31
0.0
 11
6.7213125679
 21
3.0636912147
 31
0.0
 11
6.7204396111
 21
3.0634892457
 31
0.0
 11
6.7194993585
 21
3.063295543
 31
0.0
 11
6.718493809
 21
3.0631104073
 31
0.0
 11
6.7162952429
 21
3.0627669824
 31
0.0
 11
6.7138650903
 21
3.0624606929
 31
0.0
 11
6.7112274968
 21
3.0621928692
 31
0.0
 11
6.7084069336
 21
3.0619647778
 31
0.0
 11
6.7054301533
 21
3.0617772116
 31
0.0
 11
6.7023250185
 21
3.0616307337
 31
0.0
 11
6.6991205992
 21
3.0615258577
 31
0.0
 11
6.6958528355
 21
3.0614628257
 31
0.0
 11
6.6925601072
 21
3.0614417827
 31
0.0
  0
SPLINE
  5
29E
100
AcDbEntity
  8
0
100
AcDbSpline
 62
7
  6
CONTINUOUS
 70
0
 71
3
 72
30
 73
26
 74
24
 42
0.0000001
 43
0.0000001
 44
0.0000000001
 12
-0.0000049205
 22
0.0348375905
 32
0.0
 13
-0.0348375909
 23
-0.0
 33
0.0
 40
0.0
 40
0.0
 40
0.0
 40
0.0
 40
0.0039003975
 40
0.0079006526
 40
0.0164726302
 40
0.0262170834
 40
0.0374599254
 40
0.0503943122
 40
0.0651314944
 40
0.0817345818
 40
0.1002370949
 40
0.1206538678
 40
0.1429817508
 40
0.1671929879
 40
0.1932509382
 40
0.2507366905
 40
0.3150757892
 40
0.3857521007
 40
0.462148319
 40
0.5436277754
 40
0.6294735877
 40
0.7189238968
 40
0.8111817304
 40
0.9052382782
 40
1.0
 40
1.0
 40
1.0
 40
1.0
 10
6.7260242233
 20
3.0713527938
 30
0.0
 10
6.7260242169
 20
3.0713980873
 30
0.0
 10
6.7260173569
 20
3.0714899689
 30
0.0
 10
6.7259758548
 20
3.0716772723
 30
0.0
 10
6.7258680489
 20
3.071916092
 30
0.0
 10
6.7256624
 20
3.0721931937
 30
0.0
 10
6.7253793811
 20
3.0724689922
 30
0.0
 10
6.7250197987
 20
3.0727439889
 30
0.0
 10
6.7245842136
 20
3.0730181602
 30
0.0
 10
6.7240733079
 20
3.0732909821
 30
0.0
 10
6.7234878732
 20
3.0735618002
 30
0.0
 10
6.7228288482
 20
3.0738298468
 30
0.0
 10
6.7220974952
 20
3.0740942937
 30
0.0
 10
6.7212954666
 20
3.0743544607
 30
0.0
 10
6.7200944459
 20
3.0747061318
 30
0.0
 10
6.7184282577
 20
3.0751246956
 30
0.0
 10
6.7162396786
 20
3.0755821599
 30
0.0
 10
6.7138207266
 20
3.0760038083
 30
0.0
 10
6.7111936836
 20
3.0763838739
 30
0.0
 10
6.7083827073
 20
3.0767158912
 30
0.0
 10
6.705413751
 20
3.0769952699
 30
0.0
 10
6.7023145066
 20
3.0772177992
 30
0.0
 10
6.6991159937
 20
3.0773787814
 30
0.0
 10
6.69585325
 20
3.0774766274
 30
0.0
 10
6.6936605306
 20
3.0774987883
 30
0.0
 10
6.6925601072
 20
3.0774987883
 30
0.0
 11
6.7260242233
 21
3.0713527938
 31
0.0
 11
6.7260142642
 21
3.0714883088
 31
0.0
 11
6.7259844312
 21
3.0716244374
 31
0.0
 11
6.7258651823
 21
3.0718982216
 31
0.0
 11
6.7256665532
 21
3.0721735189
 31
0.0
 11
6.7253888044
 21
3.0724496778
 31
0.0
 11
6.7250328423
 21
3.0727259638
 31
0.0
 11
6.724599715
 21
3.0730016239
 31
0.0
 11
6.7240904708
 21
3.0732759052
 31
0.0
 11
6.7235061577
 21
3.0735480548
 31
0.0
 11
6.7228478241
 21
3.0738173197
 31
0.0
 11
6.7221167304
 21
3.0740829362
 31
0.0
 11
6.7213147236
 21
3.07434411
 31
0.0
 11
6.7204437513
 21
3.0746000422
 31
0.0
 11
6.7185027011
 21
3.0750929842
 31
0.0
 11
6.7163094975
 21
3.0755553886
 31
0.0
 11
6.7138843941
 21
3.0759811408
 31
0.0
 11
6.7112506601
 21
3.0763643065
 31
0.0
 11
6.7084319204
 21
3.0766990615
 31
0.0
 11
6.705454538
 21
3.0769805728
 31
0.0
 11
6.7023463639
 21
3.0772045458
 31
0.0
 11
6.6991364298
 21
3.0773669658
 31
0.0
 11
6.6958612102
 21
3.0774655708
 31
0.0
 11
6.6925601072
 21
3.0774987883
 31
0.0
  0
SPLINE
  5
29F
100
AcDbEntity
  8
0
100
AcDbSpline
 62
7
  6
CONTINUOUS
 70
0
 71
3
 72
19
 73
15
 74
13
 42
0.0000001
 43
0.0000001
 44
0.0000000001
 12
-0.1341397814
 22
-0.018675068
 32
0.0
 13
-0.1354363487
 23
-0.0
 33
0.0
 40
0.0
 40
0.0
 40
0.0
 40
0.0
 40
0.0766754954
 40
0.2940275394
 40
0.3667257187
 40
0.4454825336
 40
0.5295314674
 40
0.6180738821
 40
0.6637744094
 40
0.7102869903
 40
0.7575061962
 40
0.8053260464
 40
0.9022612889
 40
1.0
 40
1.0
 40
1.0
 40
1.0
 10
5.9097490836
 20
4.9929771925
 30
0.0
 10
5.9063206722
 20
4.9924998858
 30
0.0
 10
5.8931639564
 20
4.9907369626
 30
0.0
 10
5.8767114226
 20
4.9888627947
 30
0.0
 10
5.8601342158
 20
4.9873063836
 30
0.0
 10
5.849538747
 20
4.9864237994
 30
0.0
 10
5.8382206308
 20
4.9856081629
 30
0.0
 10
5.8283831188
 20
4.9850185558
 30
0.0
 10
5.8202331753
 20
4.98460688
 30
0.0
 10
5.8139445068
 20
4.9843295682
 30
0.0
 10
5.8075585441
 20
4.9840898379
 30
0.0
 10
5.7988958199
 20
4.9838232866
 30
0.0
 10
5.7879502889
 20
4.9835985609
 30
0.0
 10
5.7791615417
 20
4.9835369252
 30
0.0
 10
5.7747490836
 20
4.9835369252
 30
0.0
 11
5.9097490836
 21
4.9929771925
 31
0.0
 11
5.8994564106
 21
4.991598128
 31
0.0
 11
5.8702079477
 21
4.988268562
 31
0.0
 11
5.8604050596
 21
4.987348439
 31
0.0
 11
5.8497753565
 21
4.9864627804
 31
0.0
 11
5.8384214878
 21
4.9856450123
 31
0.0
 11
5.826451107
 21
4.9849275706
 31
0.0
 11
5.8202694784
 21
4.9846152674
 31
0.0
 11
5.8139760984
 21
4.9843377888
 31
0.0
 11
5.8075853981
 21
4.9840980133
 31
0.0
 11
5.8011119174
 21
4.9838987764
 31
0.0
 11
5.7879861393
 21
4.9836287544
 31
0.0
 11
5.7747490836
 21
4.9835369252
 31
0.0
  0
SPLINE
  5
2A0
100
AcDbEntity
  8
0
100
AcDbSpline
 62
6
  6
CONTINUOUS
 70
0
 71
3
 72
30
 73
26
 74
24
 42
0.0000001
 43
0.0000001
 44
0.0000000001
 12
0.0348258758
 22
0.0
 32
0.0
 13
-0.0000049848
 23
-0.0348258754
 33
0.0
 40
0.0
 40
0.0
 40
0.0
 40
0.0
 40
0.0947895021
 40
0.1888754001
 40
0.281162597
 40
0.3706387981
 40
0.4565069841
 40
0.5380071638
 40
0.6144224452
 40
0.6851147874
 40
0.7494653878
 40
0.8069552332
 40
0.8330122025
 40
0.8572204219
 40
0.8795431898
 40
0.899952496
 40
0.9184447349
 40
0.9350344205
 40
0.9497546797
 40
0.9626681498
 40
0.9738855753
 40
0.9835996823
 40
0.9921367385
 40
0.9961184187
 40
1.0
 40
1.0
 40
1.0
 40
1.0
 10
6.6925601072
 20
3.0724666444
 30
0.0
 10
6.6936604831
 20
3.0724666444
 30
0.0
 10
6.6958531277
 20
3.0724445973
 30
0.0
 10
6.6991157909
 20
3.0723472658
 30
0.0
 10
6.7023142502
 20
3.0721871581
 30
0.0
 10
6.705413434
 20
3.0719658273
 30
0.0
 10
6.7083823241
 20
3.0716879324
 30
0.0
 10
6.7111932735
 20
3.0713576793
 30
0.0
 10
6.7138203557
 20
3.0709796211
 30
0.0
 10
6.7162393996
 20
3.0705601874
 30
0.0
 10
6.7184280839
 20
3.070105134
 30
0.0
 10
6.7200943923
 20
3.0696887532
 30
0.0
 10
6.721295506
 20
3.0693389022
 30
0.0
 10
6.7220975624
 20
3.0690800896
 30
0.0
 10
6.7228289395
 20
3.0688170182
 30
0.0
 10
6.7234879838
 20
3.068550366
 30
0.0
 10
6.7240734287
 20
3.0682809553
 30
0.0
 10
6.7245843331
 20
3.0680095532
 30
0.0
 10
6.7250199061
 20
3.0677368125
 30
0.0
 10
6.7253794679
 20
3.0674632566
 30
0.0
 10
6.7256624649
 20
3.0671889078
 30
0.0
 10
6.725868103
 20
3.0669132561
 30
0.0
 10
6.7259759258
 20
3.0666755958
 30
0.0
 10
6.7260173978
 20
3.0664892079
 30
0.0
 10
6.7260242343
 20
3.0663977886
 30
0.0
 10
6.7260242278
 20
3.0663527288
 30
0.0
 11
6.6925601072
 21
3.0724666444
 31
0.0
 11
6.6958610693
 21
3.0724336001
 31
0.0
 11
6.6991362247
 21
3.0723355173
 31
0.0
 11
6.7023461448
 21
3.0721739725
 31
0.0
 11
6.7054542587
 21
3.0719512024
 31
0.0
 11
6.7084315551
 21
3.071671191
 31
0.0
 11
6.7112502707
 21
3.0713382124
 31
0.0
 11
6.7138840642
 21
3.0709570662
 31
0.0
 11
6.7163092847
 21
3.0705335468
 31
0.0
 11
6.7185026363
 21
3.0700735624
 31
0.0
 11
6.7204437906
 21
3.0695831935
 31
0.0
 11
6.7213147997
 21
3.0693285938
 31
0.0
 11
6.7221168386
 21
3.0690687771
 31
0.0
 11
6.7228479636
 21
3.0688045379
 31
0.0
 11
6.7235063264
 21
3.0685366662
 31
0.0
 11
6.7240906591
 21
3.0682659226
 31
0.0
 11
6.7245999131
 21
3.0679930566
 31
0.0
 11
6.72503304
 21
3.0677188177
 31
0.0
 11
6.7253889914
 21
3.0674439554
 31
0.0
 11
6.725666719
 21
3.0671692192
 31
0.0
 11
6.7258653117
 21
3.0668953408
 31
0.0
 11
6.7259845058
 21
3.0666229692
 31
0.0
 11
6.7260143054
 21
3.0664875436
 31
0.0
 11
6.7260242278
 21
3.0663527288
 31
0.0
  0
SPLINE
  5
2A1
100
AcDbEntity
  8
0
100
AcDbSpline
 62
6
  6
CONTINUOUS
 70
0
 71
3
 72
30
 73
26
 74
24
 42
0.0000001
 43
0.0000001
 44
0.0000000001
 12
-0.000003559
 22
0.03482584
 32
0.0
 13
0.0348258402
 23
0.0
 33
0.0
 40
0.0
 40
0.0
 40
0.0
 40
0.0
 40
0.0038815863
 40
0.007863291
 40
0.0164004396
 40
0.0261146646
 40
0.0373322074
 40
0.0502457896
 40
0.0649661595
 40
0.0815559621
 40
0.1000483346
 40
0.1204578018
 40
0.1427807506
 40
0.166989148
 40
0.1930462733
 40
0.2505362886
 40
0.3148867797
 40
0.385578851
 40
0.4619938733
 40
0.5434939368
 40
0.6293620806
 40
0.7188382032
 40
0.8111251977
 40
0.9052108025
 40
1.0
 40
1.0
 40
1.0
 40
1.0
 10
6.6590959867
 20
3.0663527647
 30
0.0
 10
6.6590959821
 20
3.0663978245
 30
0.0
 10
6.6591028223
 20
3.0664892438
 30
0.0
 10
6.6591443015
 20
3.0666756313
 30
0.0
 10
6.6592521327
 20
3.0669132902
 30
0.0
 10
6.6594577786
 20
3.0671889403
 30
0.0
 10
6.659740782
 20
3.0674632875
 30
0.0
 10
6.6601003494
 20
3.0677368419
 30
0.0
 10
6.6605359274
 20
3.068009581
 30
0.0
 10
6.6610468367
 20
3.0682809815
 30
0.0
 10
6.6616322867
 20
3.0685503908
 30
0.0
 10
6.6622913368
 20
3.0688170416
 30
0.0
 10
6.6630227198
 20
3.0690801118
 30
0.0
 10
6.6638247819
 20
3.0693389235
 30
0.0
 10
6.6650259008
 20
3.0696887729
 30
0.0
 10
6.6666922105
 20
3.0701051516
 30
0.0
 10
6.6688808905
 20
3.0705602026
 30
0.0
 10
6.6712999249
 20
3.0709796326
 30
0.0
 10
6.6739269974
 20
3.0713576869
 30
0.0
 10
6.6767379393
 20
3.0716879367
 30
0.0
 10
6.6797068237
 20
3.0719658302
 30
0.0
 10
6.6828060006
 20
3.0721871602
 30
0.0
 10
6.6860044501
 20
3.072347267
 30
0.0
 10
6.6892671007
 20
3.0724445977
 30
0.0
 10
6.6914597361
 20
3.0724666444
 30
0.0
 10
6.6925601072
 20
3.0724666444
 30
0.0
 11
6.6590959867
 21
3.0663527647
 31
0.0
 11
6.6591059145
 21
3.0664875791
 31
0.0
 11
6.6591357193
 21
3.0666230043
 31
0.0
 11
6.659254923
 21
3.0668953749
 31
0.0
 11
6.659453524
 21
3.0671692519
 31
0.0
 11
6.6597312582
 21
3.0674439867
 31
0.0
 11
6.6600872153
 21
3.0677188474
 31
0.0
 11
6.6605203471
 21
3.0679930846
 31
0.0
 11
6.6610296059
 21
3.0682659489
 31
0.0
 11
6.6616139438
 21
3.0685366909
 31
0.0
 11
6.6622723124
 21
3.0688045613
 31
0.0
 11
6.6630034437
 21
3.0690687995
 31
0.0
 11
6.6638054884
 21
3.0693286154
 31
0.0
 11
6.6646765025
 21
3.0695832142
 31
0.0
 11
6.6666176612
 21
3.0700735811
 31
0.0
 11
6.6688110072
 21
3.0705335624
 31
0.0
 11
6.6712362164
 21
3.0709570778
 31
0.0
 11
6.6738699985
 21
3.0713382199
 31
0.0
 11
6.6766887075
 21
3.0716711955
 31
0.0
 11
6.6796659995
 21
3.0719512055
 31
0.0
 11
6.6827741076
 21
3.0721739747
 31
0.0
 11
6.6859840173
 21
3.0723355186
 31
0.0
 11
6.6892591592
 21
3.0724336005
 31
0.0
 11
6.6925601072
 21
3.0724666444
 31
0.0
  0
ELLIPSE
  5
2A2
100
AcDbEntity
  8
0
100
AcDbEllipse
 62
7
  6
CONTINUOUS
 10
6.788171135
 20
4.0229771925
 30
0.0
 11
-0.0
 21
0.9645669291
 31
0.0
 40
0.8842220554
 41
0.1097195623
 42
0.1140237032
  0
ELLIPSE
  5
2A3
100
AcDbEntity
  8
0
100
AcDbEllipse
 62
7
  6
CONTINUOUS
 10
6.9094701786
 20
4.0229771925
 30
0.0
 11
1.9190055244
 21
-0.0
 31
0.0
 40
0.5026389538
 41
1.68482003
 42
1.6963083483
  0
ELLIPSE
  5
2A4
100
AcDbEntity
  8
0
100
AcDbEllipse
 62
7
  6
CONTINUOUS
 10
7.630152983
 20
4.0229771925
 30
0.0
 11
7.6760514557
 21
0.0
 31
0.0
 40
0.1256592578
 41
1.6963083483
 42
1.6991829592
  0
ELLIPSE
  5
2A5
100
AcDbEntity
  8
0
100
AcDbEllipse
 62
7
  6
CONTINUOUS
 10
5.6390221202
 20
4.0229771925
 30
0.0
 11
7.6760532477
 21
-0.0
 31
0.0
 40
0.1256592285
 41
1.4424096944
 42
1.4452843053
  0
ELLIPSE
  5
2A6
100
AcDbEntity
  8
0
100
AcDbEllipse
 62
7
  6
CONTINUOUS
 10
6.359705233
 20
4.0229771925
 30
0.0
 11
1.9190048524
 21
-0.0
 31
0.0
 40
0.5026391298
 41
1.4452843053
 42
1.4567726236
  0
ELLIPSE
  5
2A7
100
AcDbEntity
  8
0
100
AcDbEllipse
 62
7
  6
CONTINUOUS
 10
6.4810042002
 20
4.0229771925
 30
0.0
 11
0.0
 21
0.9645669291
 31
0.0
 40
0.8842220554
 41
-0.1140237032
 42
-0.1097195623
  0
ELLIPSE
  5
2A8
100
AcDbEntity
  8
0
100
AcDbEllipse
 62
7
  6
CONTINUOUS
 10
6.7562835737
 20
4.0229771925
 30
0.0
 11
-0.0
 21
0.9695
 31
0.0
 40
0.7957996981
 41
6.334554815
 42
6.3456397265
  0
ELLIPSE
  5
2A9
100
AcDbEntity
  8
0
100
AcDbEllipse
 62
7
  6
CONTINUOUS
 10
6.727672327
 20
4.0229771925
 30
0.0
 11
-0.0
 21
0.9695
 31
0.0
 40
0.2210555139
 41
0.0343317884
 42
0.0513695078
  0
ELLIPSE
  5
2AA
100
AcDbEntity
  8
0
100
AcDbEllipse
 62
7
  6
CONTINUOUS
 10
6.7129596985
 20
4.0229771925
 30
0.0
 11
-0.0
 21
0.9695
 31
0.0
 40
0.2210555139
 41
-0.0343317884
 42
-0.0173040341
  0
ELLIPSE
  5
2AB
100
AcDbEntity
  8
0
100
AcDbEllipse
 62
7
  6
CONTINUOUS
 10
6.7033181212
 20
4.0229771925
 30
0.0
 11
-0.0
 21
0.9695
 31
0.0
 40
0.7957996981
 41
-0.0173040341
 42
-0.0031182781
  0
ELLIPSE
  5
2AC
100
AcDbEntity
  8
0
100
AcDbEllipse
 62
7
  6
CONTINUOUS
 10
6.7017142309
 20
4.0229771925
 30
0.0
 11
1.2858799241
 21
-0.0
 31
0.0
 40
0.7539584232
 41
1.5707963295
 42
1.5761890168
  0
ELLIPSE
  5
2AD
100
AcDbEntity
  8
0
100
AcDbEllipse
 62
7
  6
CONTINUOUS
 10
6.7086485624
 20
4.0229771925
 30
0.0
 11
2.5717623008
 21
0.0
 31
0.0
 40
0.3769788521
 41
1.5761890168
 42
1.5818631691
  0
ELLIPSE
  5
2AE
100
AcDbEntity
  8
0
100
AcDbEllipse
 62
7
  6
CONTINUOUS
 10
6.7228788336
 20
4.0229771925
 30
0.0
 11
3.8576360167
 21
-0.0
 31
0.0
 40
0.2513197191
 41
1.5818631691
 42
1.5847003756
  0
ELLIPSE
  5
2AF
100
AcDbEntity
  8
0
100
AcDbEllipse
 62
7
  6
CONTINUOUS
 10
6.7586359491
 20
4.0229771925
 30
0.0
 11
6.4294241467
 21
-0.0
 31
0.0
 40
0.1507911094
 41
1.5847003756
 42
1.5875376778
  0
ELLIPSE
  5
2B0
100
AcDbEntity
  8
0
100
AcDbEllipse
 62
7
  6
CONTINUOUS
 10
6.5105393533
 20
4.0229771925
 30
0.0
 11
6.4294259479
 21
0.0
 31
0.0
 40
0.1507910672
 41
1.5540549758
 42
1.556892278
  0
ELLIPSE
  5
2B1
100
AcDbEntity
  8
0
100
AcDbEllipse
 62
7
  6
CONTINUOUS
 10
6.546296544
 20
4.0229771925
 30
0.0
 11
3.8576324144
 21
-0.0
 31
0.0
 40
0.2513199538
 41
1.556892278
 42
1.5597294844
  0
ELLIPSE
  5
2B2
100
AcDbEntity
  8
0
100
AcDbEllipse
 62
7
  6
CONTINUOUS
 10
6.5605267704
 20
4.0229771925
 30
0.0
 11
2.5717627511
 21
-0.0
 31
0.0
 40
0.3769787861
 41
1.5597294844
 42
1.5654036367
  0
ELLIPSE
  5
2B3
100
AcDbEntity
  8
0
100
AcDbEllipse
 62
7
  6
CONTINUOUS
 10
6.5674611035
 20
4.0229771925
 30
0.0
 11
1.2858800742
 21
0.0
 31
0.0
 40
0.7539583352
 41
1.5654036367
 42
1.5707963241
  0
ELLIPSE
  5
2B4
100
AcDbEntity
  8
0
100
AcDbEllipse
 62
7
  6
CONTINUOUS
 10
6.5658572129
 20
4.0229771925
 30
0.0
 11
-0.0
 21
0.9695
 31
0.0
 40
0.7957997678
 41
0.0031182781
 42
0.0173040341
  0
ELLIPSE
  5
2B5
100
AcDbEntity
  8
0
100
AcDbEllipse
 62
7
  6
CONTINUOUS
 10
6.5562156347
 20
4.0229771925
 30
0.0
 11
-0.0
 21
0.9695
 31
0.0
 40
0.2210555332
 41
0.0173040341
 42
0.0343317884
  0
ELLIPSE
  5
2B6
100
AcDbEntity
  8
0
100
AcDbEllipse
 62
7
  6
CONTINUOUS
 10
6.5415030049
 20
4.0229771925
 30
0.0
 11
-0.0
 21
0.9695
 31
0.0
 40
0.2210555332
 41
-0.0513695078
 42
-0.0343317884
  0
ELLIPSE
  5
2B7
100
AcDbEntity
  8
0
100
AcDbEllipse
 62
7
  6
CONTINUOUS
 10
6.5128917557
 20
4.0229771925
 30
0.0
 11
0.0
 21
0.9695
 31
0.0
 40
0.7957997678
 41
-0.0624544193
 42
-0.0513695078
  0
ELLIPSE
  5
2B8
100
AcDbEntity
  8
0
100
AcDbEllipse
 62
7
  6
CONTINUOUS
 10
6.3974503137
 20
4.0229771925
 30
0.0
 11
6.4294241467
 21
-0.0
 31
0.0
 40
0.1507911094
 41
1.5285103462
 42
1.5313496859
  0
ELLIPSE
  5
2B9
100
AcDbEntity
  8
0
100
AcDbEllipse
 62
7
  6
CONTINUOUS
 10
6.50616849
 20
4.0229771925
 30
0.0
 11
3.8576360167
 21
-0.0
 31
0.0
 40
0.2513197191
 41
1.5256706491
 42
1.5285103462
  0
ELLIPSE
  5
2BA
100
AcDbEntity
  8
0
100
AcDbEllipse
 62
7
  6
CONTINUOUS
 10
6.5641747215
 20
4.0229771925
 30
0.0
 11
2.5717623008
 21
0.0
 31
0.0
 40
0.3769788521
 41
1.5199901556
 42
1.5256706491
  0
ELLIPSE
  5
2BB
100
AcDbEntity
  8
0
100
AcDbEllipse
 62
7
  6
CONTINUOUS
 10
6.6294773793
 20
4.0229771925
 30
0.0
 11
1.2858799241
 21
0.0
 31
0.0
 40
0.7539584232
 41
1.5114662718
 42
1.5199901556
  0
ELLIPSE
  5
2BC
100
AcDbEntity
  8
0
100
AcDbEllipse
 62
7
  6
CONTINUOUS
 10
6.6599760447
 20
4.0229771925
 30
0.0
 11
-0.0
 21
0.9695
 31
0.0
 40
0.7957992427
 41
-0.0735464445
 42
-0.059330055
  0
ELLIPSE
  5
2BD
100
AcDbEntity
  8
0
100
AcDbEllipse
 62
7
  6
CONTINUOUS
 10
6.7009202215
 20
4.0229771925
 30
0.0
 11
-0.0
 21
0.9695
 31
0.0
 40
0.2210555139
 41
-0.0906260353
 42
-0.0735464445
  0
ELLIPSE
  5
2BE
100
AcDbEntity
  8
0
100
AcDbEllipse
 62
7
  6
CONTINUOUS
 10
6.739711804
 20
4.0229771925
 30
0.0
 11
0.0
 21
0.9695
 31
0.0
 40
0.2210555139
 41
0.0906260353
 42
0.10773218
  0
ELLIPSE
  5
2BF
100
AcDbEntity
  8
0
100
AcDbEllipse
 62
7
  6
CONTINUOUS
 10
7.0296731556
 20
4.0229771925
 30
0.0
 11
2.5717549429
 21
0.0
 31
0.0
 40
0.3769799306
 41
1.7013869237
 42
1.7071118038
  0
ELLIPSE
  5
2C0
100
AcDbEntity
  8
0
100
AcDbEllipse
 62
7
  6
CONTINUOUS
 10
7.2044192948
 20
4.0229771925
 30
0.0
 11
3.8576580903
 21
-0.0
 31
0.0
 40
0.251318281
 41
1.7071118038
 42
1.7099759023
  0
ELLIPSE
  5
2C1
100
AcDbEntity
  8
0
100
AcDbEllipse
 62
7
  6
CONTINUOUS
 10
7.5612021237
 20
4.0229771925
 30
0.0
 11
6.4294241467
 21
-0.0
 31
0.0
 40
0.1507911094
 41
1.7099759023
 42
1.7128411503
  0
ELLIPSE
  5
2C2
100
AcDbEntity
  8
0
100
AcDbEllipse
 62
7
  6
CONTINUOUS
 10
5.707972954
 20
4.0229771925
 30
0.0
 11
6.4294259479
 21
0.0
 31
0.0
 40
0.1507910672
 41
1.4287515033
 42
1.4316167513
  0
ELLIPSE
  5
2C3
100
AcDbEntity
  8
0
100
AcDbEllipse
 62
7
  6
CONTINUOUS
 10
6.0647565324
 20
4.0229771925
 30
0.0
 11
3.857654488
 21
-0.0
 31
0.0
 40
0.2513185157
 41
1.4316167513
 42
1.4344808497
  0
ELLIPSE
  5
2C4
100
AcDbEntity
  8
0
100
AcDbEllipse
 62
7
  6
CONTINUOUS
 10
6.239502121
 20
4.0229771925
 30
0.0
 11
2.5717553932
 21
0.0
 31
0.0
 40
0.3769798646
 41
1.4344808497
 42
1.4402057299
  0
ELLIPSE
  5
2C5
100
AcDbEntity
  8
0
100
AcDbEllipse
 62
7
  6
CONTINUOUS
 10
6.5682551128
 20
4.0229771925
 30
0.0
 11
-0.0
 21
0.9695
 31
0.0
 40
0.2210555332
 41
0.0735464445
 42
0.0906260353
  0
ELLIPSE
  5
2C6
100
AcDbEntity
  8
0
100
AcDbEllipse
 62
7
  6
CONTINUOUS
 10
6.6091992932
 20
4.0229771925
 30
0.0
 11
0.0
 21
0.9695
 31
0.0
 40
0.7957993124
 41
0.059330055
 42
0.0735464445
  0
ELLIPSE
  5
2C7
100
AcDbEntity
  8
0
100
AcDbEllipse
 62
7
  6
CONTINUOUS
 10
6.6396979635
 20
4.0229771925
 30
0.0
 11
1.2858800742
 21
-0.0
 31
0.0
 40
0.7539583352
 41
1.621602498
 42
1.6301263818
  0
ELLIPSE
  5
2C8
100
AcDbEntity
  8
0
100
AcDbEllipse
 62
7
  6
CONTINUOUS
 10
6.7050006365
 20
4.0229771925
 30
0.0
 11
2.5717627511
 21
0.0
 31
0.0
 40
0.3769787861
 41
1.6159220045
 42
1.621602498
  0
ELLIPSE
  5
2C9
100
AcDbEntity
  8
0
100
AcDbEllipse
 62
7
  6
CONTINUOUS
 10
6.7630066853
 20
4.0229771925
 30
0.0
 11
3.8576324144
 21
-0.0
 31
0.0
 40
0.2513199538
 41
1.6130823074
 42
1.6159220045
  0
ELLIPSE
  5
2CA
100
AcDbEntity
  8
0
100
AcDbEllipse
 62
7
  6
CONTINUOUS
 10
6.87172509
 20
4.0229771925
 30
0.0
 11
6.4294259479
 21
-0.0
 31
0.0
 40
0.1507910672
 41
1.6102429677
 42
1.6130823074
  0
ELLIPSE
  5
2CB
100
AcDbEntity
  8
0
100
AcDbEllipse
 62
7
  6
CONTINUOUS
 10
6.602420423
 20
4.0229771925
 30
0.0
 11
-0.7244051529
 21
0.9616588024
 31
0.0
 40
0.1698707729
 41
-1.3947898515
 42
-1.3800412872
  0
ELLIPSE
  5
2CC
100
AcDbEntity
  8
0
100
AcDbEllipse
 62
7
  6
CONTINUOUS
 10
6.6296475543
 20
4.0229771925
 30
0.0
 11
-0.5746528159
 21
0.9653422909
 31
0.0
 40
0.1560789367
 41
-1.3564773887
 42
-1.3380452276
  0
ELLIPSE
  5
2CD
100
AcDbEntity
  8
0
100
AcDbEllipse
 62
7
  6
CONTINUOUS
 10
6.6463170243
 20
4.0229771925
 30
0.0
 11
-0.1869470651
 21
0.9694181991
 31
0.0
 40
0.0673658893
 41
-1.2952689966
 42
-1.2768224891
  0
ELLIPSE
  5
2CE
100
AcDbEntity
  8
0
100
AcDbEllipse
 62
7
  6
CONTINUOUS
 10
6.6746601269
 20
4.0229771925
 30
0.0
 11
0.1869472809
 21
0.9694181988
 31
0.0
 40
0.0673659609
 41
1.3174326423
 42
1.335933013
  0
ELLIPSE
  5
2CF
100
AcDbEntity
  8
0
100
AcDbEllipse
 62
7
  6
CONTINUOUS
 10
6.7146768906
 20
4.0229771925
 30
0.0
 11
0.5746528159
 21
0.9653422909
 31
0.0
 40
0.1560789367
 41
1.4155878838
 42
1.434123085
  0
ELLIPSE
  5
2D0
100
AcDbEntity
  8
0
100
AcDbEllipse
 62
7
  6
CONTINUOUS
 10
6.4057421169
 20
4.0229771925
 30
0.0
 11
1.3106318552
 21
-0.9442374924
 31
0.0
 40
0.1677639688
 41
1.5601896397
 42
1.5713302259
  0
ELLIPSE
  5
2D1
100
AcDbEntity
  8
0
100
AcDbEllipse
 62
7
  6
CONTINUOUS
 10
6.4924821836
 20
4.0229771925
 30
0.0
 11
-0.5746528681
 21
0.9653422898
 31
0.0
 40
0.1560789432
 41
-1.4341230973
 42
-1.4155878961
  0
ELLIPSE
  5
2D2
100
AcDbEntity
  8
0
100
AcDbEllipse
 62
7
  6
CONTINUOUS
 10
6.5324989509
 20
4.0229771925
 30
0.0
 11
-0.1869472975
 21
0.9694181987
 31
0.0
 40
0.0673659664
 41
4.947252292
 42
4.9657526627
  0
ELLIPSE
  5
2D3
100
AcDbEntity
  8
0
100
AcDbEllipse
 62
7
  6
CONTINUOUS
 10
6.5608420559
 20
4.0229771925
 30
0.0
 11
0.1869470816
 21
0.9694181991
 31
0.0
 40
0.0673658948
 41
1.2768224913
 42
1.2952689988
  0
ELLIPSE
  5
2D4
100
AcDbEntity
  8
0
100
AcDbEllipse
 62
7
  6
CONTINUOUS
 10
6.594696142
 20
4.0229771925
 30
0.0
 11
1.3106318552
 21
0.9442374924
 31
0.0
 40
0.1677639688
 41
1.4631295299
 42
1.4741845703
  0
ELLIPSE
  5
2D5
100
AcDbEntity
  8
0
100
AcDbEllipse
 62
7
  6
CONTINUOUS
 10
6.6030224848
 20
4.0229771925
 30
0.0
 11
1.9761084722
 21
0.9305703719
 31
0.0
 40
0.1376303424
 41
1.5113205669
 42
1.5186896574
  0
ELLIPSE
  5
2D6
100
AcDbEntity
  8
0
100
AcDbEllipse
 62
7
  6
CONTINUOUS
 10
6.6467986433
 20
4.0229771925
 30
0.0
 11
1.9761084722
 21
0.9305703719
 31
0.0
 40
0.1376303424
 41
1.533430284
 42
1.5408026323
  0
ELLIPSE
  5
2D7
100
AcDbEntity
  8
0
100
AcDbEllipse
 62
7
  6
CONTINUOUS
 10
6.6009618459
 20
4.0229771925
 30
0.0
 11
0.6410328596
 21
0.9638282546
 31
0.0
 40
0.1633544133
 41
1.364678812
 42
1.3757409965
  0
ELLIPSE
  5
2D8
100
AcDbEntity
  8
0
100
AcDbEllipse
 62
7
  6
CONTINUOUS
 10
6.582077817
 20
4.0229771925
 30
0.0
 11
0.2342458727
 21
0.9693071925
 31
0.0
 40
0.082538636
 41
1.2874639355
 42
1.3022224851
  0
ELLIPSE
  5
2D9
100
AcDbEntity
  8
0
100
AcDbEllipse
 62
7
  6
CONTINUOUS
 10
6.5466489228
 20
4.0229771925
 30
0.0
 11
-0.2342462121
 21
0.9693071915
 31
0.0
 40
0.0825387411
 41
4.9440014399
 42
4.9587991509
  0
ELLIPSE
  5
2DA
100
AcDbEntity
  8
0
100
AcDbEllipse
 62
7
  6
CONTINUOUS
 10
6.5064848417
 20
4.0229771925
 30
0.0
 11
-0.6410328596
 21
0.9638282546
 31
0.0
 40
0.1633544133
 41
-1.438573063
 42
-1.4274608739
  0
ELLIPSE
  5
2DB
100
AcDbEntity
  8
0
100
AcDbEllipse
 62
7
  6
CONTINUOUS
 10
6.4170368672
 20
4.0229771925
 30
0.0
 11
1.4774970688
 21
-0.94001716
 31
0.0
 40
0.1605904861
 41
1.5565771643
 42
1.5639927069
  0
ELLIPSE
  5
2DC
100
AcDbEntity
  8
0
100
AcDbEllipse
 62
7
  6
CONTINUOUS
 10
6.2450843645
 20
4.0229771925
 30
0.0
 11
2.9689098618
 21
-0.9210573645
 31
0.0
 40
0.1019322941
 41
1.4826613836
 42
1.4863715129
  0
ELLIPSE
  5
2DD
100
AcDbEntity
  8
0
100
AcDbEllipse
 62
7
  6
CONTINUOUS
 10
6.9620748804
 20
4.0229771925
 30
0.0
 11
2.9689112505
 21
0.9210573563
 31
0.0
 40
0.1019322549
 41
1.6552211679
 42
1.6589312972
  0
ELLIPSE
  5
2DE
100
AcDbEntity
  8
0
100
AcDbEllipse
 62
7
  6
CONTINUOUS
 10
6.7901221769
 20
4.0229771925
 30
0.0
 11
1.4774967187
 21
0.9400171683
 31
0.0
 40
0.1605905019
 41
1.5775999118
 42
1.5850154544
  0
ELLIPSE
  5
2DF
100
AcDbEntity
  8
0
100
AcDbEllipse
 62
7
  6
CONTINUOUS
 10
6.70067424
 20
4.0229771925
 30
0.0
 11
0.6410328596
 21
0.9638282546
 31
0.0
 40
0.1633544133
 41
1.4274608739
 42
1.438573063
  0
ELLIPSE
  5
2E0
100
AcDbEntity
  8
0
100
AcDbEllipse
 62
7
  6
CONTINUOUS
 10
6.6605101589
 20
4.0229771925
 30
0.0
 11
0.2342462121
 21
0.9693071915
 31
0.0
 40
0.0825387411
 41
1.3243861563
 42
1.3391838673
  0
ELLIPSE
  5
2E1
100
AcDbEntity
  8
0
100
AcDbEllipse
 62
7
  6
CONTINUOUS
 10
6.6250812647
 20
4.0229771925
 30
0.0
 11
-0.2342458727
 21
0.9693071925
 31
0.0
 40
0.082538636
 41
-1.3022224851
 42
-1.2874639355
  0
ELLIPSE
  5
2E2
100
AcDbEntity
  8
0
100
AcDbEllipse
 62
7
  6
CONTINUOUS
 10
6.6736152658
 20
4.0229771925
 30
0.0
 11
2.5695907688
 21
-0.9238862998
 31
0.0
 40
0.114367678
 41
-1.5356543218
 42
-1.5299803341
  0
ELLIPSE
  5
2E3
100
AcDbEntity
  8
0
100
AcDbEllipse
 62
7
  6
CONTINUOUS
 10
6.6796452684
 20
4.0229771925
 30
0.0
 11
1.9244141006
 21
0.9313540045
 31
0.0
 40
0.1399266146
 41
-1.6381317277
 42
-1.6324577399
  0
ELLIPSE
  5
2E4
100
AcDbEntity
  8
0
100
AcDbEllipse
 62
7
  6
CONTINUOUS
 10
6.6860267343
 20
4.0229771925
 30
0.0
 11
0.8407062158
 21
0.958282616
 31
0.0
 40
0.1749164141
 41
-1.7616396296
 42
-1.7531282233
  0
ELLIPSE
  5
2E5
100
AcDbEntity
  8
0
100
AcDbEllipse
 62
7
  6
CONTINUOUS
 10
6.6947075699
 20
4.0229771925
 30
0.0
 11
0.2434969424
 21
0.9692770685
 31
0.0
 40
0.0853800028
 41
-1.8839500288
 42
-1.8697617145
  0
ELLIPSE
  5
2E6
100
AcDbEntity
  8
0
100
AcDbEllipse
 62
7
  6
CONTINUOUS
 10
6.7123627228
 20
4.0229771925
 30
0.0
 11
-0.2434969424
 21
0.9692770685
 31
0.0
 40
0.0853800028
 41
-4.4389790303
 42
-4.4247782581
  0
ELLIPSE
  5
2E7
100
AcDbEntity
  8
0
100
AcDbEllipse
 62
7
  6
CONTINUOUS
 10
6.7448772553
 20
4.0229771925
 30
0.0
 11
-0.8407062158
 21
0.958282616
 31
0.0
 40
0.1749164141
 41
-4.5783263692
 42
-4.5698008357
  0
ELLIPSE
  5
2E8
100
AcDbEntity
  8
0
100
AcDbEllipse
 62
7
  6
CONTINUOUS
 10
6.812059067
 20
4.0229771925
 30
0.0
 11
1.9244141006
 21
-0.9313540045
 31
0.0
 40
0.1399266146
 41
-1.5716017881
 42
-1.5659156053
  0
ELLIPSE
  5
2E9
100
AcDbEntity
  8
0
100
AcDbEllipse
 62
7
  6
CONTINUOUS
 10
7.1048041819
 20
4.0229771925
 30
0.0
 11
5.1431995678
 21
-0.9146610028
 31
0.0
 40
0.0624986133
 41
-1.6423298464
 42
-1.639483481
  0
ELLIPSE
  5
2EA
100
AcDbEntity
  8
0
100
AcDbEllipse
 62
7
  6
CONTINUOUS
 10
6.7533290089
 20
4.0229771925
 30
0.0
 11
-0.6237598461
 21
0.9642423426
 31
0.0
 40
0.1616508637
 41
-4.5359371337
 42
-4.5245667903
  0
ELLIPSE
  5
2EB
100
AcDbEntity
  8
0
100
AcDbEllipse
 62
7
  6
CONTINUOUS
 10
6.7271425718
 20
4.0229771925
 30
0.0
 11
-0.1733133838
 21
0.9694388924
 31
0.0
 40
0.0628055002
 41
-4.4316026612
 42
-4.4117214252
  0
ELLIPSE
  5
2EC
100
AcDbEntity
  8
0
100
AcDbEllipse
 62
7
  6
CONTINUOUS
 10
6.7147837057
 20
4.0229771925
 30
0.0
 11
0.20247484
 21
0.9693889792
 31
0.0
 40
0.0724615456
 41
-1.89593605
 42
-1.8789114217
  0
ELLIPSE
  5
2ED
100
AcDbEntity
  8
0
100
AcDbEllipse
 62
7
  6
CONTINUOUS
 10
6.7110151187
 20
4.0229771925
 30
0.0
 11
0.6237598461
 21
0.9642423426
 31
0.0
 40
0.1616508637
 41
-1.8182260229
 42
-1.8068779936
  0
ELLIPSE
  5
2EE
100
AcDbEntity
  8
0
100
AcDbEllipse
 62
7
  6
CONTINUOUS
 10
6.7126582653
 20
4.0229771925
 30
0.0
 11
1.2759060471
 21
0.9451842707
 31
0.0
 40
0.1691116546
 41
4.5738572125
 42
4.585205579
  0
ELLIPSE
  5
2EF
100
AcDbEntity
  8
0
100
AcDbEllipse
 62
7
  6
CONTINUOUS
 10
6.6314822687
 20
4.0229771925
 30
0.0
 11
1.9244085531
 21
-0.9313540908
 31
0.0
 40
0.139926863
 41
-1.4949495759
 42
-1.489275252
  0
ELLIPSE
  5
2F0
100
AcDbEntity
  8
0
100
AcDbEllipse
 62
7
  6
CONTINUOUS
 10
6.3974503137
 20
4.0229771925
 30
0.0
 11
6.4292583181
 21
-0.9133900244
 31
0.0
 40
0.0505558762
 41
-1.5241674517
 42
-1.521328112
  0
ELLIPSE
  5
2F1
100
AcDbEntity
  8
0
100
AcDbEllipse
 62
7
  6
CONTINUOUS
 10
6.50616849
 20
4.0229771925
 30
0.0
 11
3.8569136066
 21
-0.9172782914
 31
0.0
 40
0.0813853176
 41
-1.5091571348
 42
-1.5063174377
  0
ELLIPSE
  5
2F2
100
AcDbEntity
  8
0
100
AcDbEllipse
 62
7
  6
CONTINUOUS
 10
6.5641747215
 20
4.0229771925
 30
0.0
 11
2.5695907688
 21
-0.9238862998
 31
0.0
 40
0.114367678
 41
-1.4845733516
 42
-1.478892858
  0
ELLIPSE
  5
2F3
100
AcDbEntity
  8
0
100
AcDbEllipse
 62
7
  6
CONTINUOUS
 10
6.6294773793
 20
4.0229771925
 30
0.0
 11
1.2759066681
 21
-0.9451842536
 31
0.0
 40
0.1691116311
 41
-1.3953625159
 42
-1.3868386321
  0
ELLIPSE
  5
2F4
100
AcDbEntity
  8
0
100
AcDbEllipse
 62
7
  6
CONTINUOUS
 10
6.7009202215
 20
4.0229771925
 30
0.0
 11
-0.20247484
 21
0.9693889792
 31
0.0
 40
0.0724615456
 41
-4.3049104657
 42
-4.2878308749
  0
ELLIPSE
  5
2F5
100
AcDbEntity
  8
0
100
AcDbEllipse
 62
7
  6
CONTINUOUS
 10
6.739711804
 20
4.0229771925
 30
0.0
 11
0.20247484
 21
0.9693889792
 31
0.0
 40
0.0724615456
 41
4.2707247302
 42
4.2878308749
  0
ELLIPSE
  5
2F6
100
AcDbEntity
  8
0
100
AcDbEllipse
 62
7
  6
CONTINUOUS
 10
7.2044192948
 20
4.0229771925
 30
0.0
 11
3.8569356919
 21
0.9172782252
 31
0.0
 40
0.0813849018
 41
-1.7293289027
 42
-1.7264648042
  0
ELLIPSE
  5
2F7
100
AcDbEntity
  8
0
100
AcDbEllipse
 62
7
  6
CONTINUOUS
 10
7.5612021237
 20
4.0229771925
 30
0.0
 11
6.4292583181
 21
0.9133900244
 31
0.0
 40
0.0505558762
 41
-1.7200233845
 42
-1.7171581365
  0
ELLIPSE
  5
2F8
100
AcDbEntity
  8
0
100
AcDbEllipse
 62
7
  6
CONTINUOUS
 10
5.707972954
 20
4.0229771925
 30
0.0
 11
6.4292601194
 21
-0.9133900231
 31
0.0
 40
0.0505558626
 41
-1.4244345211
 42
-1.421569273
  0
ELLIPSE
  5
2F9
100
AcDbEntity
  8
0
100
AcDbEllipse
 62
7
  6
CONTINUOUS
 10
6.0647565324
 20
4.0229771925
 30
0.0
 11
3.8569320877
 21
-0.917278236
 31
0.0
 40
0.0813849697
 41
-1.4151278149
 42
-1.4122637165
  0
ELLIPSE
  5
2FA
100
AcDbEntity
  8
0
100
AcDbEllipse
 62
7
  6
CONTINUOUS
 10
6.4695495956
 20
4.0229771925
 30
0.0
 11
-0.7537153787
 21
0.9608392719
 31
0.0
 40
0.1715483905
 41
-4.3893558366
 42
-4.3750767201
  0
ELLIPSE
  5
2FB
100
AcDbEntity
  8
0
100
AcDbEllipse
 62
7
  6
CONTINUOUS
 10
6.5682551128
 20
4.0229771925
 30
0.0
 11
0.2024748579
 21
0.9693889792
 31
0.0
 40
0.0724615514
 41
4.2878308774
 42
4.3049104683
  0
ELLIPSE
  5
2FC
100
AcDbEntity
  8
0
100
AcDbEllipse
 62
7
  6
CONTINUOUS
 10
6.6091992932
 20
4.0229771925
 30
0.0
 11
0.7537144837
 21
0.9608392973
 31
0.0
 40
0.1715483437
 41
-1.8596439314
 42
-1.8454275419
  0
ELLIPSE
  5
2FD
100
AcDbEntity
  8
0
100
AcDbEllipse
 62
7
  6
CONTINUOUS
 10
6.6396979635
 20
4.0229771925
 30
0.0
 11
1.2759068202
 21
0.9451842494
 31
0.0
 40
0.1691116253
 41
-1.754754002
 42
-1.7462301183
  0
ELLIPSE
  5
2FE
100
AcDbEntity
  8
0
100
AcDbEllipse
 62
7
  6
CONTINUOUS
 10
6.7050006365
 20
4.0229771925
 30
0.0
 11
2.5695912201
 21
0.923886296
 31
0.0
 40
0.1143676625
 41
-1.6626997827
 42
-1.6570192891
  0
ELLIPSE
  5
2FF
100
AcDbEntity
  8
0
100
AcDbEllipse
 62
7
  6
CONTINUOUS
 10
6.87172509
 20
4.0229771925
 30
0.0
 11
6.4292601194
 21
0.9133900231
 31
0.0
 40
0.0505558626
 41
4.6629207696
 42
4.6657601093
  0
ELLIPSE
  5
300
100
AcDbEntity
  8
0
100
AcDbEllipse
 62
7
  6
CONTINUOUS
 10
6.5294635269
 20
4.0229771925
 30
0.0
 11
0.0
 21
0.9645669291
 31
0.0
 40
0.2210555332
 41
-0.1082853113
 42
-0.0910908057
  0
ELLIPSE
  5
301
100
AcDbEntity
  8
0
100
AcDbEllipse
 62
7
  6
CONTINUOUS
 10
6.4695495956
 20
4.0229771925
 30
0.0
 11
0.0
 21
0.9645669291
 31
0.0
 40
0.7958002231
 41
-0.1226384364
 42
-0.1082853113
  0
ELLIPSE
  5
302
100
AcDbEntity
  8
0
100
AcDbEllipse
 62
7
  6
CONTINUOUS
 10
6.4069484622
 20
4.0229771925
 30
0.0
 11
1.2793371783
 21
-0.0
 31
0.0
 40
0.7539583352
 41
1.4395339999
 42
1.4481578904
  0
ELLIPSE
  5
303
100
AcDbEntity
  8
0
100
AcDbEllipse
 62
7
  6
CONTINUOUS
 10
6.8622268535
 20
4.0229771925
 30
0.0
 11
1.279337029
 21
-0.0
 31
0.0
 40
0.7539584232
 41
1.6934347632
 42
1.7020586537
  0
ELLIPSE
  5
304
100
AcDbEntity
  8
0
100
AcDbEllipse
 62
7
  6
CONTINUOUS
 10
6.7996257301
 20
4.0229771925
 30
0.0
 11
0.0
 21
0.9645669291
 31
0.0
 40
0.7958001534
 41
0.1082853113
 42
0.1226384364
  0
ELLIPSE
  5
305
100
AcDbEntity
  8
0
100
AcDbEllipse
 62
6
  6
CONTINUOUS
 10
6.858961498
 20
4.0229771925
 30
0.0
 11
1.1433560309
 21
-0.9489912149
 31
0.0
 40
0.1734875795
 41
1.8341228243
 42
1.8564220296
  0
ELLIPSE
  5
306
100
AcDbEntity
  8
0
100
AcDbEllipse
 62
7
  6
CONTINUOUS
 10
6.829777439
 20
4.0229771925
 30
0.0
 11
1.1375388016
 21
-0.9441624842
 31
0.0
 40
0.1734875667
 41
1.8367223686
 42
1.8571563478
  0
ELLIPSE
  5
307
100
AcDbEntity
  8
0
100
AcDbEllipse
 62
6
  6
CONTINUOUS
 10
6.7738411473
 20
4.0229771925
 30
0.0
 11
1.1433557514
 21
-0.9489912232
 31
0.0
 40
0.1734875871
 41
1.7601616376
 42
1.7823049235
  0
ELLIPSE
  5
308
100
AcDbEntity
  8
0
100
AcDbEllipse
 62
7
  6
CONTINUOUS
 10
6.7446570543
 20
4.0229771925
 30
0.0
 11
1.1375385235
 21
-0.9441624925
 31
0.0
 40
0.1734875743
 41
1.7623006758
 42
1.7826557146
  0
ELLIPSE
  5
309
100
AcDbEntity
  8
0
100
AcDbEllipse
 62
6
  6
CONTINUOUS
 10
6.5775115274
 20
4.0229771925
 30
0.0
 11
0.5746528681
 21
0.9653422898
 31
0.0
 40
0.1560789432
 41
1.3380452399
 42
1.356477401
  0
ELLIPSE
  5
30A
100
AcDbEntity
  8
0
100
AcDbEllipse
 62
7
  6
CONTINUOUS
 10
6.2549790612
 20
4.0229771925
 30
0.0
 11
2.4603354234
 21
-0.9200314265
 31
0.0
 40
0.1177519922
 41
1.475764772
 42
1.4832395775
  0
ELLIPSE
  5
30B
100
AcDbEntity
  8
0
100
AcDbEllipse
 62
7
  6
CONTINUOUS
 10
6.9521800658
 20
4.0229771925
 30
0.0
 11
2.4603357692
 21
0.9200314233
 31
0.0
 40
0.1177519797
 41
1.6583530871
 42
1.6658278925
  0
ELLIPSE
  5
30C
100
AcDbEntity
  8
0
100
AcDbEllipse
 62
7
  6
CONTINUOUS
 10
6.8014169497
 20
4.0229771925
 30
0.0
 11
1.3039628993
 21
0.939432967
 31
0.0
 40
0.1677639734
 41
1.5708778021
 42
1.5820762764
  0
ELLIPSE
  5
30D
100
AcDbEntity
  8
0
100
AcDbEllipse
 62
7
  6
CONTINUOUS
 10
6.9080027508
 20
4.0229771925
 30
0.0
 11
1.4850549495
 21
-0.9348803478
 31
0.0
 40
0.1599010046
 41
-1.6138200371
 42
-1.5965544644
  0
ELLIPSE
  5
30E
100
AcDbEntity
  8
0
100
AcDbEllipse
 62
6
  6
CONTINUOUS
 10
6.8788187114
 20
4.0229771925
 30
0.0
 11
1.4926505511
 21
-0.9396615788
 31
0.0
 40
0.1599009769
 41
-1.6130857077
 42
-1.5959095904
  0
ELLIPSE
  5
30F
100
AcDbEntity
  8
0
100
AcDbEllipse
 62
7
  6
CONTINUOUS
 10
6.8788187114
 20
4.0229771925
 30
0.0
 11
1.4850555527
 21
-0.9348803337
 31
0.0
 40
0.1599009769
 41
-1.6138200963
 42
-1.6120125538
  0
ELLIPSE
  5
310
100
AcDbEntity
  8
0
100
AcDbEllipse
 62
6
  6
CONTINUOUS
 10
6.6380432747
 20
4.0229771925
 30
0.0
 11
1.1194280505
 21
-0.9497067873
 31
0.0
 40
0.1741096516
 41
-1.4868806225
 42
-1.4159149133
  0
ELLIPSE
  5
311
100
AcDbEntity
  8
0
100
AcDbEllipse
 62
6
  6
CONTINUOUS
 10
6.5867860418
 20
4.0229771925
 30
0.0
 11
5.1432216454
 21
-0.914660973
 31
0.0
 40
0.0624983615
 41
-1.5457781432
 42
-1.5429408411
  0
ELLIPSE
  5
312
100
AcDbEntity
  8
0
100
AcDbEllipse
 62
6
  6
CONTINUOUS
 10
6.7662936301
 20
4.0229771925
 30
0.0
 11
5.1432216454
 21
0.914660973
 31
0.0
 40
0.0624983615
 41
-1.5986518125
 42
-1.5958145104
  0
ELLIPSE
  5
313
100
AcDbEntity
  8
0
100
AcDbEllipse
 62
7
  6
CONTINUOUS
 10
6.7972860166
 20
4.0229771925
 30
0.0
 11
1.2694143651
 21
-0.9403749119
 31
0.0
 40
0.169111637
 41
-1.5263790513
 42
-1.5149413162
  0
ELLIPSE
  5
314
100
AcDbEntity
  8
0
100
AcDbEllipse
 62
7
  6
CONTINUOUS
 10
6.6651370329
 20
4.0229771925
 30
0.0
 11
1.1304281656
 21
-0.9443743523
 31
0.0
 40
0.1736797508
 41
-1.5126406373
 42
-1.4326932819
  0
ELLIPSE
  5
315
100
AcDbEntity
  8
0
100
AcDbEllipse
 62
7
  6
CONTINUOUS
 10
6.7630066853
 20
4.0229771925
 30
0.0
 11
3.8372850304
 21
0.9126109491
 31
0.0
 40
0.0813853855
 41
4.6476791132
 42
4.6505333614
  0
ELLIPSE
  5
316
100
AcDbEntity
  8
0
100
AcDbEllipse
 62
6
  6
CONTINUOUS
 10
6.5294635269
 20
4.0229771925
 30
0.0
 11
-0.2024748579
 21
0.9693889792
 31
0.0
 40
0.0724615514
 41
-4.2878308774
 42
-4.2707247327
  0
ELLIPSE
  5
317
100
AcDbEntity
  8
0
100
AcDbEllipse
 62
7
  6
CONTINUOUS
 10
6.5294635269
 20
4.0229771925
 30
0.0
 11
-0.2014446126
 21
0.9644564732
 31
0.0
 40
0.0724615514
 41
-4.2873661071
 42
-4.2863950742
  0
ELLIPSE
  5
318
100
AcDbEntity
  8
0
100
AcDbEllipse
 62
6
  6
CONTINUOUS
 10
6.4069484622
 20
4.0229771925
 30
0.0
 11
1.2759068202
 21
-0.9451842494
 31
0.0
 40
0.1691116253
 41
-1.3241574099
 42
-1.3155781096
  0
ELLIPSE
  5
319
100
AcDbEntity
  8
0
100
AcDbEllipse
 62
6
  6
CONTINUOUS
 10
6.239502121
 20
4.0229771925
 30
0.0
 11
2.5695838461
 21
-0.9238863581
 31
0.0
 40
0.1143679148
 41
-1.3991082341
 42
-1.393383354
  0
ELLIPSE
  5
31A
100
AcDbEntity
  8
0
100
AcDbEllipse
 62
6
  6
CONTINUOUS
 10
7.0296731556
 20
4.0229771925
 30
0.0
 11
2.5695833948
 21
0.9238863619
 31
0.0
 40
0.1143679302
 41
-1.7482093125
 42
-1.7424844324
  0
ELLIPSE
  5
31B
100
AcDbEntity
  8
0
100
AcDbEllipse
 62
6
  6
CONTINUOUS
 10
6.8622268535
 20
4.0229771925
 30
0.0
 11
1.2759066681
 21
0.9451842536
 31
0.0
 40
0.1691116311
 41
-1.8260145634
 42
-1.8174352631
  0
ELLIPSE
  5
31C
100
AcDbEntity
  8
0
100
AcDbEllipse
 62
6
  6
CONTINUOUS
 10
6.7996257301
 20
4.0229771925
 30
0.0
 11
0.7537153102
 21
0.9608392739
 31
0.0
 40
0.1715483869
 41
-1.9081086021
 42
-1.8938294856
  0
ELLIPSE
  5
31D
100
AcDbEntity
  8
0
100
AcDbEllipse
 62
7
  6
CONTINUOUS
 10
6.6599760447
 20
4.0229771925
 30
0.0
 11
-0.7498793182
 21
0.9559502963
 31
0.0
 40
0.1715483401
 41
-4.4374539601
 42
-4.4231645383
  0
ELLIPSE
  5
31E
100
AcDbEntity
  8
0
100
AcDbEllipse
 62
6
  6
CONTINUOUS
 10
6.7630066853
 20
4.0229771925
 30
0.0
 11
3.8569100024
 21
0.9172783023
 31
0.0
 40
0.0813853855
 41
-1.6352752504
 42
-1.6324355533
  0
ELLIPSE
  5
31F
100
AcDbEntity
  8
0
100
AcDbEllipse
 62
6
  6
CONTINUOUS
 10
6.5294635269
 20
4.0229771925
 30
0.0
 11
0.0
 21
0.9695
 31
0.0
 40
0.2210555332
 41
-0.10773218
 42
-0.0906260353
  0
ELLIPSE
  5
320
100
AcDbEntity
  8
0
100
AcDbEllipse
 62
6
  6
CONTINUOUS
 10
6.2549790612
 20
4.0229771925
 30
0.0
 11
2.4729182817
 21
-0.9247367301
 31
0.0
 40
0.1177519922
 41
1.4764767822
 42
1.4839128544
  0
ELLIPSE
  5
321
100
AcDbEntity
  8
0
100
AcDbEllipse
 62
6
  6
CONTINUOUS
 10
6.4695495956
 20
4.0229771925
 30
0.0
 11
0.0
 21
0.9695
 31
0.0
 40
0.7958002231
 41
-0.1220112966
 42
-0.10773218
  0
ELLIPSE
  5
322
100
AcDbEntity
  8
0
100
AcDbEllipse
 62
6
  6
CONTINUOUS
 10
6.9080027508
 20
4.0229771925
 30
0.0
 11
1.4926499449
 21
-0.939661593
 31
0.0
 40
0.1599010046
 41
-1.6130856485
 42
-1.5959095311
  0
ELLIPSE
  5
323
100
AcDbEntity
  8
0
100
AcDbEllipse
 62
6
  6
CONTINUOUS
 10
6.829777439
 20
4.0229771925
 30
0.0
 11
1.1433565
 21
-0.9489912009
 31
0.0
 40
0.1734875667
 41
1.8341227539
 42
1.8564219592
  0
ELLIPSE
  5
324
100
AcDbEntity
  8
0
100
AcDbEllipse
 62
6
  6
CONTINUOUS
 10
6.9521800658
 20
4.0229771925
 30
0.0
 11
2.4729186293
 21
0.9247367269
 31
0.0
 40
0.1177519797
 41
1.6576798102
 42
1.6651158823
  0
ELLIPSE
  5
325
100
AcDbEntity
  8
0
100
AcDbEllipse
 62
6
  6
CONTINUOUS
 10
6.7972860166
 20
4.0229771925
 30
0.0
 11
1.2759065129
 21
-0.9451842579
 31
0.0
 40
0.169111637
 41
-1.525970049
 42
-1.5145908343
  0
ELLIPSE
  5
326
100
AcDbEntity
  8
0
100
AcDbEllipse
 62
6
  6
CONTINUOUS
 10
6.4069484622
 20
4.0229771925
 30
0.0
 11
1.2858800742
 21
0.0
 31
0.0
 40
0.7539583352
 41
1.4402057299
 42
1.4487850302
  0
ELLIPSE
  5
327
100
AcDbEntity
  8
0
100
AcDbEllipse
 62
6
  6
CONTINUOUS
 10
6.8014169497
 20
4.0229771925
 30
0.0
 11
1.3106317382
 21
0.9442374956
 31
0.0
 40
0.1677639734
 41
1.5702624133
 42
1.5814029995
  0
ELLIPSE
  5
328
100
AcDbEntity
  8
0
100
AcDbEllipse
 62
6
  6
CONTINUOUS
 10
6.6651370329
 20
4.0229771925
 30
0.0
 11
1.1362094982
 21
-0.9492041525
 31
0.0
 40
0.1736797508
 41
-1.5122023158
 42
-1.4326628245
  0
ELLIPSE
  5
329
100
AcDbEntity
  8
0
100
AcDbEllipse
 62
6
  6
CONTINUOUS
 10
6.6599760447
 20
4.0229771925
 30
0.0
 11
-0.7537144153
 21
0.9608392993
 31
0.0
 40
0.1715483401
 41
-4.4377577502
 42
-4.4235413607
  0
ELLIPSE
  5
32A
100
AcDbEntity
  8
0
100
AcDbEllipse
 62
6
  6
CONTINUOUS
 10
6.8622268535
 20
4.0229771925
 30
0.0
 11
1.2858799241
 21
0.0
 31
0.0
 40
0.7539584232
 41
1.6928076234
 42
1.7013869237
  0
ELLIPSE
  5
32B
100
AcDbEntity
  8
0
100
AcDbEllipse
 62
6
  6
CONTINUOUS
 10
6.7996257301
 20
4.0229771925
 30
0.0
 11
0.0
 21
0.9695
 31
0.0
 40
0.7958001534
 41
0.10773218
 42
0.1220112966
  0
ELLIPSE
  5
32C
100
AcDbEntity
  8
0
100
AcDbEllipse
 62
6
  6
CONTINUOUS
 10
6.7446570543
 20
4.0229771925
 30
0.0
 11
1.1433562205
 21
-0.9489912093
 31
0.0
 40
0.1734875743
 41
1.7601615672
 42
1.7823048532
  0
ENDSEC
  0
SECTION
  2
OBJECTS
  0
DICTIONARY
  5
C
100
AcDbDictionary
280
0
281
1
  3
ACAD_GROUP
350
D
  3
ACAD_MLINESTYLE
350
17
  3
ACAD_LAYOUT
350
1A
  3
ACAD_PLOTSETTINGS
350
19
  3
ACAD_PLOTSTYLENAME
350
E
  0
DICTIONARY
  5
D
102
{ACAD_REACTORS
330
C
102
}
100
AcDbDictionary
280
0
281
1
  0
ACDBDICTIONARYWDFLT
  5
E
102
{ACAD_REACTORS
330
C
102
}
100
AcDbDictionary
281
1
  3
Normal
350
F
100
AcDbDictionaryWithDefault
340
F
  0
DICTIONARY
  5
17
102
{ACAD_REACTORS
330
C
102
}
100
AcDbDictionary
280
0
281
1
  3
Standard
350
18
  0
DICTIONARY
  5
19
102
{ACAD_REACTORS
330
C
102
}
100
AcDbDictionary
281
1
  0
DICTIONARY
  5
1A
102
{ACAD_REACTORS
330
C
102
}
100
AcDbDictionary
281
1
  3
Model
350
32D
  3
Layout1
350
32E
  0
ACDBPLACEHOLDER
  5
F
102
{ACAD_REACTORS
330
E
102
}
  0
MLINESTYLE
  5
18
102
{ACAD_REACTORS
330
17
102
}
100
AcDbMlineStyle
  2
STANDARD
 70
0
  3

 62
256
 51
90.0
 52
90.0
 71
2
 49
0.5
 62
256
  6
BYLAYER
 49
-0.5
 62
256
  6
BYLAYER
  0
LAYOUT
  5
32D
102
{ACAD_REACTORS
330
1A
102
}
100
AcDbPlotSettings
  1

  2
none_device
  4
ISO_A4_(297.00_x_210.00_MM)
  6

 40
0.0
 41
0.0
 42
0.0
 43
0.0
 44
297.0
 45
210.0
 46
0.0
 47
0.0
 48
0.0
 49
0.0
140
0.0
141
0.0
142
1.0
143
1.0
 70
1024
 72
0
 73
0
 74
0
  7

 75
0
147
1.0
148
0.0
149
0.0
100
AcDbLayout
  1
Model
 70
0
 71
0
 10
0.0
 20
0.0
 11
11.6929133858
 21
8.2677165354
 12
0.0
 22
0.0
 32
0.0
 14
0.0
 24
0.0
 34
0.0
 15
0.0
 25
0.0
 35
0.0
146
0.0
 13
0.0
 23
0.0
 33
0.0
 16
1.0
 26
0.0
 36
0.0
 17
0.0
 27
1.0
 37
0.0
 76
0
330
203
345
0
346
0
  0
LAYOUT
  5
32E
102
{ACAD_REACTORS
330
1A
102
}
100
AcDbPlotSettings
  1

  2
none_device
  4
ISO_A4_(297.00_x_210.00_MM)
  6

 40
0.0
 41
0.0
 42
0.0
 43
0.0
 44
297.0
 45
210.0
 46
0.0
 47
0.0
 48
0.0
 49
0.0
140
0.0
141
0.0
142
1.0
143
1.0
 70
0
 72
0
 73
0
 74
0
  7

 75
0
147
1.0
148
0.0
149
0.0
100
AcDbLayout
  1
Layout1
 70
0
 71
1
 10
0.0
 20
0.0
 11
11.6929133858
 21
8.2677165354
 12
0.0
 22
0.0
 32
0.0
 14
0.0
 24
0.0
 34
0.0
 15
0.0
 25
0.0
 35
0.0
146
0.0
 13
0.0
 23
0.0
 33
0.0
 16
1.0
 26
0.0
 36
0.0
 17
0.0
 27
1.0
 37
0.0
 76
0
330
204
345
0
346
0
  0
ENDSEC
  0
EOF
