  0
SECTION
  2
HEADER
  9
$ACADVER
  1
AC1015
  9
$DWGCODEPAGE
  3
ANSI_1252
  9
$EXTMAX
 10
11.6929133858
 20
8.2677165354
 30
0.0
  9
$EXTMIN
 10
0.0
 20
0.0
 30
0.0
  9
$LIMMIN
 10
0.0
 20
0.0
  9
$LIMMAX
 10
11.6929133858
 20
8.2677165354
  9
$VIEWCTR
 10
5.8464566929
 20
4.1338582677
  9
$VIEWSIZE
 40
8.2677165354
  9
$CLAYER
  8
0
  9
$LTSCALE
 40
0.6431102362
  9
$CELTYPE
  6
BYLAYER
  9
$DIMSCALE
 40
1.0
  9
$DIMASZ
 40
0.1875
  9
$DIMEXO
 40
0.0730807087
  9
$DIMDLI
 40
0.4443307087
  9
$DIMEXE
 40
0.2104724409
  9
$DIMCEN
 40
0.1052362205
  9
$DIMLFAC
 40
1.0
  9
$DIMBLK
  1
_CLOSED
  9
$DIMTXT
 40
0.15625
  9
$DIMTOL
 70
0
  9
$DIMLIM
 70
0
  9
$DIMTFAC
 40
1.0
  9
$PDMODE
 70
3
  9
$PDSIZE
 40
0.3125
  9
$HANDSEED
  5
33A
  9
$TILEMODE
 70
1
  9
$MEASUREMENT
 70
0
  9
$INSUNITS
 70
1
  0
ENDSEC
  0
SECTION
  2
CLASSES
  0
CLASS
  1
ACDBDICTIONARYWDFLT
  2
AcDbDictionaryWithDefault
  3
AutoCAD 2000
 90
0
280
0
281
0
  0
CLASS
  1
ACDBPLACEHOLDER
  2
AcDbPlaceHolder
  3
AutoCAD 2000
 90
0
280
0
281
0
  0
CLASS
  1
LAYOUT
  2
AcDbLayout
  3
AutoCAD 2000
 90
0
280
0
281
0
  0
ENDSEC
  0
SECTION
  2
TABLES
  0
TABLE
  2
VPORT
  5
8
100
AcDbSymbolTable
 70
2
  0
VPORT
  5
1F4
100
AcDbSymbolTableRecord
100
AcDbViewportTableRecord
  2
*ACTIVE
 70
0
 10
0.0
 20
0.0
 11
1.0
 21
1.0
 12
5.8464566929
 22
4.1338582677
 13
0.0
 23
0.0
 14
1.0
 24
1.0
 15
0.0
 25
0.0
 16
0.0
 26
0.0
 36
1.0
 17
0.0
 27
0.0
 37
0.0
 40
8.2677165354
 41
1.4142857143
 42
50.0
 43
0.0
 44
0.0
 50
0.0
 51
0.0
 71
0
 72
100
 73
1
 74
1
 75
0
 76
0
 77
0
 78
0
  0
ENDTAB
  0
TABLE
  2
LTYPE
  5
5
100
AcDbSymbolTable
 70
6
  0
LTYPE
  5
14
100
AcDbSymbolTableRecord
100
AcDbLinetypeTableRecord
  2
BYBLOCK
 70
0
  3

 72
65
 73
0
 40
0.0
  0
LTYPE
  5
15
100
AcDbSymbolTableRecord
100
AcDbLinetypeTableRecord
  2
BYLAYER
 70
0
  3

 72
65
 73
0
 40
0.0
  0
LTYPE
  5
16
100
AcDbSymbolTableRecord
100
AcDbLinetypeTableRecord
  2
CONTINUOUS
 70
64
  3
Solid line
 72
65
 73
0
 40
0.0
  0
LTYPE
  5
1F5
100
AcDbSymbolTableRecord
100
AcDbLinetypeTableRecord
  2
CENTER
 70
64
  3
____ _ ____ _ ____ _ ____ _ ____ _ ____ _ ____
 72
65
 73
4
 40
0.6
 49
0.375
 74
0
 49
-0.075
 74
0
 49
0.075
 74
0
 49
-0.075
 74
0
  0
LTYPE
  5
1F6
100
AcDbSymbolTableRecord
100
AcDbLinetypeTableRecord
  2
HIDDEN
 70
64
  3
- - - - - - - - - - - - - - - - - - - -
 72
65
 73
2
 40
0.2
 49
0.1
 74
0
 49
-0.1
 74
0
  0
LTYPE
  5
1F7
100
AcDbSymbolTableRecord
100
AcDbLinetypeTableRecord
  2
PHANTOM
 70
64
  3
_____ _ _ _____ _ _ _____ _ _ _____
 72
65
 73
6
 40
0.8
 49
0.45
 74
0
 49
-0.05
 74
0
 49
0.1
 74
0
 49
-0.05
 74
0
 49
0.1
 74
0
 49
-0.05
 74
0
  0
LTYPE
  5
1F8
100
AcDbSymbolTableRecord
100
AcDbLinetypeTableRecord
  2
DOT
 70
64
  3
. . . . . . . . . . . . . . . . . . . .
 72
65
 73
2
 40
0.2
 49
0.1
 74
0
 49
-0.1
 74
0
  0
LTYPE
  5
1F9
100
AcDbSymbolTableRecord
100
AcDbLinetypeTableRecord
  2
DASHED
 70
64
  3
- - - - - - - - - - - - - - - - - - - -
 72
65
 73
2
 40
0.2
 49
0.1
 74
0
 49
-0.1
 74
0
  0
ENDTAB
  0
TABLE
  2
LAYER
  5
2
100
AcDbSymbolTable
 70
36
  0
LAYER
  5
10
100
AcDbSymbolTableRecord
100
AcDbLayerTableRecord
  2
0
 70
0
 62
7
  6
CONTINUOUS
370
-3
390
F
  0
LAYER
  5
1FA
100
AcDbSymbolTableRecord
100
AcDbLayerTableRecord
  2
DEFAULT_1
 70
0
 62
7
  6
CENTER
370
-3
390
F
  0
LAYER
  5
1FB
100
AcDbSymbolTableRecord
100
AcDbLayerTableRecord
  2
DEFAULT_2
 70
0
 62
8
  6
HIDDEN
370
-3
390
F
  0
LAYER
  5
1FC
100
AcDbSymbolTableRecord
100
AcDbLayerTableRecord
  2
DEFAULT_3
 70
0
 62
7
  6
PHANTOM
370
-3
390
F
  0
LAYER
  5
1FD
100
AcDbSymbolTableRecord
100
AcDbLayerTableRecord
  2
DEFAULT_COORDINATE_SYSTEM
 70
0
 62
7
  6
CONTINUOUS
370
-3
390
F
  0
LAYER
  5
1FE
100
AcDbSymbolTableRecord
100
AcDbLayerTableRecord
  2
DEFAULT_DATUM_AXES
 70
0
 62
7
  6
CONTINUOUS
370
-3
390
F
  0
LAYER
  5
1FF
100
AcDbSymbolTableRecord
100
AcDbLayerTableRecord
  2
DEFAULT_DATUM_CURVES
 70
0
 62
7
  6
CONTINUOUS
370
-3
390
F
  0
LAYER
  5
200
100
AcDbSymbolTableRecord
100
AcDbLayerTableRecord
  2
DEFAULT_DATUM_PLANES
 70
0
 62
7
  6
CONTINUOUS
370
-3
390
F
  0
ENDTAB
  0
TABLE
  2
STYLE
  5
3
100
AcDbSymbolTable
 70
1
  0
STYLE
  5
11
100
AcDbSymbolTableRecord
100
AcDbTextStyleTableRecord
  2
STANDARD
 70
0
 40
0.0
 41
0.8
 50
0.0
 71
0
 42
0.2
  3
txt
  4

  0
STYLE
  5
201
100
AcDbSymbolTableRecord
100
AcDbTextStyleTableRecord
  2
TEXTSTYLE_1
 70
0
 40
0.0
 41
0.8
 50
0.0
 71
0
 42
0.2
  3
gdt
  4

  0
ENDTAB
  0
TABLE
  2
VIEW
  5
6
100
AcDbSymbolTable
 70
0
  0
ENDTAB
  0
TABLE
  2
UCS
  5
7
100
AcDbSymbolTable
 70
0
  0
ENDTAB
  0
TABLE
  2
APPID
  5
9
100
AcDbSymbolTable
 70
1
  0
APPID
  5
202
100
AcDbSymbolTableRecord
100
AcDbRegAppTableRecord
  2
ACAD
 70
0
  0
ENDTAB
  0
TABLE
  2
BLOCK_RECORD
  5
1
100
AcDbSymbolTable
 70
0
  0
BLOCK_RECORD
  5
203
100
AcDbSymbolTableRecord
100
AcDbBlockTableRecord
  2
*Model_Space
  0
BLOCK_RECORD
  5
204
100
AcDbSymbolTableRecord
100
AcDbBlockTableRecord
  2
*Paper_Space
  0
ENDTAB
  0
TABLE
  2
DIMSTYLE
  5
A
100
AcDbSymbolTable
 70
1
100
AcDbDimStyleTable
 71
0
  0
DIMSTYLE
105
205
100
AcDbSymbolTableRecord
100
AcDbDimStyleTableRecord
  2
STANDARD
 70
0
  3

  4

 40
1.0
 41
0.1875
 42
0.0625
 43
0.38
 44
0.18
 45
0.0
 46
0.0
 47
0.01
 48
0.01
140
0.15625
141
0.09
142
0.0
143
25.4
144
1.0
145
0.0
146
1.0
147
0.09
 71
0.0
 72
0.0
 73
1
 74
1
 75
0
 76
0
 77
0
 78
4
170
0
171
2
172
0
173
0
174
0
175
0
176
0
177
0
178
0
270
2
271
2
272
2
273
2
274
2
275
0
280
0
281
0
282
0
283
1
284
4
285
0
286
0
287
3
288
0
340
11
  0
ENDTAB
  0
ENDSEC
  0
SECTION
  2
BLOCKS
  0
BLOCK
  5
20
100
AcDbEntity
  8
0
100
AcDbBlockBegin
  2
*Model_Space
 70
0
 10
0.0
 20
0.0
 30
0.0
  3
*Model_Space
  1

  0
ENDBLK
  5
21
100
AcDbEntity
  8
0
100
AcDbBlockEnd
  0
BLOCK
  5
1C
100
AcDbEntity
  8
0
100
AcDbBlockBegin
  2
*Paper_Space
 70
0
 10
0.0
 20
0.0
 30
0.0
  3
*Paper_Space
  1

  0
ENDBLK
  5
1D
100
AcDbEntity
  8
0
100
AcDbBlockEnd
  0
ENDSEC
  0
SECTION
  2
ENTITIES
  0
LINE
  5
206
100
AcDbEntity
  8
0
100
AcDbLine
 62
6
  6
CONTINUOUS
 10
2.619976921
 20
5.9540035637
 11
2.619976921
 21
6.1420035637
  0
LINE
  5
207
100
AcDbEntity
  8
0
100
AcDbLine
 62
6
  6
CONTINUOUS
 10
5.003976921
 20
2.1925527763
 11
5.463976921
 21
2.1925527763
  0
LINE
  5
208
100
AcDbEntity
  8
0
100
AcDbLine
 62
6
  6
CONTINUOUS
 10
6.275976921
 20
2.1925527763
 11
6.735976921
 21
2.1925527763
  0
LINE
  5
209
100
AcDbEntity
  8
0
100
AcDbLine
 62
6
  6
CONTINUOUS
 10
4.983976921
 20
2.2125527763
 11
5.003976921
 21
2.1925527763
  0
LINE
  5
20A
100
AcDbEntity
  8
0
100
AcDbLine
 62
6
  6
CONTINUOUS
 10
5.003976921
 20
2.8485527763
 11
5.463976921
 21
2.8485527763
  0
LINE
  5
20B
100
AcDbEntity
  8
0
100
AcDbLine
 62
6
  6
CONTINUOUS
 10
6.275976921
 20
2.8485527763
 11
6.735976921
 21
2.8485527763
  0
LINE
  5
20C
100
AcDbEntity
  8
0
100
AcDbLine
 62
6
  6
CONTINUOUS
 10
4.884976921
 20
5.3302535637
 11
4.884976921
 21
5.6700035637
  0
LINE
  5
20D
100
AcDbEntity
  8
0
100
AcDbLine
 62
6
  6
CONTINUOUS
 10
4.899976921
 20
3.8735527763
 11
4.899976921
 21
4.9365527763
  0
LINE
  5
20E
100
AcDbEntity
  8
0
100
AcDbLine
 62
6
  6
CONTINUOUS
 10
4.900476921
 20
5.2318283668
 11
4.900476921
 21
5.0546630125
  0
LINE
  5
20F
100
AcDbEntity
  8
0
100
AcDbLine
 62
7
  6
CONTINUOUS
 10
4.900814719
 20
5.2318283668
 11
4.900814719
 21
5.0546630125
  0
LINE
  5
210
100
AcDbEntity
  8
0
100
AcDbLine
 62
6
  6
CONTINUOUS
 10
4.9054099919
 20
5.3302535637
 11
4.9054099919
 21
4.9365527763
  0
LINE
  5
211
100
AcDbEntity
  8
0
100
AcDbLine
 62
7
  6
CONTINUOUS
 10
4.9299885227
 20
5.1093832322
 11
4.9299885227
 21
5.0984391893
  0
LINE
  5
212
100
AcDbEntity
  8
0
100
AcDbLine
 62
6
  6
CONTINUOUS
 10
4.9305981353
 20
5.1823435235
 11
4.9305981353
 21
5.1713994806
  0
LINE
  5
213
100
AcDbEntity
  8
0
100
AcDbLine
 62
7
  6
CONTINUOUS
 10
4.9548572774
 20
5.1823435235
 11
4.9548572774
 21
5.1713994806
  0
LINE
  5
214
100
AcDbEntity
  8
0
100
AcDbLine
 62
7
  6
CONTINUOUS
 10
4.9556741408
 20
5.1093832322
 11
4.9556741408
 21
5.0984391893
  0
LINE
  5
215
100
AcDbEntity
  8
0
100
AcDbLine
 62
7
  6
CONTINUOUS
 10
4.9624210344
 20
5.2261197054
 11
4.9624210344
 21
5.1312713232
  0
LINE
  5
216
100
AcDbEntity
  8
0
100
AcDbLine
 62
6
  6
CONTINUOUS
 10
4.9668292317
 20
5.2078796339
 11
4.9668292317
 21
5.1495113947
  0
LINE
  5
217
100
AcDbEntity
  8
0
100
AcDbLine
 62
7
  6
CONTINUOUS
 10
4.97146604
 20
5.2078796339
 11
4.97146604
 21
5.1604554376
  0
LINE
  5
218
100
AcDbEntity
  8
0
100
AcDbLine
 62
6
  6
CONTINUOUS
 10
4.983976921
 20
2.2125527763
 11
4.983976921
 21
2.8285527763
  0
LINE
  5
219
100
AcDbEntity
  8
0
100
AcDbLine
 62
7
  6
CONTINUOUS
 10
4.9921317151
 20
5.1130312465
 11
4.9921317151
 21
5.1057352179
  0
LINE
  5
21A
100
AcDbEntity
  8
0
100
AcDbLine
 62
6
  6
CONTINUOUS
 10
4.9953093418
 20
5.2261197054
 11
4.9953093418
 21
5.2078796339
  0
LINE
  5
21B
100
AcDbEntity
  8
0
100
AcDbLine
 62
7
  6
CONTINUOUS
 10
4.9974576085
 20
5.1166792608
 11
4.9974576085
 21
5.1020872036
  0
LINE
  5
21C
100
AcDbEntity
  8
0
100
AcDbLine
 62
7
  6
CONTINUOUS
 10
4.999966884
 20
5.2261197054
 11
4.999966884
 21
5.2078796339
  0
LINE
  5
21D
100
AcDbEntity
  8
0
100
AcDbLine
 62
6
  6
CONTINUOUS
 10
5.003976921
 20
2.1925527763
 11
5.003976921
 21
2.8485527763
  0
LINE
  5
21E
100
AcDbEntity
  8
0
100
AcDbLine
 62
6
  6
CONTINUOUS
 10
5.062476921
 20
3.8735527763
 11
5.062476921
 21
3.5615527763
  0
LINE
  5
21F
100
AcDbEntity
  8
0
100
AcDbLine
 62
7
  6
CONTINUOUS
 10
5.8201960837
 20
5.2224716911
 11
5.8064438255
 21
5.2115276482
  0
LINE
  5
220
100
AcDbEntity
  8
0
100
AcDbLine
 62
7
  6
CONTINUOUS
 10
5.9412159354
 20
5.2224716911
 11
5.9274636694
 21
5.2115276482
  0
LINE
  5
221
100
AcDbEntity
  8
0
100
AcDbLine
 62
7
  6
CONTINUOUS
 10
5.8669537553
 20
5.069255071
 11
5.8532014971
 21
5.0583110271
  0
LINE
  5
222
100
AcDbEntity
  8
0
100
AcDbLine
 62
7
  6
CONTINUOUS
 10
5.2931257666
 20
5.2318283668
 11
5.2931257666
 21
5.0546630125
  0
LINE
  5
223
100
AcDbEntity
  8
0
100
AcDbLine
 62
7
  6
CONTINUOUS
 10
5.3350508713
 20
5.2318283668
 11
5.3350508713
 21
5.0546630125
  0
LINE
  5
224
100
AcDbEntity
  8
0
100
AcDbLine
 62
6
  6
CONTINUOUS
 10
5.7486843521
 20
5.2261197054
 11
5.7321816454
 21
5.2005836052
  0
LINE
  5
225
100
AcDbEntity
  8
0
100
AcDbLine
 62
7
  6
CONTINUOUS
 10
5.7486843521
 20
5.1969355909
 11
5.7321816454
 21
5.1713994806
  0
LINE
  5
226
100
AcDbEntity
  8
0
100
AcDbLine
 62
7
  6
CONTINUOUS
 10
5.8064438255
 20
5.2115276482
 11
5.7981924722
 21
5.2005836052
  0
LINE
  5
227
100
AcDbEntity
  8
0
100
AcDbLine
 62
7
  6
CONTINUOUS
 10
5.9274636694
 20
5.2115276482
 11
5.919212316
 21
5.2005836052
  0
LINE
  5
228
100
AcDbEntity
  8
0
100
AcDbLine
 62
7
  6
CONTINUOUS
 10
5.8752051086
 20
5.0801991152
 11
5.8669537553
 21
5.069255071
  0
LINE
  5
229
100
AcDbEntity
  8
0
100
AcDbLine
 62
6
  6
CONTINUOUS
 10
5.9879735991
 20
5.069255071
 11
5.9742213488
 21
5.0583110271
  0
LINE
  5
22A
100
AcDbEntity
  8
0
100
AcDbLine
 62
6
  6
CONTINUOUS
 10
6.182476921
 20
3.5305527763
 11
5.557476921
 21
3.5305527763
  0
LINE
  5
22B
100
AcDbEntity
  8
0
100
AcDbLine
 62
6
  6
CONTINUOUS
 10
6.677476921
 20
3.5615527763
 11
5.062476921
 21
3.5615527763
  0
LINE
  5
22C
100
AcDbEntity
  8
0
100
AcDbLine
 62
6
  6
CONTINUOUS
 10
5.463976921
 20
2.1522001013
 11
5.463976921
 21
2.8889054513
  0
LINE
  5
22D
100
AcDbEntity
  8
0
100
AcDbLine
 62
6
  6
CONTINUOUS
 10
5.557476921
 20
3.5305527763
 11
5.557476921
 21
2.9248849811
  0
LINE
  5
22E
100
AcDbEntity
  8
0
100
AcDbLine
 62
6
  6
CONTINUOUS
 10
5.626376921
 20
2.1521971008
 11
5.626376921
 21
2.8195542205
  0
LINE
  5
22F
100
AcDbEntity
  8
0
100
AcDbLine
 62
7
  6
CONTINUOUS
 10
5.7899411188
 20
5.1750474949
 11
5.7871906664
 21
5.1568074233
  0
LINE
  5
230
100
AcDbEntity
  8
0
100
AcDbLine
 62
7
  6
CONTINUOUS
 10
5.7926915712
 20
5.185991548
 11
5.7899411188
 21
5.1750474949
  0
LINE
  5
231
100
AcDbEntity
  8
0
100
AcDbLine
 62
7
  6
CONTINUOUS
 10
5.883456462
 20
5.1057352179
 11
5.8807060056
 21
5.094791175
  0
LINE
  5
232
100
AcDbEntity
  8
0
100
AcDbLine
 62
7
  6
CONTINUOUS
 10
5.7981924722
 20
5.2005836052
 11
5.7926915712
 21
5.185991548
  0
LINE
  5
233
100
AcDbEntity
  8
0
100
AcDbLine
 62
7
  6
CONTINUOUS
 10
5.919212316
 20
5.2005836052
 11
5.913711419
 21
5.185991548
  0
LINE
  5
234
100
AcDbEntity
  8
0
100
AcDbLine
 62
7
  6
CONTINUOUS
 10
5.8807060056
 20
5.094791175
 11
5.8752051086
 21
5.0801991152
  0
LINE
  5
235
100
AcDbEntity
  8
0
100
AcDbLine
 62
6
  6
CONTINUOUS
 10
5.9962249525
 20
5.0801991152
 11
5.9879735991
 21
5.069255071
  0
LINE
  5
236
100
AcDbEntity
  8
0
100
AcDbLine
 62
6
  6
CONTINUOUS
 10
6.8399690181
 20
3.8735527763
 11
4.8999848238
 21
3.8735527763
  0
LINE
  5
237
100
AcDbEntity
  8
0
100
AcDbLine
 62
6
  6
CONTINUOUS
 10
6.735976921
 20
2.8485527763
 11
6.755976921
 21
2.8285527763
  0
LINE
  5
238
100
AcDbEntity
  8
0
100
AcDbLine
 62
6
  6
CONTINUOUS
 10
4.744976921
 20
5.8290035637
 11
4.809976921
 21
5.6700035637
  0
LINE
  5
239
100
AcDbEntity
  8
0
100
AcDbLine
 62
6
  6
CONTINUOUS
 10
5.711976921
 20
3.5615527763
 11
5.711976921
 21
3.5305527763
  0
LINE
  5
23A
100
AcDbEntity
  8
0
100
AcDbLine
 62
7
  6
CONTINUOUS
 10
5.7321816454
 20
5.2005836052
 11
5.7321816454
 21
5.1713994806
  0
LINE
  5
23B
100
AcDbEntity
  8
0
100
AcDbLine
 62
6
  6
CONTINUOUS
 10
5.7486843521
 20
5.1969355909
 11
5.7486843521
 21
5.0546630125
  0
LINE
  5
23C
100
AcDbEntity
  8
0
100
AcDbLine
 62
7
  6
CONTINUOUS
 10
5.7651870588
 20
5.2261197054
 11
5.7651870588
 21
5.0546630125
  0
LINE
  5
23D
100
AcDbEntity
  8
0
100
AcDbLine
 62
7
  6
CONTINUOUS
 10
5.7871906664
 20
5.1568074233
 11
5.7871906664
 21
5.1239752946
  0
LINE
  5
23E
100
AcDbEntity
  8
0
100
AcDbLine
 62
6
  6
CONTINUOUS
 10
5.788776921
 20
2.7120060177
 11
5.788776921
 21
2.1521971008
  0
LINE
  5
23F
100
AcDbEntity
  8
0
100
AcDbLine
 62
7
  6
CONTINUOUS
 10
5.8862069026
 20
5.1568074233
 11
5.8862069026
 21
5.1239752946
  0
LINE
  5
240
100
AcDbEntity
  8
0
100
AcDbLine
 62
7
  6
CONTINUOUS
 10
5.8862069026
 20
5.1239752946
 11
5.883456462
 21
5.1057352179
  0
LINE
  5
241
100
AcDbEntity
  8
0
100
AcDbLine
 62
7
  6
CONTINUOUS
 10
5.9109609627
 20
5.1750474949
 11
5.908210522
 21
5.1568074233
  0
LINE
  5
242
100
AcDbEntity
  8
0
100
AcDbLine
 62
7
  6
CONTINUOUS
 10
6.0072267465
 20
5.1239752946
 11
6.0044763058
 21
5.1057352179
  0
LINE
  5
243
100
AcDbEntity
  8
0
100
AcDbLine
 62
7
  6
CONTINUOUS
 10
5.913711419
 20
5.185991548
 11
5.9109609627
 21
5.1750474949
  0
LINE
  5
244
100
AcDbEntity
  8
0
100
AcDbLine
 62
7
  6
CONTINUOUS
 10
6.0044763058
 20
5.1057352179
 11
6.0017258652
 21
5.094791175
  0
LINE
  5
245
100
AcDbEntity
  8
0
100
AcDbLine
 62
7
  6
CONTINUOUS
 10
6.0017258652
 20
5.094791175
 11
5.9962249525
 21
5.0801991152
  0
LINE
  5
246
100
AcDbEntity
  8
0
100
AcDbLine
 62
7
  6
CONTINUOUS
 10
5.908210522
 20
5.1568074233
 11
5.908210522
 21
5.1239752946
  0
LINE
  5
247
100
AcDbEntity
  8
0
100
AcDbLine
 62
6
  6
CONTINUOUS
 10
5.951176921
 20
2.7120060177
 11
5.951176921
 21
2.1521971008
  0
LINE
  5
248
100
AcDbEntity
  8
0
100
AcDbLine
 62
7
  6
CONTINUOUS
 10
6.0072267465
 20
5.1568074233
 11
6.0072267465
 21
5.1239752946
  0
LINE
  5
249
100
AcDbEntity
  8
0
100
AcDbLine
 62
6
  6
CONTINUOUS
 10
6.027976921
 20
3.5615527763
 11
6.027976921
 21
3.5305527763
  0
LINE
  5
24A
100
AcDbEntity
  8
0
100
AcDbLine
 62
6
  6
CONTINUOUS
 10
6.113576921
 20
2.1521971008
 11
6.113576921
 21
2.8195542205
  0
LINE
  5
24B
100
AcDbEntity
  8
0
100
AcDbLine
 62
7
  6
CONTINUOUS
 10
5.7981924722
 20
5.0801991152
 11
5.7926915712
 21
5.094791175
  0
LINE
  5
24C
100
AcDbEntity
  8
0
100
AcDbLine
 62
7
  6
CONTINUOUS
 10
5.7926915712
 20
5.094791175
 11
5.7899411188
 21
5.1057352179
  0
LINE
  5
24D
100
AcDbEntity
  8
0
100
AcDbLine
 62
7
  6
CONTINUOUS
 10
5.883456462
 20
5.1750474949
 11
5.8807060056
 21
5.185991548
  0
LINE
  5
24E
100
AcDbEntity
  8
0
100
AcDbLine
 62
7
  6
CONTINUOUS
 10
5.913711419
 20
5.094791175
 11
5.9109609627
 21
5.1057352179
  0
LINE
  5
24F
100
AcDbEntity
  8
0
100
AcDbLine
 62
7
  6
CONTINUOUS
 10
5.7899411188
 20
5.1057352179
 11
5.7871906664
 21
5.1239752946
  0
LINE
  5
250
100
AcDbEntity
  8
0
100
AcDbLine
 62
7
  6
CONTINUOUS
 10
5.8862069026
 20
5.1568074233
 11
5.883456462
 21
5.1750474949
  0
LINE
  5
251
100
AcDbEntity
  8
0
100
AcDbLine
 62
7
  6
CONTINUOUS
 10
5.9109609627
 20
5.1057352179
 11
5.908210522
 21
5.1239752946
  0
LINE
  5
252
100
AcDbEntity
  8
0
100
AcDbLine
 62
6
  6
CONTINUOUS
 10
6.182476921
 20
3.5305527763
 11
6.182476921
 21
2.9248850835
  0
LINE
  5
253
100
AcDbEntity
  8
0
100
AcDbLine
 62
6
  6
CONTINUOUS
 10
6.275976921
 20
2.1522001013
 11
6.275976921
 21
2.8889054513
  0
LINE
  5
254
100
AcDbEntity
  8
0
100
AcDbLine
 62
7
  6
CONTINUOUS
 10
6.4049029707
 20
5.2318283668
 11
6.4049029707
 21
5.0546630125
  0
LINE
  5
255
100
AcDbEntity
  8
0
100
AcDbLine
 62
6
  6
CONTINUOUS
 10
6.994976921
 20
5.8290035637
 11
6.929976921
 21
5.6700035637
  0
LINE
  5
256
100
AcDbEntity
  8
0
100
AcDbLine
 62
6
  6
CONTINUOUS
 10
4.983976921
 20
2.8285527763
 11
5.003976921
 21
2.8485527763
  0
LINE
  5
257
100
AcDbEntity
  8
0
100
AcDbLine
 62
7
  6
CONTINUOUS
 10
5.8064438255
 20
5.069255071
 11
5.7981924722
 21
5.0801991152
  0
LINE
  5
258
100
AcDbEntity
  8
0
100
AcDbLine
 62
7
  6
CONTINUOUS
 10
5.919212316
 20
5.0801991152
 11
5.913711419
 21
5.094791175
  0
LINE
  5
259
100
AcDbEntity
  8
0
100
AcDbLine
 62
7
  6
CONTINUOUS
 10
5.8807060056
 20
5.185991548
 11
5.8752051086
 21
5.2005836052
  0
LINE
  5
25A
100
AcDbEntity
  8
0
100
AcDbLine
 62
7
  6
CONTINUOUS
 10
6.0017258652
 20
5.185991548
 11
5.9962249525
 21
5.2005836052
  0
LINE
  5
25B
100
AcDbEntity
  8
0
100
AcDbLine
 62
7
  6
CONTINUOUS
 10
6.0044763058
 20
5.1750474949
 11
6.0017258652
 21
5.185991548
  0
LINE
  5
25C
100
AcDbEntity
  8
0
100
AcDbLine
 62
7
  6
CONTINUOUS
 10
6.0072267465
 20
5.1568074233
 11
6.0044763058
 21
5.1750474949
  0
LINE
  5
25D
100
AcDbEntity
  8
0
100
AcDbLine
 62
7
  6
CONTINUOUS
 10
6.4468280753
 20
5.2318283668
 11
6.4468280753
 21
5.0546630125
  0
LINE
  5
25E
100
AcDbEntity
  8
0
100
AcDbLine
 62
7
  6
CONTINUOUS
 10
5.8201960837
 20
5.0583110271
 11
5.8064438255
 21
5.069255071
  0
LINE
  5
25F
100
AcDbEntity
  8
0
100
AcDbLine
 62
7
  6
CONTINUOUS
 10
5.9412159354
 20
5.0583110271
 11
5.9274636694
 21
5.069255071
  0
LINE
  5
260
100
AcDbEntity
  8
0
100
AcDbLine
 62
7
  6
CONTINUOUS
 10
5.9274636694
 20
5.069255071
 11
5.919212316
 21
5.0801991152
  0
LINE
  5
261
100
AcDbEntity
  8
0
100
AcDbLine
 62
7
  6
CONTINUOUS
 10
5.8752051086
 20
5.2005836052
 11
5.8669537553
 21
5.2115276482
  0
LINE
  5
262
100
AcDbEntity
  8
0
100
AcDbLine
 62
6
  6
CONTINUOUS
 10
5.9962249525
 20
5.2005836052
 11
5.9879735991
 21
5.2115276482
  0
LINE
  5
263
100
AcDbEntity
  8
0
100
AcDbLine
 62
6
  6
CONTINUOUS
 10
6.677476921
 20
3.8735527763
 11
6.677476921
 21
3.5615527763
  0
LINE
  5
264
100
AcDbEntity
  8
0
100
AcDbLine
 62
7
  6
CONTINUOUS
 10
6.7246313276
 20
5.2005836052
 11
6.7246313276
 21
5.1713994806
  0
LINE
  5
265
100
AcDbEntity
  8
0
100
AcDbLine
 62
7
  6
CONTINUOUS
 10
6.7299550129
 20
5.1848655241
 11
6.7299550129
 21
5.0546630125
  0
LINE
  5
266
100
AcDbEntity
  8
0
100
AcDbLine
 62
6
  6
CONTINUOUS
 10
6.7346245122
 20
5.1969355909
 11
6.7346245122
 21
5.0546630125
  0
LINE
  5
267
100
AcDbEntity
  8
0
100
AcDbLine
 62
6
  6
CONTINUOUS
 10
6.735976921
 20
2.1925527763
 11
6.735976921
 21
2.8485527763
  0
LINE
  5
268
100
AcDbEntity
  8
0
100
AcDbLine
 62
7
  6
CONTINUOUS
 10
6.7441626276
 20
5.2261197054
 11
6.7441626276
 21
5.0546630125
  0
LINE
  5
269
100
AcDbEntity
  8
0
100
AcDbLine
 62
6
  6
CONTINUOUS
 10
6.755976921
 20
2.2125527763
 11
6.755976921
 21
2.8285527763
  0
LINE
  5
26A
100
AcDbEntity
  8
0
100
AcDbLine
 62
7
  6
CONTINUOUS
 10
6.7561778622
 20
5.2005836052
 11
6.7561778622
 21
5.1713994806
  0
LINE
  5
26B
100
AcDbEntity
  8
0
100
AcDbLine
 62
7
  6
CONTINUOUS
 10
6.760025265
 20
5.1828237811
 11
6.760025265
 21
5.0546630125
  0
LINE
  5
26C
100
AcDbEntity
  8
0
100
AcDbLine
 62
6
  6
CONTINUOUS
 10
6.7646658452
 20
5.1969355909
 11
6.7646658452
 21
5.0546630125
  0
LINE
  5
26D
100
AcDbEntity
  8
0
100
AcDbLine
 62
7
  6
CONTINUOUS
 10
6.7727071211
 20
5.2261197054
 11
6.7727071211
 21
5.0546630125
  0
LINE
  5
26E
100
AcDbEntity
  8
0
100
AcDbLine
 62
7
  6
CONTINUOUS
 10
6.7827356587
 20
5.2261197054
 11
6.7827356587
 21
5.1312713232
  0
LINE
  5
26F
100
AcDbEntity
  8
0
100
AcDbLine
 62
7
  6
CONTINUOUS
 10
6.7886015096
 20
5.2078796339
 11
6.7886015096
 21
5.1495113947
  0
LINE
  5
270
100
AcDbEntity
  8
0
100
AcDbLine
 62
7
  6
CONTINUOUS
 10
6.8140968868
 20
5.1130312465
 11
6.8140968868
 21
5.1057352179
  0
LINE
  5
271
100
AcDbEntity
  8
0
100
AcDbLine
 62
6
  6
CONTINUOUS
 10
6.8164934204
 20
5.2261197054
 11
6.8164934204
 21
5.2078796339
  0
LINE
  5
272
100
AcDbEntity
  8
0
100
AcDbLine
 62
7
  6
CONTINUOUS
 10
6.8180276924
 20
5.1166792608
 11
6.8180276924
 21
5.1020872036
  0
LINE
  5
273
100
AcDbEntity
  8
0
100
AcDbLine
 62
6
  6
CONTINUOUS
 10
6.8345438501
 20
5.3302535637
 11
6.8345438501
 21
4.9365527763
  0
LINE
  5
274
100
AcDbEntity
  8
0
100
AcDbLine
 62
7
  6
CONTINUOUS
 10
6.8391391229
 20
5.2318283668
 11
6.8391391229
 21
5.0546630125
  0
LINE
  5
275
100
AcDbEntity
  8
0
100
AcDbLine
 62
6
  6
CONTINUOUS
 10
6.839476921
 20
5.2318283668
 11
6.839476921
 21
5.0546630125
  0
LINE
  5
276
100
AcDbEntity
  8
0
100
AcDbLine
 62
6
  6
CONTINUOUS
 10
6.839976921
 20
3.8735527763
 11
6.839976921
 21
4.9365527763
  0
LINE
  5
277
100
AcDbEntity
  8
0
100
AcDbLine
 62
6
  6
CONTINUOUS
 10
6.854976921
 20
5.3302535637
 11
6.854976921
 21
5.6700035637
  0
LINE
  5
278
100
AcDbEntity
  8
0
100
AcDbLine
 62
6
  6
CONTINUOUS
 10
5.9742213488
 20
5.0583110271
 11
5.9577186421
 21
5.0546630125
  0
LINE
  5
279
100
AcDbEntity
  8
0
100
AcDbLine
 62
7
  6
CONTINUOUS
 10
5.8532014971
 20
5.0583110271
 11
5.8366987904
 21
5.0546630125
  0
LINE
  5
27A
100
AcDbEntity
  8
0
100
AcDbLine
 62
6
  6
CONTINUOUS
 10
4.899976921
 20
4.9365527763
 11
6.839976921
 21
4.9365527763
  0
LINE
  5
27B
100
AcDbEntity
  8
0
100
AcDbLine
 62
7
  6
CONTINUOUS
 10
6.839476921
 20
5.0546630125
 11
6.8391391229
 21
5.0546630125
  0
LINE
  5
27C
100
AcDbEntity
  8
0
100
AcDbLine
 62
6
  6
CONTINUOUS
 10
6.8052894006
 20
5.0546630125
 11
6.7994042635
 21
5.0546630125
  0
LINE
  5
27D
100
AcDbEntity
  8
0
100
AcDbLine
 62
7
  6
CONTINUOUS
 10
6.7994042635
 20
5.0546630125
 11
6.7947601394
 21
5.0546630125
  0
LINE
  5
27E
100
AcDbEntity
  8
0
100
AcDbLine
 62
7
  6
CONTINUOUS
 10
6.7727071211
 20
5.0546630125
 11
6.760025265
 21
5.0546630125
  0
LINE
  5
27F
100
AcDbEntity
  8
0
100
AcDbLine
 62
7
  6
CONTINUOUS
 10
6.7441626276
 20
5.0546630125
 11
6.7299550129
 21
5.0546630125
  0
LINE
  5
280
100
AcDbEntity
  8
0
100
AcDbLine
 62
7
  6
CONTINUOUS
 10
6.4468280753
 20
5.0546630125
 11
6.4049029707
 21
5.0546630125
  0
LINE
  5
281
100
AcDbEntity
  8
0
100
AcDbLine
 62
6
  6
CONTINUOUS
 10
5.7651870588
 20
5.0546630125
 11
5.7486843521
 21
5.0546630125
  0
LINE
  5
282
100
AcDbEntity
  8
0
100
AcDbLine
 62
7
  6
CONTINUOUS
 10
5.3350508713
 20
5.0546630125
 11
5.2931257666
 21
5.0546630125
  0
LINE
  5
283
100
AcDbEntity
  8
0
100
AcDbLine
 62
7
  6
CONTINUOUS
 10
4.9819263796
 20
5.0546630125
 11
4.9760877512
 21
5.0546630125
  0
LINE
  5
284
100
AcDbEntity
  8
0
100
AcDbLine
 62
7
  6
CONTINUOUS
 10
4.9440399959
 20
5.0546630125
 11
4.9397582633
 21
5.0546630125
  0
LINE
  5
285
100
AcDbEntity
  8
0
100
AcDbLine
 62
7
  6
CONTINUOUS
 10
4.900814719
 20
5.0546630125
 11
4.900476921
 21
5.0546630125
  0
LINE
  5
286
100
AcDbEntity
  8
0
100
AcDbLine
 62
7
  6
CONTINUOUS
 10
6.794157896
 20
5.0583110271
 11
6.7895181933
 21
5.0583110271
  0
LINE
  5
287
100
AcDbEntity
  8
0
100
AcDbLine
 62
7
  6
CONTINUOUS
 10
4.9477706177
 20
5.0583110271
 11
4.9524091141
 21
5.0583110271
  0
LINE
  5
288
100
AcDbEntity
  8
0
100
AcDbLine
 62
7
  6
CONTINUOUS
 10
4.9869547983
 20
5.0583110271
 11
4.991604039
 21
5.0583110271
  0
LINE
  5
289
100
AcDbEntity
  8
0
100
AcDbLine
 62
7
  6
CONTINUOUS
 10
6.7886015096
 20
5.069255071
 11
6.7839646339
 21
5.069255071
  0
LINE
  5
28A
100
AcDbEntity
  8
0
100
AcDbLine
 62
7
  6
CONTINUOUS
 10
4.951648719
 20
5.069255071
 11
4.9562854916
 21
5.069255071
  0
LINE
  5
28B
100
AcDbEntity
  8
0
100
AcDbLine
 62
6
  6
CONTINUOUS
 10
4.9921317151
 20
5.069255071
 11
4.9967859105
 21
5.069255071
  0
LINE
  5
28C
100
AcDbEntity
  8
0
100
AcDbLine
 62
6
  6
CONTINUOUS
 10
6.8052894006
 20
5.0729030866
 11
6.7994042635
 21
5.0729030866
  0
LINE
  5
28D
100
AcDbEntity
  8
0
100
AcDbLine
 62
7
  6
CONTINUOUS
 10
4.9819263796
 20
5.0729030866
 11
4.9760877512
 21
5.0729030866
  0
LINE
  5
28E
100
AcDbEntity
  8
0
100
AcDbLine
 62
6
  6
CONTINUOUS
 10
4.9953093418
 20
5.0838471295
 11
4.999966884
 21
5.0838471295
  0
LINE
  5
28F
100
AcDbEntity
  8
0
100
AcDbLine
 62
7
  6
CONTINUOUS
 10
6.7897375566
 20
5.0984391893
 11
6.7827356587
 21
5.0984391893
  0
LINE
  5
290
100
AcDbEntity
  8
0
100
AcDbLine
 62
7
  6
CONTINUOUS
 10
4.9677285419
 20
5.0984391893
 11
4.9624210344
 21
5.0984391893
  0
LINE
  5
291
100
AcDbEntity
  8
0
100
AcDbLine
 62
7
  6
CONTINUOUS
 10
6.8138232268
 20
5.1020872036
 11
6.8133471865
 21
5.1020872036
  0
LINE
  5
292
100
AcDbEntity
  8
0
100
AcDbLine
 62
7
  6
CONTINUOUS
 10
4.9974576085
 20
5.1020872036
 11
5.002117539
 21
5.1020872036
  0
LINE
  5
293
100
AcDbEntity
  8
0
100
AcDbLine
 62
7
  6
CONTINUOUS
 10
6.8138232269
 20
5.1166792608
 11
6.8133471865
 21
5.1166792608
  0
LINE
  5
294
100
AcDbEntity
  8
0
100
AcDbLine
 62
7
  6
CONTINUOUS
 10
4.9974576085
 20
5.1166792608
 11
5.002117539
 21
5.1166792608
  0
LINE
  5
295
100
AcDbEntity
  8
0
100
AcDbLine
 62
7
  6
CONTINUOUS
 10
6.7908612259
 20
5.1312713232
 11
6.7827356587
 21
5.1312713232
  0
LINE
  5
296
100
AcDbEntity
  8
0
100
AcDbLine
 62
7
  6
CONTINUOUS
 10
4.968633751
 20
5.1312713232
 11
4.9624210344
 21
5.1312713232
  0
LINE
  5
297
100
AcDbEntity
  8
0
100
AcDbLine
 62
6
  6
CONTINUOUS
 10
4.9953093418
 20
5.1349193375
 11
4.999966884
 21
5.1349193375
  0
LINE
  5
298
100
AcDbEntity
  8
0
100
AcDbLine
 62
6
  6
CONTINUOUS
 10
6.8052894006
 20
5.1458633804
 11
6.7994042635
 21
5.1458633804
  0
LINE
  5
299
100
AcDbEntity
  8
0
100
AcDbLine
 62
7
  6
CONTINUOUS
 10
4.9819263796
 20
5.1458633804
 11
4.9760877512
 21
5.1458633804
  0
LINE
  5
29A
100
AcDbEntity
  8
0
100
AcDbLine
 62
6
  6
CONTINUOUS
 10
4.9921317151
 20
5.1495113947
 11
4.9967859105
 21
5.1495113947
  0
LINE
  5
29B
100
AcDbEntity
  8
0
100
AcDbLine
 62
7
  6
CONTINUOUS
 10
4.9869547983
 20
5.1604554376
 11
4.991604039
 21
5.1604554376
  0
LINE
  5
29C
100
AcDbEntity
  8
0
100
AcDbLine
 62
6
  6
CONTINUOUS
 10
6.8052894006
 20
5.1641034519
 11
6.7994042635
 21
5.1641034519
  0
LINE
  5
29D
100
AcDbEntity
  8
0
100
AcDbLine
 62
7
  6
CONTINUOUS
 10
6.7994042635
 20
5.1641034519
 11
6.7947601394
 21
5.1641034519
  0
LINE
  5
29E
100
AcDbEntity
  8
0
100
AcDbLine
 62
7
  6
CONTINUOUS
 10
4.9819263796
 20
5.1641034519
 11
4.9760877512
 21
5.1641034519
  0
LINE
  5
29F
100
AcDbEntity
  8
0
100
AcDbLine
 62
7
  6
CONTINUOUS
 10
6.7561778622
 20
5.1713994806
 11
6.7515313404
 21
5.1713994806
  0
LINE
  5
2A0
100
AcDbEntity
  8
0
100
AcDbLine
 62
7
  6
CONTINUOUS
 10
6.7246313276
 20
5.1713994806
 11
6.7199479673
 21
5.1713994806
  0
LINE
  5
2A1
100
AcDbEntity
  8
0
100
AcDbLine
 62
7
  6
CONTINUOUS
 10
5.8366987904
 20
5.0546630125
 11
5.8201960837
 21
5.0583110271
  0
LINE
  5
2A2
100
AcDbEntity
  8
0
100
AcDbLine
 62
7
  6
CONTINUOUS
 10
5.9577186421
 20
5.0546630125
 11
5.9412159354
 21
5.0583110271
  0
LINE
  5
2A3
100
AcDbEntity
  8
0
100
AcDbLine
 62
7
  6
CONTINUOUS
 10
5.8669537553
 20
5.2115276482
 11
5.8532014971
 21
5.2224716911
  0
LINE
  5
2A4
100
AcDbEntity
  8
0
100
AcDbLine
 62
6
  6
CONTINUOUS
 10
5.9879735991
 20
5.2115276482
 11
5.9742213488
 21
5.2224716911
  0
LINE
  5
2A5
100
AcDbEntity
  8
0
100
AcDbLine
 62
7
  6
CONTINUOUS
 10
5.9577186421
 20
5.2261197054
 11
5.9412159354
 21
5.2224716911
  0
LINE
  5
2A6
100
AcDbEntity
  8
0
100
AcDbLine
 62
7
  6
CONTINUOUS
 10
5.8366987904
 20
5.2261197054
 11
5.8201960837
 21
5.2224716911
  0
LINE
  5
2A7
100
AcDbEntity
  8
0
100
AcDbLine
 62
7
  6
CONTINUOUS
 10
6.7561778622
 20
5.2005836052
 11
6.7515313404
 21
5.2005836052
  0
LINE
  5
2A8
100
AcDbEntity
  8
0
100
AcDbLine
 62
7
  6
CONTINUOUS
 10
6.7246313276
 20
5.2005836052
 11
6.7199479673
 21
5.2005836052
  0
LINE
  5
2A9
100
AcDbEntity
  8
0
100
AcDbLine
 62
6
  6
CONTINUOUS
 10
6.8164934204
 20
5.2078796339
 11
6.7886015096
 21
5.2078796339
  0
LINE
  5
2AA
100
AcDbEntity
  8
0
100
AcDbLine
 62
7
  6
CONTINUOUS
 10
4.9668292317
 20
5.2078796339
 11
4.999966884
 21
5.2078796339
  0
LINE
  5
2AB
100
AcDbEntity
  8
0
100
AcDbLine
 62
7
  6
CONTINUOUS
 10
4.9508613096
 20
5.2115276482
 11
4.9554983664
 21
5.2115276482
  0
LINE
  5
2AC
100
AcDbEntity
  8
0
100
AcDbLine
 62
7
  6
CONTINUOUS
 10
4.947012687
 20
5.2224716911
 11
4.9516516189
 21
5.2224716911
  0
LINE
  5
2AD
100
AcDbEntity
  8
0
100
AcDbLine
 62
6
  6
CONTINUOUS
 10
6.8164934204
 20
5.2261197054
 11
6.7827356587
 21
5.2261197054
  0
LINE
  5
2AE
100
AcDbEntity
  8
0
100
AcDbLine
 62
7
  6
CONTINUOUS
 10
6.7827356587
 20
5.2261197054
 11
6.7781000243
 21
5.2261197054
  0
LINE
  5
2AF
100
AcDbEntity
  8
0
100
AcDbLine
 62
7
  6
CONTINUOUS
 10
6.7727071211
 20
5.2261197054
 11
6.760025265
 21
5.2261197054
  0
LINE
  5
2B0
100
AcDbEntity
  8
0
100
AcDbLine
 62
7
  6
CONTINUOUS
 10
6.7441626276
 20
5.2261197054
 11
6.7299550129
 21
5.2261197054
  0
LINE
  5
2B1
100
AcDbEntity
  8
0
100
AcDbLine
 62
6
  6
CONTINUOUS
 10
5.7651870588
 20
5.2261197054
 11
5.7486843521
 21
5.2261197054
  0
LINE
  5
2B2
100
AcDbEntity
  8
0
100
AcDbLine
 62
7
  6
CONTINUOUS
 10
4.9433115886
 20
5.2261197054
 11
4.9404570925
 21
5.2261197054
  0
LINE
  5
2B3
100
AcDbEntity
  8
0
100
AcDbLine
 62
7
  6
CONTINUOUS
 10
4.9624210344
 20
5.2261197054
 11
4.999966884
 21
5.2261197054
  0
LINE
  5
2B4
100
AcDbEntity
  8
0
100
AcDbLine
 62
7
  6
CONTINUOUS
 10
6.839476921
 20
5.2318283668
 11
6.8391391229
 21
5.2318283668
  0
LINE
  5
2B5
100
AcDbEntity
  8
0
100
AcDbLine
 62
7
  6
CONTINUOUS
 10
6.4468280753
 20
5.2318283668
 11
6.4049029707
 21
5.2318283668
  0
LINE
  5
2B6
100
AcDbEntity
  8
0
100
AcDbLine
 62
7
  6
CONTINUOUS
 10
5.3350508713
 20
5.2318283668
 11
5.2931257666
 21
5.2318283668
  0
LINE
  5
2B7
100
AcDbEntity
  8
0
100
AcDbLine
 62
7
  6
CONTINUOUS
 10
4.900814719
 20
5.2318283668
 11
4.900476921
 21
5.2318283668
  0
LINE
  5
2B8
100
AcDbEntity
  8
0
100
AcDbLine
 62
6
  6
CONTINUOUS
 10
4.884976921
 20
5.3302535637
 11
6.854976921
 21
5.3302535637
  0
LINE
  5
2B9
100
AcDbEntity
  8
0
100
AcDbLine
 62
7
  6
CONTINUOUS
 10
5.8532014971
 20
5.2224716911
 11
5.8366987904
 21
5.2261197054
  0
LINE
  5
2BA
100
AcDbEntity
  8
0
100
AcDbLine
 62
7
  6
CONTINUOUS
 10
5.9742213488
 20
5.2224716911
 11
5.9577186421
 21
5.2261197054
  0
LINE
  5
2BB
100
AcDbEntity
  8
0
100
AcDbLine
 62
6
  6
CONTINUOUS
 10
4.809976921
 20
5.6700035637
 11
6.929976921
 21
5.6700035637
  0
LINE
  5
2BC
100
AcDbEntity
  8
0
100
AcDbLine
 62
6
  6
CONTINUOUS
 10
9.004976921
 20
5.8290035637
 11
2.734976921
 21
5.8290035637
  0
LINE
  5
2BD
100
AcDbEntity
  8
0
100
AcDbLine
 62
6
  6
CONTINUOUS
 10
6.735976921
 20
2.1925527763
 11
6.755976921
 21
2.2125527763
  0
LINE
  5
2BE
100
AcDbEntity
  8
0
100
AcDbLine
 62
6
  6
CONTINUOUS
 10
9.119976921
 20
5.9540035637
 11
2.619976921
 21
5.9540035637
  0
LINE
  5
2BF
100
AcDbEntity
  8
0
100
AcDbLine
 62
6
  6
CONTINUOUS
 10
9.119976921
 20
6.1420035637
 11
2.619976921
 21
6.1420035637
  0
LINE
  5
2C0
100
AcDbEntity
  8
0
100
AcDbLine
 62
6
  6
CONTINUOUS
 10
9.119976921
 20
5.9540035637
 11
9.119976921
 21
6.1420035637
  0
ARC
  5
2C1
100
AcDbEntity
  8
0
100
AcDbCircle
 62
6
  6
CONTINUOUS
 10
5.545176921
 20
2.8415527763
 40
0.094
100
AcDbArc
 50
90.1219060058
 51
149.7493496838
  0
ARC
  5
2C2
100
AcDbEntity
  8
0
100
AcDbCircle
 62
6
  6
CONTINUOUS
 10
5.545176921
 20
2.1995527763
 40
0.094
100
AcDbArc
 50
210.2506503162
 51
329.7493496838
  0
ARC
  5
2C3
100
AcDbEntity
  8
0
100
AcDbCircle
 62
6
  6
CONTINUOUS
 10
5.707576921
 20
2.1995527763
 40
0.094
100
AcDbArc
 50
210.2506503162
 51
329.7493496838
  0
ARC
  5
2C4
100
AcDbEntity
  8
0
100
AcDbCircle
 62
7
  6
CONTINUOUS
 10
5.8699760014
 20
4.2805518566
 40
0.1349982983
100
AcDbArc
 50
89.9996162834
 51
270.0003903033
  0
ARC
  5
2C5
100
AcDbEntity
  8
0
100
AcDbCircle
 62
6
  6
CONTINUOUS
 10
2.6095421384
 20
5.8290035637
 40
0.1254347826
100
AcDbArc
 50
0.0
 51
85.2281119392
  0
ARC
  5
2C6
100
AcDbEntity
  8
0
100
AcDbCircle
 62
6
  6
CONTINUOUS
 10
6.194776921
 20
2.8415527763
 40
0.094
100
AcDbArc
 50
30.2506503162
 51
89.8780939942
  0
ARC
  5
2C7
100
AcDbEntity
  8
0
100
AcDbCircle
 62
6
  6
CONTINUOUS
 10
5.869976921
 20
2.1995527763
 40
0.094
100
AcDbArc
 50
210.2506503162
 51
329.7493496838
  0
ARC
  5
2C8
100
AcDbEntity
  8
0
100
AcDbCircle
 62
6
  6
CONTINUOUS
 10
6.032376921
 20
2.1995527763
 40
0.094
100
AcDbArc
 50
210.2506503162
 51
329.7493496838
  0
ARC
  5
2C9
100
AcDbEntity
  8
0
100
AcDbCircle
 62
6
  6
CONTINUOUS
 10
6.194776921
 20
2.1995527763
 40
0.094
100
AcDbArc
 50
210.2506503162
 51
329.7493496838
  0
ARC
  5
2CA
100
AcDbEntity
  8
0
100
AcDbCircle
 62
7
  6
CONTINUOUS
 10
5.8699778393
 20
4.2805536946
 40
0.1349983
100
AcDbArc
 50
269.9996165334
 51
90.0003897368
  0
CIRCLE
  5
2CB
100
AcDbEntity
  8
0
100
AcDbCircle
 62
9
  6
CONTINUOUS
 10
5.869976921
 20
4.2805527763
 40
0.13
  0
CIRCLE
  5
2CC
100
AcDbEntity
  8
0
100
AcDbCircle
 62
9
  6
CONTINUOUS
 10
5.869976921
 20
4.2805527763
 40
0.0903041475
  0
ARC
  5
2CD
100
AcDbEntity
  8
0
100
AcDbCircle
 62
6
  6
CONTINUOUS
 10
9.1304117036
 20
5.8290035637
 40
0.1254347826
100
AcDbArc
 50
94.7718880608
 51
180.0
  0
SPLINE
  5
2CE
100
AcDbEntity
  8
0
100
AcDbSpline
 62
6
  6
CONTINUOUS
 70
0
 71
3
 72
36
 73
32
 74
30
 42
0.0000001
 43
0.0000001
 44
0.0000000001
 12
-0.1136805942
 22
-0.0878030983
 32
0.0
 13
-0.046437118
 23
-0.1359270677
 33
0.0
 40
0.0
 40
0.0
 40
0.0
 40
0.0
 40
0.0010094334
 40
0.0040401898
 40
0.0090960561
 40
0.0161809525
 40
0.0252989488
 40
0.0364547821
 40
0.0649041316
 40
0.0822126416
 40
0.1015855383
 40
0.1230200414
 40
0.1465132001
 40
0.1720643526
 40
0.1996724623
 40
0.229318002
 40
0.2609749895
 40
0.2946210896
 40
0.3302345491
 40
0.4071661851
 40
0.4913586233
 40
0.5360271481
 40
0.5822990376
 40
0.6300967076
 40
0.6793414964
 40
0.7299414807
 40
0.7818078542
 40
0.8348572373
 40
0.8889862368
 40
0.9440727513
 40
1.0
 40
1.0
 40
1.0
 40
1.0
 10
6.194976921
 20
2.9355525635
 30
0.0
 10
6.19493867
 20
2.9355230197
 30
0.0
 10
6.1947857421
 20
2.9354045546
 30
0.0
 10
6.1944427228
 20
2.9351361931
 30
0.0
 10
6.1938724392
 20
2.9346862404
 30
0.0
 10
6.1930763399
 20
2.9340519711
 30
0.0
 10
6.1920553497
 20
2.9332312785
 30
0.0
 10
6.1902460374
 20
2.931758609
 30
0.0
 10
6.188156662
 20
2.9300089101
 30
0.0
 10
6.185795696
 20
2.9279715173
 30
0.0
 10
6.1837093497
 20
2.9261302129
 30
0.0
 10
6.181427478
 20
2.9240632929
 30
0.0
 10
6.1789586494
 20
2.9217625974
 30
0.0
 10
6.1763117468
 20
2.9192199949
 30
0.0
 10
6.1734962349
 20
2.9164283665
 30
0.0
 10
6.1705245636
 20
2.9133798317
 30
0.0
 10
6.1674107162
 20
2.9100671529
 30
0.0
 10
6.1641690271
 20
2.9064836064
 30
0.0
 10
6.1595774125
 20
2.9011998673
 30
0.0
 10
6.1536280642
 20
2.8938924889
 30
0.0
 10
6.1477588851
 20
2.8859729026
 30
0.0
 10
6.1430110678
 20
2.879060235
 30
0.0
 10
6.1393893445
 20
2.8734906705
 30
0.0
 10
6.1358000548
 20
2.8676414079
 30
0.0
 10
6.1322668418
 20
2.861517542
 30
0.0
 10
6.1288120911
 20
2.8551266465
 30
0.0
 10
6.1254588768
 20
2.8484771223
 30
0.0
 10
6.1222313868
 20
2.8415785714
 30
0.0
 10
6.1191520488
 20
2.8344442852
 30
0.0
 10
6.1162422246
 20
2.8270908157
 30
0.0
 10
6.1144426211
 20
2.8220882295
 30
0.0
 10
6.113576921
 20
2.8195542205
 30
0.0
 11
6.194976921
 21
2.9355525635
 31
0.0
 11
6.1948622881
 21
2.9354637774
 31
0.0
 11
6.1945192295
 21
2.9351957643
 31
0.0
 11
6.1939490055
 21
2.9347460422
 31
0.0
 11
6.1931528765
 21
2.9341121287
 31
0.0
 11
6.1921321539
 21
2.9332914745
 31
0.0
 11
6.1908895539
 21
2.9322796825
 31
0.0
 11
6.1877558332
 21
2.929656881
 31
0.0
 11
6.1858733868
 21
2.9280328136
 31
0.0
 11
6.1837871515
 21
2.9261912883
 31
0.0
 11
6.1815052205
 21
2.9241243636
 31
0.0
 11
6.1790363455
 21
2.9218238502
 31
0.0
 11
6.1763892782
 21
2.9192815588
 31
0.0
 11
6.1735732149
 21
2.9164894101
 31
0.0
 11
6.1706007965
 21
2.9134401755
 31
0.0
 11
6.1674862713
 21
2.910127024
 31
0.0
 11
6.1642438971
 21
2.9065431264
 31
0.0
 11
6.1608883111
 21
2.9026819455
 31
0.0
 11
6.1539108164
 21
2.8941129332
 31
0.0
 11
6.146709233
 21
2.8843975617
 31
0.0
 11
6.1430765861
 21
2.8791087454
 31
0.0
 11
6.1394532982
 21
2.8735366779
 31
0.0
 11
6.135862524
 21
2.8676848513
 31
0.0
 11
6.1323274223
 21
2.8615580199
 31
0.0
 11
6.1288711638
 21
2.85516419
 31
0.0
 11
6.1255169211
 21
2.8485118845
 31
0.0
 11
6.1222878435
 21
2.841609855
 31
0.0
 11
6.1192066291
 21
2.8344713329
 31
0.0
 11
6.1162955644
 21
2.8271136333
 31
0.0
 11
6.113576921
 21
2.8195542205
 31
0.0
  0
SPLINE
  5
2CF
100
AcDbEntity
  8
0
100
AcDbSpline
 62
6
  6
CONTINUOUS
 70
0
 71
3
 72
44
 73
40
 74
38
 42
0.0000001
 43
0.0000001
 44
0.0000000001
 12
-0.1416566936
 22
0.183827541
 32
0.0
 13
-0.0601992476
 23
-0.2241321804
 33
0.0
 40
0.0
 40
0.0
 40
0.0
 40
0.0
 40
0.0141846561
 40
0.0280820752
 40
0.0417284112
 40
0.0551571279
 40
0.0684142125
 40
0.0815531244
 40
0.0946206325
 40
0.1076563742
 40
0.1206966399
 40
0.1337747745
 40
0.1469183713
 40
0.1601493613
 40
0.186934173
 40
0.2142551785
 40
0.2281423421
 40
0.242184713
 40
0.27074292
 40
0.2999452762
 40
0.3297779067
 40
0.3602166862
 40
0.3912257341
 40
0.4227609287
 40
0.45477893
 40
0.4872309349
 40
0.5200658348
 40
0.5532416763
 40
0.5867149119
 40
0.6204394346
 40
0.6543811296
 40
0.7227690193
 40
0.757166703
 40
0.791672328
 40
0.8262695425
 40
0.8609362588
 40
0.8956554561
 40
0.9304180734
 40
1.0
 40
1.0
 40
1.0
 40
1.0
 10
6.113576921
 20
2.8195542205
 30
0.0
 10
6.1129071372
 20
2.8204233973
 30
0.0
 10
6.1115186872
 20
2.8220971323
 30
0.0
 10
6.1092797693
 20
2.8244263582
 30
0.0
 10
6.1069197689
 20
2.8265464671
 30
0.0
 10
6.1044498674
 20
2.8284573819
 30
0.0
 10
6.1018803661
 20
2.8301618819
 30
0.0
 10
6.0992208215
 20
2.8316658443
 30
0.0
 10
6.0964796289
 20
2.8329756197
 30
0.0
 10
6.093664934
 20
2.834097993
 30
0.0
 10
6.0907837677
 20
2.8350388281
 30
0.0
 10
6.0878424595
 20
2.8358034161
 30
0.0
 10
6.0848470484
 20
2.8363973137
 30
0.0
 10
6.0807731773
 20
2.8369713012
 30
0.0
 10
6.0755637683
 20
2.837284962
 30
0.0
 10
6.0702997753
 20
2.8370913297
 30
0.0
 10
6.0660470133
 20
2.8366541102
 30
0.0
 10
6.0617216287
 20
2.8360246016
 30
0.0
 10
6.0562778993
 20
2.8348897978
 30
0.0
 10
6.049760962
 20
2.833013127
 30
0.0
 10
6.0432542556
 20
2.8306373363
 30
0.0
 10
6.0367899202
 20
2.8277838842
 30
0.0
 10
6.0303988036
 20
2.8244737211
 30
0.0
 10
6.024110995
 20
2.8207272583
 30
0.0
 10
6.0179542081
 20
2.8165668476
 30
0.0
 10
6.0119550434
 20
2.8120141778
 30
0.0
 10
6.0061393122
 20
2.8070899078
 30
0.0
 10
6.0005278424
 20
2.8018182928
 30
0.0
 10
5.9951396724
 20
2.7962229432
 30
0.0
 10
5.9899934846
 20
2.7903253025
 30
0.0
 10
5.9834564293
 20
2.7820727232
 30
0.0
 10
5.9774674474
 20
2.7733339859
 30
0.0
 10
5.9720462621
 20
2.7641985109
 30
0.0
 10
5.9682500672
 20
2.7571462537
 30
0.0
 10
5.9647311569
 20
2.7499288986
 30
0.0
 10
5.9614877887
 20
2.7425656597
 30
0.0
 10
5.9585157176
 20
2.7350750892
 30
0.0
 10
5.9549021331
 20
2.7249407177
 30
0.0
 10
5.9525731809
 20
2.717204534
 30
0.0
 10
5.951176921
 20
2.7120060177
 30
0.0
 11
6.113576921
 21
2.8195542205
 31
0.0
 11
6.1114743074
 21
2.8220871485
 31
0.0
 11
6.109238634
 21
2.8244118063
 31
0.0
 11
6.1068822024
 21
2.8265277035
 31
0.0
 11
6.1044171838
 21
2.8284345682
 31
0.0
 11
6.1018536176
 21
2.8301357136
 31
0.0
 11
6.0991997996
 21
2.8316373844
 31
0.0
 11
6.0964639745
 21
2.8329459114
 31
0.0
 11
6.0936543231
 21
2.8340675977
 31
0.0
 11
6.0907778972
 21
2.835008262
 31
0.0
 11
6.087840781
 21
2.8357733069
 31
0.0
 11
6.0848490269
 21
2.8363681218
 31
0.0
 11
6.0818086878
 21
2.8367980958
 31
0.0
 11
6.0756045051
 21
2.8371829383
 31
0.0
 11
6.0692678349
 21
2.8369613156
 31
0.0
 11
6.0660617235
 21
2.83663303
 31
0.0
 11
6.0628366417
 21
2.8361647972
 31
0.0
 11
6.0563467124
 21
2.8348206185
 31
0.0
 11
6.049832095
 21
2.8329525539
 31
0.0
 11
6.0433264443
 21
2.8305839213
 31
0.0
 11
6.036861731
 21
2.8277362812
 31
0.0
 11
6.0304694116
 21
2.8244306577
 31
0.0
 11
6.0241800923
 21
2.8206882355
 31
0.0
 11
6.0180214195
 21
2.8165307578
 31
0.0
 11
6.0120203961
 21
2.8119800894
 31
0.0
 11
6.0062028872
 21
2.8070583188
 31
0.0
 11
6.0005896112
 21
2.8017885451
 31
0.0
 11
5.9951998332
 21
2.7961941534
 31
0.0
 11
5.9900521797
 21
2.7902985574
 31
0.0
 11
5.9851592732
 21
2.784125444
 31
0.0
 11
5.9761749628
 21
2.7710420053
 31
0.0
 11
5.9720987557
 21
2.7641782777
 31
0.0
 11
5.9683011054
 21
2.7571281251
 31
0.0
 11
5.9647805105
 21
2.7499119564
 31
0.0
 11
5.9615354012
 21
2.7425501482
 31
0.0
 11
5.9585612265
 21
2.735061666
 31
0.0
 11
5.9558493645
 21
2.7274635496
 31
0.0
 11
5.951176921
 21
2.7120060177
 31
0.0
  0
SPLINE
  5
2D0
100
AcDbEntity
  8
0
100
AcDbSpline
 62
6
  6
CONTINUOUS
 70
0
 71
3
 72
47
 73
43
 74
41
 42
0.0000001
 43
0.0000001
 44
0.0000000001
 12
-0.0738607023
 22
0.2123438733
 32
0.0
 13
-0.0738607023
 23
-0.2123438733
 33
0.0
 40
0.0
 40
0.0
 40
0.0
 40
0.0
 40
0.0312440715
 40
0.0624855655
 40
0.0937065837
 40
0.1249098411
 40
0.1560887418
 40
0.1872465129
 40
0.2184084403
 40
0.2495749805
 40
0.2651647894
 40
0.2807613061
 40
0.3119709656
 40
0.3432110905
 40
0.3588506292
 40
0.3745018253
 40
0.3901632924
 40
0.4058340741
 40
0.4215139056
 40
0.4372030647
 40
0.4685945463
 40
0.4999999988
 40
0.5314054458
 40
0.5627969126
 40
0.5784860621
 40
0.5941658842
 40
0.6098366566
 40
0.6254981143
 40
0.6411493006
 40
0.6567888299
 40
0.68802895
 40
0.7192386103
 40
0.7348351261
 40
0.7504249402
 40
0.7815914999
 40
0.8127534379
 40
0.843911217
 40
0.8750901287
 40
0.906293393
 40
0.9375144201
 40
0.9687559238
 40
1.0
 40
1.0
 40
1.0
 40
1.0
 10
5.951176921
 20
2.7120060177
 30
0.0
 10
5.9504076846
 20
2.7142175134
 30
0.0
 10
5.9487683222
 20
2.718606117
 30
0.0
 10
5.9459840585
 20
2.7250563962
 30
0.0
 10
5.9428520187
 20
2.731342621
 30
0.0
 10
5.9393520531
 20
2.7374270002
 30
0.0
 10
5.9354700147
 20
2.7432701307
 30
0.0
 10
5.9311944517
 20
2.7488290212
 30
0.0
 10
5.9265178804
 20
2.7540545069
 30
0.0
 10
5.922291597
 20
2.7580937078
 30
0.0
 10
5.918720731
 20
2.7611094983
 30
0.0
 10
5.9150234964
 20
2.7639742801
 30
0.0
 10
5.9101734335
 20
2.7672569787
 30
0.0
 10
5.9050514402
 20
2.7701046619
 30
0.0
 10
5.90080967
 20
2.772099644
 30
0.0
 10
5.897559606
 20
2.7734512481
 30
0.0
 10
5.8942491609
 20
2.7746541016
 30
0.0
 10
5.890885002
 20
2.7757045981
 30
0.0
 10
5.8874738274
 20
2.7765992124
 30
0.0
 10
5.8828722723
 20
2.7775791196
 30
0.0
 10
5.877038879
 20
2.7784012134
 30
0.0
 10
5.8699769217
 20
2.7787332192
 30
0.0
 10
5.8629149654
 20
2.7784012139
 30
0.0
 10
5.8570815742
 20
2.777579121
 30
0.0
 10
5.8524800217
 20
2.7765992139
 30
0.0
 10
5.8490688491
 20
2.7757046005
 30
0.0
 10
5.8457046918
 20
2.7746541057
 30
0.0
 10
5.8423942484
 20
2.7734512539
 30
0.0
 10
5.839144186
 20
2.7720996514
 30
0.0
 10
5.834902418
 20
2.7701046688
 30
0.0
 10
5.8297804245
 20
2.7672569884
 30
0.0
 10
5.8249303599
 20
2.7639742927
 30
0.0
 10
5.821233126
 20
2.7611095093
 30
0.0
 10
5.8176622586
 20
2.7580937178
 30
0.0
 10
5.8134359714
 20
2.754054517
 30
0.0
 10
5.8087593971
 20
2.7488290301
 30
0.0
 10
5.8044838328
 20
2.7432701379
 30
0.0
 10
5.8006017923
 20
2.7374270064
 30
0.0
 10
5.7971018255
 20
2.7313426255
 30
0.0
 10
5.793969785
 20
2.725056399
 30
0.0
 10
5.7911855205
 20
2.7186061183
 30
0.0
 10
5.7895461575
 20
2.7142175138
 30
0.0
 10
5.788776921
 20
2.7120060177
 30
0.0
 11
5.951176921
 21
2.7120060177
 31
0.0
 11
5.9487139389
 21
2.7185844416
 31
0.0
 11
5.9459252298
 21
2.7250309058
 31
0.0
 11
5.942789698
 21
2.7313108417
 31
0.0
 11
5.9392869966
 21
2.7373890156
 31
0.0
 11
5.9354032153
 21
2.7432244725
 31
0.0
 11
5.9311277266
 21
2.7487733404
 31
0.0
 11
5.9264524301
 21
2.7539910443
 31
0.0
 11
5.9213837947
 21
2.75882905
 31
0.0
 11
5.9187056402
 21
2.7610900525
 31
0.0
 11
5.915933629
 21
2.7632374163
 31
0.0
 11
5.9101215466
 21
2.7671684478
 31
0.0
 11
5.9039814724
 21
2.7705785747
 31
0.0
 11
5.9007996277
 21
2.7720749058
 31
0.0
 11
5.8975506233
 21
2.7734260348
 31
0.0
 11
5.8942412088
 21
2.7746283707
 31
0.0
 11
5.8908781505
 21
2.7756783351
 31
0.0
 11
5.8874682141
 21
2.7765723495
 31
0.0
 11
5.8840183036
 21
2.7773070839
 31
0.0
 11
5.8770298446
 21
2.778292006
 31
0.0
 11
5.8699769212
 21
2.7786225343
 31
0.0
 11
5.8629239991
 21
2.7782920064
 31
0.0
 11
5.8559355433
 21
2.7773070852
 31
0.0
 11
5.8524856349
 21
2.7765723511
 31
0.0
 11
5.8490757006
 21
2.7756783376
 31
0.0
 11
5.8457126439
 21
2.7746283748
 31
0.0
 11
5.8424032311
 21
2.7734260406
 31
0.0
 11
5.8391542285
 21
2.7720749129
 31
0.0
 11
5.8359723859
 21
2.7705785824
 31
0.0
 11
5.8298323116
 21
2.7671684578
 31
0.0
 11
5.8240202277
 21
2.7632374282
 31
0.0
 11
5.8212482171
 21
2.761090064
 31
0.0
 11
5.8185700616
 21
2.7588290608
 31
0.0
 11
5.8135014215
 21
2.7539910537
 31
0.0
 11
5.8088261223
 21
2.7487733491
 31
0.0
 11
5.8045506322
 21
2.74322448
 31
0.0
 11
5.8006668488
 21
2.7373890214
 31
0.0
 11
5.7971641464
 21
2.7313108464
 31
0.0
 11
5.7940286137
 21
2.7250309087
 31
0.0
 11
5.7912399035
 21
2.7185844425
 31
0.0
 11
5.788776921
 21
2.7120060177
 31
0.0
  0
SPLINE
  5
2D1
100
AcDbEntity
  8
0
100
AcDbSpline
 62
6
  6
CONTINUOUS
 70
0
 71
3
 72
44
 73
40
 74
38
 42
0.0000001
 43
0.0000001
 44
0.0000000001
 12
-0.0601992476
 22
0.2241321805
 32
0.0
 13
-0.1416566937
 23
-0.1838275411
 33
0.0
 40
0.0
 40
0.0
 40
0.0
 40
0.0
 40
0.0695819962
 40
0.1043446676
 40
0.1390639011
 40
0.1737306245
 40
0.2083278456
 40
0.2428334653
 40
0.2772311133
 40
0.345618865
 40
0.3795605057
 40
0.413284997
 40
0.4467582147
 40
0.4799340488
 40
0.5127689561
 40
0.5452209761
 40
0.5772389922
 40
0.6087742046
 40
0.6397832731
 40
0.6702220724
 40
0.7000547223
 40
0.7292570974
 40
0.7578153214
 40
0.7718576995
 40
0.7857448701
 40
0.8130658899
 40
0.8398507078
 40
0.8530816988
 40
0.8662252985
 40
0.8793034355
 40
0.8923437009
 40
0.9053794397
 40
0.9184469475
 40
0.9315858568
 40
0.9448429292
 40
0.9582716196
 40
0.9719179363
 40
0.9858153461
 40
1.0
 40
1.0
 40
1.0
 40
1.0
 10
5.788776921
 20
2.7120060177
 30
0.0
 10
5.7873806597
 20
2.7172045392
 30
0.0
 10
5.7850517013
 20
2.7249407311
 30
0.0
 10
5.7814381107
 20
2.7350751135
 30
0.0
 10
5.7784660379
 20
2.7425656915
 30
0.0
 10
5.775222672
 20
2.7499289356
 30
0.0
 10
5.7717037578
 20
2.7571462896
 30
0.0
 10
5.76790756
 20
2.7641985421
 30
0.0
 10
5.762486381
 20
2.7733340047
 30
0.0
 10
5.7564974135
 20
2.7820727305
 30
0.0
 10
5.7499603671
 20
2.7903252949
 30
0.0
 10
5.744814182
 20
2.7962229273
 30
0.0
 10
5.739426016
 20
2.8018182745
 30
0.0
 10
5.7338145495
 20
2.807089891
 30
0.0
 10
5.727998818
 20
2.8120141625
 30
0.0
 10
5.7219996511
 20
2.8165668343
 30
0.0
 10
5.7158428623
 20
2.8207272487
 30
0.0
 10
5.7095550507
 20
2.8244737147
 30
0.0
 10
5.7031639303
 20
2.82778388
 30
0.0
 10
5.6966995908
 20
2.8306373345
 30
0.0
 10
5.6901928803
 20
2.833013127
 30
0.0
 10
5.6836759389
 20
2.8348897991
 30
0.0
 10
5.6782322061
 20
2.8360246034
 30
0.0
 10
5.6739068191
 20
2.8366541114
 30
0.0
 10
5.6696540547
 20
2.83709133
 30
0.0
 10
5.6643900596
 20
2.8372849626
 30
0.0
 10
5.6591806489
 20
2.8369713004
 30
0.0
 10
5.6551067774
 20
2.8363973104
 30
0.0
 10
5.6521113659
 20
2.8358034124
 30
0.0
 10
5.6491700574
 20
2.835038824
 30
0.0
 10
5.6462888914
 20
2.834097988
 30
0.0
 10
5.6434741979
 20
2.832975612
 30
0.0
 10
5.6407330066
 20
2.8316658349
 30
0.0
 10
5.6380734634
 20
2.8301618723
 30
0.0
 10
5.6355039646
 20
2.8284573745
 30
0.0
 10
5.6330340657
 20
2.8265464637
 30
0.0
 10
5.6306740689
 20
2.8244263569
 30
0.0
 10
5.6284351537
 20
2.8220971318
 30
0.0
 10
5.6270467047
 20
2.8204233972
 30
0.0
 10
5.626376921
 20
2.8195542205
 30
0.0
 11
5.788776921
 21
2.7120060177
 31
0.0
 11
5.7841044692
 21
2.727463564
 31
0.0
 11
5.7813926017
 21
2.7350616918
 31
0.0
 11
5.7784184249
 21
2.7425501822
 31
0.0
 11
5.7751733171
 21
2.7499119929
 31
0.0
 11
5.771652719
 21
2.7571281618
 31
0.0
 11
5.7678550658
 21
2.7641783114
 31
0.0
 11
5.7637788621
 21
2.7710420314
 31
0.0
 11
5.7547945726
 21
2.7841254456
 31
0.0
 11
5.749901673
 21
2.7902985483
 31
0.0
 11
5.7447540226
 21
2.7961941373
 31
0.0
 11
5.739364248
 21
2.8017885266
 31
0.0
 11
5.7337509751
 21
2.807058301
 31
0.0
 11
5.7279334656
 21
2.8119800736
 31
0.0
 11
5.7219324399
 21
2.8165307447
 31
0.0
 11
5.7157737651
 21
2.8206882256
 31
0.0
 11
5.7094844428
 21
2.824430651
 31
0.0
 11
5.7030921194
 21
2.827736277
 31
0.0
 11
5.696627402
 21
2.8305839194
 31
0.0
 11
5.6901217472
 21
2.8329525538
 31
0.0
 11
5.6836071256
 21
2.8348206198
 31
0.0
 11
5.6771171924
 21
2.8361647988
 31
0.0
 11
5.6738921088
 21
2.8366330312
 31
0.0
 11
5.6706859957
 21
2.8369613162
 31
0.0
 11
5.6643493221
 21
2.8371829385
 31
0.0
 11
5.6581451382
 21
2.8367980942
 31
0.0
 11
5.6551047989
 21
2.8363681187
 31
0.0
 11
5.6521130444
 21
2.8357733031
 31
0.0
 11
5.6491759277
 21
2.8350082577
 31
0.0
 11
5.6462995022
 21
2.8340675923
 31
0.0
 11
5.6434898524
 21
2.8329459039
 31
0.0
 11
5.6407540282
 21
2.8316373752
 31
0.0
 11
5.6381002112
 21
2.8301357039
 31
0.0
 11
5.6355366472
 21
2.8284345604
 31
0.0
 11
5.6330716328
 21
2.8265277001
 31
0.0
 11
5.6307152048
 21
2.8244118055
 31
0.0
 11
5.6284795338
 21
2.8220871485
 31
0.0
 11
5.626376921
 21
2.8195542205
 31
0.0
  0
SPLINE
  5
2D2
100
AcDbEntity
  8
0
100
AcDbSpline
 62
6
  6
CONTINUOUS
 70
0
 71
3
 72
36
 73
32
 74
30
 42
0.0000001
 43
0.0000001
 44
0.0000000001
 12
-0.046437118
 22
0.1359270676
 32
0.0
 13
-0.1136797824
 23
0.0878041486
 33
0.0
 40
0.0
 40
0.0
 40
0.0
 40
0.0
 40
0.0559272622
 40
0.1110138195
 40
0.165142895
 40
0.2181923811
 40
0.2700588248
 40
0.320658847
 40
0.3699036531
 40
0.4177013013
 40
0.4639731093
 40
0.5086415371
 40
0.5928338682
 40
0.6697654696
 40
0.7053789315
 40
0.7390250379
 40
0.7706820351
 40
0.8003275921
 40
0.8279357297
 40
0.8534868955
 40
0.8769800505
 40
0.898414546
 40
0.917787445
 40
0.9350959614
 40
0.9635452911
 40
0.9747011055
 40
0.9838190828
 40
0.9909039641
 40
0.9959598194
 40
0.998990569
 40
1.0
 40
1.0
 40
1.0
 40
1.0
 10
5.626376921
 20
2.8195542205
 30
0.0
 10
5.6255112207
 20
2.8220882301
 30
0.0
 10
5.6237116156
 20
2.8270908187
 30
0.0
 10
5.6208017879
 20
2.8344442935
 30
0.0
 10
5.6177224449
 20
2.8415785891
 30
0.0
 10
5.6144949519
 20
2.8484771518
 30
0.0
 10
5.6111417314
 20
2.8551266842
 30
0.0
 10
5.6076869752
 20
2.8615175835
 30
0.0
 10
5.6041537606
 20
2.8676414504
 30
0.0
 10
5.600564475
 20
2.8734907106
 30
0.0
 10
5.5969427559
 20
2.8790602665
 30
0.0
 10
5.5921949439
 20
2.8859729211
 30
0.0
 10
5.5863257697
 20
2.8938924968
 30
0.0
 10
5.5803764262
 20
2.9011998704
 30
0.0
 10
5.5757848127
 20
2.9064836089
 30
0.0
 10
5.5725431233
 20
2.9100671563
 30
0.0
 10
5.569429275
 20
2.9133798364
 30
0.0
 10
5.5664576017
 20
2.916428373
 30
0.0
 10
5.5636420867
 20
2.9192200021
 30
0.0
 10
5.560995183
 20
2.9217626061
 30
0.0
 10
5.5585263552
 20
2.9240633026
 30
0.0
 10
5.5562444844
 20
2.926130223
 30
0.0
 10
5.5541581364
 20
2.9279715255
 30
0.0
 10
5.5517971689
 20
2.9300089158
 30
0.0
 10
5.5497077983
 20
2.9317586179
 30
0.0
 10
5.5478984886
 20
2.9332312863
 30
0.0
 10
5.5468774959
 20
2.9340519716
 30
0.0
 10
5.5460813971
 20
2.9346862382
 30
0.0
 10
5.5455111154
 20
2.9351361908
 30
0.0
 10
5.5451680982
 20
2.9354045533
 30
0.0
 10
5.5450151716
 20
2.9355230194
 30
0.0
 10
5.544976921
 20
2.9355525635
 30
0.0
 11
5.626376921
 21
2.8195542205
 31
0.0
 11
5.6236582763
 21
2.8271136348
 31
0.0
 11
5.6207472083
 21
2.8344713398
 31
0.0
 11
5.6176659892
 21
2.8416098718
 31
0.0
 11
5.6144369063
 21
2.8485119151
 31
0.0
 11
5.6110826577
 21
2.855164229
 31
0.0
 11
5.6076263945
 21
2.8615580625
 31
0.0
 11
5.604091291
 21
2.8676848957
 31
0.0
 11
5.6005005193
 21
2.8735367202
 31
0.0
 11
5.5968772371
 21
2.8791087774
 31
0.0
 11
5.5932445964
 21
2.8843975811
 31
0.0
 11
5.5860430202
 21
2.8941129387
 31
0.0
 11
5.5790655288
 21
2.9026819474
 31
0.0
 11
5.5757099428
 21
2.9065431287
 31
0.0
 11
5.5724675683
 21
2.9101270272
 31
0.0
 11
5.5693530423
 21
2.9134401799
 31
0.0
 11
5.5663806218
 21
2.916489416
 31
0.0
 11
5.563564555
 21
2.9192815667
 31
0.0
 11
5.5609174864
 21
2.9218238596
 31
0.0
 11
5.5584486125
 21
2.9241243734
 31
0.0
 11
5.5561666826
 21
2.9261912976
 31
0.0
 11
5.5540804456
 21
2.9280328215
 31
0.0
 11
5.5521979977
 21
2.9296568886
 31
0.0
 11
5.5490642818
 21
2.9322796915
 31
0.0
 11
5.5478216833
 21
2.933291481
 31
0.0
 11
5.5468009596
 21
2.9341121295
 31
0.0
 11
5.5460048312
 21
2.9347460402
 31
0.0
 11
5.5454346093
 21
2.9351957624
 31
0.0
 11
5.5450915529
 21
2.9354637767
 31
0.0
 11
5.544976921
 21
2.9355525635
 31
0.0
  0
ELLIPSE
  5
2D3
100
AcDbEntity
  8
0
100
AcDbEllipse
 62
7
  6
CONTINUOUS
 10
5.869976921
 20
5.2004634015
 30
0.0
 11
0.9337024059
 21
0.417850873
 31
0.0
 40
0.6246663258
 41
2.6012078026
 42
2.6063101801
  0
ELLIPSE
  5
2D4
100
AcDbEntity
  8
0
100
AcDbEllipse
 62
7
  6
CONTINUOUS
 10
5.869976921
 20
5.0839673307
 30
0.0
 11
0.9337024059
 21
-0.417850873
 31
0.0
 40
0.6246663258
 41
-2.6063101801
 42
-2.6012078026
  0
ELLIPSE
  5
2D5
100
AcDbEntity
  8
0
100
AcDbEllipse
 62
7
  6
CONTINUOUS
 10
5.869976921
 20
5.0220712663
 30
0.0
 11
-0.5157921422
 21
1.4028664959
 31
0.0
 40
0.5851642007
 41
1.2648458323
 42
1.272503669
  0
ELLIPSE
  5
2D6
100
AcDbEntity
  8
0
100
AcDbEllipse
 62
7
  6
CONTINUOUS
 10
5.869976921
 20
4.8873351052
 30
0.0
 11
-0.3678479124
 21
2.8676273828
 31
0.0
 40
0.3128039274
 41
1.4315508783
 42
1.436659149
  0
ELLIPSE
  5
2D7
100
AcDbEntity
  8
0
100
AcDbEllipse
 62
7
  6
CONTINUOUS
 10
5.869976921
 20
5.5374241917
 30
0.0
 11
0.3541172166
 21
3.5863136606
 31
0.0
 40
0.2516550235
 41
-4.5935119134
 42
-4.5884036427
  0
ELLIPSE
  5
2D8
100
AcDbEntity
  8
0
100
AcDbEllipse
 62
7
  6
CONTINUOUS
 10
5.869976921
 20
5.3353197623
 30
0.0
 11
0.5157921422
 21
1.4028664959
 31
0.0
 40
0.5851642007
 41
-4.4140963225
 42
-4.4064384859
  0
ELLIPSE
  5
2D9
100
AcDbEntity
  8
0
100
AcDbEllipse
 62
7
  6
CONTINUOUS
 10
5.869976921
 20
5.2858029131
 30
0.0
 11
0.8713243747
 21
0.6194169187
 31
0.0
 40
0.6863173103
 41
-3.8709533301
 42
-3.8582013196
  0
ELLIPSE
  5
2DA
100
AcDbEntity
  8
0
100
AcDbEllipse
 62
7
  6
CONTINUOUS
 10
5.869976921
 20
5.2435820984
 30
0.0
 11
0.9690592843
 21
0.1062436467
 31
0.0
 40
0.2751160055
 41
2.8232569308
 42
2.835996958
  0
ELLIPSE
  5
2DB
100
AcDbEntity
  8
0
100
AcDbEllipse
 62
7
  6
CONTINUOUS
 10
5.869976921
 20
5.2115757209
 30
0.0
 11
0.969059284
 21
-0.1062436643
 31
0.0
 40
0.2751160439
 41
-2.8130721217
 42
-2.8003483937
  0
ELLIPSE
  5
2DC
100
AcDbEntity
  8
0
100
AcDbEllipse
 62
7
  6
CONTINUOUS
 10
5.869976921
 20
5.1752878774
 30
0.0
 11
-0.5157921422
 21
1.4028664959
 31
0.0
 40
0.5851642007
 41
1.3336218178
 42
1.3412502738
  0
ELLIPSE
  5
2DD
100
AcDbEntity
  8
0
100
AcDbEllipse
 62
7
  6
CONTINUOUS
 10
5.869976921
 20
5.1373442804
 30
0.0
 11
-0.3541172399
 21
3.5863118948
 31
0.0
 40
0.2516551449
 41
1.5283236754
 42
1.5334087178
  0
ELLIPSE
  5
2DE
100
AcDbEntity
  8
0
100
AcDbEllipse
 62
7
  6
CONTINUOUS
 10
5.869976921
 20
5.2073988549
 30
0.0
 11
0.367847951
 21
2.8676259677
 31
0.0
 40
0.3128040763
 41
-4.6597412434
 42
-4.654656201
  0
ELLIPSE
  5
2DF
100
AcDbEntity
  8
0
100
AcDbEllipse
 62
7
  6
CONTINUOUS
 10
5.869976921
 20
5.1821031512
 30
0.0
 11
0.5157921422
 21
1.4028664959
 31
0.0
 40
0.5851642007
 41
-4.4828429274
 42
-4.4752144714
  0
ELLIPSE
  5
2E0
100
AcDbEntity
  8
0
100
AcDbEllipse
 62
7
  6
CONTINUOUS
 10
5.869976921
 20
5.1639832571
 30
0.0
 11
0.9337024772
 21
0.4178505642
 31
0.0
 40
0.6246661769
 41
2.5451923044
 42
2.5502787336
  0
ELLIPSE
  5
2E1
100
AcDbEntity
  8
0
100
AcDbEllipse
 62
7
  6
CONTINUOUS
 10
5.869976921
 20
5.1204474751
 30
0.0
 11
0.9337024772
 21
-0.4178505642
 31
0.0
 40
0.6246661769
 41
-2.5502787336
 42
-2.5451923044
  0
ELLIPSE
  5
2E2
100
AcDbEntity
  8
0
100
AcDbEllipse
 62
7
  6
CONTINUOUS
 10
5.869976921
 20
5.1113875173
 30
0.0
 11
-0.7093073323
 21
0.9587320664
 31
0.0
 40
0.6893673371
 41
1.0739067891
 42
1.0840778115
  0
ELLIPSE
  5
2E3
100
AcDbEntity
  8
0
100
AcDbEllipse
 62
7
  6
CONTINUOUS
 10
5.869976921
 20
5.073504027
 30
0.0
 11
-0.3541172532
 21
3.5863108888
 31
0.0
 40
0.251655214
 41
1.530866227
 42
1.5359510908
  0
ELLIPSE
  5
2E4
100
AcDbEntity
  8
0
100
AcDbEllipse
 62
7
  6
CONTINUOUS
 10
5.869976921
 20
5.1343183895
 30
0.0
 11
0.3541172599
 21
3.5863103858
 31
0.0
 40
0.2516552486
 41
-4.677543737
 42
-4.6724588732
  0
ELLIPSE
  5
2E5
100
AcDbEntity
  8
0
100
AcDbEllipse
 62
7
  6
CONTINUOUS
 10
5.869976921
 20
5.1018468347
 30
0.0
 11
0.515792087
 21
1.4028666799
 31
0.0
 40
0.5851641487
 41
-4.485385561
 42
-4.4777574963
  0
ELLIPSE
  5
2E6
100
AcDbEntity
  8
0
100
AcDbEllipse
 62
7
  6
CONTINUOUS
 10
5.869976921
 20
5.068477391
 30
0.0
 11
0.9690592844
 21
0.1062436398
 31
0.0
 40
0.2751159905
 41
2.7978044598
 42
2.8105267963
  0
ELLIPSE
  5
2E7
100
AcDbEntity
  8
0
100
AcDbEllipse
 62
7
  6
CONTINUOUS
 10
5.869976921
 20
5.0364710147
 30
0.0
 11
0.9690592841
 21
-0.1062436575
 31
0.0
 40
0.275116029
 41
-2.8385463295
 42
-2.8258040739
  0
ELLIPSE
  5
2E8
100
AcDbEntity
  8
0
100
AcDbEllipse
 62
7
  6
CONTINUOUS
 10
5.869976921
 20
4.9927909852
 30
0.0
 11
-0.8713242918
 21
0.6194171338
 31
0.0
 40
0.6863173461
 41
0.7140568349
 42
0.7268114943
  0
ELLIPSE
  5
2E9
100
AcDbEntity
  8
0
100
AcDbEllipse
 62
7
  6
CONTINUOUS
 10
5.869976921
 20
4.9418149196
 30
0.0
 11
-0.5157920588
 21
1.4028667739
 31
0.0
 40
0.5851641221
 41
1.2622921148
 42
1.2699517446
  0
ELLIPSE
  5
2EA
100
AcDbEntity
  8
0
100
AcDbEllipse
 62
7
  6
CONTINUOUS
 10
5.869976921
 20
4.7342386492
 30
0.0
 11
-0.3541172387
 21
3.5863119911
 31
0.0
 40
0.2516551382
 41
1.4442558639
 42
1.4493654161
  0
ELLIPSE
  5
2EB
100
AcDbEntity
  8
0
100
AcDbEllipse
 62
7
  6
CONTINUOUS
 10
5.869976921
 20
5.4735838234
 30
0.0
 11
0.354117232
 21
3.5863124941
 31
0.0
 40
0.2516551037
 41
-4.5909580771
 42
-4.5858485249
  0
ELLIPSE
  5
2EC
100
AcDbEntity
  8
0
100
AcDbEllipse
 62
7
  6
CONTINUOUS
 10
5.869976921
 20
5.2314114388
 30
0.0
 11
0.7093075179
 21
0.9587317148
 31
0.0
 40
0.6893673822
 41
-4.1543810131
 42
-4.1441693573
  0
ELLIPSE
  5
2ED
100
AcDbEntity
  8
0
100
AcDbEllipse
 62
7
  6
CONTINUOUS
 10
5.869976921
 20
5.1009949403
 30
0.0
 11
0.7093079262
 21
0.9587309413
 31
0.0
 40
0.6893674814
 41
-4.2790663028
 42
-4.2688917277
  0
ELLIPSE
  5
2EE
100
AcDbEntity
  8
0
100
AcDbEllipse
 62
7
  6
CONTINUOUS
 10
5.869976921
 20
5.1501929192
 30
0.0
 11
0.9690592834
 21
0.1062436996
 31
0.0
 40
0.2751161207
 41
2.7138845034
 42
2.7266070117
  0
ELLIPSE
  5
2EF
100
AcDbEntity
  8
0
100
AcDbEllipse
 62
7
  6
CONTINUOUS
 10
5.869976921
 20
5.1823915826
 30
0.0
 11
0.9690592856
 21
-0.1062435584
 31
0.0
 40
0.2751158134
 41
-2.6986070031
 42
-2.6858644385
  0
ELLIPSE
  5
2F0
100
AcDbEntity
  8
0
100
AcDbEllipse
 62
7
  6
CONTINUOUS
 10
5.869976921
 20
5.0363748802
 30
0.0
 11
0.9690592854
 21
0.1062435692
 31
0.0
 40
0.2751158369
 41
2.6858644329
 42
2.6986069975
  0
ELLIPSE
  5
2F1
100
AcDbEntity
  8
0
100
AcDbEllipse
 62
7
  6
CONTINUOUS
 10
5.869976921
 20
5.0685735465
 30
0.0
 11
0.9690592833
 21
-0.1062437105
 31
0.0
 40
0.2751161442
 41
-2.726607006
 42
-2.7138844977
  0
ELLIPSE
  5
2F2
100
AcDbEntity
  8
0
100
AcDbEllipse
 62
7
  6
CONTINUOUS
 10
5.869976921
 20
5.0890985851
 30
0.0
 11
-0.8713241055
 21
0.6194176174
 31
0.0
 40
0.6863174268
 41
0.8260345095
 42
0.8387512283
  0
ELLIPSE
  5
2F3
100
AcDbEntity
  8
0
100
AcDbEllipse
 62
7
  6
CONTINUOUS
 10
5.869976921
 20
5.1281040889
 30
0.0
 11
-0.367847825
 21
2.8676305881
 31
0.0
 40
0.3128035903
 41
1.5410292945
 42
1.5461141727
  0
ELLIPSE
  5
2F4
100
AcDbEntity
  8
0
100
AcDbEllipse
 62
7
  6
CONTINUOUS
 10
5.869976921
 20
5.171880079
 30
0.0
 11
-0.3678480496
 21
2.867622355
 31
0.0
 40
0.3128044563
 41
1.556285014
 42
1.5613714981
  0
ELLIPSE
  5
2F5
100
AcDbEntity
  8
0
100
AcDbEllipse
 62
7
  6
CONTINUOUS
 10
5.869976921
 20
5.1131914968
 30
0.0
 11
-0.8042255874
 21
0.7734501439
 31
0.0
 40
0.7000252448
 41
0.9722826009
 42
0.9799138428
  0
ELLIPSE
  5
2F6
100
AcDbEntity
  8
0
100
AcDbEllipse
 62
7
  6
CONTINUOUS
 10
5.869976921
 20
5.0902912625
 30
0.0
 11
0.9683361372
 21
-0.1390629144
 31
0.0
 40
0.3415058114
 41
-2.7052120566
 42
-2.6950335265
  0
ELLIPSE
  5
2F7
100
AcDbEntity
  8
0
100
AcDbEllipse
 62
7
  6
CONTINUOUS
 10
5.869976921
 20
5.0500429167
 30
0.0
 11
0.9683361446
 21
0.139062664
 31
0.0
 40
0.3415053426
 41
2.6695629887
 42
2.6797561081
  0
ELLIPSE
  5
2F8
100
AcDbEntity
  8
0
100
AcDbEllipse
 62
7
  6
CONTINUOUS
 10
5.869976921
 20
5.0058625761
 30
0.0
 11
0.8042255874
 21
0.7734501439
 31
0.0
 40
0.7000252448
 41
-4.164805553
 42
-4.15715572
  0
ELLIPSE
  5
2F9
100
AcDbEntity
  8
0
100
AcDbEllipse
 62
7
  6
CONTINUOUS
 10
5.869976921
 20
4.9083816759
 30
0.0
 11
0.4003291789
 21
2.146142711
 31
0.0
 40
0.4114299686
 41
1.5606800957
 42
1.5657826121
  0
ELLIPSE
  5
2FA
100
AcDbEntity
  8
0
100
AcDbEllipse
 62
7
  6
CONTINUOUS
 10
5.869976921
 20
5.3103847501
 30
0.0
 11
-0.4003292157
 21
2.1461422031
 31
0.0
 40
0.4114300582
 41
-4.7073753074
 42
-4.7022727909
  0
ELLIPSE
  5
2FB
100
AcDbEntity
  8
0
100
AcDbEllipse
 62
7
  6
CONTINUOUS
 10
5.869976921
 20
5.2129038909
 30
0.0
 11
-0.8042255874
 21
0.7734501439
 31
0.0
 40
0.7000252448
 41
1.0155630664
 42
1.0232128994
  0
ELLIPSE
  5
2FC
100
AcDbEntity
  8
0
100
AcDbEllipse
 62
7
  6
CONTINUOUS
 10
5.869976921
 20
5.1687235503
 30
0.0
 11
0.9683361446
 21
-0.139062664
 31
0.0
 40
0.3415053426
 41
-2.6797561081
 42
-2.6695629887
  0
ELLIPSE
  5
2FD
100
AcDbEntity
  8
0
100
AcDbEllipse
 62
7
  6
CONTINUOUS
 10
5.869976921
 20
5.1284752045
 30
0.0
 11
0.9683361372
 21
0.1390629144
 31
0.0
 40
0.3415058114
 41
2.6950335265
 42
2.7052120566
  0
ELLIPSE
  5
2FE
100
AcDbEntity
  8
0
100
AcDbEllipse
 62
7
  6
CONTINUOUS
 10
5.869976921
 20
5.1082241156
 30
0.0
 11
0.9261183632
 21
0.4490223105
 31
0.0
 40
0.6386464466
 41
-0.6183052266
 42
-0.6035566623
  0
ELLIPSE
  5
2FF
100
AcDbEntity
  8
0
100
AcDbEllipse
 62
7
  6
CONTINUOUS
 10
5.869976921
 20
5.135451247
 30
0.0
 11
0.9565963575
 21
0.2912588706
 31
0.0
 40
0.541272552
 41
-0.4887317412
 42
-0.4702995801
  0
ELLIPSE
  5
300
100
AcDbEntity
  8
0
100
AcDbEllipse
 62
7
  6
CONTINUOUS
 10
5.869976921
 20
5.1521207169
 30
0.0
 11
0.9694070459
 21
0.0702989135
 31
0.0
 40
0.1909695906
 41
-0.3208119948
 42
-0.3023654873
  0
ELLIPSE
  5
301
100
AcDbEntity
  8
0
100
AcDbEllipse
 62
7
  6
CONTINUOUS
 10
5.869976921
 20
5.1804638195
 30
0.0
 11
0.9694070454
 21
-0.070299
 31
0.0
 40
0.1909698069
 41
0.2617015324
 42
0.2802019031
  0
ELLIPSE
  5
302
100
AcDbEntity
  8
0
100
AcDbEllipse
 62
7
  6
CONTINUOUS
 10
5.869976921
 20
5.2204805832
 30
0.0
 11
0.9565963575
 21
-0.2912588706
 31
0.0
 40
0.541272552
 41
0.3926538838
 42
0.411189085
  0
ELLIPSE
  5
303
100
AcDbEntity
  8
0
100
AcDbEllipse
 62
7
  6
CONTINUOUS
 10
5.869976921
 20
4.9115458096
 30
0.0
 11
0.5600268144
 21
1.2734706421
 31
0.0
 40
0.6214444929
 41
-1.1842741772
 42
-1.1731335909
  0
ELLIPSE
  5
304
100
AcDbEntity
  8
0
100
AcDbEllipse
 62
7
  6
CONTINUOUS
 10
5.869976921
 20
4.9982858763
 30
0.0
 11
0.9565963516
 21
0.2912589154
 31
0.0
 40
0.5412725914
 41
-0.4111891223
 42
-0.3926539211
  0
ELLIPSE
  5
305
100
AcDbEntity
  8
0
100
AcDbEllipse
 62
7
  6
CONTINUOUS
 10
5.869976921
 20
5.0383026435
 30
0.0
 11
0.9694070454
 21
0.0702990066
 31
0.0
 40
0.1909698234
 41
-0.2802019056
 42
-0.2617015349
  0
ELLIPSE
  5
306
100
AcDbEntity
  8
0
100
AcDbEllipse
 62
7
  6
CONTINUOUS
 10
5.869976921
 20
5.0666457485
 30
0.0
 11
0.9694070458
 21
-0.0702989201
 31
0.0
 40
0.1909696071
 41
0.3023654898
 42
0.3208119973
  0
ELLIPSE
  5
307
100
AcDbEntity
  8
0
100
AcDbEllipse
 62
7
  6
CONTINUOUS
 10
5.869976921
 20
5.1004998346
 30
0.0
 11
-0.5600268144
 21
1.2734706421
 31
0.0
 40
0.6214444929
 41
-1.8612406191
 42
-1.8501855787
  0
ELLIPSE
  5
308
100
AcDbEntity
  8
0
100
AcDbEllipse
 62
7
  6
CONTINUOUS
 10
5.869976921
 20
5.1088261775
 30
0.0
 11
-0.414991546
 21
1.9716482775
 31
0.0
 40
0.4443956471
 41
-1.6766755349
 42
-1.6693064443
  0
ELLIPSE
  5
309
100
AcDbEntity
  8
0
100
AcDbEllipse
 62
7
  6
CONTINUOUS
 10
5.869976921
 20
5.1526023359
 30
0.0
 11
-0.414991546
 21
1.9716482775
 31
0.0
 40
0.4443956471
 41
-1.6987885097
 42
-1.6914161614
  0
ELLIPSE
  5
30A
100
AcDbEntity
  8
0
100
AcDbEllipse
 62
7
  6
CONTINUOUS
 10
5.869976921
 20
5.1067655386
 30
0.0
 11
0.9468855627
 21
-0.3536864557
 31
0.0
 40
0.588594106
 41
0.5196885314
 42
0.5307507159
  0
ELLIPSE
  5
30B
100
AcDbEntity
  8
0
100
AcDbEllipse
 62
7
  6
CONTINUOUS
 10
5.869976921
 20
5.0878815096
 30
0.0
 11
0.9692645818
 21
-0.0897659728
 31
0.0
 40
0.2379966242
 41
0.3105556307
 42
0.3253141803
  0
ELLIPSE
  5
30C
100
AcDbEntity
  8
0
100
AcDbEllipse
 62
7
  6
CONTINUOUS
 10
5.869976921
 20
5.0524526154
 30
0.0
 11
0.9692645804
 21
0.0897661165
 31
0.0
 40
0.2379969588
 41
-0.2883920801
 42
-0.2735943692
  0
ELLIPSE
  5
30D
100
AcDbEntity
  8
0
100
AcDbEllipse
 62
7
  6
CONTINUOUS
 10
5.869976921
 20
5.0122885343
 30
0.0
 11
0.9468855627
 21
0.3536864557
 31
0.0
 40
0.588594106
 41
-0.4679686539
 42
-0.4568564648
  0
ELLIPSE
  5
30E
100
AcDbEntity
  8
0
100
AcDbEllipse
 62
7
  6
CONTINUOUS
 10
5.869976921
 20
4.9228405598
 30
0.0
 11
0.5002635981
 21
1.4575821287
 31
0.0
 40
0.5697529161
 41
-1.269063972
 42
-1.2616484294
  0
ELLIPSE
  5
30F
100
AcDbEntity
  8
0
100
AcDbEllipse
 62
7
  6
CONTINUOUS
 10
5.869976921
 20
4.7508880571
 30
0.0
 11
0.3652517101
 21
2.9683376859
 31
0.0
 40
0.3025482548
 41
-1.4175480146
 42
-1.4138378854
  0
ELLIPSE
  5
310
100
AcDbEntity
  8
0
100
AcDbEllipse
 62
7
  6
CONTINUOUS
 10
5.869976921
 20
5.467878573
 30
0.0
 11
-0.3652516763
 21
2.968339076
 31
0.0
 40
0.3025481177
 41
-1.7277547305
 42
-1.7240446013
  0
ELLIPSE
  5
311
100
AcDbEntity
  8
0
100
AcDbEllipse
 62
7
  6
CONTINUOUS
 10
5.869976921
 20
5.2959258696
 30
0.0
 11
-0.5002636985
 21
1.457581754
 31
0.0
 40
0.569753021
 41
-1.8799443451
 42
-1.8725288025
  0
ELLIPSE
  5
312
100
AcDbEntity
  8
0
100
AcDbEllipse
 62
7
  6
CONTINUOUS
 10
5.869976921
 20
5.2064779327
 30
0.0
 11
0.9468855627
 21
-0.3536864557
 31
0.0
 40
0.588594106
 41
0.4568564648
 42
0.4679686539
  0
ELLIPSE
  5
313
100
AcDbEntity
  8
0
100
AcDbEllipse
 62
7
  6
CONTINUOUS
 10
5.869976921
 20
5.1663138516
 30
0.0
 11
0.9692645804
 21
-0.0897661165
 31
0.0
 40
0.2379969588
 41
0.2735943692
 42
0.2883920801
  0
ELLIPSE
  5
314
100
AcDbEntity
  8
0
100
AcDbEllipse
 62
7
  6
CONTINUOUS
 10
5.869976921
 20
5.1308849574
 30
0.0
 11
0.9692645818
 21
0.0897659728
 31
0.0
 40
0.2379966242
 41
-0.3253141803
 42
-0.3105556307
  0
ELLIPSE
  5
315
100
AcDbEntity
  8
0
100
AcDbEllipse
 62
7
  6
CONTINUOUS
 10
5.869976921
 20
5.3647651906
 30
0.0
 11
0.6486801538
 21
1.0636132001
 31
0.0
 40
0.6711698637
 41
-1.3256157268
 42
-1.3032004624
  0
ELLIPSE
  5
316
100
AcDbEntity
  8
0
100
AcDbEllipse
 62
6
  6
CONTINUOUS
 10
5.869976921
 20
5.3355811317
 30
0.0
 11
0.6519973776
 21
1.0690534399
 31
0.0
 40
0.6711697407
 41
-1.3248817727
 42
-1.3025825674
  0
ELLIPSE
  5
317
100
AcDbEntity
  8
0
100
AcDbEllipse
 62
7
  6
CONTINUOUS
 10
5.869976921
 20
5.3355811317
 30
0.0
 11
0.6486798435
 21
1.063613815
 31
0.0
 40
0.6711697407
 41
-1.3256161613
 42
-1.3152367453
  0
ELLIPSE
  5
318
100
AcDbEntity
  8
0
100
AcDbEllipse
 62
7
  6
CONTINUOUS
 10
5.869976921
 20
5.27964484
 30
0.0
 11
0.6486803386
 21
1.0636128338
 31
0.0
 40
0.6711699369
 41
-1.2511147927
 42
-1.2288578778
  0
ELLIPSE
  5
319
100
AcDbEntity
  8
0
100
AcDbEllipse
 62
6
  6
CONTINUOUS
 10
5.869976921
 20
5.2504607469
 30
0.0
 11
0.6519975633
 21
1.0690530718
 31
0.0
 40
0.671169814
 41
-1.2507643659
 42
-1.2286210799
  0
ELLIPSE
  5
31A
100
AcDbEntity
  8
0
100
AcDbEllipse
 62
7
  6
CONTINUOUS
 10
5.869976921
 20
5.2504607469
 30
0.0
 11
0.6486800283
 21
1.0636134487
 31
0.0
 40
0.671169814
 41
-1.2511152273
 42
-1.2390715504
  0
ELLIPSE
  5
31B
100
AcDbEntity
  8
0
100
AcDbEllipse
 62
7
  6
CONTINUOUS
 10
5.869976921
 20
5.08331522
 30
0.0
 11
0.9517289379
 21
-0.2897769135
 31
0.0
 40
0.5412725914
 41
0.4700841696
 42
0.4886107035
  0
ELLIPSE
  5
31C
100
AcDbEntity
  8
0
100
AcDbEllipse
 62
6
  6
CONTINUOUS
 10
5.869976921
 20
4.7607827538
 30
0.0
 11
0.3817367379
 21
2.4714842758
 31
0.0
 40
0.3605861895
 41
-1.3842710587
 42
-1.3768349866
  0
ELLIPSE
  5
31D
100
AcDbEntity
  8
0
100
AcDbEllipse
 62
7
  6
CONTINUOUS
 10
5.869976921
 20
4.7607827538
 30
0.0
 11
0.379794361
 21
2.4589087141
 31
0.0
 40
0.3605861895
 41
-1.3822584896
 42
-1.3761229764
  0
ELLIPSE
  5
31E
100
AcDbEntity
  8
0
100
AcDbEllipse
 62
6
  6
CONTINUOUS
 10
5.869976921
 20
5.4579837584
 30
0.0
 11
-0.3817367223
 21
2.4714846244
 31
0.0
 40
0.3605861413
 41
-1.7647576494
 42
-1.7573215773
  0
ELLIPSE
  5
31F
100
AcDbEntity
  8
0
100
AcDbEllipse
 62
7
  6
CONTINUOUS
 10
5.869976921
 20
5.4579837584
 30
0.0
 11
-0.3797943455
 21
2.4589090609
 31
0.0
 40
0.3605861413
 41
4.5177156475
 42
4.5238511619
  0
ELLIPSE
  5
320
100
AcDbEntity
  8
0
100
AcDbEllipse
 62
6
  6
CONTINUOUS
 10
5.869976921
 20
5.3072206423
 30
0.0
 11
-0.5600268661
 21
1.2734705078
 31
0.0
 40
0.6214445296
 41
-1.968459128
 42
-1.9573185418
  0
ELLIPSE
  5
321
100
AcDbEntity
  8
0
100
AcDbEllipse
 62
7
  6
CONTINUOUS
 10
5.869976921
 20
5.0888101361
 30
0.0
 11
0.8668905794
 21
0.6162658577
 31
0.0
 40
0.6863174268
 41
-3.9217468707
 42
-3.9089651839
  0
ELLIPSE
  5
322
100
AcDbEntity
  8
0
100
AcDbEllipse
 62
7
  6
CONTINUOUS
 10
5.869976921
 20
5.1897837899
 30
0.0
 11
-0.8668909213
 21
0.6162649701
 31
0.0
 40
0.686317278
 41
0.7648147469
 42
0.777597438
  0
ELLIPSE
  5
323
100
AcDbEntity
  8
0
100
AcDbEllipse
 62
6
  6
CONTINUOUS
 10
5.869976921
 20
5.4967933131
 30
0.0
 11
-0.3469850391
 21
4.3042775318
 31
0.0
 40
0.210320979
 41
-4.6426302942
 42
-4.6400781881
  0
ELLIPSE
  5
324
100
AcDbEntity
  8
0
100
AcDbEllipse
 62
6
  6
CONTINUOUS
 10
5.869976921
 20
4.7219733306
 30
0.0
 11
0.346985054
 21
4.3042755209
 31
0.0
 40
0.2103210759
 41
1.498485551
 42
1.5010376571
  0
ELLIPSE
  5
325
100
AcDbEntity
  8
0
100
AcDbEllipse
 62
6
  6
CONTINUOUS
 10
5.869976921
 20
5.1133517102
 30
0.0
 11
-0.4220345965
 21
1.9034763023
 31
0.0
 40
0.4585406789
 41
1.4848993014
 42
1.4925274221
  0
ELLIPSE
  5
326
100
AcDbEntity
  8
0
100
AcDbEllipse
 62
7
  6
CONTINUOUS
 10
5.869976921
 20
4.9925025111
 30
0.0
 11
0.8668905794
 21
0.6162658577
 31
0.0
 40
0.6863174268
 41
-4.0342992866
 42
-4.0214785888
  0
ELLIPSE
  5
327
100
AcDbEntity
  8
0
100
AcDbEllipse
 62
7
  6
CONTINUOUS
 10
5.869976921
 20
4.8986938919
 30
0.0
 11
0.4198869703
 21
1.8937927656
 31
0.0
 40
0.4585402825
 41
-4.7084918227
 42
-4.7007924332
  0
ELLIPSE
  5
328
100
AcDbEntity
  8
0
100
AcDbEllipse
 62
7
  6
CONTINUOUS
 10
5.869976921
 20
4.7366844597
 30
0.0
 11
0.3523153507
 21
3.5680674066
 31
0.0
 40
0.2516548955
 41
1.4930826931
 42
1.4982188066
  0
ELLIPSE
  5
329
100
AcDbEntity
  8
0
100
AcDbEllipse
 62
7
  6
CONTINUOUS
 10
5.869976921
 20
5.4820820559
 30
0.0
 11
-0.3523153441
 21
3.5680679071
 31
0.0
 40
0.251654861
 41
-4.6398114528
 42
-4.6346753393
  0
ELLIPSE
  5
32A
100
AcDbEntity
  8
0
100
AcDbEllipse
 62
7
  6
CONTINUOUS
 10
5.869976921
 20
5.3200725589
 30
0.0
 11
-0.419886989
 21
1.8937925956
 31
0.0
 40
0.4585403189
 41
1.5591997581
 42
1.5668991476
  0
ELLIPSE
  5
32B
100
AcDbEntity
  8
0
100
AcDbEllipse
 62
7
  6
CONTINUOUS
 10
5.869976921
 20
5.2262639479
 30
0.0
 11
-0.8668906248
 21
0.6162657399
 31
0.0
 40
0.6863174071
 41
0.879885828
 42
0.8927065257
  0
ELLIPSE
  5
32C
100
AcDbEntity
  8
0
100
AcDbEllipse
 62
6
  6
CONTINUOUS
 10
5.869976921
 20
5.1296678823
 30
0.0
 11
0.8713241511
 21
0.619417499
 31
0.0
 40
0.6863174071
 41
-3.9803437747
 42
-3.9676270558
  0
ELLIPSE
  5
32D
100
AcDbEntity
  8
0
100
AcDbEllipse
 62
6
  6
CONTINUOUS
 10
5.869976921
 20
5.08331522
 30
0.0
 11
0.9565963516
 21
-0.2912589154
 31
0.0
 40
0.5412725914
 41
0.4702996175
 42
0.4887317785
  0
ELLIPSE
  5
32E
100
AcDbEntity
  8
0
100
AcDbEllipse
 62
6
  6
CONTINUOUS
 10
5.869976921
 20
5.3647651906
 30
0.0
 11
0.6519976894
 21
1.0690528219
 31
0.0
 40
0.6711698637
 41
-1.3248813381
 42
-1.3025821329
  0
ELLIPSE
  5
32F
100
AcDbEntity
  8
0
100
AcDbEllipse
 62
6
  6
CONTINUOUS
 10
5.869976921
 20
4.9925025111
 30
0.0
 11
0.8713241055
 21
0.6194176174
 31
0.0
 40
0.6863174268
 41
-4.0338415392
 42
-4.0210865289
  0
ELLIPSE
  5
330
100
AcDbEntity
  8
0
100
AcDbEllipse
 62
6
  6
CONTINUOUS
 10
5.869976921
 20
4.8986938919
 30
0.0
 11
0.4220343922
 21
1.9034781629
 31
0.0
 40
0.4585402825
 41
-4.7079945563
 42
-4.7003346858
  0
ELLIPSE
  5
331
100
AcDbEntity
  8
0
100
AcDbEllipse
 62
6
  6
CONTINUOUS
 10
5.869976921
 20
4.7366844597
 30
0.0
 11
0.354117192
 21
3.5863155228
 31
0.0
 40
0.2516548955
 41
1.4936063544
 42
1.498716073
  0
ELLIPSE
  5
332
100
AcDbEntity
  8
0
100
AcDbEllipse
 62
6
  6
CONTINUOUS
 10
5.869976921
 20
5.4820820559
 30
0.0
 11
-0.3541171854
 21
3.5863160258
 31
0.0
 40
0.251654861
 41
-4.6403087193
 42
-4.6351990007
  0
ELLIPSE
  5
333
100
AcDbEntity
  8
0
100
AcDbEllipse
 62
6
  6
CONTINUOUS
 10
5.869976921
 20
5.3200725589
 30
0.0
 11
-0.422034411
 21
1.9034779921
 31
0.0
 40
0.4585403189
 41
1.5587420108
 42
1.5664018812
  0
ELLIPSE
  5
334
100
AcDbEntity
  8
0
100
AcDbEllipse
 62
6
  6
CONTINUOUS
 10
5.869976921
 20
5.2262639479
 30
0.0
 11
-0.8713241511
 21
0.619417499
 31
0.0
 40
0.6863174071
 41
0.879493768
 42
0.8922487784
  0
ELLIPSE
  5
335
100
AcDbEntity
  8
0
100
AcDbEllipse
 62
6
  6
CONTINUOUS
 10
5.869976921
 20
5.0888101361
 30
0.0
 11
0.8713241055
 21
0.6194176174
 31
0.0
 40
0.6863174268
 41
-3.9218630593
 42
-3.9091464651
  0
ELLIPSE
  5
336
100
AcDbEntity
  8
0
100
AcDbEllipse
 62
6
  6
CONTINUOUS
 10
5.869976921
 20
5.1897837899
 30
0.0
 11
-0.8713244492
 21
0.6194167252
 31
0.0
 40
0.686317278
 41
0.7650090563
 42
0.7777266395
  0
ELLIPSE
  5
337
100
AcDbEntity
  8
0
100
AcDbEllipse
 62
6
  6
CONTINUOUS
 10
5.869976921
 20
5.27964484
 30
0.0
 11
0.6519978752
 21
1.0690524538
 31
0.0
 40
0.6711699369
 41
-1.2507639313
 42
-1.2286206453
  0
ENDSEC
  0
SECTION
  2
OBJECTS
  0
DICTIONARY
  5
C
100
AcDbDictionary
280
0
281
1
  3
ACAD_GROUP
350
D
  3
ACAD_MLINESTYLE
350
17
  3
ACAD_LAYOUT
350
1A
  3
ACAD_PLOTSETTINGS
350
19
  3
ACAD_PLOTSTYLENAME
350
E
  0
DICTIONARY
  5
D
102
{ACAD_REACTORS
330
C
102
}
100
AcDbDictionary
280
0
281
1
  0
ACDBDICTIONARYWDFLT
  5
E
102
{ACAD_REACTORS
330
C
102
}
100
AcDbDictionary
281
1
  3
Normal
350
F
100
AcDbDictionaryWithDefault
340
F
  0
DICTIONARY
  5
17
102
{ACAD_REACTORS
330
C
102
}
100
AcDbDictionary
280
0
281
1
  3
Standard
350
18
  0
DICTIONARY
  5
19
102
{ACAD_REACTORS
330
C
102
}
100
AcDbDictionary
281
1
  0
DICTIONARY
  5
1A
102
{ACAD_REACTORS
330
C
102
}
100
AcDbDictionary
281
1
  3
Model
350
338
  3
Layout1
350
339
  0
ACDBPLACEHOLDER
  5
F
102
{ACAD_REACTORS
330
E
102
}
  0
MLINESTYLE
  5
18
102
{ACAD_REACTORS
330
17
102
}
100
AcDbMlineStyle
  2
STANDARD
 70
0
  3

 62
256
 51
90.0
 52
90.0
 71
2
 49
0.5
 62
256
  6
BYLAYER
 49
-0.5
 62
256
  6
BYLAYER
  0
LAYOUT
  5
338
102
{ACAD_REACTORS
330
1A
102
}
100
AcDbPlotSettings
  1

  2
none_device
  4
ISO_A4_(297.00_x_210.00_MM)
  6

 40
0.0
 41
0.0
 42
0.0
 43
0.0
 44
297.0
 45
210.0
 46
0.0
 47
0.0
 48
0.0
 49
0.0
140
0.0
141
0.0
142
1.0
143
1.0
 70
1024
 72
0
 73
0
 74
0
  7

 75
0
147
1.0
148
0.0
149
0.0
100
AcDbLayout
  1
Model
 70
0
 71
0
 10
0.0
 20
0.0
 11
11.6929133858
 21
8.2677165354
 12
0.0
 22
0.0
 32
0.0
 14
0.0
 24
0.0
 34
0.0
 15
0.0
 25
0.0
 35
0.0
146
0.0
 13
0.0
 23
0.0
 33
0.0
 16
1.0
 26
0.0
 36
0.0
 17
0.0
 27
1.0
 37
0.0
 76
0
330
203
345
0
346
0
  0
LAYOUT
  5
339
102
{ACAD_REACTORS
330
1A
102
}
100
AcDbPlotSettings
  1

  2
none_device
  4
ISO_A4_(297.00_x_210.00_MM)
  6

 40
0.0
 41
0.0
 42
0.0
 43
0.0
 44
297.0
 45
210.0
 46
0.0
 47
0.0
 48
0.0
 49
0.0
140
0.0
141
0.0
142
1.0
143
1.0
 70
0
 72
0
 73
0
 74
0
  7

 75
0
147
1.0
148
0.0
149
0.0
100
AcDbLayout
  1
Layout1
 70
0
 71
1
 10
0.0
 20
0.0
 11
11.6929133858
 21
8.2677165354
 12
0.0
 22
0.0
 32
0.0
 14
0.0
 24
0.0
 34
0.0
 15
0.0
 25
0.0
 35
0.0
146
0.0
 13
0.0
 23
0.0
 33
0.0
 16
1.0
 26
0.0
 36
0.0
 17
0.0
 27
1.0
 37
0.0
 76
0
330
204
345
0
346
0
  0
ENDSEC
  0
EOF
