999
DXF file: 3-905_front.dxf
999
Pro/ENGINEER 2013150 by Parametric Technology Corporation
  0
SECTION
  2
HEADER
  9
$ACADVER
  1
AC1021
  9
$DWGCODEPAGE
  3
ANSI_1252
  9
$EXTMAX
 10
11.0
 20
8.5
 30
0.0
  9
$EXTMIN
 10
0.0
 20
0.0
 30
0.0
  9
$LIMMIN
 10
0.0
 20
0.0
  9
$LIMMAX
 10
11.0
 20
8.5
  9
$VIEWCTR
 10
5.5
 20
4.25
  9
$VIEWSIZE
 40
8.5
  9
$CLAYER
  8
0
  9
$LTSCALE
 40
0.605
  9
$CELTYPE
  6
BYLAYER
  9
$DIMSCALE
 40
1.0
  9
$DIMASZ
 40
0.1
  9
$DIMEXO
 40
0.0625
  9
$DIMDLI
 40
0.418
  9
$DIMEXE
 40
0.125
  9
$DIMCEN
 40
0.099
  9
$DIMLFAC
 40
1.0
  9
$DIMBLK
  1
_FILLED
  9
$DIMTXT
 40
0.08
  9
$DIMTOL
 70
1
  9
$DIMLIM
 70
0
  9
$DIMTFAC
 40
1.0
  9
$DIMTP
 40
0.001
  9
$DIMTM
 40
0.001
  9
$DIMGAP
 40
0.09
  9
$DIMDSEP
 70
46
  9
$PDMODE
 70
3
  9
$PDSIZE
 40
0.06
  9
$HANDSEED
  5
349
  9
$TILEMODE
 70
1
  9
$MEASUREMENT
 70
0
  9
$INSUNITS
 70
1
  0
ENDSEC
  0
SECTION
  2
CLASSES
  0
CLASS
  1
ACDBDICTIONARYWDFLT
  2
AcDbDictionaryWithDefault
  3
AutoCAD 2000
 90
0
 91
1
280
0
281
0
  0
CLASS
  1
ACDBPLACEHOLDER
  2
AcDbPlaceHolder
  3
AutoCAD 2000
 90
0
 91
1
280
0
281
0
  0
CLASS
  1
LAYOUT
  2
AcDbLayout
  3
AutoCAD 2000
 90
0
 91
0
280
0
281
0
  0
ENDSEC
  0
SECTION
  2
TABLES
  0
TABLE
  2
VPORT
  5
8
100
AcDbSymbolTable
 70
2
  0
VPORT
  5
1F4
100
AcDbSymbolTableRecord
100
AcDbViewportTableRecord
  2
*ACTIVE
 70
0
 10
0.0
 20
0.0
 11
1.0
 21
1.0
 12
5.5
 22
4.25
 13
0.0
 23
0.0
 14
1.0
 24
1.0
 15
0.0
 25
0.0
 16
0.0
 26
0.0
 36
1.0
 17
0.0
 27
0.0
 37
0.0
 40
8.5
 41
1.2941176471
 42
50.0
 43
0.0
 44
0.0
 50
0.0
 51
0.0
 71
0
 72
100
 73
1
 74
1
 75
0
 76
0
 77
0
 78
0
  0
ENDTAB
  0
TABLE
  2
LTYPE
  5
5
100
AcDbSymbolTable
 70
6
  0
LTYPE
  5
14
100
AcDbSymbolTableRecord
100
AcDbLinetypeTableRecord
  2
BYBLOCK
 70
0
  3

 72
65
 73
0
 40
0.0
  0
LTYPE
  5
15
100
AcDbSymbolTableRecord
100
AcDbLinetypeTableRecord
  2
BYLAYER
 70
0
  3

 72
65
 73
0
 40
0.0
  0
LTYPE
  5
16
100
AcDbSymbolTableRecord
100
AcDbLinetypeTableRecord
  2
CONTINUOUS
 70
64
  3
Solid line
 72
65
 73
0
 40
0.0
  0
LTYPE
  5
1F5
100
AcDbSymbolTableRecord
100
AcDbLinetypeTableRecord
  2
CENTER
 70
64
  3
____ _ ____ _ ____ _ ____ _ ____ _ ____ _ ____
 72
65
 73
4
 40
0.6
 49
0.375
 74
0
 49
-0.075
 74
0
 49
0.075
 74
0
 49
-0.075
 74
0
  0
LTYPE
  5
1F6
100
AcDbSymbolTableRecord
100
AcDbLinetypeTableRecord
  2
HIDDEN
 70
64
  3
- - - - - - - - - - - - - - - - - - - -
 72
65
 73
2
 40
0.2
 49
0.1
 74
0
 49
-0.1
 74
0
  0
LTYPE
  5
1F7
100
AcDbSymbolTableRecord
100
AcDbLinetypeTableRecord
  2
PHANTOM
 70
64
  3
_____ _ _ _____ _ _ _____ _ _ _____
 72
65
 73
6
 40
0.8
 49
0.45
 74
0
 49
-0.05
 74
0
 49
0.1
 74
0
 49
-0.05
 74
0
 49
0.1
 74
0
 49
-0.05
 74
0
  0
LTYPE
  5
1F8
100
AcDbSymbolTableRecord
100
AcDbLinetypeTableRecord
  2
DOT
 70
64
  3
. . . . . . . . . . . . . . . . . . . .
 72
65
 73
2
 40
0.2
 49
0.1
 74
0
 49
-0.1
 74
0
  0
LTYPE
  5
1F9
100
AcDbSymbolTableRecord
100
AcDbLinetypeTableRecord
  2
DASHED
 70
64
  3
- - - - - - - - - - - - - - - - - - - -
 72
65
 73
2
 40
0.2
 49
0.1
 74
0
 49
-0.1
 74
0
  0
ENDTAB
  0
TABLE
  2
LAYER
  5
2
100
AcDbSymbolTable
 70
36
  0
LAYER
  5
10
100
AcDbSymbolTableRecord
100
AcDbLayerTableRecord
  2
0
 70
0
 62
7
  6
CONTINUOUS
370
-3
390
F
  0
LAYER
  5
1FA
100
AcDbSymbolTableRecord
100
AcDbLayerTableRecord
  2
DEFAULT_1
 70
0
 62
7
  6
CENTER
370
-3
390
F
  0
LAYER
  5
1FB
100
AcDbSymbolTableRecord
100
AcDbLayerTableRecord
  2
DEFAULT_2
 70
0
 62
8
  6
HIDDEN
370
-3
390
F
  0
LAYER
  5
1FC
100
AcDbSymbolTableRecord
100
AcDbLayerTableRecord
  2
DEFAULT_3
 70
0
 62
7
  6
PHANTOM
370
-3
390
F
  0
LAYER
  5
1FD
100
AcDbSymbolTableRecord
100
AcDbLayerTableRecord
  2
2-103H_ASSY_DATUMS
 70
0
 62
7
  6
CONTINUOUS
370
-3
390
F
  0
LAYER
  5
1FE
100
AcDbSymbolTableRecord
100
AcDbLayerTableRecord
  2
2-103_ASSY_DATUMS
 70
0
 62
7
  6
CONTINUOUS
370
-3
390
F
  0
LAYER
  5
1FF
100
AcDbSymbolTableRecord
100
AcDbLayerTableRecord
  2
3-187C_ASSY_PLANES
 70
0
 62
7
  6
CONTINUOUS
370
-3
390
F
  0
LAYER
  5
200
100
AcDbSymbolTableRecord
100
AcDbLayerTableRecord
  2
3-187H_ASSY_PLANES
 70
0
 62
7
  6
CONTINUOUS
370
-3
390
F
  0
LAYER
  5
201
100
AcDbSymbolTableRecord
100
AcDbLayerTableRecord
  2
3-905_ASSY_PLANES
 70
0
 62
7
  6
CONTINUOUS
370
-3
390
F
  0
LAYER
  5
202
100
AcDbSymbolTableRecord
100
AcDbLayerTableRecord
  2
ADATUM
 70
0
 62
7
  6
CONTINUOUS
370
-3
390
F
  0
LAYER
  5
203
100
AcDbSymbolTableRecord
100
AcDbLayerTableRecord
  2
ALL_ASSEMBLY_MEMBERS
 70
0
 62
7
  6
CONTINUOUS
370
-3
390
F
  0
LAYER
  5
204
100
AcDbSymbolTableRecord
100
AcDbLayerTableRecord
  2
ALL_FEATURES
 70
0
 62
7
  6
CONTINUOUS
370
-3
390
F
  0
LAYER
  5
205
100
AcDbSymbolTableRecord
100
AcDbLayerTableRecord
  2
AXES_FEATURES
 70
0
 62
7
  6
CONTINUOUS
370
-3
390
F
  0
LAYER
  5
206
100
AcDbSymbolTableRecord
100
AcDbLayerTableRecord
  2
BLANK_ME
 70
0
 62
7
  6
CONTINUOUS
370
-3
390
F
  0
LAYER
  5
207
100
AcDbSymbolTableRecord
100
AcDbLayerTableRecord
  2
CHAMFER_FEATURES
 70
0
 62
7
  6
CONTINUOUS
370
-3
390
F
  0
LAYER
  5
208
100
AcDbSymbolTableRecord
100
AcDbLayerTableRecord
  2
CROSS_CUT
 70
0
 62
7
  6
CONTINUOUS
370
-3
390
F
  0
LAYER
  5
209
100
AcDbSymbolTableRecord
100
AcDbLayerTableRecord
  2
CUT_FEATURES
 70
0
 62
7
  6
CONTINUOUS
370
-3
390
F
  0
LAYER
  5
20A
100
AcDbSymbolTableRecord
100
AcDbLayerTableRecord
  2
DATUM_CURVE
 70
0
 62
7
  6
CONTINUOUS
370
-3
390
F
  0
LAYER
  5
20B
100
AcDbSymbolTableRecord
100
AcDbLayerTableRecord
  2
DATUM_CURVES
 70
0
 62
7
  6
CONTINUOUS
370
-3
390
F
  0
LAYER
  5
20C
100
AcDbSymbolTableRecord
100
AcDbLayerTableRecord
  2
DATUM_PLANES
 70
0
 62
7
  6
CONTINUOUS
370
-3
390
F
  0
LAYER
  5
20D
100
AcDbSymbolTableRecord
100
AcDbLayerTableRecord
  2
DATUM_POINTS
 70
0
 62
7
  6
CONTINUOUS
370
-3
390
F
  0
LAYER
  5
20E
100
AcDbSymbolTableRecord
100
AcDbLayerTableRecord
  2
DEFAULT_COORDINATE_SYSTEM
 70
0
 62
7
  6
CONTINUOUS
370
-3
390
F
  0
LAYER
  5
20F
100
AcDbSymbolTableRecord
100
AcDbLayerTableRecord
  2
DEFAULT_DATUM_AXES
 70
0
 62
7
  6
CONTINUOUS
370
-3
390
F
  0
LAYER
  5
210
100
AcDbSymbolTableRecord
100
AcDbLayerTableRecord
  2
DEFAULT_DATUM_PLANES
 70
0
 62
7
  6
CONTINUOUS
370
-3
390
F
  0
LAYER
  5
211
100
AcDbSymbolTableRecord
100
AcDbLayerTableRecord
  2
DEFAULT_SURFACES
 70
0
 62
7
  6
CONTINUOUS
370
-3
390
F
  0
LAYER
  5
212
100
AcDbSymbolTableRecord
100
AcDbLayerTableRecord
  2
DEF_DTM0
 70
0
 62
7
  6
CONTINUOUS
370
-3
390
F
  0
LAYER
  5
213
100
AcDbSymbolTableRecord
100
AcDbLayerTableRecord
  2
DIMENSIONS
 70
0
 62
7
  6
CONTINUOUS
370
-3
390
F
  0
LAYER
  5
214
100
AcDbSymbolTableRecord
100
AcDbLayerTableRecord
  2
DRW_DTM
 70
0
 62
7
  6
CONTINUOUS
370
-3
390
F
  0
LAYER
  5
215
100
AcDbSymbolTableRecord
100
AcDbLayerTableRecord
  2
HOLE_FEATURES
 70
0
 62
7
  6
CONTINUOUS
370
-3
390
F
  0
LAYER
  5
216
100
AcDbSymbolTableRecord
100
AcDbLayerTableRecord
  2
PART_REFERENCE_DIMENSIONS
 70
0
 62
7
  6
CONTINUOUS
370
-3
390
F
  0
LAYER
  5
217
100
AcDbSymbolTableRecord
100
AcDbLayerTableRecord
  2
PLATED_SURFACE_AREA
 70
0
 62
7
  6
CONTINUOUS
370
-3
390
F
  0
LAYER
  5
218
100
AcDbSymbolTableRecord
100
AcDbLayerTableRecord
  2
POINTS
 70
0
 62
7
  6
CONTINUOUS
370
-3
390
F
  0
LAYER
  5
219
100
AcDbSymbolTableRecord
100
AcDbLayerTableRecord
  2
PROTRUSION_FEATURES
 70
0
 62
7
  6
CONTINUOUS
370
-3
390
F
  0
LAYER
  5
21A
100
AcDbSymbolTableRecord
100
AcDbLayerTableRecord
  2
QUILTS
 70
0
 62
7
  6
CONTINUOUS
370
-3
390
F
  0
LAYER
  5
21B
100
AcDbSymbolTableRecord
100
AcDbLayerTableRecord
  2
REFERENCE_DIMENSIONS
 70
0
 62
7
  6
CONTINUOUS
370
-3
390
F
  0
LAYER
  5
21C
100
AcDbSymbolTableRecord
100
AcDbLayerTableRecord
  2
ROUND_FEATURES
 70
0
 62
7
  6
CONTINUOUS
370
-3
390
F
  0
LAYER
  5
21D
100
AcDbSymbolTableRecord
100
AcDbLayerTableRecord
  2
SHELL_FEATURES
 70
0
 62
7
  6
CONTINUOUS
370
-3
390
F
  0
LAYER
  5
21E
100
AcDbSymbolTableRecord
100
AcDbLayerTableRecord
  2
WETTED_SURFACE_AREA
 70
0
 62
7
  6
CONTINUOUS
370
-3
390
F
  0
LAYER
  5
21F
100
AcDbSymbolTableRecord
100
AcDbLayerTableRecord
  2
XSEC_DATUMS
 70
0
 62
7
  6
CONTINUOUS
370
-3
390
F
  0
ENDTAB
  0
TABLE
  2
STYLE
  5
3
100
AcDbSymbolTable
 70
1
  0
STYLE
  5
11
100
AcDbSymbolTableRecord
100
AcDbTextStyleTableRecord
  2
STANDARD
 70
0
 40
0.0
 41
0.8
 50
0.0
 71
0
 42
0.2
  3
txt
  4

  0
STYLE
  5
220
100
AcDbSymbolTableRecord
100
AcDbTextStyleTableRecord
  2
TEXTSTYLE_1
 70
0
 40
0.0
 41
0.8
 50
0.0
 71
0
 42
0.2
  3
gdt
  4

  0
ENDTAB
  0
TABLE
  2
VIEW
  5
6
100
AcDbSymbolTable
 70
0
  0
ENDTAB
  0
TABLE
  2
UCS
  5
7
100
AcDbSymbolTable
 70
0
  0
ENDTAB
  0
TABLE
  2
APPID
  5
9
100
AcDbSymbolTable
 70
1
  0
APPID
  5
221
100
AcDbSymbolTableRecord
100
AcDbRegAppTableRecord
  2
ACAD
 70
0
  0
ENDTAB
  0
TABLE
  2
BLOCK_RECORD
  5
1
100
AcDbSymbolTable
 70
0
  0
BLOCK_RECORD
  5
222
100
AcDbSymbolTableRecord
100
AcDbBlockTableRecord
  2
*Model_Space
  0
BLOCK_RECORD
  5
223
100
AcDbSymbolTableRecord
100
AcDbBlockTableRecord
  2
*Paper_Space
  0
ENDTAB
  0
TABLE
  2
DIMSTYLE
  5
A
100
AcDbSymbolTable
 70
1
100
AcDbDimStyleTable
 71
0
  0
DIMSTYLE
105
224
100
AcDbSymbolTableRecord
100
AcDbDimStyleTableRecord
  2
STANDARD
 70
0
  3

  4

 40
1.0
 41
0.1
 42
0.0625
 43
0.38
 44
0.125
 45
0.0
 46
0.0
 47
0.001
 48
0.001
140
0.08
141
0.09
142
0.0
143
25.4
144
1.0
145
0.0
146
1.0
147
0.09
 71
1.0
 72
0.0
 73
1
 74
1
 75
0
 76
0
 77
0
 78
4
170
0
171
2
172
0
173
0
174
0
175
0
176
0
177
0
178
0
270
2
271
3
272
3
273
2
274
2
275
0
280
0
281
0
282
0
283
1
284
4
285
0
286
0
287
3
288
0
340
11
278
46
  0
ENDTAB
  0
ENDSEC
  0
SECTION
  2
BLOCKS
  0
BLOCK
  5
20
100
AcDbEntity
  8
0
100
AcDbBlockBegin
  2
*Model_Space
 70
0
 10
0.0
 20
0.0
 30
0.0
  3
*Model_Space
  1

  0
ENDBLK
  5
21
100
AcDbEntity
  8
0
100
AcDbBlockEnd
  0
BLOCK
  5
1C
100
AcDbEntity
  8
0
100
AcDbBlockBegin
  2
*Paper_Space
 70
0
 10
0.0
 20
0.0
 30
0.0
  3
*Paper_Space
  1

  0
ENDBLK
  5
1D
100
AcDbEntity
  8
0
100
AcDbBlockEnd
  0
ENDSEC
  0
SECTION
  2
ENTITIES
  0
LINE
  5
225
100
AcDbEntity
  8
0
100
AcDbLine
 62
7
  6
CONTINUOUS
 10
0.0
 20
0.0
 11
0.0
 21
8.5
  0
LINE
  5
226
100
AcDbEntity
  8
0
100
AcDbLine
 62
7
  6
CONTINUOUS
 10
0.0
 20
0.0
 11
11.0
 21
0.0
  0
LINE
  5
227
100
AcDbEntity
  8
0
100
AcDbLine
 62
7
  6
CONTINUOUS
 10
0.0
 20
8.5
 11
11.0
 21
8.5
  0
LINE
  5
228
100
AcDbEntity
  8
0
100
AcDbLine
 62
7
  6
CONTINUOUS
 10
11.0
 20
0.0
 11
11.0
 21
8.5
  0
LINE
  5
229
100
AcDbEntity
  8
ALL_ASSEMBLY_MEMBERS
100
AcDbLine
 62
7
  6
CONTINUOUS
 10
1.3400804901
 20
6.1354779777
 11
1.3300804901
 21
6.1254779777
  0
LINE
  5
22A
100
AcDbEntity
  8
ALL_ASSEMBLY_MEMBERS
100
AcDbLine
 62
7
  6
CONTINUOUS
 10
1.3300804901
 20
5.8174848972
 11
1.3300804901
 21
6.1254710581
  0
LINE
  5
22B
100
AcDbEntity
  8
ALL_ASSEMBLY_MEMBERS
100
AcDbLine
 62
7
  6
CONTINUOUS
 10
1.3400804901
 20
5.8074779777
 11
1.3400804901
 21
6.1354779777
  0
LINE
  5
22C
100
AcDbEntity
  8
ALL_ASSEMBLY_MEMBERS
100
AcDbLine
 62
7
  6
CONTINUOUS
 10
2.6340804901
 20
5.7873001399
 11
2.6340804901
 21
6.1556558154
  0
LINE
  5
22D
100
AcDbEntity
  8
ALL_ASSEMBLY_MEMBERS
100
AcDbLine
 62
7
  6
CONTINUOUS
 10
2.7152804901
 20
5.7873001399
 11
2.7152804901
 21
6.1556558154
  0
LINE
  5
22E
100
AcDbEntity
  8
ALL_ASSEMBLY_MEMBERS
100
AcDbLine
 62
7
  6
CONTINUOUS
 10
2.7964804901
 20
5.7873001399
 11
2.7964804901
 21
6.1556558154
  0
LINE
  5
22F
100
AcDbEntity
  8
ALL_ASSEMBLY_MEMBERS
100
AcDbLine
 62
7
  6
CONTINUOUS
 10
2.8776804901
 20
5.7873001399
 11
2.8776804901
 21
6.1556558154
  0
LINE
  5
230
100
AcDbEntity
  8
ALL_ASSEMBLY_MEMBERS
100
AcDbLine
 62
7
  6
CONTINUOUS
 10
3.2800804901
 20
5.8174779777
 11
3.2700804901
 21
5.8074779777
  0
LINE
  5
231
100
AcDbEntity
  8
ALL_ASSEMBLY_MEMBERS
100
AcDbLine
 62
7
  6
CONTINUOUS
 10
2.9588804901
 20
5.7873001399
 11
2.9588804901
 21
6.1556558154
  0
LINE
  5
232
100
AcDbEntity
  8
ALL_ASSEMBLY_MEMBERS
100
AcDbLine
 62
7
  6
CONTINUOUS
 10
3.0400804901
 20
5.7873001399
 11
3.0400804901
 21
6.1556558154
  0
LINE
  5
233
100
AcDbEntity
  8
ALL_ASSEMBLY_MEMBERS
100
AcDbLine
 62
7
  6
CONTINUOUS
 10
3.2700804901
 20
5.8074779777
 11
3.2700804901
 21
6.1354779777
  0
LINE
  5
234
100
AcDbEntity
  8
ALL_ASSEMBLY_MEMBERS
100
AcDbLine
 62
7
  6
CONTINUOUS
 10
3.2800804901
 20
5.8174848972
 11
3.2800804901
 21
6.1254710581
  0
LINE
  5
235
100
AcDbEntity
  8
ALL_ASSEMBLY_MEMBERS
100
AcDbLine
 62
7
  6
CONTINUOUS
 10
1.3400804901
 20
5.8074779777
 11
1.3300804901
 21
5.8174779777
  0
LINE
  5
236
100
AcDbEntity
  8
ALL_FEATURES
100
AcDbLine
 62
7
  6
CONTINUOUS
 10
4.765526737
 20
3.232186247
 11
4.654181426
 21
3.2128513367
  0
LINE
  5
237
100
AcDbEntity
  8
ALL_FEATURES
100
AcDbLine
 62
7
  6
CONTINUOUS
 10
4.8527763788
 20
3.2473369883
 11
4.8856631405
 21
3.2530477146
  0
LINE
  5
238
100
AcDbEntity
  8
ALL_FEATURES
100
AcDbLine
 62
7
  6
CONTINUOUS
 10
4.7513846013
 20
3.2346420031
 11
4.6400392904
 21
3.2153070928
  0
LINE
  5
239
100
AcDbEntity
  8
ALL_FEATURES
100
AcDbLine
 62
7
  6
CONTINUOUS
 10
4.8386342432
 20
3.2497927444
 11
4.8632729494
 21
3.2540712108
  0
LINE
  5
23A
100
AcDbEntity
  8
ALL_FEATURES
100
AcDbLine
 62
7
  6
CONTINUOUS
 10
4.748908749
 20
3.2352854347
 11
4.6034290895
 21
3.2248214566
  0
LINE
  5
23B
100
AcDbEntity
  8
ALL_FEATURES
100
AcDbLine
 62
7
  6
CONTINUOUS
 10
4.8629058998
 20
3.2434849568
 11
4.9402128276
 21
3.2490454455
  0
LINE
  5
23C
100
AcDbEntity
  8
ALL_FEATURES
100
AcDbLine
 62
7
  6
CONTINUOUS
 10
4.7412550804
 20
3.2384940346
 11
4.5957754208
 21
3.2280300565
  0
LINE
  5
23D
100
AcDbEntity
  8
ALL_FEATURES
100
AcDbLine
 62
7
  6
CONTINUOUS
 10
4.8552522311
 20
3.2466935567
 11
4.9163440664
 21
3.2510877354
  0
LINE
  5
23E
100
AcDbEntity
  8
ALL_FEATURES
100
AcDbLine
 62
7
  6
CONTINUOUS
 10
5.1385338925
 20
3.1458448555
 11
4.4656270743
 21
3.1458448555
  0
LINE
  5
23F
100
AcDbEntity
  8
ALL_FEATURES
100
AcDbLine
 62
7
  6
CONTINUOUS
 10
4.7403856767
 20
3.2392530139
 11
4.6010068475
 21
3.2392530139
  0
LINE
  5
240
100
AcDbEntity
  8
ALL_FEATURES
100
AcDbLine
 62
7
  6
CONTINUOUS
 10
4.8637753035
 20
3.2392530139
 11
5.0031541326
 21
3.2392530139
  0
LINE
  5
241
100
AcDbEntity
  8
ALL_FEATURES
100
AcDbLine
 62
7
  6
CONTINUOUS
 10
4.7403856767
 20
3.2427259775
 11
4.6122331917
 21
3.2427259775
  0
LINE
  5
242
100
AcDbEntity
  8
ALL_FEATURES
100
AcDbLine
 62
7
  6
CONTINUOUS
 10
4.8637753035
 20
3.2427259775
 11
4.9919277884
 21
3.2427259775
  0
LINE
  5
243
100
AcDbEntity
  8
ALL_FEATURES
100
AcDbLine
 62
7
  6
CONTINUOUS
 10
4.7412550804
 20
3.2434849568
 11
4.6639481525
 21
3.2490454455
  0
LINE
  5
244
100
AcDbEntity
  8
ALL_FEATURES
100
AcDbLine
 62
7
  6
CONTINUOUS
 10
4.8552522311
 20
3.2352854347
 11
5.0007318907
 21
3.2248214566
  0
LINE
  5
245
100
AcDbEntity
  8
ALL_FEATURES
100
AcDbLine
 62
7
  6
CONTINUOUS
 10
4.748908749
 20
3.2466935567
 11
4.6878169138
 21
3.2510877354
  0
LINE
  5
246
100
AcDbEntity
  8
ALL_FEATURES
100
AcDbLine
 62
7
  6
CONTINUOUS
 10
4.8629058998
 20
3.2384940346
 11
5.0083855593
 21
3.2280300565
  0
LINE
  5
247
100
AcDbEntity
  8
ALL_FEATURES
100
AcDbLine
 62
7
  6
CONTINUOUS
 10
4.7513846013
 20
3.2473369883
 11
4.7184978396
 21
3.2530477146
  0
LINE
  5
248
100
AcDbEntity
  8
ALL_FEATURES
100
AcDbLine
 62
7
  6
CONTINUOUS
 10
4.8386342432
 20
3.232186247
 11
4.9499795541
 21
3.2128513367
  0
LINE
  5
249
100
AcDbEntity
  8
ALL_FEATURES
100
AcDbLine
 62
7
  6
CONTINUOUS
 10
4.765526737
 20
3.2497927444
 11
4.7408880308
 21
3.2540712108
  0
LINE
  5
24A
100
AcDbEntity
  8
ALL_FEATURES
100
AcDbLine
 62
7
  6
CONTINUOUS
 10
4.8527763788
 20
3.2346420031
 11
4.9641216897
 21
3.2153070928
  0
LINE
  5
24B
100
AcDbEntity
  8
ALL_FEATURES
100
AcDbLine
 62
7
  6
CONTINUOUS
 10
4.7692321118
 20
3.2502226716
 11
4.7586838067
 21
3.254644772
  0
LINE
  5
24C
100
AcDbEntity
  8
ALL_FEATURES
100
AcDbLine
 62
7
  6
CONTINUOUS
 10
4.8164512777
 20
3.2304272742
 11
4.8767109257
 21
3.2051649964
  0
LINE
  5
24D
100
AcDbEntity
  8
ALL_FEATURES
100
AcDbLine
 62
7
  6
CONTINUOUS
 10
4.7877097024
 20
3.2515517173
 11
4.7793261812
 21
3.2550662888
  0
LINE
  5
24E
100
AcDbEntity
  8
ALL_FEATURES
100
AcDbLine
 62
7
  6
CONTINUOUS
 10
4.8349288683
 20
3.2317563198
 11
4.8951885164
 21
3.206494042
  0
LWPOLYLINE
  5
24F
100
AcDbEntity
  8
ALL_FEATURES
100
AcDbPolyline
 62
7
  6
CONTINUOUS
 90
44
 70
0
 10
4.409162422
 20
3.3661905965
 10
4.4091529008
 20
3.3662561543
 10
4.4091743659
 20
3.3660816625
 10
4.4092205344
 20
3.3656652625
 10
4.4092805458
 20
3.3650630031
 10
4.4093506737
 20
3.3642811251
 10
4.4094291722
 20
3.3633074276
 10
4.4095113619
 20
3.3621718051
 10
4.4095955502
 20
3.3608756969
 10
4.4096806242
 20
3.3594144993
 10
4.4097641246
 20
3.357810735
 10
4.4098449848
 20
3.3560688435
 10
4.4099226446
 20
3.3541843405
 10
4.4099959871
 20
3.3521672662
 10
4.4100643939
 20
3.3500196784
 10
4.4101274112
 20
3.3477399788
 10
4.4101843963
 20
3.3453323515
 10
4.410234883
 20
3.3427976737
 10
4.4102784444
 20
3.3401356233
 10
4.4103146124
 20
3.3373480229
 10
4.4103429672
 20
3.3344356459
 10
4.4103630745
 20
3.3313985967
 10
4.4103745288
 20
3.3282372242
 10
4.4103769113
 20
3.3249523502
 10
4.4103697712
 20
3.3215444962
 10
4.4103527093
 20
3.3180132311
 10
4.4103252725
 20
3.3143595967
 10
4.4102870146
 20
3.3105845486
 10
4.4102374658
 20
3.3066874316
 10
4.4101761426
 20
3.3026694814
 10
4.4101025802
 20
3.2985322648
 10
4.4100162307
 20
3.2942756861
 10
4.4099166143
 20
3.2899017046
 10
4.4098031817
 20
3.2854122442
 10
4.4096753295
 20
3.2808072279
 10
4.4095325405
 20
3.2760892434
 10
4.4093742327
 20
3.271260901
 10
4.4091997327
 20
3.2663223408
 10
4.4090084149
 20
3.2612768936
 10
4.4087996867
 20
3.2561279487
 10
4.4085727726
 20
3.2508761257
 10
4.4083270542
 20
3.2455254972
 10
4.4080618168
 20
3.2400803179
 10
4.4077762193
 20
3.2345419417
  0
LINE
  5
250
100
AcDbEntity
  8
ALL_FEATURES
100
AcDbLine
 62
9
  6
CONTINUOUS
 10
4.3833304901
 20
3.913977771
 11
4.3833304901
 21
3.3478074052
  0
LINE
  5
251
100
AcDbEntity
  8
ALL_FEATURES
100
AcDbLine
 62
7
  6
CONTINUOUS
 10
4.4270804901
 20
3.7676722629
 11
4.4270804901
 21
3.274794918
  0
LINE
  5
252
100
AcDbEntity
  8
ALL_FEATURES
100
AcDbLine
 62
9
  6
CONTINUOUS
 10
4.4270804901
 20
3.2055364166
 11
4.4270804901
 21
3.274794918
  0
LINE
  5
253
100
AcDbEntity
  8
ALL_FEATURES
100
AcDbLine
 62
7
  6
CONTINUOUS
 10
4.4077762193
 20
3.2345419417
 11
4.4074695931
 21
3.2289144328
  0
LINE
  5
254
100
AcDbEntity
  8
ALL_FEATURES
100
AcDbLine
 62
7
  6
CONTINUOUS
 10
4.4074695931
 20
3.2289144328
 11
4.4071352109
 21
3.2230831238
  0
LINE
  5
255
100
AcDbEntity
  8
ALL_FEATURES
100
AcDbLine
 62
7
  6
CONTINUOUS
 10
4.4071352109
 20
3.2230831238
 11
4.4064144693
 21
3.21093657
  0
LWPOLYLINE
  5
256
100
AcDbEntity
  8
ALL_FEATURES
100
AcDbPolyline
 62
7
  6
CONTINUOUS
 90
6
 70
0
 10
4.4064144693
 20
3.21093657
 10
4.4059337732
 20
3.2030831422
 10
4.4054252106
 20
3.1949673804
 10
4.4048879951
 20
3.1865898012
 10
4.4043214496
 20
3.1779516888
 10
4.4037249156
 20
3.1690536648
  0
LINE
  5
257
100
AcDbEntity
  8
ALL_FEATURES
100
AcDbLine
 62
7
  6
CONTINUOUS
 10
4.4037249156
 20
3.1690536648
 11
4.4028850712
 21
3.1568312737
  0
LWPOLYLINE
  5
258
100
AcDbEntity
  8
ALL_FEATURES
100
AcDbPolyline
 62
7
  6
CONTINUOUS
 90
12
 70
0
 10
4.3549547575
 20
3.8472855054
 10
4.3451876614
 20
3.7956909656
 10
4.3339130339
 20
3.741089668
 10
4.3212257262
 20
3.6840590097
 10
4.3071731833
 20
3.6248305217
 10
4.2918633992
 20
3.5638130567
 10
4.2754339712
 20
3.5014561861
 10
4.2579254902
 20
3.4378381472
 10
4.2393015317
 20
3.372827223
 10
4.2195850788
 20
3.3065777734
 10
4.1988849298
 20
3.2395742297
 10
4.178210269
 20
3.1750692118
  0
LWPOLYLINE
  5
259
100
AcDbEntity
  8
ALL_FEATURES
100
AcDbPolyline
 62
7
  6
CONTINUOUS
 90
7
 70
0
 10
4.4141843065
 20
3.9452255576
 10
4.4064939909
 20
3.9443475922
 10
4.3983835397
 20
3.9415982808
 10
4.3916978166
 20
3.9376648732
 10
4.3864286866
 20
3.9332062131
 10
4.3822625504
 20
3.9285729188
 10
4.3787721706
 20
3.9237230606
  0
LINE
  5
25A
100
AcDbEntity
  8
ALL_FEATURES
100
AcDbLine
 62
7
  6
CONTINUOUS
 10
4.4141843065
 20
3.9452255576
 11
4.4145545114
 21
3.9452277494
  0
LINE
  5
25B
100
AcDbEntity
  8
ALL_FEATURES
100
AcDbLine
 62
7
  6
CONTINUOUS
 10
5.1895544889
 20
3.9452279777
 11
4.4146064912
 21
3.9452279777
  0
LINE
  5
25C
100
AcDbEntity
  8
ALL_FEATURES
100
AcDbLine
 62
7
  6
CONTINUOUS
 10
4.7920804901
 20
3.2302763038
 11
4.7920804901
 21
3.2029326114
  0
LINE
  5
25D
100
AcDbEntity
  8
ALL_FEATURES
100
AcDbLine
 62
7
  6
CONTINUOUS
 10
4.7920804901
 20
3.2517026876
 11
4.7920804901
 21
3.2551847559
  0
LINE
  5
25E
100
AcDbEntity
  8
ALL_FEATURES
100
AcDbLine
 62
7
  6
CONTINUOUS
 10
4.8120804901
 20
3.2302763038
 11
4.8120804901
 21
3.2029326114
  0
LINE
  5
25F
100
AcDbEntity
  8
ALL_FEATURES
100
AcDbLine
 62
7
  6
CONTINUOUS
 10
4.8120804901
 20
3.2517026876
 11
4.8120804901
 21
3.2551847559
  0
LINE
  5
260
100
AcDbEntity
  8
ALL_FEATURES
100
AcDbLine
 62
9
  6
CONTINUOUS
 10
4.4072758098
 20
3.2255073632
 11
4.4074387972
 21
3.2261335344
  0
LINE
  5
261
100
AcDbEntity
  8
ALL_FEATURES
100
AcDbLine
 62
9
  6
CONTINUOUS
 10
4.4069025308
 20
3.2191102602
 11
4.4070701996
 21
3.2197423179
  0
LINE
  5
262
100
AcDbEntity
  8
ALL_FEATURES
100
AcDbLine
 62
7
  6
CONTINUOUS
 10
4.403113702
 20
3.1576362303
 11
4.4028957423
 21
3.1568312518
  0
LWPOLYLINE
  5
263
100
AcDbEntity
  8
ALL_FEATURES
100
AcDbPolyline
 62
7
  6
CONTINUOUS
 90
11
 70
0
 10
4.3733052832
 20
3.9138050087
 10
4.3709793982
 20
3.9085218607
 10
4.3687899551
 20
3.9028645142
 10
4.3667372958
 20
3.8968976896
 10
4.3647552509
 20
3.8904741672
 10
4.3628285229
 20
3.8835575791
 10
4.360958894
 20
3.8761653752
 10
4.3591267584
 20
3.8682239397
 10
4.3573294314
 20
3.8597137326
 10
4.3555687361
 20
3.8506343391
 10
4.354909047
 20
3.8470317927
  0
LWPOLYLINE
  5
264
100
AcDbEntity
  8
ALL_FEATURES
100
AcDbPolyline
 62
7
  6
CONTINUOUS
 90
3
 70
0
 10
4.3787721706
 20
3.9237230606
 10
4.3758251871
 20
3.9187747322
 10
4.3733052832
 20
3.9138050087
  0
LINE
  5
265
100
AcDbEntity
  8
ALL_ASSEMBLY_MEMBERS
100
AcDbLine
 62
7
  6
CONTINUOUS
 10
6.3265804901
 20
6.1254779777
 11
6.3365804901
 21
6.1354779777
  0
LINE
  5
266
100
AcDbEntity
  8
ALL_ASSEMBLY_MEMBERS
100
AcDbLine
 62
7
  6
CONTINUOUS
 10
3.2800804901
 20
6.1254779777
 11
3.2700804901
 21
6.1354779777
  0
LWPOLYLINE
  5
267
100
AcDbEntity
  8
ALL_FEATURES
100
AcDbPolyline
 62
7
  6
CONTINUOUS
 90
7
 70
0
 10
5.2251092556
 20
3.9241492574
 10
5.2216188305
 20
3.9289202271
 10
5.2174519564
 20
3.9334795789
 10
5.2121993268
 20
3.9378536064
 10
5.2055639376
 20
3.9416970744
 10
5.1975416813
 20
3.9443748137
 10
5.1899773654
 20
3.9452255447
  0
LWPOLYLINE
  5
268
100
AcDbEntity
  8
ALL_FEATURES
100
AcDbPolyline
 62
7
  6
CONTINUOUS
 90
3
 70
0
 10
5.2305637428
 20
3.914419203
 10
5.2280514278
 20
3.9192906892
 10
5.2251092556
 20
3.9241492574
  0
LWPOLYLINE
  5
269
100
AcDbEntity
  8
ALL_FEATURES
100
AcDbPolyline
 62
7
  6
CONTINUOUS
 90
12
 70
0
 10
5.4259506603
 20
3.1750693676
 10
5.4053006435
 20
3.2394960989
 10
5.3846253043
 20
3.306414849
 10
5.3649331633
 20
3.3725748083
 10
5.346332881
 20
3.4374914398
 10
5.328846018
 20
3.5010145543
 10
5.3124338829
 20
3.5632834982
 10
5.2971372821
 20
3.6242186547
 10
5.2830929517
 20
3.6833736523
 10
5.2704064623
 20
3.7403514441
 10
5.2591255777
 20
3.7949225365
 10
5.2492069101
 20
3.8472817024
  0
LINE
  5
26A
100
AcDbEntity
  8
ALL_FEATURES
100
AcDbLine
 62
7
  6
CONTINUOUS
 10
5.2012652378
 20
3.1568312517
 11
5.2010472781
 21
3.1576362303
  0
LINE
  5
26B
100
AcDbEntity
  8
ALL_FEATURES
100
AcDbLine
 62
9
  6
CONTINUOUS
 10
5.1970907801
 20
3.2197423267
 11
5.1972584606
 21
3.21911007
  0
LINE
  5
26C
100
AcDbEntity
  8
ALL_FEATURES
100
AcDbLine
 62
9
  6
CONTINUOUS
 10
5.1967220981
 20
3.2261354029
 11
5.1968850945
 21
3.2255090414
  0
LWPOLYLINE
  5
26D
100
AcDbEntity
  8
ALL_FEATURES
100
AcDbPolyline
 62
7
  6
CONTINUOUS
 90
7
 70
0
 10
5.201275909
 20
3.1568312736
 10
5.2004360678
 20
3.1690535164
 10
5.1998395224
 20
3.1779515625
 10
5.1992729662
 20
3.1865896995
 10
5.1987357443
 20
3.1949672996
 10
5.1982271825
 20
3.2030830657
 10
5.1977464966
 20
3.2109364758
  0
LINE
  5
26E
100
AcDbEntity
  8
ALL_FEATURES
100
AcDbLine
 62
7
  6
CONTINUOUS
 10
5.1977464966
 20
3.2109364758
 11
5.1970254854
 21
3.2230882282
  0
LINE
  5
26F
100
AcDbEntity
  8
ALL_FEATURES
100
AcDbLine
 62
7
  6
CONTINUOUS
 10
5.1970254854
 20
3.2230882282
 11
5.1966189807
 21
3.2302166684
  0
LWPOLYLINE
  5
270
100
AcDbEntity
  8
ALL_FEATURES
100
AcDbPolyline
 62
7
  6
CONTINUOUS
 90
37
 70
0
 10
5.1966189807
 20
3.2302166684
 10
5.1962832961
 20
3.2364752302
 10
5.1959731448
 20
3.2426291586
 10
5.1956877039
 20
3.2486721533
 10
5.1954259082
 20
3.2546001989
 10
5.1951869255
 20
3.2604074454
 10
5.1949699048
 20
3.2660882051
 10
5.1947739626
 20
3.2716395552
 10
5.1945982608
 20
3.2770568544
 10
5.1944420146
 20
3.2823356289
 10
5.1943043873
 20
3.2874737322
 10
5.1941846687
 20
3.2924678703
 10
5.1940820744
 20
3.2973145547
 10
5.1939958883
 20
3.3020119604
 10
5.1939253878
 20
3.3065575567
 10
5.1938698912
 20
3.3109492372
 10
5.193828699
 20
3.3151860306
 10
5.1938011621
 20
3.3192664055
 10
5.1937866112
 20
3.3231889516
 10
5.193784421
 20
3.3269530434
 10
5.1937939636
 20
3.3305581511
 10
5.1938145857
 20
3.334003276
 10
5.1938456773
 20
3.3372870492
 10
5.1938865902
 20
3.3404097579
 10
5.1939366918
 20
3.3433707156
 10
5.1939952568
 20
3.3461667015
 10
5.194061646
 20
3.3487990001
 10
5.1941351185
 20
3.351266803
 10
5.194214677
 20
3.3535633849
 10
5.1942996435
 20
3.355692616
 10
5.194388983
 20
3.3576517396
 10
5.1944807825
 20
3.3594242045
 10
5.1945739344
 20
3.3610152534
 10
5.1946668613
 20
3.3624226048
 10
5.1947558485
 20
3.3636191211
 10
5.1948395098
 20
3.3646188299
 10
5.1948636208
 20
3.3648851387
  0
LINE
  5
271
100
AcDbEntity
  8
ALL_FEATURES
100
AcDbLine
 62
9
  6
CONTINUOUS
 10
5.1770804901
 20
3.274794918
 11
5.1770804901
 21
3.2055364166
  0
LINE
  5
272
100
AcDbEntity
  8
ALL_FEATURES
100
AcDbLine
 62
7
  6
CONTINUOUS
 10
5.1770804901
 20
3.274794918
 11
5.1770804901
 21
3.7676722629
  0
LINE
  5
273
100
AcDbEntity
  8
ALL_FEATURES
100
AcDbLine
 62
9
  6
CONTINUOUS
 10
5.2208304901
 20
3.3478074013
 11
5.2208304901
 21
3.913977771
  0
LWPOLYLINE
  5
274
100
AcDbEntity
  8
ALL_FEATURES
100
AcDbPolyline
 62
7
  6
CONTINUOUS
 90
11
 70
0
 10
5.2492525226
 20
3.847028527
 10
5.2481562167
 20
3.8529542674
 10
5.2464116968
 20
3.8617682168
 10
5.2446313205
 20
3.8700320302
 10
5.2428167958
 20
3.8777459266
 10
5.2409651501
 20
3.8849295437
 10
5.2390560447
 20
3.8916569506
 10
5.2370910396
 20
3.8979105876
 10
5.2350544274
 20
3.9037262319
 10
5.2328788277
 20
3.9092503296
 10
5.2305637428
 20
3.914419203
  0
LINE
  5
275
100
AcDbEntity
  8
ALL_FEATURES
100
AcDbLine
 62
7
  6
CONTINUOUS
 10
4.7692321118
 20
3.2317563198
 11
4.7089724638
 21
3.206494042
  0
LINE
  5
276
100
AcDbEntity
  8
ALL_FEATURES
100
AcDbLine
 62
7
  6
CONTINUOUS
 10
4.8164512777
 20
3.2515517173
 11
4.8248347989
 21
3.2550662888
  0
LINE
  5
277
100
AcDbEntity
  8
ALL_FEATURES
100
AcDbLine
 62
7
  6
CONTINUOUS
 10
4.7877097024
 20
3.2304272742
 11
4.7274500544
 21
3.2051649964
  0
LINE
  5
278
100
AcDbEntity
  8
ALL_FEATURES
100
AcDbLine
 62
7
  6
CONTINUOUS
 10
4.8349288683
 20
3.2502226716
 11
4.8454771734
 21
3.254644772
  0
LINE
  5
279
100
AcDbEntity
  8
ALL_ASSEMBLY_MEMBERS
100
AcDbLine
 62
7
  6
CONTINUOUS
 10
3.2700804901
 20
5.8074779777
 11
3.0400804901
 21
5.8074779777
  0
LINE
  5
27A
100
AcDbEntity
  8
ALL_ASSEMBLY_MEMBERS
100
AcDbLine
 62
7
  6
CONTINUOUS
 10
2.6340804901
 20
5.8074779777
 11
1.3400804901
 21
5.8074779777
  0
LINE
  5
27B
100
AcDbEntity
  8
ALL_ASSEMBLY_MEMBERS
100
AcDbLine
 62
7
  6
CONTINUOUS
 10
6.3365804901
 20
5.8074779777
 11
6.5665804901
 21
5.8074779777
  0
LINE
  5
27C
100
AcDbEntity
  8
ALL_ASSEMBLY_MEMBERS
100
AcDbLine
 62
7
  6
CONTINUOUS
 10
6.9725804901
 20
5.8074779777
 11
8.2665804901
 21
5.8074779777
  0
LINE
  5
27D
100
AcDbEntity
  8
ALL_ASSEMBLY_MEMBERS
100
AcDbLine
 62
7
  6
CONTINUOUS
 10
6.3265804901
 20
5.8174848972
 11
6.3265804901
 21
6.1254710581
  0
LINE
  5
27E
100
AcDbEntity
  8
ALL_ASSEMBLY_MEMBERS
100
AcDbLine
 62
7
  6
CONTINUOUS
 10
6.3365804901
 20
5.8074779777
 11
6.3365804901
 21
6.1354779777
  0
LINE
  5
27F
100
AcDbEntity
  8
ALL_ASSEMBLY_MEMBERS
100
AcDbLine
 62
7
  6
CONTINUOUS
 10
8.2665804901
 20
5.8074779777
 11
8.2765804901
 21
5.8174779777
  0
LINE
  5
280
100
AcDbEntity
  8
ALL_ASSEMBLY_MEMBERS
100
AcDbLine
 62
7
  6
CONTINUOUS
 10
6.5665804901
 20
5.7873001399
 11
6.5665804901
 21
6.1556558154
  0
LINE
  5
281
100
AcDbEntity
  8
ALL_ASSEMBLY_MEMBERS
100
AcDbLine
 62
7
  6
CONTINUOUS
 10
6.6477804901
 20
5.7873001399
 11
6.6477804901
 21
6.1556558154
  0
LINE
  5
282
100
AcDbEntity
  8
ALL_ASSEMBLY_MEMBERS
100
AcDbLine
 62
7
  6
CONTINUOUS
 10
6.7289804901
 20
5.7873001399
 11
6.7289804901
 21
6.1556558154
  0
LINE
  5
283
100
AcDbEntity
  8
ALL_ASSEMBLY_MEMBERS
100
AcDbLine
 62
7
  6
CONTINUOUS
 10
3.2700804901
 20
6.1354779777
 11
3.0400804901
 21
6.1354779777
  0
LINE
  5
284
100
AcDbEntity
  8
ALL_ASSEMBLY_MEMBERS
100
AcDbLine
 62
7
  6
CONTINUOUS
 10
2.6340804901
 20
6.1354779777
 11
1.3400804901
 21
6.1354779777
  0
LINE
  5
285
100
AcDbEntity
  8
ALL_ASSEMBLY_MEMBERS
100
AcDbLine
 62
7
  6
CONTINUOUS
 10
6.3365804901
 20
6.1354779777
 11
6.5665804901
 21
6.1354779777
  0
LINE
  5
286
100
AcDbEntity
  8
ALL_ASSEMBLY_MEMBERS
100
AcDbLine
 62
7
  6
CONTINUOUS
 10
6.9725804901
 20
6.1354779777
 11
8.2665804901
 21
6.1354779777
  0
LINE
  5
287
100
AcDbEntity
  8
ALL_ASSEMBLY_MEMBERS
100
AcDbLine
 62
7
  6
CONTINUOUS
 10
6.8101804901
 20
5.7873001399
 11
6.8101804901
 21
6.1556558154
  0
LINE
  5
288
100
AcDbEntity
  8
ALL_ASSEMBLY_MEMBERS
100
AcDbLine
 62
7
  6
CONTINUOUS
 10
6.8913804901
 20
5.7873001399
 11
6.8913804901
 21
6.1556558154
  0
LINE
  5
289
100
AcDbEntity
  8
ALL_ASSEMBLY_MEMBERS
100
AcDbLine
 62
7
  6
CONTINUOUS
 10
6.9725804901
 20
5.7873001399
 11
6.9725804901
 21
6.1556558154
  0
LINE
  5
28A
100
AcDbEntity
  8
ALL_ASSEMBLY_MEMBERS
100
AcDbLine
 62
7
  6
CONTINUOUS
 10
6.3265804901
 20
5.8174779777
 11
6.3365804901
 21
5.8074779777
  0
LINE
  5
28B
100
AcDbEntity
  8
ALL_ASSEMBLY_MEMBERS
100
AcDbLine
 62
7
  6
CONTINUOUS
 10
8.2665804901
 20
5.8074779777
 11
8.2665804901
 21
6.1354779777
  0
LINE
  5
28C
100
AcDbEntity
  8
ALL_ASSEMBLY_MEMBERS
100
AcDbLine
 62
7
  6
CONTINUOUS
 10
8.2765804901
 20
5.8174848972
 11
8.2765804901
 21
6.1254710581
  0
LINE
  5
28D
100
AcDbEntity
  8
ALL_ASSEMBLY_MEMBERS
100
AcDbLine
 62
7
  6
CONTINUOUS
 10
8.2665804901
 20
6.1354779777
 11
8.2765804901
 21
6.1254779777
  0
ARC
  5
28E
100
AcDbEntity
  8
ALL_FEATURES
100
AcDbCircle
 62
9
  6
CONTINUOUS
 10
-1.4282995438
 20
3.5605748322
 40
5.8453156743
100
AcDbArc
 50
356.1179200756
 51
356.592386916
  0
ARC
  5
28F
100
AcDbEntity
  8
ALL_FEATURES
100
AcDbCircle
 62
9
  6
CONTINUOUS
 10
2.4781125414
 20
3.3363165207
 40
1.932469945
100
AcDbArc
 50
356.7314148723
 51
356.9720298297
  0
ARC
  5
290
100
AcDbEntity
  8
ALL_FEATURES
100
AcDbCircle
 62
7
  6
CONTINUOUS
 10
4.7286485802
 20
3.6836391208
 40
0.4766408446
100
AcDbArc
 50
259.2861761992
 51
261.0116715677
  0
ARC
  5
291
100
AcDbEntity
  8
ALL_FEATURES
100
AcDbCircle
 62
7
  6
CONTINUOUS
 10
4.7919734426
 20
3.0380414786
 40
0.2133964076
100
AcDbArc
 50
96.1175409481
 51
97.1191011201
  0
ARC
  5
292
100
AcDbEntity
  8
ALL_FEATURES
100
AcDbCircle
 62
7
  6
CONTINUOUS
 10
4.7914187393
 20
3.4391567413
 40
0.2085837513
100
AcDbArc
 50
262.8693440682
 51
263.8940138636
  0
ARC
  5
293
100
AcDbEntity
  8
ALL_FEATURES
100
AcDbCircle
 62
7
  6
CONTINUOUS
 10
4.7676698371
 20
3.1795881184
 40
0.0696786788
100
AcDbArc
 50
103.5161281313
 51
105.619730968
  0
ARC
  5
294
100
AcDbEntity
  8
ALL_FEATURES
100
AcDbCircle
 62
9
  6
CONTINUOUS
 10
4.4740576014
 20
3.3813623373
 40
0.0673747528
100
AcDbArc
 50
177.6259871219
 51
196.4417205455
  0
ARC
  5
295
100
AcDbEntity
  8
ALL_FEATURES
100
AcDbCircle
 62
7
  6
CONTINUOUS
 10
4.4741518963
 20
3.381317522
 40
0.0673357803
100
AcDbArc
 50
177.6248343174
 51
195.9001574066
  0
ARC
  5
296
100
AcDbEntity
  8
ALL_FEATURES
100
AcDbCircle
 62
7
  6
CONTINUOUS
 10
4.7668396651
 20
3.2991964649
 40
0.0663787431
100
AcDbArc
 50
254.3279737282
 51
256.5361671725
  0
ARC
  5
297
100
AcDbEntity
  8
ALL_ASSEMBLY_MEMBERS
100
AcDbCircle
 62
7
  6
CONTINUOUS
 10
2.8370804901
 20
5.9714779777
 40
0.59
100
AcDbArc
 50
196.13962743
 51
163.86037257
  0
ARC
  5
298
100
AcDbEntity
  8
ALL_ASSEMBLY_MEMBERS
100
AcDbCircle
 62
7
  6
CONTINUOUS
 10
2.8370804901
 20
5.9714779777
 40
0.5000013369
100
AcDbArc
 50
199.1478561767
 51
160.8521438233
  0
ARC
  5
299
100
AcDbEntity
  8
ALL_ASSEMBLY_MEMBERS
100
AcDbCircle
 62
9
  6
CONTINUOUS
 10
2.8370804901
 20
5.9714779777
 40
0.4065013369
100
AcDbArc
 50
23.7983957736
 51
156.2016042264
  0
ARC
  5
29A
100
AcDbEntity
  8
ALL_ASSEMBLY_MEMBERS
100
AcDbCircle
 62
9
  6
CONTINUOUS
 10
2.8370804901
 20
5.9714779777
 40
0.4065013369
100
AcDbArc
 50
203.7983957736
 51
336.2016042264
  0
ARC
  5
29B
100
AcDbEntity
  8
ALL_ASSEMBLY_MEMBERS
100
AcDbCircle
 62
7
  6
CONTINUOUS
 10
2.8370804901
 20
5.9714779777
 40
0.40625
100
AcDbArc
 50
23.815197514
 51
156.184802486
  0
ARC
  5
29C
100
AcDbEntity
  8
ALL_ASSEMBLY_MEMBERS
100
AcDbCircle
 62
7
  6
CONTINUOUS
 10
2.8370804901
 20
5.9714779777
 40
0.40625
100
AcDbArc
 50
203.815197514
 51
336.184802486
  0
ARC
  5
29D
100
AcDbEntity
  8
ALL_ASSEMBLY_MEMBERS
100
AcDbCircle
 62
7
  6
CONTINUOUS
 10
2.8370804901
 20
5.9714779777
 40
0.20475
100
AcDbArc
 50
95.0385979084
 51
104.9167878729
  0
ARC
  5
29E
100
AcDbEntity
  8
ALL_ASSEMBLY_MEMBERS
100
AcDbCircle
 62
7
  6
CONTINUOUS
 10
2.8370804901
 20
5.9714779777
 40
0.20475
100
AcDbArc
 50
75.0832121271
 51
84.9614020916
  0
ARC
  5
29F
100
AcDbEntity
  8
ALL_ASSEMBLY_MEMBERS
100
AcDbCircle
 62
7
  6
CONTINUOUS
 10
2.8370804901
 20
5.9714779777
 40
0.20475
100
AcDbArc
 50
255.0832121271
 51
264.9614020916
  0
ARC
  5
2A0
100
AcDbEntity
  8
ALL_ASSEMBLY_MEMBERS
100
AcDbCircle
 62
7
  6
CONTINUOUS
 10
2.8370804901
 20
5.9714779777
 40
0.20475
100
AcDbArc
 50
275.0385979084
 51
284.9167878729
  0
ARC
  5
2A1
100
AcDbEntity
  8
ALL_ASSEMBLY_MEMBERS
100
AcDbCircle
 62
7
  6
CONTINUOUS
 10
2.8370804901
 20
5.9714779777
 40
0.19475
100
AcDbArc
 50
256.8537358955
 51
259.5418045006
  0
ARC
  5
2A2
100
AcDbEntity
  8
ALL_ASSEMBLY_MEMBERS
100
AcDbCircle
 62
7
  6
CONTINUOUS
 10
2.8370804901
 20
5.9714779777
 40
0.19475
100
AcDbArc
 50
280.4581954994
 51
283.1462641045
  0
ARC
  5
2A3
100
AcDbEntity
  8
ALL_ASSEMBLY_MEMBERS
100
AcDbCircle
 62
7
  6
CONTINUOUS
 10
2.8370804901
 20
5.9714779777
 40
0.19475
100
AcDbArc
 50
100.4581954994
 51
103.1462641045
  0
ARC
  5
2A4
100
AcDbEntity
  8
ALL_ASSEMBLY_MEMBERS
100
AcDbCircle
 62
7
  6
CONTINUOUS
 10
2.8370804901
 20
5.9714779777
 40
0.19475
100
AcDbArc
 50
76.8537358955
 51
79.5418045006
  0
ARC
  5
2A5
100
AcDbEntity
  8
ALL_ASSEMBLY_MEMBERS
100
AcDbCircle
 62
7
  6
CONTINUOUS
 10
2.6746804901
 20
5.8109779777
 40
0.047
100
AcDbArc
 50
210.2506503162
 51
329.7493496838
  0
ARC
  5
2A6
100
AcDbEntity
  8
ALL_ASSEMBLY_MEMBERS
100
AcDbCircle
 62
7
  6
CONTINUOUS
 10
2.7558804901
 20
6.1319779777
 40
0.047
100
AcDbArc
 50
30.2506503162
 51
149.7493496838
  0
ARC
  5
2A7
100
AcDbEntity
  8
ALL_ASSEMBLY_MEMBERS
100
AcDbCircle
 62
7
  6
CONTINUOUS
 10
2.7558804901
 20
5.8109779777
 40
0.047
100
AcDbArc
 50
210.2506503162
 51
329.7493496838
  0
ARC
  5
2A8
100
AcDbEntity
  8
ALL_ASSEMBLY_MEMBERS
100
AcDbCircle
 62
7
  6
CONTINUOUS
 10
2.8370804901
 20
6.1319779777
 40
0.047
100
AcDbArc
 50
30.2506503162
 51
149.7493496838
  0
ARC
  5
2A9
100
AcDbEntity
  8
ALL_ASSEMBLY_MEMBERS
100
AcDbCircle
 62
7
  6
CONTINUOUS
 10
2.8370804901
 20
5.8109779777
 40
0.047
100
AcDbArc
 50
210.2506503162
 51
329.7493496838
  0
ARC
  5
2AA
100
AcDbEntity
  8
ALL_ASSEMBLY_MEMBERS
100
AcDbCircle
 62
7
  6
CONTINUOUS
 10
2.9182804901
 20
6.1319779777
 40
0.047
100
AcDbArc
 50
30.2506503162
 51
149.7493496838
  0
ARC
  5
2AB
100
AcDbEntity
  8
ALL_ASSEMBLY_MEMBERS
100
AcDbCircle
 62
7
  6
CONTINUOUS
 10
2.9182804901
 20
5.8109779777
 40
0.047
100
AcDbArc
 50
210.2506503162
 51
329.7493496838
  0
ARC
  5
2AC
100
AcDbEntity
  8
ALL_ASSEMBLY_MEMBERS
100
AcDbCircle
 62
7
  6
CONTINUOUS
 10
2.9994804901
 20
5.8109779777
 40
0.047
100
AcDbArc
 50
210.2506503162
 51
329.7493496838
  0
ARC
  5
2AD
100
AcDbEntity
  8
ALL_ASSEMBLY_MEMBERS
100
AcDbCircle
 62
7
  6
CONTINUOUS
 10
2.6746804901
 20
6.1319779777
 40
0.047
100
AcDbArc
 50
30.2506503162
 51
149.7493496838
  0
ARC
  5
2AE
100
AcDbEntity
  8
ALL_ASSEMBLY_MEMBERS
100
AcDbCircle
 62
7
  6
CONTINUOUS
 10
2.9994804901
 20
6.1319779777
 40
0.047
100
AcDbArc
 50
30.2506503162
 51
149.7493496838
  0
ARC
  5
2AF
100
AcDbEntity
  8
ALL_FEATURES
100
AcDbCircle
 62
7
  6
CONTINUOUS
 10
4.7908487725
 20
4.2157017357
 40
1.0125235301
100
AcDbArc
 50
265.3617921683
 51
266.4101014579
  0
ARC
  5
2B0
100
AcDbEntity
  8
ALL_FEATURES
100
AcDbCircle
 62
9
  6
CONTINUOUS
 10
4.4146073168
 20
3.9146446032
 40
0.0305833744
100
AcDbArc
 50
90.0015467696
 51
91.7707106796
  0
ARC
  5
2B1
100
AcDbEntity
  8
ALL_FEATURES
100
AcDbCircle
 62
9
  6
CONTINUOUS
 10
11.0297193848
 20
3.5604020308
 40
5.8425691281
100
AcDbArc
 50
183.4075138005
 51
183.8821996623
  0
ARC
  5
2B2
100
AcDbEntity
  8
ALL_FEATURES
100
AcDbCircle
 62
9
  6
CONTINUOUS
 10
7.1263445453
 20
3.336328498
 40
1.932766231
100
AcDbArc
 50
183.0277601533
 51
183.2683836773
  0
ARC
  5
2B3
100
AcDbEntity
  8
ALL_FEATURES
100
AcDbCircle
 62
7
  6
CONTINUOUS
 10
4.8020779939
 20
1.6140092411
 40
1.6412339664
100
AcDbArc
 50
88.8498332259
 51
89.9999128586
  0
ARC
  5
2B4
100
AcDbEntity
  8
ALL_FEATURES
100
AcDbCircle
 62
7
  6
CONTINUOUS
 10
4.8020562104
 20
1.6166766326
 40
1.638566575
100
AcDbArc
 50
89.9991510135
 51
91.151102902
  0
ARC
  5
2B5
100
AcDbEntity
  8
ALL_FEATURES
100
AcDbCircle
 62
7
  6
CONTINUOUS
 10
4.8016512376
 20
1.638156445
 40
1.6170829621
100
AcDbArc
 50
91.15204612
 51
91.3124762313
  0
ARC
  5
2B6
100
AcDbEntity
  8
ALL_FEATURES
100
AcDbCircle
 62
7
  6
CONTINUOUS
 10
4.8025097425
 20
1.6381564453
 40
1.6170829618
100
AcDbArc
 50
88.6875237687
 51
88.84795388
  0
ARC
  5
2B7
100
AcDbEntity
  8
0
100
AcDbCircle
 62
7
  6
CONTINUOUS
 10
4.9486008823
 20
2.4666193906
 40
0.7927788295
100
AcDbArc
 50
81.7734307151
 51
81.9728572833
  0
ARC
  5
2B8
100
AcDbEntity
  8
ALL_FEATURES
100
AcDbCircle
 62
7
  6
CONTINUOUS
 10
4.8020804901
 20
2.9714779777
 40
0.6875
100
AcDbArc
 50
145.4528753354
 51
34.5473901813
  0
ARC
  5
2B9
100
AcDbEntity
  8
ALL_FEATURES
100
AcDbCircle
 62
7
  6
CONTINUOUS
 10
4.8020804901
 20
2.9714779777
 40
0.672
100
AcDbArc
 50
150.0978062472
 51
29.9022820057
  0
ARC
  5
2BA
100
AcDbEntity
  8
ALL_FEATURES
100
AcDbCircle
 62
7
  6
CONTINUOUS
 10
4.8020804498
 20
2.9714775043
 40
0.6562496368
100
AcDbArc
 50
161.9265977175
 51
18.073416594
  0
ARC
  5
2BB
100
AcDbEntity
  8
ALL_FEATURES
100
AcDbCircle
 62
7
  6
CONTINUOUS
 10
4.878942327
 20
3.663886958
 40
0.4565954657
100
AcDbArc
 50
278.9504491715
 51
280.7517030616
  0
ARC
  5
2BC
100
AcDbEntity
  8
ALL_FEATURES
100
AcDbCircle
 62
7
  6
CONTINUOUS
 10
4.8016738014
 20
2.9106184427
 40
0.3412191286
100
AcDbArc
 50
91.6110723117
 51
92.3454354288
  0
ARC
  5
2BD
100
AcDbEntity
  8
ALL_FEATURES
100
AcDbCircle
 62
7
  6
CONTINUOUS
 10
4.8024871791
 20
3.5713605385
 40
0.3412191184
100
AcDbArc
 50
271.6110723007
 51
272.3454354398
  0
ARC
  5
2BE
100
AcDbEntity
  8
ALL_FEATURES
100
AcDbCircle
 62
7
  6
CONTINUOUS
 10
4.8025678616
 20
2.9129543175
 40
0.3388819092
100
AcDbArc
 50
87.6520321381
 51
88.3914601213
  0
ARC
  5
2BF
100
AcDbEntity
  8
ALL_FEATURES
100
AcDbCircle
 62
7
  6
CONTINUOUS
 10
4.8015931183
 20
3.569024668
 40
0.3388819032
100
AcDbArc
 50
267.6520321316
 51
268.3914601278
  0
ARC
  5
2C0
100
AcDbEntity
  8
ALL_FEATURES
100
AcDbCircle
 62
7
  6
CONTINUOUS
 10
4.8121875385
 20
3.4439375037
 40
0.2133963985
100
AcDbArc
 50
276.1175409267
 51
277.1191011415
  0
ARC
  5
2C1
100
AcDbEntity
  8
ALL_FEATURES
100
AcDbCircle
 62
7
  6
CONTINUOUS
 10
4.8127422405
 20
3.0428222468
 40
0.2085837545
100
AcDbArc
 50
82.8693440762
 51
83.8940138556
  0
ARC
  5
2C2
100
AcDbEntity
  8
ALL_FEATURES
100
AcDbCircle
 62
7
  6
CONTINUOUS
 10
4.8364911444
 20
3.3023908679
 40
0.0696786735
100
AcDbArc
 50
283.5161280514
 51
285.6197310479
  0
ARC
  5
2C3
100
AcDbEntity
  8
ALL_FEATURES
100
AcDbCircle
 62
9
  6
CONTINUOUS
 10
5.1301042481
 20
3.3813618334
 40
0.0673736565
100
AcDbArc
 50
343.5581375455
 51
2.3744138711
  0
ARC
  5
2C4
100
AcDbEntity
  8
ALL_FEATURES
100
AcDbCircle
 62
7
  6
CONTINUOUS
 10
5.1300106863
 20
3.3813184445
 40
0.0673329661
100
AcDbArc
 50
344.1051642051
 51
2.3754602922
  0
ARC
  5
2C5
100
AcDbEntity
  8
ALL_FEATURES
100
AcDbCircle
 62
7
  6
CONTINUOUS
 10
4.8373213148
 20
3.1827825257
 40
0.0663787439
100
AcDbArc
 50
74.3279737423
 51
76.5361671584
  0
ARC
  5
2C6
100
AcDbEntity
  8
ALL_FEATURES
100
AcDbCircle
 62
7
  6
CONTINUOUS
 10
4.8020797294
 20
4.4654743828
 40
1.2625813675
100
AcDbArc
 50
269.5462310655
 51
270.0000345186
  0
ARC
  5
2C7
100
AcDbEntity
  8
ALL_FEATURES
100
AcDbCircle
 62
7
  6
CONTINUOUS
 10
4.802083771
 20
4.464837889
 40
1.2619448736
100
AcDbArc
 50
269.9998510372
 51
270.4538833787
  0
ARC
  5
2C8
100
AcDbEntity
  8
ALL_FEATURES
100
AcDbCircle
 62
7
  6
CONTINUOUS
 10
4.8146247839
 20
4.1974531167
 40
0.9942285466
100
AcDbArc
 50
273.580253199
 51
274.6478531748
  0
ARC
  5
2C9
100
AcDbEntity
  8
ALL_FEATURES
100
AcDbCircle
 62
9
  6
CONTINUOUS
 10
5.1895536281
 20
3.9146412805
 40
0.0305866972
100
AcDbArc
 50
88.1913542835
 51
89.9983874039
  0
ARC
  5
2CA
100
AcDbEntity
  8
ALL_ASSEMBLY_MEMBERS
100
AcDbCircle
 62
7
  6
CONTINUOUS
 10
6.7695804901
 20
5.9714779777
 40
0.59
100
AcDbArc
 50
16.13962743
 51
343.86037257
  0
ARC
  5
2CB
100
AcDbEntity
  8
ALL_ASSEMBLY_MEMBERS
100
AcDbCircle
 62
7
  6
CONTINUOUS
 10
6.7695804901
 20
5.9714779777
 40
0.5000013369
100
AcDbArc
 50
19.1478561767
 51
340.8521438233
  0
ARC
  5
2CC
100
AcDbEntity
  8
ALL_ASSEMBLY_MEMBERS
100
AcDbCircle
 62
9
  6
CONTINUOUS
 10
6.7695804901
 20
5.9714779777
 40
0.4065013369
100
AcDbArc
 50
23.7983957736
 51
156.2016042264
  0
ARC
  5
2CD
100
AcDbEntity
  8
ALL_ASSEMBLY_MEMBERS
100
AcDbCircle
 62
9
  6
CONTINUOUS
 10
6.7695804901
 20
5.9714779777
 40
0.4065013369
100
AcDbArc
 50
203.7983957736
 51
336.2016042264
  0
ARC
  5
2CE
100
AcDbEntity
  8
ALL_ASSEMBLY_MEMBERS
100
AcDbCircle
 62
7
  6
CONTINUOUS
 10
6.7695804901
 20
5.9714779777
 40
0.40625
100
AcDbArc
 50
23.815197514
 51
156.184802486
  0
ARC
  5
2CF
100
AcDbEntity
  8
ALL_ASSEMBLY_MEMBERS
100
AcDbCircle
 62
7
  6
CONTINUOUS
 10
6.7695804901
 20
5.9714779777
 40
0.40625
100
AcDbArc
 50
203.815197514
 51
336.184802486
  0
ARC
  5
2D0
100
AcDbEntity
  8
ALL_ASSEMBLY_MEMBERS
100
AcDbCircle
 62
7
  6
CONTINUOUS
 10
6.7695804901
 20
5.9714779777
 40
0.20475
100
AcDbArc
 50
95.0385979084
 51
104.9167878729
  0
ARC
  5
2D1
100
AcDbEntity
  8
ALL_ASSEMBLY_MEMBERS
100
AcDbCircle
 62
7
  6
CONTINUOUS
 10
6.7695804901
 20
5.9714779777
 40
0.20475
100
AcDbArc
 50
75.0832121271
 51
84.9614020916
  0
ARC
  5
2D2
100
AcDbEntity
  8
ALL_ASSEMBLY_MEMBERS
100
AcDbCircle
 62
7
  6
CONTINUOUS
 10
6.7695804901
 20
5.9714779777
 40
0.20475
100
AcDbArc
 50
255.0832121271
 51
264.9614020916
  0
ARC
  5
2D3
100
AcDbEntity
  8
ALL_ASSEMBLY_MEMBERS
100
AcDbCircle
 62
7
  6
CONTINUOUS
 10
6.7695804901
 20
5.9714779777
 40
0.20475
100
AcDbArc
 50
275.0385979084
 51
284.9167878729
  0
ARC
  5
2D4
100
AcDbEntity
  8
ALL_ASSEMBLY_MEMBERS
100
AcDbCircle
 62
7
  6
CONTINUOUS
 10
6.7695804901
 20
5.9714779777
 40
0.19475
100
AcDbArc
 50
256.8537358955
 51
259.5418045006
  0
ARC
  5
2D5
100
AcDbEntity
  8
ALL_ASSEMBLY_MEMBERS
100
AcDbCircle
 62
7
  6
CONTINUOUS
 10
6.7695804901
 20
5.9714779777
 40
0.19475
100
AcDbArc
 50
280.4581954994
 51
283.1462641045
  0
ARC
  5
2D6
100
AcDbEntity
  8
ALL_ASSEMBLY_MEMBERS
100
AcDbCircle
 62
7
  6
CONTINUOUS
 10
6.7695804901
 20
5.9714779777
 40
0.19475
100
AcDbArc
 50
100.4581954994
 51
103.1462641045
  0
ARC
  5
2D7
100
AcDbEntity
  8
ALL_ASSEMBLY_MEMBERS
100
AcDbCircle
 62
7
  6
CONTINUOUS
 10
6.7695804901
 20
5.9714779777
 40
0.19475
100
AcDbArc
 50
76.8537358955
 51
79.5418045006
  0
ARC
  5
2D8
100
AcDbEntity
  8
ALL_ASSEMBLY_MEMBERS
100
AcDbCircle
 62
7
  6
CONTINUOUS
 10
6.6071804901
 20
5.8109779777
 40
0.047
100
AcDbArc
 50
210.2506503162
 51
329.7493496838
  0
ARC
  5
2D9
100
AcDbEntity
  8
ALL_ASSEMBLY_MEMBERS
100
AcDbCircle
 62
7
  6
CONTINUOUS
 10
6.6883804901
 20
6.1319779777
 40
0.047
100
AcDbArc
 50
30.2506503162
 51
149.7493496838
  0
ARC
  5
2DA
100
AcDbEntity
  8
ALL_ASSEMBLY_MEMBERS
100
AcDbCircle
 62
7
  6
CONTINUOUS
 10
6.6883804901
 20
5.8109779777
 40
0.047
100
AcDbArc
 50
210.2506503162
 51
329.7493496838
  0
ARC
  5
2DB
100
AcDbEntity
  8
ALL_ASSEMBLY_MEMBERS
100
AcDbCircle
 62
7
  6
CONTINUOUS
 10
6.7695804901
 20
6.1319779777
 40
0.047
100
AcDbArc
 50
30.2506503162
 51
149.7493496838
  0
ARC
  5
2DC
100
AcDbEntity
  8
ALL_ASSEMBLY_MEMBERS
100
AcDbCircle
 62
7
  6
CONTINUOUS
 10
6.7695804901
 20
5.8109779777
 40
0.047
100
AcDbArc
 50
210.2506503162
 51
329.7493496838
  0
ARC
  5
2DD
100
AcDbEntity
  8
ALL_ASSEMBLY_MEMBERS
100
AcDbCircle
 62
7
  6
CONTINUOUS
 10
6.8507804901
 20
6.1319779777
 40
0.047
100
AcDbArc
 50
30.2506503162
 51
149.7493496838
  0
ARC
  5
2DE
100
AcDbEntity
  8
ALL_ASSEMBLY_MEMBERS
100
AcDbCircle
 62
7
  6
CONTINUOUS
 10
6.8507804901
 20
5.8109779777
 40
0.047
100
AcDbArc
 50
210.2506503162
 51
329.7493496838
  0
ARC
  5
2DF
100
AcDbEntity
  8
ALL_ASSEMBLY_MEMBERS
100
AcDbCircle
 62
7
  6
CONTINUOUS
 10
6.9319804901
 20
5.8109779777
 40
0.047
100
AcDbArc
 50
210.2506503162
 51
329.7493496838
  0
ARC
  5
2E0
100
AcDbEntity
  8
ALL_ASSEMBLY_MEMBERS
100
AcDbCircle
 62
7
  6
CONTINUOUS
 10
6.6071804901
 20
6.1319779777
 40
0.047
100
AcDbArc
 50
30.2506503162
 51
149.7493496838
  0
ARC
  5
2E1
100
AcDbEntity
  8
ALL_ASSEMBLY_MEMBERS
100
AcDbCircle
 62
7
  6
CONTINUOUS
 10
6.9319804901
 20
6.1319779777
 40
0.047
100
AcDbArc
 50
30.2506503162
 51
149.7493496838
  0
SPLINE
  5
2E2
100
AcDbEntity
  8
ALL_FEATURES
100
AcDbSpline
 62
7
  6
CONTINUOUS
 70
0
 71
3
 72
26
 73
22
 74
0
 42
0.0000001
 43
0.0000001
 44
0.0000000001
 40
0.0
 40
0.0
 40
0.0
 40
0.0
 40
0.0082748321
 40
0.0171562396
 40
0.0271325831
 40
0.0385450874
 40
0.0516163519
 40
0.0664801162
 40
0.0832066923
 40
0.1018318451
 40
0.1223698404
 40
0.1448187044
 40
0.1953293359
 40
0.2530569903
 40
0.3175834268
 40
0.3883599046
 40
0.4647865222
 40
0.5461610708
 40
0.6317372174
 40
0.81239757
 40
1.0
 40
1.0
 40
1.0
 40
1.0
 10
4.7633304901
 20
3.2409894957
 30
0.0
 10
4.7633304901
 20
3.2411006509
 30
0.0
 10
4.7633646293
 20
3.241332191
 30
0.0
 10
4.7635128711
 20
3.2416688451
 30
0.0
 10
4.7637538291
 20
3.2419993833
 30
0.0
 10
4.7640852739
 20
3.2423247342
 30
0.0
 10
4.7645065728
 20
3.2426456354
 30
0.0
 10
4.7650170776
 20
3.2429621009
 30
0.0
 10
4.7656157877
 20
3.2432738989
 30
0.0
 10
4.7663015386
 20
3.2435803788
 30
0.0
 10
4.7670729924
 20
3.2438808532
 30
0.0
 10
4.7682612518
 20
3.2442884558
 30
0.0
 10
4.7699506982
 20
3.244769842
 30
0.0
 10
4.7722123449
 20
3.2452931686
 30
0.0
 10
4.7747604787
 20
3.245776384
 30
0.0
 10
4.7775709761
 20
3.2462152645
 30
0.0
 10
4.7806170004
 20
3.2466046116
 30
0.0
 10
4.7838691924
 20
3.246941098
 30
0.0
 10
4.7885234394
 20
3.2473211205
 30
0.0
 10
4.7946132204
 20
3.2476351729
 30
0.0
 10
4.799560441
 20
3.2477183626
 30
0.0
 10
4.8020804901
 20
3.2477183626
 30
0.0
  0
SPLINE
  5
2E3
100
AcDbEntity
  8
ALL_FEATURES
100
AcDbSpline
 62
7
  6
CONTINUOUS
 70
0
 71
3
 72
22
 73
18
 74
0
 42
0.0000001
 43
0.0000001
 44
0.0000000001
 40
0.0
 40
0.0
 40
0.0
 40
0.0
 40
0.1919418437
 40
0.280264122
 40
0.3634512285
 40
0.4414973964
 40
0.514425188
 40
0.5822829495
 40
0.6451480152
 40
0.7031433418
 40
0.7564511208
 40
0.805321835
 40
0.85009929
 40
0.8912544265
 40
0.929405824
 40
0.9653383362
 40
1.0
 40
1.0
 40
1.0
 40
1.0
 10
4.9942294025
 20
3.2423598654
 30
0.0
 10
4.9963599275
 20
3.2416963722
 30
0.0
 10
4.9994527798
 20
3.2406663639
 30
0.0
 10
5.003406178
 20
3.2391737364
 30
0.0
 10
5.0060900031
 20
3.238070537
 30
0.0
 10
5.0085730848
 20
3.2369533686
 30
0.0
 10
5.0108531521
 20
3.2358233365
 30
0.0
 10
5.0129281673
 20
3.2346815575
 30
0.0
 10
5.0147962283
 20
3.2335289627
 30
0.0
 10
5.0164557049
 20
3.2323664475
 30
0.0
 10
5.0179053265
 20
3.2311949062
 30
0.0
 10
5.0191438994
 20
3.2300148981
 30
0.0
 10
5.0201700866
 20
3.2288265461
 30
0.0
 10
5.0209825617
 20
3.2276299934
 30
0.0
 10
5.0215793447
 20
3.2264250424
 30
0.0
 10
5.0219572499
 20
3.2252127731
 30
0.0
 10
5.0220619472
 20
3.2243935297
 30
0.0
 10
5.0220762343
 20
3.2239908188
 30
0.0
  0
SPLINE
  5
2E4
100
AcDbEntity
  8
ALL_FEATURES
100
AcDbSpline
 62
7
  6
CONTINUOUS
 70
0
 71
3
 72
22
 73
18
 74
0
 42
0.0000001
 43
0.0000001
 44
0.0000000001
 40
0.0
 40
0.0
 40
0.0
 40
0.0
 40
0.1919418437
 40
0.280264122
 40
0.3634512285
 40
0.4414973964
 40
0.514425188
 40
0.5822829495
 40
0.6451480152
 40
0.7031433418
 40
0.7564511208
 40
0.805321835
 40
0.85009929
 40
0.8912544265
 40
0.929405824
 40
0.9653383362
 40
1.0
 40
1.0
 40
1.0
 40
1.0
 10
4.6099315777
 20
3.2423598654
 30
0.0
 10
4.6078010526
 20
3.2416963722
 30
0.0
 10
4.6047082003
 20
3.2406663639
 30
0.0
 10
4.6007548021
 20
3.2391737364
 30
0.0
 10
4.598070977
 20
3.238070537
 30
0.0
 10
4.5955878954
 20
3.2369533686
 30
0.0
 10
4.593307828
 20
3.2358233365
 30
0.0
 10
4.5912328128
 20
3.2346815575
 30
0.0
 10
4.5893647518
 20
3.2335289627
 30
0.0
 10
4.5877052753
 20
3.2323664475
 30
0.0
 10
4.5862556536
 20
3.2311949062
 30
0.0
 10
4.5850170807
 20
3.2300148981
 30
0.0
 10
4.5839908935
 20
3.2288265461
 30
0.0
 10
4.5831784185
 20
3.2276299934
 30
0.0
 10
4.5825816355
 20
3.2264250424
 30
0.0
 10
4.5822037302
 20
3.2252127731
 30
0.0
 10
4.5820990329
 20
3.2243935297
 30
0.0
 10
4.5820847459
 20
3.2239908188
 30
0.0
  0
LINE
  5
2E5
100
AcDbEntity
  8
ALL_FEATURES
100
AcDbLine
 62
7
  6
CONTINUOUS
 10
4.7403856767
 20
3.2392530139
 11
4.7412550804
 21
3.2384940346
  0
LINE
  5
2E6
100
AcDbEntity
  8
ALL_FEATURES
100
AcDbLine
 62
7
  6
CONTINUOUS
 10
4.8629058998
 20
3.2384940346
 11
4.8637753035
 21
3.2392530139
  0
SPLINE
  5
2E7
100
AcDbEntity
  8
ALL_FEATURES
100
AcDbSpline
 62
7
  6
CONTINUOUS
 70
0
 71
3
 72
26
 73
22
 74
0
 42
0.0000001
 43
0.0000001
 44
0.0000000001
 40
0.0
 40
0.0
 40
0.0
 40
0.0
 40
0.18760243
 40
0.3682627826
 40
0.4538389292
 40
0.5352134778
 40
0.6116400954
 40
0.6824165732
 40
0.7469430097
 40
0.8046706641
 40
0.8551812956
 40
0.8776301596
 40
0.8981681549
 40
0.9167933077
 40
0.9335198838
 40
0.9483836481
 40
0.9614549126
 40
0.9728674169
 40
0.9828437604
 40
0.9917251679
 40
1.0
 40
1.0
 40
1.0
 40
1.0
 10
4.8020804901
 20
3.2477183626
 30
0.0
 10
4.8046005392
 20
3.2477183626
 30
0.0
 10
4.8095477598
 20
3.2476351729
 30
0.0
 10
4.8156375408
 20
3.2473211205
 30
0.0
 10
4.8202917877
 20
3.246941098
 30
0.0
 10
4.8235439797
 20
3.2466046116
 30
0.0
 10
4.826590004
 20
3.2462152645
 30
0.0
 10
4.8294005014
 20
3.245776384
 30
0.0
 10
4.8319486352
 20
3.2452931686
 30
0.0
 10
4.8342102819
 20
3.244769842
 30
0.0
 10
4.8358997284
 20
3.2442884558
 30
0.0
 10
4.8370879877
 20
3.2438808532
 30
0.0
 10
4.8378594415
 20
3.2435803788
 30
0.0
 10
4.8385451924
 20
3.2432738989
 30
0.0
 10
4.8391439026
 20
3.2429621009
 30
0.0
 10
4.8396544073
 20
3.2426456354
 30
0.0
 10
4.8400757063
 20
3.2423247342
 30
0.0
 10
4.840407151
 20
3.2419993833
 30
0.0
 10
4.8406481091
 20
3.2416688451
 30
0.0
 10
4.8407963509
 20
3.241332191
 30
0.0
 10
4.8408304901
 20
3.2411006509
 30
0.0
 10
4.8408304901
 20
3.2409894957
 30
0.0
  0
SPLINE
  5
2E8
100
AcDbEntity
  8
ALL_FEATURES
100
AcDbSpline
 62
7
  6
CONTINUOUS
 70
0
 71
3
 72
36
 73
32
 74
0
 42
0.0000001
 43
0.0000001
 44
0.0000000001
 40
0.0
 40
0.0
 40
0.0
 40
0.0
 40
0.0091873543
 40
0.0142231494
 40
0.019593919
 40
0.0253244818
 40
0.0314346807
 40
0.0379403453
 40
0.0448537509
 40
0.0521840238
 40
0.059938121
 40
0.0767353244
 40
0.0952701352
 40
0.1155463405
 40
0.1375533199
 40
0.1612696067
 40
0.1866647012
 40
0.213700594
 40
0.2423329299
 40
0.2725114863
 40
0.3041812504
 40
0.3372822748
 40
0.3717508537
 40
0.4075189792
 40
0.4826647307
 40
0.5621135166
 40
0.6452140187
 40
0.7312790587
 40
0.819592272
 40
0.9094169082
 40
1.0
 40
1.0
 40
1.0
 40
1.0
 10
4.5280248834
 20
3.219801302
 30
0.0
 10
4.5283975427
 20
3.2190225034
 30
0.0
 10
4.529115106
 20
3.2178815682
 30
0.0
 10
4.5302847694
 20
3.2164586372
 30
0.0
 10
4.5313355247
 20
3.2153629917
 30
0.0
 10
4.5325316683
 20
3.2142728282
 30
0.0
 10
4.5338728832
 20
3.2131880713
 30
0.0
 10
4.5353584776
 20
3.2121093073
 30
0.0
 10
4.5369877617
 20
3.2110369945
 30
0.0
 10
4.5387598562
 20
3.2099715598
 30
0.0
 10
4.5413824982
 20
3.2085220158
 30
0.0
 10
4.545021871
 20
3.2067414645
 30
0.0
 10
4.5498316513
 20
3.2046937856
 30
0.0
 10
4.5551844032
 20
3.2026862423
 30
0.0
 10
4.561068953
 20
3.2007231184
 30
0.0
 10
4.5674731499
 20
3.1988087864
 30
0.0
 10
4.5743834555
 20
3.196947465
 30
0.0
 10
4.5817851831
 20
3.1951432788
 30
0.0
 10
4.5896625004
 20
3.1934002318
 30
0.0
 10
4.5979985135
 20
3.1917221438
 30
0.0
 10
4.6067752925
 20
3.1901127478
 30
0.0
 10
4.6159739457
 20
3.18857554
 30
0.0
 10
4.6255746414
 20
3.1871139141
 30
0.0
 10
4.6391078359
 20
3.1852392284
 30
0.0
 10
4.6568729321
 20
3.1831216027
 30
0.0
 10
4.6791072546
 20
3.180966175
 30
0.0
 10
4.7024031507
 20
3.1791760061
 30
0.0
 10
4.7265595129
 20
3.177766919
 30
0.0
 10
4.7513679849
 20
3.1767514255
 30
0.0
 10
4.7766142411
 20
3.1761385255
 30
0.0
 10
4.7935680899
 20
3.1760021112
 30
0.0
 10
4.8020804901
 20
3.1760021112
 30
0.0
  0
SPLINE
  5
2E9
100
AcDbEntity
  8
ALL_FEATURES
100
AcDbSpline
 62
7
  6
CONTINUOUS
 70
0
 71
3
 72
36
 73
32
 74
0
 42
0.0000001
 43
0.0000001
 44
0.0000000001
 40
0.0
 40
0.0
 40
0.0
 40
0.0
 40
0.0091873543
 40
0.0142231494
 40
0.019593919
 40
0.0253244818
 40
0.0314346807
 40
0.0379403453
 40
0.0448537509
 40
0.0521840238
 40
0.059938121
 40
0.0767353244
 40
0.0952701352
 40
0.1155463405
 40
0.1375533199
 40
0.1612696067
 40
0.1866647012
 40
0.213700594
 40
0.2423329299
 40
0.2725114863
 40
0.3041812504
 40
0.3372822748
 40
0.3717508537
 40
0.4075189792
 40
0.4826647307
 40
0.5621135166
 40
0.6452140187
 40
0.7312790587
 40
0.819592272
 40
0.9094169082
 40
1.0
 40
1.0
 40
1.0
 40
1.0
 10
5.0761360967
 20
3.219801302
 30
0.0
 10
5.0757634374
 20
3.2190225034
 30
0.0
 10
5.0750458741
 20
3.2178815682
 30
0.0
 10
5.0738762107
 20
3.2164586372
 30
0.0
 10
5.0728254554
 20
3.2153629917
 30
0.0
 10
5.0716293119
 20
3.2142728282
 30
0.0
 10
5.0702880969
 20
3.2131880713
 30
0.0
 10
5.0688025025
 20
3.2121093073
 30
0.0
 10
5.0671732185
 20
3.2110369945
 30
0.0
 10
5.0654011239
 20
3.2099715598
 30
0.0
 10
5.0627784819
 20
3.2085220158
 30
0.0
 10
5.0591391092
 20
3.2067414645
 30
0.0
 10
5.0543293289
 20
3.2046937856
 30
0.0
 10
5.048976577
 20
3.2026862423
 30
0.0
 10
5.0430920272
 20
3.2007231184
 30
0.0
 10
5.0366878302
 20
3.1988087864
 30
0.0
 10
5.0297775246
 20
3.196947465
 30
0.0
 10
5.022375797
 20
3.1951432788
 30
0.0
 10
5.0144984798
 20
3.1934002318
 30
0.0
 10
5.0061624666
 20
3.1917221438
 30
0.0
 10
4.9973856876
 20
3.1901127478
 30
0.0
 10
4.9881870344
 20
3.18857554
 30
0.0
 10
4.9785863387
 20
3.1871139141
 30
0.0
 10
4.9650531442
 20
3.1852392284
 30
0.0
 10
4.947288048
 20
3.1831216027
 30
0.0
 10
4.9250537256
 20
3.180966175
 30
0.0
 10
4.9017578294
 20
3.1791760061
 30
0.0
 10
4.8776014672
 20
3.177766919
 30
0.0
 10
4.8527929953
 20
3.1767514255
 30
0.0
 10
4.8275467391
 20
3.1761385255
 30
0.0
 10
4.8105928902
 20
3.1760021112
 30
0.0
 10
4.8020804901
 20
3.1760021112
 30
0.0
  0
LINE
  5
2EA
100
AcDbEntity
  8
ALL_FEATURES
100
AcDbLine
 62
7
  6
CONTINUOUS
 10
4.6034290895
 20
3.2248214566
 11
4.5957754208
 21
3.2280300565
  0
SPLINE
  5
2EB
100
AcDbEntity
  8
ALL_FEATURES
100
AcDbSpline
 62
7
  6
CONTINUOUS
 70
0
 71
3
 72
26
 73
22
 74
0
 42
0.0000001
 43
0.0000001
 44
0.0000000001
 40
0.0
 40
0.0
 40
0.0
 40
0.0
 40
0.18760243
 40
0.3682627826
 40
0.4538389292
 40
0.5352134778
 40
0.6116400954
 40
0.6824165732
 40
0.7469430097
 40
0.8046706641
 40
0.8551812956
 40
0.8776301596
 40
0.8981681549
 40
0.9167933077
 40
0.9335198838
 40
0.9483836481
 40
0.9614549126
 40
0.9728674169
 40
0.9828437604
 40
0.9917251679
 40
1.0
 40
1.0
 40
1.0
 40
1.0
 10
4.8020804901
 20
3.2342606288
 30
0.0
 10
4.799560441
 20
3.2342606288
 30
0.0
 10
4.7946132204
 20
3.2343438185
 30
0.0
 10
4.7885234394
 20
3.2346578709
 30
0.0
 10
4.7838691924
 20
3.2350378934
 30
0.0
 10
4.7806170004
 20
3.2353743798
 30
0.0
 10
4.7775709761
 20
3.2357637269
 30
0.0
 10
4.7747604787
 20
3.2362026074
 30
0.0
 10
4.7722123449
 20
3.2366858228
 30
0.0
 10
4.7699506982
 20
3.2372091494
 30
0.0
 10
4.7682612518
 20
3.2376905356
 30
0.0
 10
4.7670729924
 20
3.2380981382
 30
0.0
 10
4.7663015386
 20
3.2383986126
 30
0.0
 10
4.7656157877
 20
3.2387050925
 30
0.0
 10
4.7650170776
 20
3.2390168905
 30
0.0
 10
4.7645065728
 20
3.239333356
 30
0.0
 10
4.7640852739
 20
3.2396542572
 30
0.0
 10
4.7637538291
 20
3.2399796081
 30
0.0
 10
4.7635128711
 20
3.2403101463
 30
0.0
 10
4.7633646293
 20
3.2406468004
 30
0.0
 10
4.7633304901
 20
3.2408783405
 30
0.0
 10
4.7633304901
 20
3.2409894957
 30
0.0
  0
LINE
  5
2EC
100
AcDbEntity
  8
ALL_FEATURES
100
AcDbLine
 62
7
  6
CONTINUOUS
 10
4.8637999888
 20
3.243549259
 11
4.8637753035
 21
3.2427259775
  0
LINE
  5
2ED
100
AcDbEntity
  8
ALL_FEATURES
100
AcDbLine
 62
7
  6
CONTINUOUS
 10
4.8552675012
 20
3.2477695558
 11
4.8552522311
 21
3.2466935567
  0
SPLINE
  5
2EE
100
AcDbEntity
  8
ALL_FEATURES
100
AcDbSpline
 62
7
  6
CONTINUOUS
 70
0
 71
3
 72
39
 73
35
 74
0
 42
0.0000001
 43
0.0000001
 44
0.0000000001
 40
0.0
 40
0.0
 40
0.0
 40
0.0
 40
0.0041120235
 40
0.0082836945
 40
0.0125913369
 40
0.0171040454
 40
0.0218813776
 40
0.026973091
 40
0.0324198548
 40
0.0382542017
 40
0.0445013568
 40
0.0511810157
 40
0.0583085718
 40
0.065895934
 40
0.0739515414
 40
0.0824812547
 40
0.1009762179
 40
0.1213979957
 40
0.1437394984
 40
0.1679807606
 40
0.1940878291
 40
0.2220189779
 40
0.2517226246
 40
0.2831411648
 40
0.316210023
 40
0.3508590096
 40
0.3870131703
 40
0.4635101768
 40
0.545013507
 40
0.6307753984
 40
0.7200016283
 40
0.811857113
 40
0.9054855759
 40
1.0
 40
1.0
 40
1.0
 40
1.0
 10
4.5820847459
 20
3.2239908188
 30
0.0
 10
4.5820736147
 20
3.2236770624
 30
0.0
 10
4.5820963016
 20
3.2230424848
 30
0.0
 10
4.5822662766
 20
3.2220933025
 30
0.0
 10
4.5825715681
 20
3.2211465402
 30
0.0
 10
4.583011099
 20
3.2202033507
 30
0.0
 10
4.5835837376
 20
3.219264088
 30
0.0
 10
4.5842886455
 20
3.2183290056
 30
0.0
 10
4.5851252053
 20
3.217398304
 30
0.0
 10
4.5860928683
 20
3.2164722568
 30
0.0
 10
4.5871909646
 20
3.21555109
 30
0.0
 10
4.5884188686
 20
3.2146351696
 30
0.0
 10
4.5897759463
 20
3.2137249197
 30
0.0
 10
4.591261516
 20
3.2128208705
 30
0.0
 10
4.5928747043
 20
3.2119234431
 30
0.0
 10
4.5952595108
 20
3.2107032608
 30
0.0
 10
4.5985611678
 20
3.2092074507
 30
0.0
 10
4.6029139041
 20
3.2074920566
 30
0.0
 10
4.6077483137
 20
3.2058148855
 30
0.0
 10
4.6130530451
 20
3.2041803839
 30
0.0
 10
4.6188156602
 20
3.2025923249
 30
0.0
 10
4.6250224325
 20
3.2010549342
 30
0.0
 10
4.63165849
 20
3.1995718391
 30
0.0
 10
4.6387078599
 20
3.1981468609
 30
0.0
 10
4.6461535274
 20
3.1967834748
 30
0.0
 10
4.6539775037
 20
3.1954850169
 30
0.0
 10
4.6650993073
 20
3.1938131844
 30
0.0
 10
4.679803987
 20
3.1919233024
 30
0.0
 10
4.6983171042
 20
3.1899992663
 30
0.0
 10
4.7178361419
 20
3.1883981499
 30
0.0
 10
4.7381718039
 20
3.1871359558
 30
0.0
 10
4.7591273584
 20
3.1862252488
 30
0.0
 10
4.7804992409
 20
3.1856752227
 30
0.0
 10
4.7948642952
 20
3.1855527609
 30
0.0
 10
4.8020804901
 20
3.1855527609
 30
0.0
  0
SPLINE
  5
2EF
100
AcDbEntity
  8
ALL_FEATURES
100
AcDbSpline
 62
7
  6
CONTINUOUS
 70
0
 71
3
 72
26
 73
22
 74
0
 42
0.0000001
 43
0.0000001
 44
0.0000000001
 40
0.0
 40
0.0
 40
0.0
 40
0.0
 40
0.0082748321
 40
0.0171562396
 40
0.0271325831
 40
0.0385450874
 40
0.0516163519
 40
0.0664801162
 40
0.0832066923
 40
0.1018318451
 40
0.1223698404
 40
0.1448187044
 40
0.1953293359
 40
0.2530569903
 40
0.3175834268
 40
0.3883599046
 40
0.4647865222
 40
0.5461610708
 40
0.6317372174
 40
0.81239757
 40
1.0
 40
1.0
 40
1.0
 40
1.0
 10
4.8408304901
 20
3.2409894957
 30
0.0
 10
4.8408304901
 20
3.2408783405
 30
0.0
 10
4.8407963509
 20
3.2406468004
 30
0.0
 10
4.8406481091
 20
3.2403101463
 30
0.0
 10
4.840407151
 20
3.2399796081
 30
0.0
 10
4.8400757063
 20
3.2396542572
 30
0.0
 10
4.8396544073
 20
3.239333356
 30
0.0
 10
4.8391439026
 20
3.2390168905
 30
0.0
 10
4.8385451924
 20
3.2387050925
 30
0.0
 10
4.8378594415
 20
3.2383986126
 30
0.0
 10
4.8370879877
 20
3.2380981382
 30
0.0
 10
4.8358997284
 20
3.2376905356
 30
0.0
 10
4.8342102819
 20
3.2372091494
 30
0.0
 10
4.8319486352
 20
3.2366858228
 30
0.0
 10
4.8294005014
 20
3.2362026074
 30
0.0
 10
4.826590004
 20
3.2357637269
 30
0.0
 10
4.8235439797
 20
3.2353743798
 30
0.0
 10
4.8202917877
 20
3.2350378934
 30
0.0
 10
4.8156375408
 20
3.2346578709
 30
0.0
 10
4.8095477598
 20
3.2343438185
 30
0.0
 10
4.8046005392
 20
3.2342606288
 30
0.0
 10
4.8020804901
 20
3.2342606288
 30
0.0
  0
LINE
  5
2F0
100
AcDbEntity
  8
ALL_FEATURES
100
AcDbLine
 62
7
  6
CONTINUOUS
 10
4.8386268824
 20
3.2517729351
 11
4.8386342432
 21
3.2497927444
  0
LINE
  5
2F1
100
AcDbEntity
  8
ALL_FEATURES
100
AcDbLine
 62
7
  6
CONTINUOUS
 10
4.8163752526
 20
3.2551596849
 11
4.8164512777
 21
3.2515517173
  0
LINE
  5
2F2
100
AcDbEntity
  8
ALL_FEATURES
100
AcDbLine
 62
7
  6
CONTINUOUS
 10
4.7877097024
 20
3.2515517173
 11
4.7877857276
 21
3.2551596849
  0
LINE
  5
2F3
100
AcDbEntity
  8
ALL_FEATURES
100
AcDbLine
 62
7
  6
CONTINUOUS
 10
4.765526737
 20
3.2497927444
 11
4.7655340977
 21
3.2517729351
  0
SPLINE
  5
2F4
100
AcDbEntity
  8
ALL_FEATURES
100
AcDbSpline
 62
7
  6
CONTINUOUS
 70
0
 71
3
 72
39
 73
35
 74
0
 42
0.0000001
 43
0.0000001
 44
0.0000000001
 40
0.0
 40
0.0
 40
0.0
 40
0.0
 40
0.0041120235
 40
0.0082836945
 40
0.0125913369
 40
0.0171040454
 40
0.0218813776
 40
0.026973091
 40
0.0324198548
 40
0.0382542017
 40
0.0445013568
 40
0.0511810157
 40
0.0583085718
 40
0.065895934
 40
0.0739515414
 40
0.0824812547
 40
0.1009762179
 40
0.1213979957
 40
0.1437394984
 40
0.1679807606
 40
0.1940878291
 40
0.2220189779
 40
0.2517226246
 40
0.2831411648
 40
0.316210023
 40
0.3508590096
 40
0.3870131703
 40
0.4635101768
 40
0.545013507
 40
0.6307753984
 40
0.7200016283
 40
0.811857113
 40
0.9054855759
 40
1.0
 40
1.0
 40
1.0
 40
1.0
 10
5.0220762343
 20
3.2239908188
 30
0.0
 10
5.0220873655
 20
3.2236770624
 30
0.0
 10
5.0220646786
 20
3.2230424848
 30
0.0
 10
5.0218947035
 20
3.2220933025
 30
0.0
 10
5.021589412
 20
3.2211465402
 30
0.0
 10
5.0211498812
 20
3.2202033507
 30
0.0
 10
5.0205772425
 20
3.219264088
 30
0.0
 10
5.0198723346
 20
3.2183290056
 30
0.0
 10
5.0190357749
 20
3.217398304
 30
0.0
 10
5.0180681119
 20
3.2164722568
 30
0.0
 10
5.0169700155
 20
3.21555109
 30
0.0
 10
5.0157421115
 20
3.2146351696
 30
0.0
 10
5.0143850339
 20
3.2137249197
 30
0.0
 10
5.0128994642
 20
3.2128208705
 30
0.0
 10
5.0112862758
 20
3.2119234431
 30
0.0
 10
5.0089014694
 20
3.2107032608
 30
0.0
 10
5.0055998123
 20
3.2092074507
 30
0.0
 10
5.001247076
 20
3.2074920566
 30
0.0
 10
4.9964126664
 20
3.2058148855
 30
0.0
 10
4.991107935
 20
3.2041803839
 30
0.0
 10
4.9853453199
 20
3.2025923249
 30
0.0
 10
4.9791385477
 20
3.2010549342
 30
0.0
 10
4.9725024901
 20
3.1995718391
 30
0.0
 10
4.9654531202
 20
3.1981468609
 30
0.0
 10
4.9580074528
 20
3.1967834748
 30
0.0
 10
4.9501834764
 20
3.1954850169
 30
0.0
 10
4.9390616728
 20
3.1938131844
 30
0.0
 10
4.9243569932
 20
3.1919233024
 30
0.0
 10
4.905843876
 20
3.1899992663
 30
0.0
 10
4.8863248382
 20
3.1883981499
 30
0.0
 10
4.8659891763
 20
3.1871359558
 30
0.0
 10
4.8450336217
 20
3.1862252488
 30
0.0
 10
4.8236617392
 20
3.1856752227
 30
0.0
 10
4.8092966849
 20
3.1855527609
 30
0.0
 10
4.8020804901
 20
3.1855527609
 30
0.0
  0
LINE
  5
2F5
100
AcDbEntity
  8
ALL_FEATURES
100
AcDbLine
 62
7
  6
CONTINUOUS
 10
4.748908749
 20
3.2466935567
 11
4.7488934789
 21
3.2477695558
  0
LINE
  5
2F6
100
AcDbEntity
  8
ALL_FEATURES
100
AcDbLine
 62
7
  6
CONTINUOUS
 10
4.7403856767
 20
3.2427259775
 11
4.7403609914
 21
3.243549259
  0
LINE
  5
2F7
100
AcDbEntity
  8
ALL_FEATURES
100
AcDbLine
 62
7
  6
CONTINUOUS
 10
4.8637753035
 20
3.2427259775
 11
4.8629058998
 21
3.2434849568
  0
LINE
  5
2F8
100
AcDbEntity
  8
ALL_FEATURES
100
AcDbLine
 62
7
  6
CONTINUOUS
 10
4.5957754208
 20
3.2280300565
 11
4.5959619315
 21
3.23709378
  0
LINE
  5
2F9
100
AcDbEntity
  8
ALL_FEATURES
100
AcDbLine
 62
7
  6
CONTINUOUS
 10
4.7412550804
 20
3.2434849568
 11
4.7403856767
 21
3.2427259775
  0
LINE
  5
2FA
100
AcDbEntity
  8
ALL_FEATURES
100
AcDbLine
 62
7
  6
CONTINUOUS
 10
4.6400392904
 20
3.2153070928
 11
4.6400537035
 21
3.2274557663
  0
LINE
  5
2FB
100
AcDbEntity
  8
ALL_FEATURES
100
AcDbLine
 62
7
  6
CONTINUOUS
 10
4.7089724638
 20
3.206494042
 11
4.7086815859
 21
3.2223151891
  0
LINE
  5
2FC
100
AcDbEntity
  8
ALL_FEATURES
100
AcDbLine
 62
7
  6
CONTINUOUS
 10
5.0081990487
 20
3.23709378
 11
5.0083855593
 21
3.2280300565
  0
LINE
  5
2FD
100
AcDbEntity
  8
ALL_FEATURES
100
AcDbLine
 62
7
  6
CONTINUOUS
 10
4.9641072766
 20
3.2274557663
 11
4.9641216897
 21
3.2153070928
  0
LINE
  5
2FE
100
AcDbEntity
  8
ALL_FEATURES
100
AcDbLine
 62
7
  6
CONTINUOUS
 10
4.7920804901
 20
3.2029326114
 11
4.7911183151
 21
3.2302423859
  0
LINE
  5
2FF
100
AcDbEntity
  8
ALL_FEATURES
100
AcDbLine
 62
7
  6
CONTINUOUS
 10
4.8130426651
 20
3.2302423859
 11
4.8120804901
 21
3.2029326114
  0
LINE
  5
300
100
AcDbEntity
  8
ALL_FEATURES
100
AcDbLine
 62
7
  6
CONTINUOUS
 10
4.8954793943
 20
3.2223151891
 11
4.8951885164
 21
3.206494042
  0
LINE
  5
301
100
AcDbEntity
  8
ALL_FEATURES
100
AcDbLine
 62
7
  6
CONTINUOUS
 10
5.0083855593
 20
3.2280300565
 11
5.0007318907
 21
3.2248214566
  0
SPLINE
  5
302
100
AcDbEntity
  8
ALL_FEATURES
100
AcDbSpline
 62
7
  6
CONTINUOUS
 70
0
 71
3
 72
19
 73
15
 74
0
 42
0.0000001
 43
0.0000001
 44
0.0000000001
 40
0.0
 40
0.0
 40
0.0
 40
0.0
 40
0.1644471208
 40
0.3227929994
 40
0.4721936559
 40
0.6098889249
 40
0.6735641862
 40
0.7334057973
 40
0.7891616392
 40
0.8406093202
 40
0.8875433744
 40
0.9298142675
 40
0.96731733
 40
1.0
 40
1.0
 40
1.0
 40
1.0
 10
4.8395490735
 20
3.254815158
 30
0.0
 10
4.8525460659
 20
3.2545173645
 30
0.0
 10
4.87805203
 20
3.2536248627
 30
0.0
 10
4.9153170582
 20
3.2513605477
 30
0.0
 10
4.950397469
 20
3.2482342477
 30
0.0
 10
4.9779312804
 20
3.2448835684
 30
0.0
 10
4.9983474439
 20
3.2417743756
 30
0.0
 10
5.0123089496
 20
3.2393305347
 30
0.0
 10
5.0252569991
 20
3.2367261587
 30
0.0
 10
5.0371299692
 20
3.233975488
 30
0.0
 10
5.0478712343
 20
3.2310906522
 30
0.0
 10
5.0574312635
 20
3.2280870738
 30
0.0
 10
5.0657660874
 20
3.2249814451
 30
0.0
 10
5.0708294611
 20
3.2226950511
 30
0.0
 10
5.0731297714
 20
3.2215185042
 30
0.0
  0
SPLINE
  5
303
100
AcDbEntity
  8
ALL_FEATURES
100
AcDbSpline
 62
7
  6
CONTINUOUS
 70
0
 71
3
 72
15
 73
11
 74
0
 42
0.0000001
 43
0.0000001
 44
0.0000000001
 40
0.0
 40
0.0
 40
0.0
 40
0.0
 40
0.1749091396
 40
0.3332009311
 40
0.4754439691
 40
0.6025471883
 40
0.7159710247
 40
0.817864744
 40
0.9112311239
 40
1.0
 40
1.0
 40
1.0
 40
1.0
 10
5.0731297714
 20
3.2215185042
 30
0.0
 10
5.0743270063
 20
3.2209061508
 30
0.0
 10
5.076578564
 20
3.2196806453
 30
0.0
 10
5.0796710013
 20
3.2177260086
 30
0.0
 10
5.0823041102
 20
3.2157499028
 30
0.0
 10
5.0844737076
 20
3.2137525954
 30
0.0
 10
5.0861768723
 20
3.2117339006
 30
0.0
 10
5.0874091016
 20
3.2096911672
 30
0.0
 10
5.0881599793
 20
3.2076241475
 30
0.0
 10
5.0883304901
 20
3.2062188955
 30
0.0
 10
5.0883304901
 20
3.2055364166
 30
0.0
  0
SPLINE
  5
304
100
AcDbEntity
  8
ALL_FEATURES
100
AcDbSpline
 62
7
  6
CONTINUOUS
 70
0
 71
3
 72
24
 73
20
 74
0
 42
0.0000001
 43
0.0000001
 44
0.0000000001
 40
0.0
 40
0.0
 40
0.0
 40
0.0
 40
0.1882916929
 40
0.3697418524
 40
0.4556226531
 40
0.5372355849
 40
0.6138438708
 40
0.6847539936
 40
0.7492964273
 40
0.8069295539
 40
0.8572265812
 40
0.8998482062
 40
0.9347165628
 40
0.949317738
 40
0.9621187936
 40
0.9732667919
 40
0.9830157823
 40
0.9917500848
 40
1.0
 40
1.0
 40
1.0
 40
1.0
 10
5.1385338925
 20
3.1458448555
 30
0.0
 10
5.1426366644
 20
3.1458448555
 30
0.0
 10
5.1506937342
 20
3.1459807647
 30
0.0
 10
5.1606107577
 20
3.1464922893
 30
0.0
 10
5.1681892136
 20
3.1471125005
 30
0.0
 10
5.1734801267
 20
3.1476615342
 30
0.0
 10
5.1784326226
 20
3.1482978116
 30
0.0
 10
5.1829981905
 20
3.1490138582
 30
0.0
 10
5.1871316312
 20
3.1498035332
 30
0.0
 10
5.1907923744
 20
3.1506584924
 30
0.0
 10
5.1939464783
 20
3.15156792
 30
0.0
 10
5.1965639197
 20
3.1525241912
 30
0.0
 10
5.1983785726
 20
3.1533953656
 30
0.0
 10
5.1995226236
 20
3.1541281188
 30
0.0
 10
5.2001814515
 20
3.1546522603
 30
0.0
 10
5.2006915566
 20
3.1551843415
 30
0.0
 10
5.2010516271
 20
3.1557256018
 30
0.0
 10
5.2012574957
 20
3.1562769942
 30
0.0
 10
5.201286778
 20
3.1566519186
 30
0.0
 10
5.2012746616
 20
3.1568312709
 30
0.0
  0
SPLINE
  5
305
100
AcDbEntity
  8
ALL_FEATURES
100
AcDbSpline
 62
7
  6
CONTINUOUS
 70
0
 71
3
 72
15
 73
11
 74
0
 42
0.0000001
 43
0.0000001
 44
0.0000000001
 40
0.0
 40
0.0
 40
0.0
 40
0.0
 40
0.0887688761
 40
0.182135256
 40
0.2840289753
 40
0.3974528117
 40
0.5245560309
 40
0.6667990689
 40
0.8250908604
 40
1.0
 40
1.0
 40
1.0
 40
1.0
 10
4.5158304901
 20
3.2055364166
 30
0.0
 10
4.5158304901
 20
3.2062188955
 30
0.0
 10
4.5160010008
 20
3.2076241475
 30
0.0
 10
4.5167518786
 20
3.2096911672
 30
0.0
 10
4.5179841079
 20
3.2117339006
 30
0.0
 10
4.5196872726
 20
3.2137525954
 30
0.0
 10
4.5218568699
 20
3.2157499028
 30
0.0
 10
4.5244899789
 20
3.2177260086
 30
0.0
 10
4.5275824162
 20
3.2196806453
 30
0.0
 10
4.5298339739
 20
3.2209061508
 30
0.0
 10
4.5310312087
 20
3.2215185042
 30
0.0
  0
SPLINE
  5
306
100
AcDbEntity
  8
ALL_FEATURES
100
AcDbSpline
 62
7
  6
CONTINUOUS
 70
0
 71
3
 72
19
 73
15
 74
0
 42
0.0000001
 43
0.0000001
 44
0.0000000001
 40
0.0
 40
0.0
 40
0.0
 40
0.0
 40
0.03268267
 40
0.0701857325
 40
0.1124566256
 40
0.1593906798
 40
0.2108383608
 40
0.2665942027
 40
0.3264358138
 40
0.3901110751
 40
0.5278063441
 40
0.6772070006
 40
0.8355528792
 40
1.0
 40
1.0
 40
1.0
 40
1.0
 10
4.5310312087
 20
3.2215185042
 30
0.0
 10
4.5333315191
 20
3.2226950511
 30
0.0
 10
4.5383948928
 20
3.2249814451
 30
0.0
 10
4.5467297166
 20
3.2280870738
 30
0.0
 10
4.5562897458
 20
3.2310906522
 30
0.0
 10
4.5670310109
 20
3.233975488
 30
0.0
 10
4.5789039811
 20
3.2367261587
 30
0.0
 10
4.5918520305
 20
3.2393305347
 30
0.0
 10
4.6058135362
 20
3.2417743756
 30
0.0
 10
4.6262296997
 20
3.2448835684
 30
0.0
 10
4.6537635112
 20
3.2482342477
 30
0.0
 10
4.688843922
 20
3.2513605477
 30
0.0
 10
4.7261089502
 20
3.2536248627
 30
0.0
 10
4.7516149143
 20
3.2545173645
 30
0.0
 10
4.7646119066
 20
3.254815158
 30
0.0
  0
SPLINE
  5
307
100
AcDbEntity
  8
ALL_FEATURES
100
AcDbSpline
 62
7
  6
CONTINUOUS
 70
0
 71
3
 72
12
 73
8
 74
0
 42
0.0000001
 43
0.0000001
 44
0.0000000001
 40
0.0
 40
0.0
 40
0.0
 40
0.0
 40
0.0952051
 40
0.1932148589
 40
0.4110289862
 40
0.6760361254
 40
1.0
 40
1.0
 40
1.0
 40
1.0
 10
4.4028863186
 20
3.156831271
 30
0.0
 10
4.4028773761
 20
3.1566989009
 30
0.0
 10
4.4028878919
 20
3.1564274723
 30
0.0
 10
4.4030296503
 20
3.1558687003
 30
0.0
 10
4.4034557578
 20
3.155161566
 30
0.0
 10
4.404272864
 20
3.1543791155
 30
0.0
 10
4.4049563003
 20
3.1539187911
 30
0.0
 10
4.4053435591
 20
3.1536867503
 30
0.0
  0
SPLINE
  5
308
100
AcDbEntity
  8
ALL_FEATURES
100
AcDbSpline
 62
7
  6
CONTINUOUS
 70
0
 71
3
 72
17
 73
13
 74
0
 42
0.0000001
 43
0.0000001
 44
0.0000000001
 40
0.0
 40
0.0
 40
0.0
 40
0.0
 40
0.029472557
 40
0.0644342758
 40
0.1048994523
 40
0.1507320294
 40
0.2575666683
 40
0.3826895546
 40
0.5230482687
 40
0.6752778676
 40
0.8357358889
 40
1.0
 40
1.0
 40
1.0
 40
1.0
 10
4.4053435591
 20
3.1536867503
 30
0.0
 10
4.4058591728
 20
3.1533778008
 30
0.0
 10
4.4070341665
 20
3.1527821067
 30
0.0
 10
4.4090220476
 20
3.1519870209
 30
0.0
 10
4.4113750036
 20
3.1512208709
 30
0.0
 10
4.4151781792
 20
3.1501911973
 30
0.0
 10
4.4207324133
 20
3.1490493134
 30
0.0
 10
4.4282440547
 20
3.147923048
 30
0.0
 10
4.4367165916
 20
3.1470125947
 30
0.0
 10
4.4459337501
 20
3.146343831
 30
0.0
 10
4.4556539066
 20
3.1459366042
 30
0.0
 10
4.4622769318
 20
3.1458448555
 30
0.0
 10
4.4656270743
 20
3.1458448555
 30
0.0
  0
SPLINE
  5
309
100
AcDbEntity
  8
ALL_FEATURES
100
AcDbSpline
 62
7
  6
CONTINUOUS
 70
0
 71
3
 72
8
 73
4
 74
0
 42
0.0000001
 43
0.0000001
 44
0.0000000001
 40
0.0
 40
0.0
 40
0.0
 40
0.0
 40
1.0
 40
1.0
 40
1.0
 40
1.0
 10
4.4146022804
 20
3.9452279777
 30
0.0
 10
4.4145877625
 20
3.9452279082
 30
0.0
 10
4.4145732447
 20
3.9452278388
 30
0.0
 10
4.4145587268
 20
3.9452277694
 30
0.0
  0
LINE
  5
30A
100
AcDbEntity
  8
ALL_FEATURES
100
AcDbLine
 62
9
  6
CONTINUOUS
 10
4.4074387972
 20
3.2261335344
 11
4.407193758
 21
3.2218707885
  0
LINE
  5
30B
100
AcDbEntity
  8
ALL_FEATURES
100
AcDbLine
 62
9
  6
CONTINUOUS
 10
4.407193758
 20
3.2218707885
 11
4.4071114674
 21
3.2204516222
  0
LINE
  5
30C
100
AcDbEntity
  8
ALL_FEATURES
100
AcDbLine
 62
9
  6
CONTINUOUS
 10
4.4071114674
 20
3.2204516222
 11
4.4070701996
 21
3.2197423179
  0
LINE
  5
30D
100
AcDbEntity
  8
ALL_FEATURES
100
AcDbLine
 62
9
  6
CONTINUOUS
 10
4.4070701996
 20
3.2197423179
 11
4.4070328993
 21
3.2191025964
  0
LINE
  5
30E
100
AcDbEntity
  8
ALL_FEATURES
100
AcDbLine
 62
9
  6
CONTINUOUS
 10
4.4070328993
 20
3.2191025964
 11
4.4066812551
 21
3.2131350405
  0
LINE
  5
30F
100
AcDbEntity
  8
ALL_FEATURES
100
AcDbLine
 62
9
  6
CONTINUOUS
 10
4.4036040701
 20
3.1648279796
 11
4.403113702
 21
3.1576362303
  0
SPLINE
  5
310
100
AcDbEntity
  8
ALL_FEATURES
100
AcDbSpline
 62
9
  6
CONTINUOUS
 70
0
 71
3
 72
23
 73
19
 74
0
 42
0.0000001
 43
0.0000001
 44
0.0000000001
 40
0.0
 40
0.0
 40
0.0
 40
0.0
 40
0.1537055937
 40
0.2300551841
 40
0.3055188358
 40
0.4521586827
 40
0.5225547926
 40
0.5904905409
 40
0.6555920916
 40
0.7174859768
 40
0.7757954443
 40
0.8301387362
 40
0.8801268467
 40
0.9253639416
 40
0.9460767633
 40
0.965452584
 40
0.9834428076
 40
1.0
 40
1.0
 40
1.0
 40
1.0
 10
5.2661193152
 20
2.5074391525
 30
0.0
 10
5.269917873
 20
2.5504429206
 30
0.0
 10
5.2742949163
 20
2.6149345405
 30
0.0
 10
5.2773889603
 20
2.7006944367
 30
0.0
 10
5.2786536062
 20
2.784516414
 30
0.0
 10
5.2773890334
 20
2.8666866022
 30
0.0
 10
5.2738418775
 20
2.9466511357
 30
0.0
 10
5.2702656071
 20
3.0036806746
 30
0.0
 10
5.2658710135
 20
3.0582569879
 30
0.0
 10
5.2607887327
 20
3.110057426
 30
0.0
 10
5.2551417953
 20
3.1587585562
 30
0.0
 10
5.2490444488
 20
3.2040335399
 30
0.0
 10
5.2425997311
 20
3.2455484521
 30
0.0
 10
5.2368632146
 20
3.2776067796
 30
0.0
 10
5.232126431
 20
3.3011002569
 30
0.0
 10
5.2286427453
 20
3.3170373915
 30
0.0
 10
5.2251318085
 20
3.3317711704
 30
0.0
 10
5.2226746045
 20
3.3411594102
 30
0.0
 10
5.2214345462
 20
3.3456414372
 30
0.0
  0
SPLINE
  5
311
100
AcDbEntity
  8
ALL_FEATURES
100
AcDbSpline
 62
9
  6
CONTINUOUS
 70
0
 71
3
 72
15
 73
11
 74
0
 42
0.0000001
 43
0.0000001
 44
0.0000000001
 40
0.0
 40
0.0
 40
0.0
 40
0.0
 40
0.1296162574
 40
0.2620158554
 40
0.3953196753
 40
0.5274071021
 40
0.6560984772
 40
0.7792200315
 40
0.8945922469
 40
1.0
 40
1.0
 40
1.0
 40
1.0
 10
5.2661193152
 20
2.5074391525
 30
0.0
 10
5.2621175742
 20
2.5351195177
 30
0.0
 10
5.2535601917
 20
2.5910066729
 30
0.0
 10
5.2400582033
 20
2.6752317927
 30
0.0
 10
5.2263951625
 20
2.7599713274
 30
0.0
 10
5.2130193027
 20
2.8439465396
 30
0.0
 10
5.2001921427
 20
2.9257841012
 30
0.0
 10
5.1880538458
 20
3.0040786853
 30
0.0
 10
5.1766842122
 20
3.077408308
 30
0.0
 10
5.1692676645
 20
3.1244667779
 30
0.0
 10
5.16565182
 20
3.146922031
 30
0.0
  0
LINE
  5
312
100
AcDbEntity
  8
ALL_FEATURES
100
AcDbLine
 62
9
  6
CONTINUOUS
 10
5.2214347557
 20
3.3456635725
 11
5.2213064226
 21
3.3460825627
  0
LINE
  5
313
100
AcDbEntity
  8
ALL_FEATURES
100
AcDbLine
 62
9
  6
CONTINUOUS
 10
5.2213073501
 20
3.3461855188
 11
5.220829928
 21
3.3477304457
  0
SPLINE
  5
314
100
AcDbEntity
  8
ALL_FEATURES
100
AcDbSpline
 62
9
  6
CONTINUOUS
 70
0
 71
3
 72
14
 73
10
 74
0
 42
0.0000001
 43
0.0000001
 44
0.0000000001
 40
0.0
 40
0.0
 40
0.0
 40
0.0
 40
0.2488170201
 40
0.3736805279
 40
0.4986091936
 40
0.6236758385
 40
0.7489367197
 40
0.8743850337
 40
1.0
 40
1.0
 40
1.0
 40
1.0
 10
5.2213066217
 20
3.3461046682
 30
0.0
 10
5.2212566354
 20
3.3406865559
 30
0.0
 10
5.2202913007
 20
3.3325227332
 30
0.0
 10
5.217298559
 20
3.3220707293
 30
0.0
 10
5.2142142386
 20
3.3144943077
 30
0.0
 10
5.2103346945
 20
3.3072848605
 30
0.0
 10
5.205698604
 20
3.3005225965
 30
0.0
 10
5.2003655713
 20
3.2942810112
 30
0.0
 10
5.1963823187
 20
3.2905181745
 30
0.0
 10
5.1942970188
 20
3.2887478138
 30
0.0
  0
SPLINE
  5
315
100
AcDbEntity
  8
ALL_FEATURES
100
AcDbSpline
 62
9
  6
CONTINUOUS
 70
0
 71
3
 72
21
 73
17
 74
0
 42
0.0000001
 43
0.0000001
 44
0.0000000001
 40
0.0
 40
0.0
 40
0.0
 40
0.0
 40
0.2186667656
 40
0.4059075609
 40
0.4880766174
 40
0.5628282809
 40
0.6303784105
 40
0.6909926183
 40
0.7450062652
 40
0.7928595798
 40
0.8351351933
 40
0.872622049
 40
0.9063825268
 40
0.9377851548
 40
0.9684406861
 40
1.0
 40
1.0
 40
1.0
 40
1.0
 10
5.2208304896
 20
3.3478074024
 30
0.0
 10
5.2199064554
 20
3.3510751477
 30
0.0
 10
5.2180815825
 20
3.3571110188
 30
0.0
 10
5.2155288971
 20
3.3642533215
 30
0.0
 10
5.2134659602
 20
3.3691852548
 30
0.0
 10
5.2119907454
 20
3.3723449996
 30
0.0
 10
5.2105200644
 20
3.3751337155
 30
0.0
 10
5.2090540875
 20
3.3775558272
 30
0.0
 10
5.2075926428
 20
3.3796161958
 30
0.0
 10
5.2061348492
 20
3.381320003
 30
0.0
 10
5.2046785859
 20
3.3826722737
 30
0.0
 10
5.2032202599
 20
3.3836766309
 30
0.0
 10
5.2017560466
 20
3.3843332596
 30
0.0
 10
5.2002858566
 20
3.3846376206
 30
0.0
 10
5.1988194583
 20
3.384587035
 30
0.0
 10
5.1978789539
 20
3.3843290565
 30
0.0
 10
5.19742137
 20
3.3841534755
 30
0.0
  0
SPLINE
  5
316
100
AcDbEntity
  8
ALL_FEATURES
100
AcDbSpline
 62
9
  6
CONTINUOUS
 70
0
 71
3
 72
14
 73
10
 74
0
 42
0.0000001
 43
0.0000001
 44
0.0000000001
 40
0.0
 40
0.0
 40
0.0
 40
0.0
 40
0.2488587159
 40
0.3737363076
 40
0.4986713644
 40
0.623734967
 40
0.7489836753
 40
0.8744124121
 40
1.0
 40
1.0
 40
1.0
 40
1.0
 10
5.2208304896
 20
3.3478074024
 30
0.0
 10
5.2207903958
 20
3.3424290687
 30
0.0
 10
5.2198517556
 20
3.3343241397
 30
0.0
 10
5.2169161032
 20
3.3239396919
 30
0.0
 10
5.2138845834
 20
3.31640808
 30
0.0
 10
5.2100670579
 20
3.3092357049
 30
0.0
 10
5.2055007799
 20
3.3025015927
 30
0.0
 10
5.2002440134
 20
3.2962781508
 30
0.0
 10
5.1963150897
 20
3.2925196457
 30
0.0
 10
5.1942573852
 20
3.2907495793
 30
0.0
  0
LINE
  5
317
100
AcDbEntity
  8
ALL_FEATURES
100
AcDbLine
 62
9
  6
CONTINUOUS
 10
5.1974200596
 20
3.3841530889
 11
5.1973022773
 21
3.3841106271
  0
SPLINE
  5
318
100
AcDbEntity
  8
ALL_FEATURES
100
AcDbSpline
 62
7
  6
CONTINUOUS
 70
0
 71
3
 72
29
 73
25
 74
0
 42
0.0000001
 43
0.0000001
 44
0.0000000001
 40
0.0
 40
0.0
 40
0.0
 40
0.0
 40
0.0082745724
 40
0.0171551918
 40
0.0271309197
 40
0.0385444315
 40
0.0516174845
 40
0.0664792269
 40
0.0832027624
 40
0.1018278646
 40
0.1223700121
 40
0.1448179973
 40
0.1691474458
 40
0.1953270705
 40
0.2530614678
 40
0.317580496
 40
0.3883599365
 40
0.4647765606
 40
0.5461556417
 40
0.6317397104
 40
0.7207450364
 40
0.81237715
 40
0.9057966556
 40
1.0
 40
1.0
 40
1.0
 40
1.0
 10
5.0883304901
 20
3.2055364166
 30
0.0
 10
5.0883304901
 20
3.2047153104
 30
0.0
 10
5.0880785735
 20
3.2030049625
 30
0.0
 10
5.0869840184
 20
3.200517937
 30
0.0
 10
5.0852041521
 20
3.1980760572
 30
0.0
 10
5.0827551309
 20
3.1956728187
 30
0.0
 10
5.0796424205
 20
3.1933027765
 30
0.0
 10
5.0758718533
 20
3.1909645611
 30
0.0
 10
5.0714496974
 20
3.1886610073
 30
0.0
 10
5.0663837496
 20
3.1863969393
 30
0.0
 10
5.0606841168
 20
3.1841782451
 30
0.0
 10
5.0543641058
 20
3.1820093443
 30
0.0
 10
5.0474386272
 20
3.1798953648
 30
0.0
 10
5.0370757628
 20
3.177064574
 30
0.0
 10
5.022719104
 20
3.1737462412
 30
0.0
 10
5.0038962648
 20
3.1701740074
 30
0.0
 10
4.983135284
 20
3.1669341669
 30
0.0
 10
4.9606340866
 20
3.164055979
 30
0.0
 10
4.9366089016
 20
3.1615718595
 30
0.0
 10
4.911291083
 20
3.1595034777
 30
0.0
 10
4.8849219736
 20
3.1578738966
 30
0.0
 10
4.8577505922
 20
3.1566974916
 30
0.0
 10
4.8300471837
 20
3.1559884549
 30
0.0
 10
4.8114285203
 20
3.1558296257
 30
0.0
 10
4.8020804901
 20
3.1558296257
 30
0.0
  0
SPLINE
  5
319
100
AcDbEntity
  8
ALL_FEATURES
100
AcDbSpline
 62
9
  6
CONTINUOUS
 70
0
 71
3
 72
20
 73
16
 74
0
 42
0.0000001
 43
0.0000001
 44
0.0000000001
 40
0.0
 40
0.0
 40
0.0
 40
0.0
 40
0.0123350511
 40
0.0203997752
 40
0.0299959054
 40
0.0541700003
 40
0.0852124291
 40
0.1231981417
 40
0.168204932
 40
0.2202805108
 40
0.2794142841
 40
0.4187035444
 40
0.5856607113
 40
0.7796781471
 40
1.0
 40
1.0
 40
1.0
 40
1.0
 10
5.1972857914
 20
3.3841092429
 30
0.0
 10
5.1971748593
 20
3.38406449
 30
0.0
 10
5.1970205894
 20
3.3839250926
 30
0.0
 10
5.1968541692
 20
3.3836879413
 30
0.0
 10
5.1966595605
 20
3.3833304426
 30
0.0
 10
5.1964310142
 20
3.3827433472
 30
0.0
 10
5.1961785905
 20
3.381874806
 30
0.0
 10
5.1959358657
 20
3.3807953875
 30
0.0
 10
5.1957025425
 20
3.3795062613
 30
0.0
 10
5.1954788753
 20
3.3780077658
 30
0.0
 10
5.1951778857
 20
3.375597099
 30
0.0
 10
5.1948426689
 20
3.3720690353
 30
0.0
 10
5.1945036844
 20
3.3672292981
 30
0.0
 10
5.1942142904
 20
3.3615993445
 30
0.0
 10
5.1940657573
 20
3.3575839137
 30
0.0
 10
5.1939985747
 20
3.3554483991
 30
0.0
  0
SPLINE
  5
31A
100
AcDbEntity
  8
ALL_FEATURES
100
AcDbSpline
 62
9
  6
CONTINUOUS
 70
0
 71
3
 72
13
 73
9
 74
0
 42
0.0000001
 43
0.0000001
 44
0.0000000001
 40
0.0
 40
0.0
 40
0.0
 40
0.0
 40
0.0891322004
 40
0.1907257498
 40
0.3038240183
 40
0.4273394384
 40
0.7007050153
 40
1.0
 40
1.0
 40
1.0
 40
1.0
 10
5.1939985747
 20
3.3554483991
 30
0.0
 10
5.1938852918
 20
3.3518475041
 30
0.0
 10
5.1937138879
 20
3.3441400099
 30
0.0
 10
5.1936047691
 20
3.3318598287
 30
0.0
 10
5.1936365508
 20
3.3181894416
 30
0.0
 10
5.1938889804
 20
3.2975776177
 30
0.0
 10
5.1946284372
 20
3.2694467368
 30
0.0
 10
5.1956373225
 20
3.2463206435
 30
0.0
 10
5.1962763392
 20
3.2342401874
 30
0.0
  0
LINE
  5
31B
100
AcDbEntity
  8
ALL_FEATURES
100
AcDbLine
 62
9
  6
CONTINUOUS
 10
5.1967220981
 20
3.2261354029
 11
5.1969671963
 21
3.2218713618
  0
LINE
  5
31C
100
AcDbEntity
  8
ALL_FEATURES
100
AcDbLine
 62
9
  6
CONTINUOUS
 10
5.1969671963
 20
3.2218713618
 11
5.1970495041
 21
3.2204518132
  0
LINE
  5
31D
100
AcDbEntity
  8
ALL_FEATURES
100
AcDbLine
 62
9
  6
CONTINUOUS
 10
5.1970495041
 20
3.2204518132
 11
5.1970907801
 21
3.2197423267
  0
SPLINE
  5
31E
100
AcDbEntity
  8
0
100
AcDbSpline
 62
7
  6
CONTINUOUS
 70
0
 71
3
 72
23
 73
19
 74
0
 42
0.0000001
 43
0.0000001
 44
0.0000000001
 40
0.0
 40
0.0
 40
0.0
 40
0.0
 40
0.0213285924
 40
0.0451948486
 40
0.072697999
 40
0.1048393109
 40
0.1424955164
 40
0.1864501687
 40
0.237366893
 40
0.2956144553
 40
0.3614444652
 40
0.4348006046
 40
0.5152845042
 40
0.6023729757
 40
0.6952523793
 40
0.7930441082
 40
0.8949022717
 40
1.0
 40
1.0
 40
1.0
 40
1.0
 10
4.4270804901
 20
3.2055364166
 30
0.0
 10
4.4275678568
 20
3.207072936
 30
0.0
 10
4.4289827289
 20
3.2102163186
 30
0.0
 10
4.4322371395
 20
3.2146820723
 30
0.0
 10
4.4368004153
 20
3.2190801301
 30
0.0
 10
4.4427726602
 20
3.2234030085
 30
0.0
 10
4.4502697838
 20
3.2276397129
 30
0.0
 10
4.4594071307
 20
3.2317684667
 30
0.0
 10
4.4702778551
 20
3.2357599968
 30
0.0
 10
4.4829426807
 20
3.2395914888
 30
0.0
 10
4.4974219212
 20
3.2432174243
 30
0.0
 10
4.5136779834
 20
3.2466069149
 30
0.0
 10
4.531618863
 20
3.2497352353
 30
0.0
 10
4.55110058
 20
3.2525670941
 30
0.0
 10
4.5719411606
 20
3.2551004404
 30
0.0
 10
4.5939391521
 20
3.257322593
 30
0.0
 10
4.6168923936
 20
3.2592378782
 30
0.0
 10
4.6324977818
 20
3.2603045521
 30
0.0
 10
4.64042568
 20
3.260794446
 30
0.0
  0
LINE
  5
31F
100
AcDbEntity
  8
0
100
AcDbLine
 62
7
  6
CONTINUOUS
 10
4.64042568
 20
3.260794446
 11
4.6413794305
 21
3.2608531305
  0
SPLINE
  5
320
100
AcDbEntity
  8
0
100
AcDbSpline
 62
7
  6
CONTINUOUS
 70
0
 71
3
 72
13
 73
9
 74
0
 42
0.0000001
 43
0.0000001
 44
0.0000000001
 40
0.0
 40
0.0
 40
0.0
 40
0.0
 40
0.1219928161
 40
0.246784943
 40
0.4999999307
 40
0.7532149793
 40
0.8780071573
 40
1.0
 40
1.0
 40
1.0
 40
1.0
 10
4.6413794305
 20
3.2608531305
 30
0.0
 10
4.6544311719
 20
3.2616527754
 30
0.0
 10
4.6808518504
 20
3.2629890289
 30
0.0
 10
4.7344184429
 20
3.2647693423
 30
0.0
 10
4.8020814152
 20
3.2655351863
 30
0.0
 10
4.8697443937
 20
3.264769392
 30
0.0
 10
4.923311002
 20
3.2629891028
 30
0.0
 10
4.9497316891
 20
3.2616528531
 30
0.0
 10
4.9627834333
 20
3.2608532075
 30
0.0
  0
LINE
  5
321
100
AcDbEntity
  8
0
100
AcDbLine
 62
7
  6
CONTINUOUS
 10
4.9627834333
 20
3.2608532075
 11
4.9637352937
 21
3.2607946398
  0
SPLINE
  5
322
100
AcDbEntity
  8
0
100
AcDbSpline
 62
7
  6
CONTINUOUS
 70
0
 71
3
 72
11
 73
7
 74
0
 42
0.0000001
 43
0.0000001
 44
0.0000000001
 40
0.0
 40
0.0
 40
0.0
 40
0.0
 40
0.2658738922
 40
0.5227849263
 40
0.7683232458
 40
1.0
 40
1.0
 40
1.0
 40
1.0
 10
4.9637352937
 20
3.2607946398
 30
0.0
 10
4.9722298693
 20
3.2602697372
 30
0.0
 10
4.9889257582
 20
3.2591207471
 30
0.0
 10
5.0134328275
 20
3.2570341174
 30
0.0
 10
5.0368070171
 20
3.2545927765
 30
0.0
 10
5.0519628264
 20
3.2526662327
 30
0.0
 10
5.0593062659
 20
3.2516305947
 30
0.0
  0
SPLINE
  5
323
100
AcDbEntity
  8
0
100
AcDbSpline
 62
7
  6
CONTINUOUS
 70
0
 71
3
 72
22
 73
18
 74
0
 42
0.0000001
 43
0.0000001
 44
0.0000000001
 40
0.0
 40
0.0
 40
0.0
 40
0.0
 40
0.212280375
 40
0.30875456
 40
0.3983893848
 40
0.4809525864
 40
0.55648992
 40
0.6251738016
 40
0.6871964921
 40
0.7428655819
 40
0.7926537293
 40
0.8370759624
 40
0.8766852547
 40
0.9120881808
 40
0.9439548953
 40
0.9730076577
 40
1.0
 40
1.0
 40
1.0
 40
1.0
 10
5.0620379392
 20
3.2512405135
 30
0.0
 10
5.0709992047
 20
3.2499447952
 30
0.0
 10
5.0840038358
 20
3.2478345561
 30
0.0
 10
5.1006688028
 20
3.2445061833
 30
0.0
 10
5.1118444171
 20
3.2419628056
 30
0.0
 10
5.1220718519
 20
3.2392989684
 30
0.0
 10
5.1313426429
 20
3.2365302688
 30
0.0
 10
5.1396656274
 20
3.2336731061
 30
0.0
 10
5.1470578332
 20
3.230739656
 30
0.0
 10
5.1535455602
 20
3.2277395831
 30
0.0
 10
5.1591673235
 20
3.2246849854
 30
0.0
 10
5.1639672863
 20
3.2215845735
 30
0.0
 10
5.1679902906
 20
3.2184465673
 30
0.0
 10
5.1712798224
 20
3.2152766078
 30
0.0
 10
5.1738768266
 20
3.2120777415
 30
0.0
 10
5.1758203904
 20
3.2088561667
 30
0.0
 10
5.1767323978
 20
3.206633846
 30
0.0
 10
5.1770804901
 20
3.2055364166
 30
0.0
  0
LINE
  5
324
100
AcDbEntity
  8
ALL_FEATURES
100
AcDbLine
 62
9
  6
CONTINUOUS
 10
5.1970907801
 20
3.2197423267
 11
5.1971280858
 21
3.2191024757
  0
LINE
  5
325
100
AcDbEntity
  8
ALL_FEATURES
100
AcDbLine
 62
9
  6
CONTINUOUS
 10
5.1971280858
 20
3.2191024757
 11
5.1974796743
 21
3.2131355973
  0
LINE
  5
326
100
AcDbEntity
  8
ALL_FEATURES
100
AcDbLine
 62
9
  6
CONTINUOUS
 10
5.2005568419
 20
3.1648289463
 11
5.2010472781
 21
3.1576362303
  0
SPLINE
  5
327
100
AcDbEntity
  8
ALL_FEATURES
100
AcDbSpline
 62
7
  6
CONTINUOUS
 70
0
 71
3
 72
29
 73
25
 74
0
 42
0.0000001
 43
0.0000001
 44
0.0000000001
 40
0.0
 40
0.0
 40
0.0
 40
0.0
 40
0.0942033444
 40
0.18762285
 40
0.2792549636
 40
0.3682602896
 40
0.4538443583
 40
0.5352234394
 40
0.6116400635
 40
0.682419504
 40
0.7469385322
 40
0.8046729295
 40
0.8308525542
 40
0.8551820027
 40
0.8776299879
 40
0.8981721354
 40
0.9167972376
 40
0.9335207731
 40
0.9483825155
 40
0.9614555685
 40
0.9728690803
 40
0.9828448082
 40
0.9917254276
 40
1.0
 40
1.0
 40
1.0
 40
1.0
 10
4.8020804901
 20
3.1558296257
 30
0.0
 10
4.7927324598
 20
3.1558296257
 30
0.0
 10
4.7741137965
 20
3.1559884549
 30
0.0
 10
4.746410388
 20
3.1566974916
 30
0.0
 10
4.7192390066
 20
3.1578738966
 30
0.0
 10
4.6928698971
 20
3.1595034777
 30
0.0
 10
4.6675520785
 20
3.1615718595
 30
0.0
 10
4.6435268936
 20
3.164055979
 30
0.0
 10
4.6210256961
 20
3.1669341669
 30
0.0
 10
4.6002647153
 20
3.1701740074
 30
0.0
 10
4.5814418762
 20
3.1737462412
 30
0.0
 10
4.5670852174
 20
3.177064574
 30
0.0
 10
4.5567223529
 20
3.1798953648
 30
0.0
 10
4.5497968743
 20
3.1820093443
 30
0.0
 10
4.5434768634
 20
3.1841782451
 30
0.0
 10
4.5377772306
 20
3.1863969393
 30
0.0
 10
4.5327112827
 20
3.1886610073
 30
0.0
 10
4.5282891268
 20
3.1909645611
 30
0.0
 10
4.5245185596
 20
3.1933027765
 30
0.0
 10
4.5214058493
 20
3.1956728187
 30
0.0
 10
4.5189568281
 20
3.1980760572
 30
0.0
 10
4.5171769618
 20
3.200517937
 30
0.0
 10
4.5160824067
 20
3.2030049625
 30
0.0
 10
4.5158304901
 20
3.2047153104
 30
0.0
 10
4.5158304901
 20
3.2055364166
 30
0.0
  0
LINE
  5
328
100
AcDbEntity
  8
ALL_FEATURES
100
AcDbLine
 62
7
  6
CONTINUOUS
 10
5.2010472781
 20
3.1576362303
 11
5.1981740557
 21
3.1633228701
  0
SPLINE
  5
329
100
AcDbEntity
  8
ALL_FEATURES
100
AcDbSpline
 62
7
  6
CONTINUOUS
 70
0
 71
3
 72
11
 73
7
 74
0
 42
0.0000001
 43
0.0000001
 44
0.0000000001
 40
0.0
 40
0.0
 40
0.0
 40
0.0
 40
0.2515875536
 40
0.5032484389
 40
0.7532661075
 40
1.0
 40
1.0
 40
1.0
 40
1.0
 10
5.1981740557
 20
3.1633228701
 30
0.0
 10
5.1963742737
 20
3.1668480693
 30
0.0
 10
5.1927273842
 20
3.1738754874
 30
0.0
 10
5.1872595048
 20
3.1843893356
 30
0.0
 10
5.1819652091
 20
3.1949067948
 30
0.0
 10
5.1786482185
 20
3.201985384
 30
0.0
 10
5.1770804901
 20
3.2055364166
 30
0.0
  0
SPLINE
  5
32A
100
AcDbEntity
  8
ALL_FEATURES
100
AcDbSpline
 62
9
  6
CONTINUOUS
 70
0
 71
3
 72
11
 73
7
 74
0
 42
0.0000001
 43
0.0000001
 44
0.0000000001
 40
0.0
 40
0.0
 40
0.0
 40
0.0
 40
0.2499471311
 40
0.499885599
 40
0.7499188647
 40
1.0
 40
1.0
 40
1.0
 40
1.0
 10
5.1899773647
 20
3.9452254918
 30
0.0
 10
5.1940086032
 20
3.945176498
 30
0.0
 10
5.2021391048
 20
3.943479501
 30
0.0
 10
5.2123845611
 20
3.9365007739
 30
0.0
 10
5.2192310913
 20
3.9261650152
 30
0.0
 10
5.2208305383
 20
3.9180114687
 30
0.0
 10
5.2208304884
 20
3.913977771
 30
0.0
  0
SPLINE
  5
32B
100
AcDbEntity
  8
ALL_FEATURES
100
AcDbSpline
 62
9
  6
CONTINUOUS
 70
0
 71
3
 72
15
 73
11
 74
0
 42
0.0000001
 43
0.0000001
 44
0.0000000001
 40
0.0
 40
0.0
 40
0.0
 40
0.0
 40
0.1296162059
 40
0.2620158747
 40
0.3953196723
 40
0.5274071047
 40
0.6560984791
 40
0.7792200329
 40
0.8945922478
 40
1.0
 40
1.0
 40
1.0
 40
1.0
 10
4.3380416649
 20
2.5074391525
 30
0.0
 10
4.3420434843
 20
2.5351194956
 30
0.0
 10
4.3506007446
 20
2.5910066736
 30
0.0
 10
4.3641028071
 20
2.6752317828
 30
0.0
 10
4.3777658027
 20
2.7599713376
 30
0.0
 10
4.3911416808
 20
2.8439465443
 30
0.0
 10
4.4039688377
 20
2.9257841087
 30
0.0
 10
4.4161071371
 20
3.0040786931
 30
0.0
 10
4.4274767711
 20
3.0774083163
 30
0.0
 10
4.4348933194
 20
3.1244667866
 30
0.0
 10
4.4385091642
 20
3.1469220397
 30
0.0
  0
SPLINE
  5
32C
100
AcDbEntity
  8
ALL_FEATURES
100
AcDbSpline
 62
9
  6
CONTINUOUS
 70
0
 71
3
 72
23
 73
19
 74
0
 42
0.0000001
 43
0.0000001
 44
0.0000000001
 40
0.0
 40
0.0
 40
0.0
 40
0.0
 40
0.1537053785
 40
0.2300549714
 40
0.3055185834
 40
0.452158304
 40
0.5225544251
 40
0.5904901843
 40
0.6555917629
 40
0.7174856651
 40
0.7757951862
 40
0.830138518
 40
0.880126688
 40
0.9253638496
 40
0.9460766848
 40
0.9654525334
 40
0.9834428048
 40
1.0
 40
1.0
 40
1.0
 40
1.0
 10
4.3380416649
 20
2.5074391525
 30
0.0
 10
4.3342438924
 20
2.5504429293
 30
0.0
 10
4.3298659146
 20
2.6149344022
 30
0.0
 10
4.3267718017
 20
2.7006942387
 30
0.0
 10
4.3255075597
 20
2.7845161741
 30
0.0
 10
4.3267720455
 20
2.8666863152
 30
0.0
 10
4.330319144
 20
2.9466508233
 30
0.0
 10
4.3338953951
 20
3.0036803773
 30
0.0
 10
4.338289958
 20
3.0582567092
 30
0.0
 10
4.343372243
 20
3.1100571747
 30
0.0
 10
4.3490191705
 20
3.1587583375
 30
0.0
 10
4.3551165315
 20
3.2040333628
 30
0.0
 10
4.3615612382
 20
3.2455483237
 30
0.0
 10
4.3672977381
 20
3.2776066944
 30
0.0
 10
4.3720345421
 20
3.3011001986
 30
0.0
 10
4.3755182238
 20
3.3170373597
 30
0.0
 10
4.3790291664
 20
3.33177116
 30
0.0
 10
4.3814863757
 20
3.3411594132
 30
0.0
 10
4.382726434
 20
3.345641441
 30
0.0
  0
LINE
  5
32D
100
AcDbEntity
  8
ALL_FEATURES
100
AcDbLine
 62
9
  6
CONTINUOUS
 10
4.3827262244
 20
3.3456635763
 11
4.3828545575
 21
3.3460825665
  0
SPLINE
  5
32E
100
AcDbEntity
  8
ALL_FEATURES
100
AcDbSpline
 62
9
  6
CONTINUOUS
 70
0
 71
3
 72
14
 73
10
 74
0
 42
0.0000001
 43
0.0000001
 44
0.0000000001
 40
0.0
 40
0.0
 40
0.0
 40
0.0
 40
0.125614971
 40
0.2510632891
 40
0.3763241742
 40
0.5013908208
 40
0.626319485
 40
0.7511829895
 40
1.0
 40
1.0
 40
1.0
 40
1.0
 10
4.4098643231
 20
3.2887475087
 30
0.0
 10
4.4077789973
 20
3.2905178696
 30
0.0
 10
4.4037956936
 20
3.2942807109
 30
0.0
 10
4.3984625909
 20
3.3005223155
 30
0.0
 10
4.3938264379
 20
3.3072846095
 30
0.0
 10
4.3899468403
 20
3.3144940958
 30
0.0
 10
4.3868624771
 20
3.3220705644
 30
0.0
 10
4.3838696932
 20
3.3325226384
 30
0.0
 10
4.3829043451
 20
3.3406865205
 30
0.0
 10
4.3828543584
 20
3.346104672
 30
0.0
  0
LINE
  5
32F
100
AcDbEntity
  8
ALL_FEATURES
100
AcDbLine
 62
9
  6
CONTINUOUS
 10
4.3828536301
 20
3.3461855227
 11
4.3833310522
 21
3.3477304496
  0
SPLINE
  5
330
100
AcDbEntity
  8
ALL_FEATURES
100
AcDbSpline
 62
9
  6
CONTINUOUS
 70
0
 71
3
 72
21
 73
17
 74
0
 42
0.0000001
 43
0.0000001
 44
0.0000000001
 40
0.0
 40
0.0
 40
0.0
 40
0.0
 40
0.0264737737
 40
0.0541518073
 40
0.084952055
 40
0.1201956104
 40
0.1606932411
 40
0.2069128694
 40
0.2591102693
 40
0.3174095817
 40
0.3818473846
 40
0.4524060925
 40
0.5290330929
 40
0.6116518193
 40
0.7944681586
 40
1.0
 40
1.0
 40
1.0
 40
1.0
 10
4.3833304918
 20
3.913977771
 30
0.0
 10
4.3826658298
 20
3.9140465896
 30
0.0
 10
4.381275771
 20
3.9139804914
 30
0.0
 10
4.3792347981
 20
3.9132437709
 30
0.0
 10
4.3772545757
 20
3.9119172685
 30
0.0
 10
4.375323484
 20
3.9100302318
 30
0.0
 10
4.3734294496
 20
3.9075946745
 30
0.0
 10
4.3715677123
 20
3.9046181108
 30
0.0
 10
4.3697371697
 20
3.9011080352
 30
0.0
 10
4.3679386677
 20
3.8970730646
 30
0.0
 10
4.3661735808
 20
3.8925229244
 30
0.0
 10
4.3644437338
 20
3.887468015
 30
0.0
 10
4.3627508964
 20
3.8819191569
 30
0.0
 10
4.3604682196
 20
3.8735915174
 30
0.0
 10
4.3577579048
 20
3.8620129097
 30
0.0
 10
4.3558777492
 20
3.8523908899
 30
0.0
 10
4.3549549383
 20
3.8472858692
 30
0.0
  0
SPLINE
  5
331
100
AcDbEntity
  8
ALL_FEATURES
100
AcDbSpline
 62
9
  6
CONTINUOUS
 70
0
 71
3
 72
14
 73
10
 74
0
 42
0.0000001
 43
0.0000001
 44
0.0000000001
 40
0.0
 40
0.0
 40
0.0
 40
0.0
 40
0.1255875976
 40
0.2510163428
 40
0.3762650591
 40
0.5013286649
 40
0.6262637188
 40
0.7511413036
 40
1.0
 40
1.0
 40
1.0
 40
1.0
 10
4.4099043557
 20
3.2907489271
 30
0.0
 10
4.4078465963
 20
3.2925189943
 30
0.0
 10
4.4039175651
 20
3.2962775098
 30
0.0
 10
4.3986606511
 20
3.3025009934
 30
0.0
 10
4.3940942417
 20
3.3092351694
 30
0.0
 10
4.3902766038
 20
3.3164076278
 30
0.0
 10
4.3872449939
 20
3.3239393392
 30
0.0
 10
4.3843092532
 20
3.3343239351
 30
0.0
 10
4.383370585
 20
3.3424289898
 30
0.0
 10
4.3833304905
 20
3.3478074063
 30
0.0
  0
SPLINE
  5
332
100
AcDbEntity
  8
ALL_FEATURES
100
AcDbSpline
 62
9
  6
CONTINUOUS
 70
0
 71
3
 72
11
 73
7
 74
0
 42
0.0000001
 43
0.0000001
 44
0.0000000001
 40
0.0
 40
0.0
 40
0.0
 40
0.0
 40
0.2500811628
 40
0.5001144386
 40
0.7500529448
 40
1.0
 40
1.0
 40
1.0
 40
1.0
 10
4.3833304918
 20
3.913977771
 30
0.0
 10
4.3833304412
 20
3.9180115261
 30
0.0
 10
4.3849299334
 20
3.9261651911
 30
0.0
 10
4.3917766516
 20
3.9365010476
 30
0.0
 10
4.4020223565
 20
3.9434797345
 30
0.0
 10
4.4101530118
 20
3.9451766017
 30
0.0
 10
4.4141843071
 20
3.9452255048
 30
0.0
  0
SPLINE
  5
333
100
AcDbEntity
  8
ALL_FEATURES
100
AcDbSpline
 62
9
  6
CONTINUOUS
 70
0
 71
3
 72
8
 73
4
 74
0
 42
0.0000001
 43
0.0000001
 44
0.0000000001
 40
0.0
 40
0.0
 40
0.0
 40
0.0
 40
1.0
 40
1.0
 40
1.0
 40
1.0
 10
4.3833824776
 20
3.9139783668
 30
0.0
 10
4.3833651489
 20
3.9139760971
 30
0.0
 10
4.3833478202
 20
3.9139738273
 30
0.0
 10
4.3833304915
 20
3.9139715576
 30
0.0
  0
SPLINE
  5
334
100
AcDbEntity
  8
ALL_FEATURES
100
AcDbSpline
 62
9
  6
CONTINUOUS
 70
0
 71
3
 72
21
 73
17
 74
0
 42
0.0000001
 43
0.0000001
 44
0.0000000001
 40
0.0
 40
0.0
 40
0.0
 40
0.0
 40
0.2186688858
 40
0.4059087623
 40
0.4880766979
 40
0.5628270616
 40
0.6303759169
 40
0.6909890729
 40
0.7450020758
 40
0.7928553097
 40
0.8351314957
 40
0.872619547
 40
0.9063816075
 40
0.9377856921
 40
0.9684417953
 40
1.0
 40
1.0
 40
1.0
 40
1.0
 10
4.3833304905
 20
3.3478074063
 30
0.0
 10
4.3842545173
 20
3.3510751251
 30
0.0
 10
4.3860793756
 20
3.3571109035
 30
0.0
 10
4.3886320692
 20
3.3642530622
 30
0.0
 10
4.3906950095
 20
3.369184835
 30
0.0
 10
4.3921702216
 20
3.3723444495
 30
0.0
 10
4.3936408997
 20
3.3751330399
 30
0.0
 10
4.3951068741
 20
3.3775550403
 30
0.0
 10
4.3965683172
 20
3.379615321
 30
0.0
 10
4.3980261103
 20
3.3813190723
 30
0.0
 10
4.3994823736
 20
3.3826713279
 30
0.0
 10
4.4009406973
 20
3.38367572
 30
0.0
 10
4.4024049021
 20
3.3843324464
 30
0.0
 10
4.4038750773
 20
3.3846369872
 30
0.0
 10
4.4053414662
 20
3.3845866794
 30
0.0
 10
4.4062820053
 20
3.3843289371
 30
0.0
 10
4.4067396093
 20
3.3841534809
 30
0.0
  0
SPLINE
  5
335
100
AcDbEntity
  8
ALL_FEATURES
100
AcDbSpline
 62
9
  6
CONTINUOUS
 70
0
 71
3
 72
15
 73
11
 74
0
 42
0.0000001
 43
0.0000001
 44
0.0000000001
 40
0.0
 40
0.0
 40
0.0
 40
0.0
 40
0.1247809701
 40
0.250050789
 40
0.3751432179
 40
0.5000839618
 40
0.6249923415
 40
0.7499989876
 40
0.8751810077
 40
1.0
 40
1.0
 40
1.0
 40
1.0
 10
4.38338248
 20
3.9139721831
 30
0.0
 10
4.3833821097
 20
3.9159708459
 30
0.0
 10
4.3837753662
 20
3.9199855694
 30
0.0
 10
4.3854843619
 20
3.9257830537
 30
0.0
 10
4.3882864899
 20
3.9311444476
 30
0.0
 10
4.3920528336
 20
3.9358696269
 30
0.0
 10
4.3966564347
 20
3.9397814497
 30
0.0
 10
4.4019240507
 20
3.9427493381
 30
0.0
 10
4.4076638223
 20
3.9446373696
 30
0.0
 10
4.4116639777
 20
3.9451516469
 30
0.0
 10
4.4136622963
 20
3.9452133737
 30
0.0
  0
SPLINE
  5
336
100
AcDbEntity
  8
ALL_FEATURES
100
AcDbSpline
 62
9
  6
CONTINUOUS
 70
0
 71
3
 72
25
 73
21
 74
0
 42
0.0000001
 43
0.0000001
 44
0.0000000001
 40
0.0
 40
0.0
 40
0.0
 40
0.0
 40
0.2112078524
 40
0.3995140488
 40
0.484685988
 40
0.56366625
 40
0.6363187137
 40
0.7025271464
 40
0.7621882525
 40
0.8152175351
 40
0.8615609738
 40
0.9012245291
 40
0.9185892094
 40
0.9343434757
 40
0.9485332323
 40
0.9612274183
 40
0.9725292297
 40
0.982592562
 40
0.9916434387
 40
1.0
 40
1.0
 40
1.0
 40
1.0
 10
4.4270804933
 20
3.7676722629
 30
0.0
 10
4.425300277
 20
3.7784706744
 30
0.0
 10
4.4217740392
 20
3.7988709704
 30
0.0
 10
4.4169883058
 20
3.8235285553
 30
0.0
 10
4.4131294565
 20
3.8413802564
 30
0.0
 10
4.4103423834
 20
3.8533307207
 30
0.0
 10
4.4075677415
 20
3.864273126
 30
0.0
 10
4.404809346
 20
3.874184392
 30
0.0
 10
4.4020710095
 20
3.8830422699
 30
0.0
 10
4.3993568964
 20
3.8908256847
 30
0.0
 10
4.3966706477
 20
3.8975136686
 30
0.0
 10
4.3943673381
 20
3.9023561251
 30
0.0
 10
4.3925150421
 20
3.9056429762
 30
0.0
 10
4.3911961336
 20
3.9077110808
 30
0.0
 10
4.3898854331
 20
3.9094921821
 30
0.0
 10
4.3885823037
 20
3.910984933
 30
0.0
 10
4.3872855261
 20
3.9121879975
 30
0.0
 10
4.3859920947
 20
3.9130991856
 30
0.0
 10
4.384699284
 20
3.9137136729
 30
0.0
 10
4.38381283
 20
3.9139242101
 30
0.0
 10
4.3833824832
 20
3.9139721831
 30
0.0
  0
SPLINE
  5
337
100
AcDbEntity
  8
ALL_FEATURES
100
AcDbSpline
 62
9
  6
CONTINUOUS
 70
0
 71
3
 72
25
 73
21
 74
0
 42
0.0000001
 43
0.0000001
 44
0.0000000001
 40
0.0
 40
0.0
 40
0.0
 40
0.0
 40
0.2143712552
 40
0.4047298235
 40
0.4905372041
 40
0.5699059476
 40
0.642708849
 40
0.7088372478
 40
0.7681960905
 40
0.8207105852
 40
0.866339271
 40
0.905106132
 40
0.9219634619
 40
0.9371785298
 40
0.9508067429
 40
0.9629316733
 40
0.973679291
 40
0.9832384295
 40
0.9918853623
 40
1.0
 40
1.0
 40
1.0
 40
1.0
 10
4.4582908887
 20
3.7976919581
 30
0.0
 10
4.4565146087
 20
3.8087674289
 30
0.0
 10
4.4529937382
 20
3.8296515225
 30
0.0
 10
4.4481961139
 20
3.8548695129
 30
0.0
 10
4.4443266274
 20
3.8730667359
 30
0.0
 10
4.4415365837
 20
3.8852031119
 30
0.0
 10
4.4387609202
 20
3.8962841996
 30
0.0
 10
4.4360032678
 20
3.9062878101
 30
0.0
 10
4.433267428
 20
3.9151925389
 30
0.0
 10
4.4305575816
 20
3.9229783395
 30
0.0
 10
4.4278773265
 20
3.9296251684
 30
0.0
 10
4.4255765383
 20
3.9344049668
 30
0.0
 10
4.4237243169
 20
3.9376176373
 30
0.0
 10
4.4224086278
 20
3.9396164851
 30
0.0
 10
4.4211008907
 20
3.9413180366
 30
0.0
 10
4.4198000072
 20
3.9427210798
 30
0.0
 10
4.4185039939
 20
3.9438242238
 30
0.0
 10
4.4172087883
 20
3.9446244723
 30
0.0
 10
4.4159112344
 20
3.9451147181
 30
0.0
 10
4.4150310908
 20
3.9452279183
 30
0.0
 10
4.4146064912
 20
3.9452279552
 30
0.0
  0
SPLINE
  5
338
100
AcDbEntity
  8
ALL_FEATURES
100
AcDbSpline
 62
9
  6
CONTINUOUS
 70
0
 71
3
 72
15
 73
11
 74
0
 42
0.0000001
 43
0.0000001
 44
0.0000000001
 40
0.0
 40
0.0
 40
0.0
 40
0.0
 40
0.121766529
 40
0.2446685001
 40
0.3685681236
 40
0.493475154
 40
0.6193348529
 40
0.7459258859
 40
0.8729835063
 40
1.0
 40
1.0
 40
1.0
 40
1.0
 10
4.4270804933
 20
3.7676722629
 30
0.0
 10
4.4271115382
 20
3.7696122255
 30
0.0
 10
4.4275674725
 20
3.7735149422
 30
0.0
 10
4.4294051677
 20
3.7791318557
 30
0.0
 10
4.4323367954
 20
3.784322549
 30
0.0
 10
4.43624695
 20
3.7888829493
 30
0.0
 10
4.4409882345
 20
3.7926389249
 30
0.0
 10
4.4463761544
 20
3.7954623418
 30
0.0
 10
4.4522142048
 20
3.7972313786
 30
0.0
 10
4.4562672379
 20
3.7976626368
 30
0.0
 10
4.4582908887
 20
3.7976919581
 30
0.0
  0
SPLINE
  5
339
100
AcDbEntity
  8
ALL_FEATURES
100
AcDbSpline
 62
9
  6
CONTINUOUS
 70
0
 71
3
 72
53
 73
49
 74
0
 42
0.0000001
 43
0.0000001
 44
0.0000000001
 40
0.0
 40
0.0
 40
0.0
 40
0.0
 40
0.005970017
 40
0.0122171602
 40
0.0188368701
 40
0.0259354761
 40
0.0419973121
 40
0.0512121368
 40
0.0613632196
 40
0.0725268927
 40
0.0847613099
 40
0.0981086108
 40
0.1125366892
 40
0.127984036
 40
0.1443703859
 40
0.161578399
 40
0.1794805309
 40
0.1979586535
 40
0.2169155975
 40
0.2558779731
 40
0.2957740188
 40
0.3362264793
 40
0.3769956612
 40
0.4179310561
 40
0.4999797206
 40
0.5820285509
 40
0.6229639491
 40
0.6637327607
 40
0.7041841382
 40
0.7440797156
 40
0.7830397323
 40
0.8019969527
 40
0.8204763113
 40
0.8383801935
 40
0.8555905719
 40
0.8719798716
 40
0.8874305905
 40
0.9018622856
 40
0.9152135249
 40
0.9274517741
 40
0.9386190081
 40
0.9487736054
 40
0.9579917012
 40
0.9740588628
 40
0.9811595507
 40
0.9877809034
 40
0.9940292256
 40
1.0
 40
1.0
 40
1.0
 40
1.0
 10
4.4582908129
 20
3.7976918936
 30
0.0
 10
4.4585644959
 20
3.7962555841
 30
0.0
 10
4.4592923694
 20
3.7933454514
 30
0.0
 10
4.4609244892
 20
3.7890197862
 30
0.0
 10
4.4631728452
 20
3.7846650674
 30
0.0
 10
4.4672293729
 20
3.7785880082
 30
0.0
 10
4.4727028858
 20
3.7727638503
 30
0.0
 10
4.4794354077
 20
3.7672812214
 30
0.0
 10
4.4856168484
 20
3.7630579847
 30
0.0
 10
4.4927348205
 20
3.7589404171
 30
0.0
 10
4.5008149347
 20
3.7549634857
 30
0.0
 10
4.5098574237
 20
3.7511746986
 30
0.0
 10
4.519823199
 20
3.7475925542
 30
0.0
 10
4.5306525165
 20
3.7442489046
 30
0.0
 10
4.5422656582
 20
3.7411719011
 30
0.0
 10
4.5545625432
 20
3.7383594107
 30
0.0
 10
4.5674403326
 20
3.7358170695
 30
0.0
 10
4.5808026717
 20
3.7335437448
 30
0.0
 10
4.5993167876
 20
3.7308279581
 30
0.0
 10
4.6231190145
 20
3.7280637321
 30
0.0
 10
4.6522389797
 20
3.7255943818
 30
0.0
 10
4.6818512694
 20
3.7238095229
 30
0.0
 10
4.7117461419
 20
3.7225920011
 30
0.0
 10
4.7518405501
 20
3.7215829738
 30
0.0
 10
4.8020579995
 20
3.7212386615
 30
0.0
 10
4.8522754573
 20
3.7215820492
 30
0.0
 10
4.8923698327
 20
3.7225903612
 30
0.0
 10
4.922264387
 20
3.7238069446
 30
0.0
 10
4.9518762594
 20
3.7255908819
 30
0.0
 10
4.9809953848
 20
3.7280587218
 30
0.0
 10
5.0047971783
 20
3.7308212393
 30
0.0
 10
5.0233112747
 20
3.7335357272
 30
0.0
 10
5.0366745858
 20
3.7358080925
 30
0.0
 10
5.0495538992
 20
3.7383494774
 30
0.0
 10
5.0618527522
 20
3.7411611189
 30
0.0
 10
5.0734683185
 20
3.7442372627
 30
0.0
 10
5.0843004587
 20
3.7475800144
 30
0.0
 10
5.0942693275
 20
3.7511614545
 30
0.0
 10
5.103315141
 20
3.7549495089
 30
0.0
 10
5.1113986472
 20
3.7589258302
 30
0.0
 10
5.1185199226
 20
3.7630430168
 30
0.0
 10
5.1247046406
 20
3.7672659348
 30
0.0
 10
5.131441283
 20
3.7727481884
 30
0.0
 10
5.1369188661
 20
3.7785720801
 30
0.0
 10
5.1409792794
 20
3.7846492079
 30
0.0
 10
5.1432301711
 20
3.7890039711
 30
0.0
 10
5.1448644812
 20
3.7933297559
 30
0.0
 10
5.1455935436
 20
3.7962400939
 30
0.0
 10
5.145867705
 20
3.797676501
 30
0.0
  0
SPLINE
  5
33A
100
AcDbEntity
  8
ALL_FEATURES
100
AcDbSpline
 62
9
  6
CONTINUOUS
 70
0
 71
3
 72
17
 73
13
 74
0
 42
0.0000001
 43
0.0000001
 44
0.0000000001
 40
0.0
 40
0.0
 40
0.0
 40
0.0
 40
0.1270480316
 40
0.190710186
 40
0.2542836237
 40
0.3809295022
 40
0.5068386328
 40
0.6317902698
 40
0.6939935515
 40
0.755964546
 40
0.8787110666
 40
1.0
 40
1.0
 40
1.0
 40
1.0
 10
5.145867705
 20
3.797676501
 30
0.0
 10
5.1478883677
 20
3.7976465926
 30
0.0
 10
5.1509274745
 20
3.7973242653
 30
0.0
 10
5.1548546654
 20
3.7963372888
 30
0.0
 10
5.1586643509
 20
3.7949812751
 30
0.0
 10
5.1631468421
 20
3.7926331305
 30
0.0
 10
5.1678832144
 20
3.7888868461
 30
0.0
 10
5.1711522343
 20
3.7850851941
 30
0.0
 10
5.1732712547
 20
3.7817300234
 30
0.0
 10
5.1750337391
 20
3.7782138322
 30
0.0
 10
5.1765762524
 20
3.7735639386
 30
0.0
 10
5.1770506914
 20
3.7696796694
 30
0.0
 10
5.1770820094
 20
3.7677506464
 30
0.0
  0
SPLINE
  5
33B
100
AcDbEntity
  8
ALL_FEATURES
100
AcDbSpline
 62
9
  6
CONTINUOUS
 70
0
 71
3
 72
53
 73
49
 74
0
 42
0.0000001
 43
0.0000001
 44
0.0000000001
 40
0.0
 40
0.0
 40
0.0
 40
0.0
 40
0.0056632685
 40
0.0115837749
 40
0.0178677876
 40
0.0246333662
 40
0.0320031475
 40
0.0400993244
 40
0.0490437886
 40
0.058951458
 40
0.0698982845
 40
0.0819368092
 40
0.0951055112
 40
0.1093788621
 40
0.1246940401
 40
0.1409770369
 40
0.1581218405
 40
0.176008198
 40
0.2135420072
 40
0.2527812031
 40
0.2930759942
 40
0.3340144709
 40
0.3753172043
 40
0.4168117955
 40
0.5000058135
 40
0.5831998072
 40
0.6246942497
 40
0.6659963408
 40
0.7069324456
 40
0.7472255025
 40
0.7864605826
 40
0.8239928938
 40
0.8418786903
 40
0.8590230572
 40
0.8753057105
 40
0.890620499
 40
0.9048935143
 40
0.9180621348
 40
0.9301005466
 40
0.9410472791
 40
0.9509551175
 40
0.9598998744
 40
0.9679963181
 40
0.975366333
 40
0.9821321105
 40
0.9884162565
 40
0.9943368039
 40
1.0
 40
1.0
 40
1.0
 40
1.0
 10
4.4270797126
 20
3.7677506463
 30
0.0
 10
4.4273797972
 20
3.7662881053
 30
0.0
 10
4.4281858318
 20
3.7633323718
 30
0.0
 10
4.4300103823
 20
3.7589756601
 30
0.0
 10
4.4325305719
 20
3.754640009
 30
0.0
 10
4.4358022532
 20
3.7503487214
 30
0.0
 10
4.4398814393
 20
3.7461233697
 30
0.0
 10
4.4448281609
 20
3.7419898903
 30
0.0
 10
4.4507004805
 20
3.7379739463
 30
0.0
 10
4.4575482992
 20
3.7341070885
 30
0.0
 10
4.465396155
 20
3.7304029597
 30
0.0
 10
4.4742582054
 20
3.7268796764
 30
0.0
 10
4.484129747
 20
3.7235668296
 30
0.0
 10
4.4949701469
 20
3.7204657617
 30
0.0
 10
4.5067163157
 20
3.7175795206
 30
0.0
 10
4.519289742
 20
3.7149181109
 30
0.0
 10
4.5325972144
 20
3.7124776538
 30
0.0
 10
4.551490525
 20
3.7094666897
 30
0.0
 10
4.5762498885
 20
3.7062990882
 30
0.0
 10
4.6069741648
 20
3.7033414649
 30
0.0
 10
4.6386580629
 20
3.7011006616
 30
0.0
 10
4.6709236811
 20
3.6994854403
 30
0.0
 10
4.7035272756
 20
3.6983985753
 30
0.0
 10
4.7472799473
 20
3.6975226787
 30
0.0
 10
4.8020853608
 20
3.697266851
 30
0.0
 10
4.8568907376
 20
3.6975225928
 30
0.0
 10
4.9006431913
 20
3.6983986238
 30
0.0
 10
4.9332459531
 20
3.6994854518
 30
0.0
 10
4.9655103111
 20
3.7011008072
 30
0.0
 10
4.9971920503
 20
3.7033413777
 30
0.0
 10
5.0279144175
 20
3.7062986145
 30
0.0
 10
5.0526721593
 20
3.7094661139
 30
0.0
 10
5.0715647534
 20
3.7124774025
 30
0.0
 10
5.0848718073
 20
3.7149181816
 30
0.0
 10
5.0974448644
 20
3.7175798418
 30
0.0
 10
5.109190705
 20
3.7204662366
 30
0.0
 10
5.1200308552
 20
3.7235673946
 30
0.0
 10
5.1299022919
 20
3.7268801059
 30
0.0
 10
5.1387643103
 20
3.7304032677
 30
0.0
 10
5.1466121837
 20
3.7341073306
 30
0.0
 10
5.1534602014
 20
3.7379740233
 30
0.0
 10
5.1593328617
 20
3.7419898082
 30
0.0
 10
5.1642799223
 20
3.7461232099
 30
0.0
 10
5.1683593957
 20
3.7503485443
 30
0.0
 10
5.1716312659
 20
3.7546398797
 30
0.0
 10
5.1741515488
 20
3.7589755943
 30
0.0
 10
5.1759760741
 20
3.7633323503
 30
0.0
 10
5.1767820062
 20
3.7662881081
 30
0.0
 10
5.1770820094
 20
3.7677506464
 30
0.0
  0
SPLINE
  5
33C
100
AcDbEntity
  8
ALL_FEATURES
100
AcDbSpline
 62
9
  6
CONTINUOUS
 70
0
 71
3
 72
25
 73
21
 74
0
 42
0.0000001
 43
0.0000001
 44
0.0000000001
 40
0.0
 40
0.0
 40
0.0
 40
0.0
 40
0.2143714355
 40
0.4047304
 40
0.4905380242
 40
0.5699070193
 40
0.6427101541
 40
0.7088387518
 40
0.7681977445
 40
0.8207123247
 40
0.866341015
 40
0.90510778
 40
0.9219650208
 40
0.937179971
 40
0.9508080357
 40
0.962932784
 40
0.9736801825
 40
0.9832390616
 40
0.9918856949
 40
1.0
 40
1.0
 40
1.0
 40
1.0
 10
5.1458675179
 20
3.7976765985
 30
0.0
 10
5.1476438938
 20
3.8087531895
 30
0.0
 10
5.151164974
 20
3.8296394071
 30
0.0
 10
5.1559629086
 20
3.854859972
 30
0.0
 10
5.1598326449
 20
3.8730590745
 30
0.0
 10
5.1626228639
 20
3.8851967157
 30
0.0
 10
5.1653986939
 20
3.8962789656
 30
0.0
 10
5.1681565063
 20
3.9062836303
 30
0.0
 10
5.1708925006
 20
3.9151893011
 30
0.0
 10
5.1736024976
 20
3.9229759275
 30
0.0
 10
5.1762829008
 20
3.9296234621
 30
0.0
 10
5.1785838186
 20
3.9344037706
 30
0.0
 10
5.180436146
 20
3.9376167859
 30
0.0
 10
5.1817519091
 20
3.9396158465
 30
0.0
 10
5.1830597196
 20
3.9413175802
 30
0.0
 10
5.184360676
 20
3.942720775
 30
0.0
 10
5.1856567619
 20
3.9438240405
 30
0.0
 10
5.1869520401
 20
3.9446243808
 30
0.0
 10
5.1882496679
 20
3.9451146884
 30
0.0
 10
5.1891298647
 20
3.9452279089
 30
0.0
 10
5.1895544889
 20
3.9452279498
 30
0.0
  0
SPLINE
  5
33D
100
AcDbEntity
  8
ALL_FEATURES
100
AcDbSpline
 62
9
  6
CONTINUOUS
 70
0
 71
3
 72
25
 73
21
 74
0
 42
0.0000001
 43
0.0000001
 44
0.0000000001
 40
0.0
 40
0.0
 40
0.0
 40
0.0
 40
0.2112075976
 40
0.3995139279
 40
0.4846859835
 40
0.5636663456
 40
0.6363188714
 40
0.7025273294
 40
0.7621884268
 40
0.8152176692
 40
0.8615610382
 40
0.9012245044
 40
0.9185891438
 40
0.9343433782
 40
0.9485331159
 40
0.9612272994
 40
0.9725291261
 40
0.9825924895
 40
0.9916434058
 40
1.0
 40
1.0
 40
1.0
 40
1.0
 10
5.1770804886
 20
3.7676722629
 30
0.0
 10
5.1788607201
 20
3.7784706568
 30
0.0
 10
5.1823869701
 20
3.7988709408
 30
0.0
 10
5.1871726851
 20
3.8235285249
 30
0.0
 10
5.1910315192
 20
3.841380245
 30
0.0
 10
5.1938185852
 20
3.8533307238
 30
0.0
 10
5.1965932256
 20
3.8642731378
 30
0.0
 10
5.1993516228
 20
3.8741844059
 30
0.0
 10
5.2020899628
 20
3.8830422799
 30
0.0
 10
5.2048040798
 20
3.8908256855
 30
0.0
 10
5.2074903317
 20
3.8975136559
 30
0.0
 10
5.2097936432
 20
3.9023560992
 30
0.0
 10
5.2116459396
 20
3.9056429398
 30
0.0
 10
5.212964848
 20
3.9077110382
 30
0.0
 10
5.2142755484
 20
3.9094921358
 30
0.0
 10
5.2155786776
 20
3.910984886
 30
0.0
 10
5.2168754548
 20
3.9121879535
 30
0.0
 10
5.2181688857
 20
3.9130991493
 30
0.0
 10
5.2194616952
 20
3.91371365
 30
0.0
 10
5.220348149
 20
3.9139242017
 30
0.0
 10
5.2207784965
 20
3.9139721831
 30
0.0
  0
SPLINE
  5
33E
100
AcDbEntity
  8
ALL_FEATURES
100
AcDbSpline
 62
9
  6
CONTINUOUS
 70
0
 71
3
 72
8
 73
4
 74
0
 42
0.0000001
 43
0.0000001
 44
0.0000000001
 40
0.0
 40
0.0
 40
0.0
 40
0.0
 40
1.0
 40
1.0
 40
1.0
 40
1.0
 10
5.2207785026
 20
3.9139783668
 30
0.0
 10
5.2207958313
 20
3.9139760971
 30
0.0
 10
5.22081316
 20
3.9139738273
 30
0.0
 10
5.2208304887
 20
3.9139715576
 30
0.0
  0
SPLINE
  5
33F
100
AcDbEntity
  8
ALL_FEATURES
100
AcDbSpline
 62
9
  6
CONTINUOUS
 70
0
 71
3
 72
15
 73
11
 74
0
 42
0.0000001
 43
0.0000001
 44
0.0000000001
 40
0.0
 40
0.0
 40
0.0
 40
0.0
 40
0.1248213354
 40
0.250002939
 40
0.3750089444
 40
0.4999169452
 40
0.6248575642
 40
0.7499499362
 40
0.8752194799
 40
1.0
 40
1.0
 40
1.0
 40
1.0
 10
5.1905189926
 20
3.9452127397
 30
0.0
 10
5.1925164665
 20
3.9451497172
 30
0.0
 10
5.1965146336
 20
3.944633255
 30
0.0
 10
5.2022509745
 20
3.9427429511
 30
0.0
 10
5.2075149864
 20
3.9397739686
 30
0.0
 10
5.2121151733
 20
3.9358621326
 30
0.0
 10
5.2158785609
 20
3.9311379011
 30
0.0
 10
5.2186783882
 20
3.9257782221
 30
0.0
 10
5.2203859456
 20
3.9199830114
 30
0.0
 10
5.2207788702
 20
3.9159699975
 30
0.0
 10
5.2207785001
 20
3.9139721831
 30
0.0
  0
SPLINE
  5
340
100
AcDbEntity
  8
ALL_FEATURES
100
AcDbSpline
 62
9
  6
CONTINUOUS
 70
0
 71
3
 72
21
 73
17
 74
0
 42
0.0000001
 43
0.0000001
 44
0.0000000001
 40
0.0
 40
0.0
 40
0.0
 40
0.0
 40
0.026494053
 40
0.0541897771
 40
0.0850034378
 40
0.1202558901
 40
0.1607583852
 40
0.2069795128
 40
0.2591756886
 40
0.3174715861
 40
0.3819042175
 40
0.4524563898
 40
0.5290758376
 40
0.611686308
 40
0.7944851434
 40
1.0
 40
1.0
 40
1.0
 40
1.0
 10
5.2208304884
 20
3.913977771
 30
0.0
 10
5.2214944564
 20
3.9140465104
 30
0.0
 10
5.22288293
 20
3.9139807106
 30
0.0
 10
5.2249217416
 20
3.9132458287
 30
0.0
 10
5.2268999951
 20
3.9119223305
 30
0.0
 10
5.228829221
 20
3.9100393888
 30
0.0
 10
5.230721453
 20
3.907609009
 30
0.0
 10
5.2325814475
 20
3.9046386911
 30
0.0
 10
5.2344103125
 20
3.9011359058
 30
0.0
 10
5.2362072109
 20
3.8971092412
 30
0.0
 10
5.2379707763
 20
3.892568391
 30
0.0
 10
5.2396991905
 20
3.8875237221
 30
0.0
 10
5.2413906904
 20
3.88198602
 30
0.0
 10
5.2436716649
 20
3.8736749862
 30
0.0
 10
5.246380177
 20
3.8621191594
 30
0.0
 10
5.2482592834
 20
3.852515896
 30
0.0
 10
5.2491816371
 20
3.8474207682
 30
0.0
  0
LINE
  5
341
100
AcDbEntity
  8
ALL_FEATURES
100
AcDbLine
 62
9
  6
CONTINUOUS
 10
5.2491816371
 20
3.8474207682
 11
5.249206725
 21
3.8472820784
  0
LINE
  5
342
100
AcDbEntity
  8
ALL_FEATURES
100
AcDbLine
 62
7
  6
CONTINUOUS
 10
4.403113702
 20
3.1576362303
 11
4.4059869245
 21
3.1633228701
  0
SPLINE
  5
343
100
AcDbEntity
  8
ALL_FEATURES
100
AcDbSpline
 62
7
  6
CONTINUOUS
 70
0
 71
3
 72
11
 73
7
 74
0
 42
0.0000001
 43
0.0000001
 44
0.0000000001
 40
0.0
 40
0.0
 40
0.0
 40
0.0
 40
0.2515875536
 40
0.5032484389
 40
0.7532661075
 40
1.0
 40
1.0
 40
1.0
 40
1.0
 10
4.4059869245
 20
3.1633228701
 30
0.0
 10
4.4077867064
 20
3.1668480693
 30
0.0
 10
4.4114335959
 20
3.1738754874
 30
0.0
 10
4.4169014754
 20
3.1843893356
 30
0.0
 10
4.422195771
 20
3.1949067948
 30
0.0
 10
4.4255127617
 20
3.201985384
 30
0.0
 10
4.4270804901
 20
3.2055364166
 30
0.0
  0
LINE
  5
344
100
AcDbEntity
  8
ALL_FEATURES
100
AcDbLine
 62
9
  6
CONTINUOUS
 10
4.406740675
 20
3.3841531671
 11
4.4068605228
 21
3.3841092054
  0
SPLINE
  5
345
100
AcDbEntity
  8
ALL_FEATURES
100
AcDbSpline
 62
9
  6
CONTINUOUS
 70
0
 71
3
 72
20
 73
16
 74
0
 42
0.0000001
 43
0.0000001
 44
0.0000000001
 40
0.0
 40
0.0
 40
0.0
 40
0.0
 40
0.0127244676
 40
0.0209503387
 40
0.0306763989
 40
0.0550261524
 40
0.0861747521
 40
0.1242203769
 40
0.169236487
 40
0.22127524
 40
0.28033829
 40
0.4194113407
 40
0.5860984652
 40
0.7798564434
 40
1.0
 40
1.0
 40
1.0
 40
1.0
 10
4.4068739651
 20
3.384108091
 30
0.0
 10
4.4069798779
 20
3.384065335
 30
0.0
 10
4.4071279476
 20
3.3839352793
 30
0.0
 10
4.4072890507
 20
3.3837131411
 30
0.0
 10
4.4074761855
 20
3.3833813589
 30
0.0
 10
4.4076962943
 20
3.3828372332
 30
0.0
 10
4.4079397728
 20
3.3820329994
 30
0.0
 10
4.4081747023
 20
3.3810345821
 30
0.0
 10
4.4084009231
 20
3.3798429294
 30
0.0
 10
4.4086182286
 20
3.3784583458
 30
0.0
 10
4.4089115942
 20
3.3762317989
 30
0.0
 10
4.4092405461
 20
3.3729729648
 30
0.0
 10
4.4095764482
 20
3.3685015079
 30
0.0
 10
4.4098674629
 20
3.3632979011
 30
0.0
 10
4.4100200752
 20
3.3595856551
 30
0.0
 10
4.4100900855
 20
3.3576108431
 30
0.0
  0
SPLINE
  5
346
100
AcDbEntity
  8
ALL_FEATURES
100
AcDbSpline
 62
9
  6
CONTINUOUS
 70
0
 71
3
 72
13
 73
9
 74
0
 42
0.0000001
 43
0.0000001
 44
0.0000000001
 40
0.0
 40
0.0
 40
0.0
 40
0.0
 40
0.0872705696
 40
0.1876422225
 40
0.3001199445
 40
0.4235654153
 40
0.6981729287
 40
1.0
 40
1.0
 40
1.0
 40
1.0
 10
4.4100900855
 20
3.3576108431
 30
0.0
 10
4.4102172935
 20
3.3540226302
 30
0.0
 10
4.4104127064
 20
3.3463047369
 30
0.0
 10
4.4105491595
 20
3.3339577318
 30
0.0
 10
4.4105387282
 20
3.3201216688
 30
0.0
 10
4.4103058016
 20
3.2991185115
 30
0.0
 10
4.4095685133
 20
3.2703319724
 30
0.0
 10
4.4085404855
 20
3.2466371522
 30
0.0
 10
4.407884501
 20
3.2342367863
 30
0.0
  0
ENDSEC
  0
SECTION
  2
OBJECTS
  0
DICTIONARY
  5
C
100
AcDbDictionary
280
0
281
1
  3
ACAD_GROUP
350
D
  3
ACAD_MLINESTYLE
350
17
  3
ACAD_LAYOUT
350
1A
  3
ACAD_PLOTSETTINGS
350
19
  3
ACAD_PLOTSTYLENAME
350
E
  0
DICTIONARY
  5
D
102
{ACAD_REACTORS
330
C
102
}
100
AcDbDictionary
280
0
281
1
  0
ACDBDICTIONARYWDFLT
  5
E
102
{ACAD_REACTORS
330
C
102
}
100
AcDbDictionary
281
1
  3
Normal
350
F
100
AcDbDictionaryWithDefault
340
F
  0
DICTIONARY
  5
17
102
{ACAD_REACTORS
330
C
102
}
100
AcDbDictionary
280
0
281
1
  3
Standard
350
18
  0
DICTIONARY
  5
19
102
{ACAD_REACTORS
330
C
102
}
100
AcDbDictionary
281
1
  0
DICTIONARY
  5
1A
102
{ACAD_REACTORS
330
C
102
}
100
AcDbDictionary
281
1
  3
Model
350
347
  3
Layout1
350
348
  0
ACDBPLACEHOLDER
  5
F
102
{ACAD_REACTORS
330
E
102
}
  0
MLINESTYLE
  5
18
102
{ACAD_REACTORS
330
17
102
}
100
AcDbMlineStyle
  2
STANDARD
 70
0
  3

 62
256
 51
90.0
 52
90.0
 71
2
 49
0.5
 62
256
  6
BYLAYER
 49
-0.5
 62
256
  6
BYLAYER
  0
LAYOUT
  5
347
102
{ACAD_REACTORS
330
1A
102
}
100
AcDbPlotSettings
  1

  2
none_device
  4
ANSI_A_(11.00_x_8.50_Inches)
  6

 40
0.0
 41
0.0
 42
0.0
 43
0.0
 44
279.4
 45
215.9
 46
0.0
 47
0.0
 48
0.0
 49
0.0
140
0.0
141
0.0
142
1.0
143
1.0
 70
1024
 72
0
 73
0
 74
0
  7

 75
0
147
1.0
148
0.0
149
0.0
100
AcDbLayout
  1
Model
 70
0
 71
0
 10
0.0
 20
0.0
 11
11.0
 21
8.5
 12
0.0
 22
0.0
 32
0.0
 14
0.0
 24
0.0
 34
0.0
 15
0.0
 25
0.0
 35
0.0
146
0.0
 13
0.0
 23
0.0
 33
0.0
 16
1.0
 26
0.0
 36
0.0
 17
0.0
 27
1.0
 37
0.0
 76
0
330
222
345
0
346
0
  0
LAYOUT
  5
348
102
{ACAD_REACTORS
330
1A
102
}
100
AcDbPlotSettings
  1

  2
none_device
  4
ANSI_A_(11.00_x_8.50_Inches)
  6

 40
0.0
 41
0.0
 42
0.0
 43
0.0
 44
279.4
 45
215.9
 46
0.0
 47
0.0
 48
0.0
 49
0.0
140
0.0
141
0.0
142
1.0
143
1.0
 70
0
 72
0
 73
0
 74
0
  7

 75
0
147
1.0
148
0.0
149
0.0
100
AcDbLayout
  1
Layout1
 70
0
 71
1
 10
0.0
 20
0.0
 11
11.0
 21
8.5
 12
0.0
 22
0.0
 32
0.0
 14
0.0
 24
0.0
 34
0.0
 15
0.0
 25
0.0
 35
0.0
146
0.0
 13
0.0
 23
0.0
 33
0.0
 16
1.0
 26
0.0
 36
0.0
 17
0.0
 27
1.0
 37
0.0
 76
0
330
223
345
0
346
0
  0
ENDSEC
  0
EOF
