999
DXF file: 3-905_top.dxf
999
Pro/ENGINEER 2013150 by Parametric Technology Corporation
  0
SECTION
  2
HEADER
  9
$ACADVER
  1
AC1021
  9
$DWGCODEPAGE
  3
ANSI_1252
  9
$EXTMAX
 10
11.0
 20
8.5
 30
0.0
  9
$EXTMIN
 10
0.0
 20
0.0
 30
0.0
  9
$LIMMIN
 10
0.0
 20
0.0
  9
$LIMMAX
 10
11.0
 20
8.5
  9
$VIEWCTR
 10
5.5
 20
4.25
  9
$VIEWSIZE
 40
8.5
  9
$CLAYER
  8
0
  9
$LTSCALE
 40
0.605
  9
$CELTYPE
  6
BYLAYER
  9
$DIMSCALE
 40
1.0
  9
$DIMASZ
 40
0.1
  9
$DIMEXO
 40
0.0625
  9
$DIMDLI
 40
0.418
  9
$DIMEXE
 40
0.125
  9
$DIMCEN
 40
0.099
  9
$DIMLFAC
 40
1.0
  9
$DIMBLK
  1
_FILLED
  9
$DIMTXT
 40
0.08
  9
$DIMTOL
 70
1
  9
$DIMLIM
 70
0
  9
$DIMTFAC
 40
1.0
  9
$DIMTP
 40
0.001
  9
$DIMTM
 40
0.001
  9
$DIMGAP
 40
0.09
  9
$DIMDSEP
 70
46
  9
$PDMODE
 70
3
  9
$PDSIZE
 40
0.06
  9
$HANDSEED
  5
2CF
  9
$TILEMODE
 70
1
  9
$MEASUREMENT
 70
0
  9
$INSUNITS
 70
1
  0
ENDSEC
  0
SECTION
  2
CLASSES
  0
CLASS
  1
ACDBDICTIONARYWDFLT
  2
AcDbDictionaryWithDefault
  3
AutoCAD 2000
 90
0
 91
1
280
0
281
0
  0
CLASS
  1
ACDBPLACEHOLDER
  2
AcDbPlaceHolder
  3
AutoCAD 2000
 90
0
 91
1
280
0
281
0
  0
CLASS
  1
LAYOUT
  2
AcDbLayout
  3
AutoCAD 2000
 90
0
 91
0
280
0
281
0
  0
ENDSEC
  0
SECTION
  2
TABLES
  0
TABLE
  2
VPORT
  5
8
100
AcDbSymbolTable
 70
2
  0
VPORT
  5
1F4
100
AcDbSymbolTableRecord
100
AcDbViewportTableRecord
  2
*ACTIVE
 70
0
 10
0.0
 20
0.0
 11
1.0
 21
1.0
 12
5.5
 22
4.25
 13
0.0
 23
0.0
 14
1.0
 24
1.0
 15
0.0
 25
0.0
 16
0.0
 26
0.0
 36
1.0
 17
0.0
 27
0.0
 37
0.0
 40
8.5
 41
1.2941176471
 42
50.0
 43
0.0
 44
0.0
 50
0.0
 51
0.0
 71
0
 72
100
 73
1
 74
1
 75
0
 76
0
 77
0
 78
0
  0
ENDTAB
  0
TABLE
  2
LTYPE
  5
5
100
AcDbSymbolTable
 70
6
  0
LTYPE
  5
14
100
AcDbSymbolTableRecord
100
AcDbLinetypeTableRecord
  2
BYBLOCK
 70
0
  3

 72
65
 73
0
 40
0.0
  0
LTYPE
  5
15
100
AcDbSymbolTableRecord
100
AcDbLinetypeTableRecord
  2
BYLAYER
 70
0
  3

 72
65
 73
0
 40
0.0
  0
LTYPE
  5
16
100
AcDbSymbolTableRecord
100
AcDbLinetypeTableRecord
  2
CONTINUOUS
 70
64
  3
Solid line
 72
65
 73
0
 40
0.0
  0
LTYPE
  5
1F5
100
AcDbSymbolTableRecord
100
AcDbLinetypeTableRecord
  2
CENTER
 70
64
  3
____ _ ____ _ ____ _ ____ _ ____ _ ____ _ ____
 72
65
 73
4
 40
0.6
 49
0.375
 74
0
 49
-0.075
 74
0
 49
0.075
 74
0
 49
-0.075
 74
0
  0
LTYPE
  5
1F6
100
AcDbSymbolTableRecord
100
AcDbLinetypeTableRecord
  2
HIDDEN
 70
64
  3
- - - - - - - - - - - - - - - - - - - -
 72
65
 73
2
 40
0.2
 49
0.1
 74
0
 49
-0.1
 74
0
  0
LTYPE
  5
1F7
100
AcDbSymbolTableRecord
100
AcDbLinetypeTableRecord
  2
PHANTOM
 70
64
  3
_____ _ _ _____ _ _ _____ _ _ _____
 72
65
 73
6
 40
0.8
 49
0.45
 74
0
 49
-0.05
 74
0
 49
0.1
 74
0
 49
-0.05
 74
0
 49
0.1
 74
0
 49
-0.05
 74
0
  0
LTYPE
  5
1F8
100
AcDbSymbolTableRecord
100
AcDbLinetypeTableRecord
  2
DOT
 70
64
  3
. . . . . . . . . . . . . . . . . . . .
 72
65
 73
2
 40
0.2
 49
0.1
 74
0
 49
-0.1
 74
0
  0
LTYPE
  5
1F9
100
AcDbSymbolTableRecord
100
AcDbLinetypeTableRecord
  2
DASHED
 70
64
  3
- - - - - - - - - - - - - - - - - - - -
 72
65
 73
2
 40
0.2
 49
0.1
 74
0
 49
-0.1
 74
0
  0
ENDTAB
  0
TABLE
  2
LAYER
  5
2
100
AcDbSymbolTable
 70
36
  0
LAYER
  5
10
100
AcDbSymbolTableRecord
100
AcDbLayerTableRecord
  2
0
 70
0
 62
7
  6
CONTINUOUS
370
-3
390
F
  0
LAYER
  5
1FA
100
AcDbSymbolTableRecord
100
AcDbLayerTableRecord
  2
DEFAULT_1
 70
0
 62
7
  6
CENTER
370
-3
390
F
  0
LAYER
  5
1FB
100
AcDbSymbolTableRecord
100
AcDbLayerTableRecord
  2
DEFAULT_2
 70
0
 62
8
  6
HIDDEN
370
-3
390
F
  0
LAYER
  5
1FC
100
AcDbSymbolTableRecord
100
AcDbLayerTableRecord
  2
DEFAULT_3
 70
0
 62
7
  6
PHANTOM
370
-3
390
F
  0
LAYER
  5
1FD
100
AcDbSymbolTableRecord
100
AcDbLayerTableRecord
  2
2-103H_ASSY_DATUMS
 70
0
 62
7
  6
CONTINUOUS
370
-3
390
F
  0
LAYER
  5
1FE
100
AcDbSymbolTableRecord
100
AcDbLayerTableRecord
  2
2-103_ASSY_DATUMS
 70
0
 62
7
  6
CONTINUOUS
370
-3
390
F
  0
LAYER
  5
1FF
100
AcDbSymbolTableRecord
100
AcDbLayerTableRecord
  2
3-187C_ASSY_PLANES
 70
0
 62
7
  6
CONTINUOUS
370
-3
390
F
  0
LAYER
  5
200
100
AcDbSymbolTableRecord
100
AcDbLayerTableRecord
  2
3-187H_ASSY_PLANES
 70
0
 62
7
  6
CONTINUOUS
370
-3
390
F
  0
LAYER
  5
201
100
AcDbSymbolTableRecord
100
AcDbLayerTableRecord
  2
3-905_ASSY_PLANES
 70
0
 62
7
  6
CONTINUOUS
370
-3
390
F
  0
LAYER
  5
202
100
AcDbSymbolTableRecord
100
AcDbLayerTableRecord
  2
ADATUM
 70
0
 62
7
  6
CONTINUOUS
370
-3
390
F
  0
LAYER
  5
203
100
AcDbSymbolTableRecord
100
AcDbLayerTableRecord
  2
ALL_ASSEMBLY_MEMBERS
 70
0
 62
7
  6
CONTINUOUS
370
-3
390
F
  0
LAYER
  5
204
100
AcDbSymbolTableRecord
100
AcDbLayerTableRecord
  2
ALL_FEATURES
 70
0
 62
7
  6
CONTINUOUS
370
-3
390
F
  0
LAYER
  5
205
100
AcDbSymbolTableRecord
100
AcDbLayerTableRecord
  2
AXES_FEATURES
 70
0
 62
7
  6
CONTINUOUS
370
-3
390
F
  0
LAYER
  5
206
100
AcDbSymbolTableRecord
100
AcDbLayerTableRecord
  2
BLANK_ME
 70
0
 62
7
  6
CONTINUOUS
370
-3
390
F
  0
LAYER
  5
207
100
AcDbSymbolTableRecord
100
AcDbLayerTableRecord
  2
CHAMFER_FEATURES
 70
0
 62
7
  6
CONTINUOUS
370
-3
390
F
  0
LAYER
  5
208
100
AcDbSymbolTableRecord
100
AcDbLayerTableRecord
  2
CROSS_CUT
 70
0
 62
7
  6
CONTINUOUS
370
-3
390
F
  0
LAYER
  5
209
100
AcDbSymbolTableRecord
100
AcDbLayerTableRecord
  2
CUT_FEATURES
 70
0
 62
7
  6
CONTINUOUS
370
-3
390
F
  0
LAYER
  5
20A
100
AcDbSymbolTableRecord
100
AcDbLayerTableRecord
  2
DATUM_CURVE
 70
0
 62
7
  6
CONTINUOUS
370
-3
390
F
  0
LAYER
  5
20B
100
AcDbSymbolTableRecord
100
AcDbLayerTableRecord
  2
DATUM_CURVES
 70
0
 62
7
  6
CONTINUOUS
370
-3
390
F
  0
LAYER
  5
20C
100
AcDbSymbolTableRecord
100
AcDbLayerTableRecord
  2
DATUM_PLANES
 70
0
 62
7
  6
CONTINUOUS
370
-3
390
F
  0
LAYER
  5
20D
100
AcDbSymbolTableRecord
100
AcDbLayerTableRecord
  2
DATUM_POINTS
 70
0
 62
7
  6
CONTINUOUS
370
-3
390
F
  0
LAYER
  5
20E
100
AcDbSymbolTableRecord
100
AcDbLayerTableRecord
  2
DEFAULT_COORDINATE_SYSTEM
 70
0
 62
7
  6
CONTINUOUS
370
-3
390
F
  0
LAYER
  5
20F
100
AcDbSymbolTableRecord
100
AcDbLayerTableRecord
  2
DEFAULT_DATUM_AXES
 70
0
 62
7
  6
CONTINUOUS
370
-3
390
F
  0
LAYER
  5
210
100
AcDbSymbolTableRecord
100
AcDbLayerTableRecord
  2
DEFAULT_DATUM_PLANES
 70
0
 62
7
  6
CONTINUOUS
370
-3
390
F
  0
LAYER
  5
211
100
AcDbSymbolTableRecord
100
AcDbLayerTableRecord
  2
DEFAULT_SURFACES
 70
0
 62
7
  6
CONTINUOUS
370
-3
390
F
  0
LAYER
  5
212
100
AcDbSymbolTableRecord
100
AcDbLayerTableRecord
  2
DEF_DTM0
 70
0
 62
7
  6
CONTINUOUS
370
-3
390
F
  0
LAYER
  5
213
100
AcDbSymbolTableRecord
100
AcDbLayerTableRecord
  2
DIMENSIONS
 70
0
 62
7
  6
CONTINUOUS
370
-3
390
F
  0
LAYER
  5
214
100
AcDbSymbolTableRecord
100
AcDbLayerTableRecord
  2
DRW_DTM
 70
0
 62
7
  6
CONTINUOUS
370
-3
390
F
  0
LAYER
  5
215
100
AcDbSymbolTableRecord
100
AcDbLayerTableRecord
  2
HOLE_FEATURES
 70
0
 62
7
  6
CONTINUOUS
370
-3
390
F
  0
LAYER
  5
216
100
AcDbSymbolTableRecord
100
AcDbLayerTableRecord
  2
PART_REFERENCE_DIMENSIONS
 70
0
 62
7
  6
CONTINUOUS
370
-3
390
F
  0
LAYER
  5
217
100
AcDbSymbolTableRecord
100
AcDbLayerTableRecord
  2
PLATED_SURFACE_AREA
 70
0
 62
7
  6
CONTINUOUS
370
-3
390
F
  0
LAYER
  5
218
100
AcDbSymbolTableRecord
100
AcDbLayerTableRecord
  2
POINTS
 70
0
 62
7
  6
CONTINUOUS
370
-3
390
F
  0
LAYER
  5
219
100
AcDbSymbolTableRecord
100
AcDbLayerTableRecord
  2
PROTRUSION_FEATURES
 70
0
 62
7
  6
CONTINUOUS
370
-3
390
F
  0
LAYER
  5
21A
100
AcDbSymbolTableRecord
100
AcDbLayerTableRecord
  2
QUILTS
 70
0
 62
7
  6
CONTINUOUS
370
-3
390
F
  0
LAYER
  5
21B
100
AcDbSymbolTableRecord
100
AcDbLayerTableRecord
  2
REFERENCE_DIMENSIONS
 70
0
 62
7
  6
CONTINUOUS
370
-3
390
F
  0
LAYER
  5
21C
100
AcDbSymbolTableRecord
100
AcDbLayerTableRecord
  2
ROUND_FEATURES
 70
0
 62
7
  6
CONTINUOUS
370
-3
390
F
  0
LAYER
  5
21D
100
AcDbSymbolTableRecord
100
AcDbLayerTableRecord
  2
SHELL_FEATURES
 70
0
 62
7
  6
CONTINUOUS
370
-3
390
F
  0
LAYER
  5
21E
100
AcDbSymbolTableRecord
100
AcDbLayerTableRecord
  2
WETTED_SURFACE_AREA
 70
0
 62
7
  6
CONTINUOUS
370
-3
390
F
  0
LAYER
  5
21F
100
AcDbSymbolTableRecord
100
AcDbLayerTableRecord
  2
XSEC_DATUMS
 70
0
 62
7
  6
CONTINUOUS
370
-3
390
F
  0
ENDTAB
  0
TABLE
  2
STYLE
  5
3
100
AcDbSymbolTable
 70
1
  0
STYLE
  5
11
100
AcDbSymbolTableRecord
100
AcDbTextStyleTableRecord
  2
STANDARD
 70
0
 40
0.0
 41
0.8
 50
0.0
 71
0
 42
0.2
  3
txt
  4

  0
STYLE
  5
220
100
AcDbSymbolTableRecord
100
AcDbTextStyleTableRecord
  2
TEXTSTYLE_1
 70
0
 40
0.0
 41
0.8
 50
0.0
 71
0
 42
0.2
  3
gdt
  4

  0
ENDTAB
  0
TABLE
  2
VIEW
  5
6
100
AcDbSymbolTable
 70
0
  0
ENDTAB
  0
TABLE
  2
UCS
  5
7
100
AcDbSymbolTable
 70
0
  0
ENDTAB
  0
TABLE
  2
APPID
  5
9
100
AcDbSymbolTable
 70
1
  0
APPID
  5
221
100
AcDbSymbolTableRecord
100
AcDbRegAppTableRecord
  2
ACAD
 70
0
  0
ENDTAB
  0
TABLE
  2
BLOCK_RECORD
  5
1
100
AcDbSymbolTable
 70
0
  0
BLOCK_RECORD
  5
222
100
AcDbSymbolTableRecord
100
AcDbBlockTableRecord
  2
*Model_Space
  0
BLOCK_RECORD
  5
223
100
AcDbSymbolTableRecord
100
AcDbBlockTableRecord
  2
*Paper_Space
  0
ENDTAB
  0
TABLE
  2
DIMSTYLE
  5
A
100
AcDbSymbolTable
 70
1
100
AcDbDimStyleTable
 71
0
  0
DIMSTYLE
105
224
100
AcDbSymbolTableRecord
100
AcDbDimStyleTableRecord
  2
STANDARD
 70
0
  3

  4

 40
1.0
 41
0.1
 42
0.0625
 43
0.38
 44
0.125
 45
0.0
 46
0.0
 47
0.001
 48
0.001
140
0.08
141
0.09
142
0.0
143
25.4
144
1.0
145
0.0
146
1.0
147
0.09
 71
1.0
 72
0.0
 73
1
 74
1
 75
0
 76
0
 77
0
 78
4
170
0
171
2
172
0
173
0
174
0
175
0
176
0
177
0
178
0
270
2
271
3
272
3
273
2
274
2
275
0
280
0
281
0
282
0
283
1
284
4
285
0
286
0
287
3
288
0
340
11
278
46
  0
ENDTAB
  0
ENDSEC
  0
SECTION
  2
BLOCKS
  0
BLOCK
  5
20
100
AcDbEntity
  8
0
100
AcDbBlockBegin
  2
*Model_Space
 70
0
 10
0.0
 20
0.0
 30
0.0
  3
*Model_Space
  1

  0
ENDBLK
  5
21
100
AcDbEntity
  8
0
100
AcDbBlockEnd
  0
BLOCK
  5
1C
100
AcDbEntity
  8
0
100
AcDbBlockBegin
  2
*Paper_Space
 70
0
 10
0.0
 20
0.0
 30
0.0
  3
*Paper_Space
  1

  0
ENDBLK
  5
1D
100
AcDbEntity
  8
0
100
AcDbBlockEnd
  0
ENDSEC
  0
SECTION
  2
ENTITIES
  0
LINE
  5
225
100
AcDbEntity
  8
0
100
AcDbLine
 62
7
  6
CONTINUOUS
 10
0.0
 20
0.0
 11
0.0
 21
8.5
  0
LINE
  5
226
100
AcDbEntity
  8
0
100
AcDbLine
 62
7
  6
CONTINUOUS
 10
0.0
 20
0.0
 11
11.0
 21
0.0
  0
LINE
  5
227
100
AcDbEntity
  8
0
100
AcDbLine
 62
7
  6
CONTINUOUS
 10
0.0
 20
8.5
 11
11.0
 21
8.5
  0
LINE
  5
228
100
AcDbEntity
  8
0
100
AcDbLine
 62
7
  6
CONTINUOUS
 10
11.0
 20
0.0
 11
11.0
 21
8.5
  0
LINE
  5
229
100
AcDbEntity
  8
ALL_ASSEMBLY_MEMBERS
100
AcDbLine
 62
7
  6
CONTINUOUS
 10
1.3070500931
 20
5.0257765483
 11
1.3070500931
 21
4.7177765483
  0
LINE
  5
22A
100
AcDbEntity
  8
ALL_ASSEMBLY_MEMBERS
100
AcDbLine
 62
7
  6
CONTINUOUS
 10
1.3170500931
 20
5.0357765483
 11
1.3170500931
 21
4.7077765483
  0
LINE
  5
22B
100
AcDbEntity
  8
ALL_ASSEMBLY_MEMBERS
100
AcDbLine
 62
7
  6
CONTINUOUS
 10
1.3170500931
 20
5.0357765483
 11
1.3070500931
 21
5.0257765483
  0
LINE
  5
22C
100
AcDbEntity
  8
ALL_ASSEMBLY_MEMBERS
100
AcDbLine
 62
7
  6
CONTINUOUS
 10
2.4078000931
 20
6.0924015483
 11
2.4078000931
 21
6.0489015483
  0
LINE
  5
22D
100
AcDbEntity
  8
ALL_ASSEMBLY_MEMBERS
100
AcDbLine
 62
7
  6
CONTINUOUS
 10
2.6110500931
 20
4.6876002108
 11
2.6110500931
 21
5.0559528858
  0
LINE
  5
22E
100
AcDbEntity
  8
ALL_ASSEMBLY_MEMBERS
100
AcDbLine
 62
7
  6
CONTINUOUS
 10
2.6578000931
 20
5.3767765483
 11
2.6578000931
 21
5.0739986818
  0
LINE
  5
22F
100
AcDbEntity
  8
ALL_ASSEMBLY_MEMBERS
100
AcDbLine
 62
7
  6
CONTINUOUS
 10
2.6922500931
 20
4.6875987106
 11
2.6922500931
 21
5.0212772704
  0
LINE
  5
230
100
AcDbEntity
  8
ALL_ASSEMBLY_MEMBERS
100
AcDbLine
 62
7
  6
CONTINUOUS
 10
1.3170500931
 20
4.7077765483
 11
1.3070500931
 21
4.7177765483
  0
LINE
  5
231
100
AcDbEntity
  8
ALL_ASSEMBLY_MEMBERS
100
AcDbLine
 62
7
  6
CONTINUOUS
 10
2.7734500931
 20
4.6875987106
 11
2.7734500931
 21
4.967503169
  0
LINE
  5
232
100
AcDbEntity
  8
ALL_ASSEMBLY_MEMBERS
100
AcDbLine
 62
7
  6
CONTINUOUS
 10
2.8546500931
 20
4.6875987106
 11
2.8546500931
 21
4.967503169
  0
LINE
  5
233
100
AcDbEntity
  8
ALL_ASSEMBLY_MEMBERS
100
AcDbLine
 62
7
  6
CONTINUOUS
 10
2.9358500931
 20
4.6875987106
 11
2.9358500931
 21
5.0212772704
  0
LINE
  5
234
100
AcDbEntity
  8
ALL_ASSEMBLY_MEMBERS
100
AcDbLine
 62
7
  6
CONTINUOUS
 10
2.9703000931
 20
5.3767765483
 11
2.9703000931
 21
5.0739987791
  0
LINE
  5
235
100
AcDbEntity
  8
ALL_ASSEMBLY_MEMBERS
100
AcDbLine
 62
7
  6
CONTINUOUS
 10
3.0188000931
 20
5.4024015483
 11
3.0088000931
 21
5.3924015483
  0
LINE
  5
236
100
AcDbEntity
  8
ALL_ASSEMBLY_MEMBERS
100
AcDbLine
 62
7
  6
CONTINUOUS
 10
3.0170500931
 20
4.6876002108
 11
3.0170500931
 21
5.0559528858
  0
LINE
  5
237
100
AcDbEntity
  8
ALL_ASSEMBLY_MEMBERS
100
AcDbLine
 62
7
  6
CONTINUOUS
 10
3.2203000931
 20
6.0924015483
 11
3.2203000931
 21
6.0489015483
  0
LINE
  5
238
100
AcDbEntity
  8
ALL_ASSEMBLY_MEMBERS
100
AcDbLine
 62
7
  6
CONTINUOUS
 10
3.2470500931
 20
5.0357765483
 11
3.2470500931
 21
4.7077765483
  0
LINE
  5
239
100
AcDbEntity
  8
ALL_ASSEMBLY_MEMBERS
100
AcDbLine
 62
7
  6
CONTINUOUS
 10
3.2570500931
 20
5.0257765483
 11
3.2570500931
 21
4.7177765483
  0
LINE
  5
23A
100
AcDbEntity
  8
ALL_ASSEMBLY_MEMBERS
100
AcDbLine
 62
7
  6
CONTINUOUS
 10
3.2570500931
 20
4.7177765483
 11
3.2470500931
 21
4.7077765483
  0
LINE
  5
23B
100
AcDbEntity
  8
ALL_ASSEMBLY_MEMBERS
100
AcDbLine
 62
7
  6
CONTINUOUS
 10
2.6093000931
 20
5.4024015483
 11
2.6193000931
 21
5.3924015483
  0
LINE
  5
23C
100
AcDbEntity
  8
ALL_FEATURES
100
AcDbLine
 62
9
  6
CONTINUOUS
 10
4.3603000948
 20
3.8799015484
 11
4.3694452592
 21
3.8802817906
  0
LINE
  5
23D
100
AcDbEntity
  8
ALL_FEATURES
100
AcDbLine
 62
9
  6
CONTINUOUS
 10
4.3694452592
 20
3.8802817906
 11
4.3915241144
 21
3.8811854581
  0
LINE
  5
23E
100
AcDbEntity
  8
ALL_FEATURES
100
AcDbLine
 62
9
  6
CONTINUOUS
 10
4.3603520825
 20
3.8786273455
 11
4.3915760942
 21
3.8799015483
  0
LINE
  5
23F
100
AcDbEntity
  8
ALL_FEATURES
100
AcDbLine
 62
9
  6
CONTINUOUS
 10
5.1665240919
 20
3.8799015483
 11
4.3915760942
 21
3.8799015483
  0
LINE
  5
240
100
AcDbEntity
  8
ALL_FEATURES
100
AcDbLine
 62
9
  6
CONTINUOUS
 10
5.1665240919
 20
3.8799015483
 11
5.1977481036
 21
3.8786273455
  0
LINE
  5
241
100
AcDbEntity
  8
ALL_FEATURES
100
AcDbLine
 62
9
  6
CONTINUOUS
 10
5.1665760717
 20
3.8811854581
 11
5.1886549252
 21
3.8802817907
  0
LINE
  5
242
100
AcDbEntity
  8
ALL_FEATURES
100
AcDbLine
 62
9
  6
CONTINUOUS
 10
5.1886549252
 20
3.8802817907
 11
5.1978000914
 21
3.8799015484
  0
LINE
  5
243
100
AcDbEntity
  8
ALL_ASSEMBLY_MEMBERS
100
AcDbLine
 62
7
  6
CONTINUOUS
 10
3.2570500931
 20
5.0257765483
 11
3.2470500931
 21
5.0357765483
  0
LINE
  5
244
100
AcDbEntity
  8
ALL_FEATURES
100
AcDbLine
 62
7
  6
CONTINUOUS
 10
4.353109401
 20
3.988627293
 11
4.3603000931
 21
3.8799015483
  0
LWPOLYLINE
  5
245
100
AcDbEntity
  8
ALL_FEATURES
100
AcDbPolyline
 62
7
  6
CONTINUOUS
 90
10
 70
0
 10
4.3603520856
 20
3.8786273457
 10
4.3644073404
 20
3.7805091801
 10
4.3688985576
 20
3.6745015006
 10
4.3735614482
 20
3.5669932453
 10
4.3783843794
 20
3.4581295473
 10
4.3833543812
 20
3.3480234272
 10
4.3884560068
 20
3.2367859254
 10
4.3936711966
 20
3.1245370391
 10
4.3989810785
 20
3.0113923283
 10
4.4040500963
 20
2.9040820723
  0
LWPOLYLINE
  5
246
100
AcDbEntity
  8
ALL_FEATURES
100
AcDbPolyline
 62
7
  6
CONTINUOUS
 90
20
 70
0
 10
4.3872110563
 20
3.2639312303
 10
4.3872511438
 20
3.2607091222
 10
4.3872974403
 20
3.2559356338
 10
4.3873284407
 20
3.2513566768
 10
4.3873443634
 20
3.2469738601
 10
4.3873454639
 20
3.2427895571
 10
4.3873320197
 20
3.2388084017
 10
4.3873044157
 20
3.2350304644
 10
4.3872630335
 20
3.2314577571
 10
4.3872084773
 20
3.22809831
 10
4.3871412796
 20
3.2249493349
 10
4.3870621823
 20
3.2220141192
 10
4.3869725658
 20
3.2193097714
 10
4.3868734773
 20
3.2168313324
 10
4.3867663131
 20
3.2145814327
 10
4.3866543833
 20
3.2125880296
 10
4.3865396197
 20
3.210841054
 10
4.3864251299
 20
3.2093446301
 10
4.3863187837
 20
3.2081460727
 10
4.3862511774
 20
3.2074731546
  0
LWPOLYLINE
  5
247
100
AcDbEntity
  8
ALL_FEATURES
100
AcDbPolyline
 62
7
  6
CONTINUOUS
 90
18
 70
0
 10
4.1228000931
 20
6.1549015483
 10
4.1432415781
 20
6.0125030989
 10
4.1633791936
 20
5.866624251
 10
4.1823238861
 20
5.7237304358
 10
4.2001056973
 20
5.5840242874
 10
4.2167968525
 20
5.447372114
 10
4.2325037036
 20
5.3133005194
 10
4.2472710391
 20
5.181795901
 10
4.261133699
 20
5.0529226399
 10
4.2741694157
 20
4.9263168927
 10
4.2864132229
 20
4.8019772743
 10
4.2978952302
 20
4.679944308
 10
4.3086756358
 20
4.5599119716
 10
4.3187846262
 20
4.441861562
 10
4.3282459857
 20
4.3258422502
 10
4.3371030615
 20
4.2116464171
 10
4.3453849363
 20
4.0992127819
 10
4.353109401
 20
3.988627293
  0
LINE
  5
248
100
AcDbEntity
  8
ALL_FEATURES
100
AcDbLine
 62
7
  6
CONTINUOUS
 10
4.0915500931
 20
6.2799015483
 11
4.1070500931
 21
6.1549015483
  0
LWPOLYLINE
  5
249
100
AcDbEntity
  8
ALL_FEATURES
100
AcDbPolyline
 62
7
  6
CONTINUOUS
 90
5
 70
0
 10
5.1732091488
 20
3.205235498
 10
5.1727246589
 20
3.2063569239
 10
5.1723188941
 20
3.2073103297
 10
5.171932147
 20
3.2082352515
 10
5.171729077
 20
3.2087315145
  0
LINE
  5
24A
100
AcDbEntity
  8
ALL_FEATURES
100
AcDbLine
 62
7
  6
CONTINUOUS
 10
4.3863706622
 20
3.2087307608
 11
4.386167259
 21
3.2082336416
  0
LWPOLYLINE
  5
24B
100
AcDbEntity
  8
ALL_FEATURES
100
AcDbPolyline
 62
7
  6
CONTINUOUS
 90
3
 70
0
 10
4.386167259
 20
3.2082336416
 10
4.385780508
 20
3.2073086208
 10
4.385374972
 20
3.2063556764
  0
LINE
  5
24C
100
AcDbEntity
  8
ALL_FEATURES
100
AcDbLine
 62
7
  6
CONTINUOUS
 10
4.385374972
 20
3.2063556764
 11
4.3848910136
 21
3.2052354434
  0
LINE
  5
24D
100
AcDbEntity
  8
ALL_ASSEMBLY_MEMBERS
100
AcDbLine
 62
7
  6
CONTINUOUS
 10
8.2435500931
 20
4.7077765483
 11
6.9495500931
 21
4.7077765483
  0
LINE
  5
24E
100
AcDbEntity
  8
ALL_ASSEMBLY_MEMBERS
100
AcDbLine
 62
7
  6
CONTINUOUS
 10
6.5435500931
 20
4.7077765483
 11
6.3135500931
 21
4.7077765483
  0
LINE
  5
24F
100
AcDbEntity
  8
ALL_ASSEMBLY_MEMBERS
100
AcDbLine
 62
7
  6
CONTINUOUS
 10
3.2470500931
 20
4.7077765483
 11
3.0170500931
 21
4.7077765483
  0
LINE
  5
250
100
AcDbEntity
  8
ALL_ASSEMBLY_MEMBERS
100
AcDbLine
 62
7
  6
CONTINUOUS
 10
2.6110500931
 20
4.7077765483
 11
1.3170500931
 21
4.7077765483
  0
LWPOLYLINE
  5
251
100
AcDbEntity
  8
ALL_FEATURES
100
AcDbPolyline
 62
7
  6
CONTINUOUS
 90
21
 70
0
 10
5.171981015
 20
3.2063695008
 10
5.1719631308
 20
3.2065000472
 10
5.1719000516
 20
3.2070122756
 10
5.1718077829
 20
3.2078771669
 10
5.1717030291
 20
3.2090142623
 10
5.1715916646
 20
3.2104140522
 10
5.1714767177
 20
3.2120927406
 10
5.1713644089
 20
3.2140078266
 10
5.1712571508
 20
3.2161551174
 10
5.1711565334
 20
3.2185420101
 10
5.1710650673
 20
3.2211430918
 10
5.1709838787
 20
3.2239544749
 10
5.1709137354
 20
3.2269800013
 10
5.1708556483
 20
3.2302056435
 10
5.1708101773
 20
3.2336280518
 10
5.1707777353
 20
3.2372486961
 10
5.1707587516
 20
3.2410612445
 10
5.1707535267
 20
3.2450634131
 10
5.1707623519
 20
3.2492545397
 10
5.1707854163
 20
3.2536314146
 10
5.1708229395
 20
3.2581915279
  0
LINE
  5
252
100
AcDbEntity
  8
ALL_FEATURES
100
AcDbLine
 62
7
  6
CONTINUOUS
 10
5.1708229395
 20
3.2581915279
 11
5.1708884356
 21
3.2639164691
  0
LWPOLYLINE
  5
253
100
AcDbEntity
  8
ALL_FEATURES
100
AcDbPolyline
 62
7
  6
CONTINUOUS
 90
10
 70
0
 10
5.1541725825
 20
2.9066701615
 10
5.1591155121
 20
3.0113153564
 10
5.1644259457
 20
3.12447169
 10
5.1696416618
 20
3.2367316032
 10
5.1747438102
 20
3.3479797051
 10
5.179714302
 20
3.4580959291
 10
5.184537682
 20
3.5669691708
 10
5.1892009738
 20
3.6744862735
 10
5.1936925429
 20
3.7805019923
 10
5.1977480999
 20
3.8786273457
  0
LINE
  5
254
100
AcDbEntity
  8
ALL_FEATURES
100
AcDbLine
 62
7
  6
CONTINUOUS
 10
5.1540500916
 20
2.9040820722
 11
5.154172709
 21
2.9066728969
  0
LWPOLYLINE
  5
255
100
AcDbEntity
  8
ALL_FEATURES
100
AcDbPolyline
 62
7
  6
CONTINUOUS
 90
19
 70
0
 10
5.1978000931
 20
3.8799015483
 10
5.204990785
 20
3.9886272912
 10
5.2127152496
 20
4.0992127791
 10
5.2209971244
 20
4.2116464144
 10
5.2298542003
 20
4.3258422489
 10
5.23931556
 20
4.4418615631
 10
5.2494245505
 20
4.5599119744
 10
5.2602049562
 20
4.6799443111
 10
5.2716869635
 20
4.8019772772
 10
5.2839307707
 20
4.9263168952
 10
5.2969664873
 20
5.0529226423
 10
5.3108291472
 20
5.1817959031
 10
5.3255964827
 20
5.3133005212
 10
5.3413033338
 20
5.4473721155
 10
5.357994489
 20
5.5840242886
 10
5.3757763001
 20
5.7237304368
 10
5.3947209926
 20
5.8666242517
 10
5.414858608
 20
6.0125030993
 10
5.4353000931
 20
6.1549015483
  0
LINE
  5
256
100
AcDbEntity
  8
ALL_FEATURES
100
AcDbLine
 62
7
  6
CONTINUOUS
 10
5.4665500931
 20
6.2799015483
 11
5.4510500931
 21
6.1549015483
  0
LINE
  5
257
100
AcDbEntity
  8
ALL_ASSEMBLY_MEMBERS
100
AcDbLine
 62
7
  6
CONTINUOUS
 10
6.3035500931
 20
5.0257765483
 11
6.3135500931
 21
5.0357765483
  0
LINE
  5
258
100
AcDbEntity
  8
ALL_ASSEMBLY_MEMBERS
100
AcDbLine
 62
7
  6
CONTINUOUS
 10
8.2435500931
 20
5.0357765483
 11
6.9495500931
 21
5.0357765483
  0
LINE
  5
259
100
AcDbEntity
  8
ALL_ASSEMBLY_MEMBERS
100
AcDbLine
 62
7
  6
CONTINUOUS
 10
6.5435500931
 20
5.0357765483
 11
6.3135500931
 21
5.0357765483
  0
LINE
  5
25A
100
AcDbEntity
  8
ALL_ASSEMBLY_MEMBERS
100
AcDbLine
 62
7
  6
CONTINUOUS
 10
3.2470500931
 20
5.0357765483
 11
3.0170500931
 21
5.0357765483
  0
LINE
  5
25B
100
AcDbEntity
  8
ALL_ASSEMBLY_MEMBERS
100
AcDbLine
 62
7
  6
CONTINUOUS
 10
2.6110500931
 20
5.0357765483
 11
1.3170500931
 21
5.0357765483
  0
LINE
  5
25C
100
AcDbEntity
  8
ALL_ASSEMBLY_MEMBERS
100
AcDbLine
 62
7
  6
CONTINUOUS
 10
6.9513000931
 20
5.4024015483
 11
6.9413000931
 21
5.3924015483
  0
LINE
  5
25D
100
AcDbEntity
  8
ALL_ASSEMBLY_MEMBERS
100
AcDbLine
 62
7
  6
CONTINUOUS
 10
6.9028000931
 20
5.3767765483
 11
6.5903000931
 21
5.3767765483
  0
LINE
  5
25E
100
AcDbEntity
  8
ALL_ASSEMBLY_MEMBERS
100
AcDbLine
 62
7
  6
CONTINUOUS
 10
2.9703000931
 20
5.3767765483
 11
2.6578000931
 21
5.3767765483
  0
LINE
  5
25F
100
AcDbEntity
  8
ALL_ASSEMBLY_MEMBERS
100
AcDbLine
 62
7
  6
CONTINUOUS
 10
2.6193000931
 20
5.3924015483
 11
3.0088000931
 21
5.3924015483
  0
LINE
  5
260
100
AcDbEntity
  8
ALL_ASSEMBLY_MEMBERS
100
AcDbLine
 62
7
  6
CONTINUOUS
 10
6.5518000931
 20
5.3924015483
 11
6.9413000931
 21
5.3924015483
  0
LINE
  5
261
100
AcDbEntity
  8
ALL_ASSEMBLY_MEMBERS
100
AcDbLine
 62
7
  6
CONTINUOUS
 10
2.6093000931
 20
5.4024015483
 11
3.0188000931
 21
5.4024015483
  0
LINE
  5
262
100
AcDbEntity
  8
ALL_ASSEMBLY_MEMBERS
100
AcDbLine
 62
7
  6
CONTINUOUS
 10
6.5418000931
 20
5.4024015483
 11
6.9513000931
 21
5.4024015483
  0
LINE
  5
263
100
AcDbEntity
  8
ALL_ASSEMBLY_MEMBERS
100
AcDbLine
 62
7
  6
CONTINUOUS
 10
6.3035500931
 20
4.7177765483
 11
6.3135500931
 21
4.7077765483
  0
LINE
  5
264
100
AcDbEntity
  8
ALL_ASSEMBLY_MEMBERS
100
AcDbLine
 62
7
  6
CONTINUOUS
 10
6.3035500931
 20
4.7177765483
 11
6.3035500931
 21
5.0257765483
  0
LINE
  5
265
100
AcDbEntity
  8
ALL_ASSEMBLY_MEMBERS
100
AcDbLine
 62
7
  6
CONTINUOUS
 10
6.3135500931
 20
4.7077765483
 11
6.3135500931
 21
5.0357765483
  0
LINE
  5
266
100
AcDbEntity
  8
ALL_ASSEMBLY_MEMBERS
100
AcDbLine
 62
7
  6
CONTINUOUS
 10
6.3403000931
 20
6.0924015483
 11
6.3403000931
 21
6.0489015483
  0
LINE
  5
267
100
AcDbEntity
  8
ALL_ASSEMBLY_MEMBERS
100
AcDbLine
 62
7
  6
CONTINUOUS
 10
6.5435500931
 20
4.6876002108
 11
6.5435500931
 21
5.0559528858
  0
LINE
  5
268
100
AcDbEntity
  8
ALL_ASSEMBLY_MEMBERS
100
AcDbLine
 62
7
  6
CONTINUOUS
 10
6.5903000931
 20
5.3767765483
 11
6.5903000931
 21
5.0739986818
  0
LINE
  5
269
100
AcDbEntity
  8
ALL_ASSEMBLY_MEMBERS
100
AcDbLine
 62
7
  6
CONTINUOUS
 10
6.6247500931
 20
4.6875987106
 11
6.6247500931
 21
5.0212772704
  0
LINE
  5
26A
100
AcDbEntity
  8
ALL_ASSEMBLY_MEMBERS
100
AcDbLine
 62
7
  6
CONTINUOUS
 10
2.4078000931
 20
6.0489015483
 11
3.2203000931
 21
6.0489015483
  0
LINE
  5
26B
100
AcDbEntity
  8
ALL_ASSEMBLY_MEMBERS
100
AcDbLine
 62
7
  6
CONTINUOUS
 10
6.3403000931
 20
6.0489015483
 11
7.1528000931
 21
6.0489015483
  0
LINE
  5
26C
100
AcDbEntity
  8
ALL_ASSEMBLY_MEMBERS
100
AcDbLine
 62
7
  6
CONTINUOUS
 10
2.4075487561
 20
6.0924015483
 11
3.22055143
 21
6.0924015483
  0
LINE
  5
26D
100
AcDbEntity
  8
ALL_ASSEMBLY_MEMBERS
100
AcDbLine
 62
7
  6
CONTINUOUS
 10
6.3400487561
 20
6.0924015483
 11
7.15305143
 21
6.0924015483
  0
LINE
  5
26E
100
AcDbEntity
  8
ALL_FEATURES
100
AcDbLine
 62
7
  6
CONTINUOUS
 10
4.1070511147
 20
6.1549015483
 11
5.4510490714
 21
6.1549015483
  0
LINE
  5
26F
100
AcDbEntity
  8
ALL_ASSEMBLY_MEMBERS
100
AcDbLine
 62
7
  6
CONTINUOUS
 10
2.3140500931
 20
6.1864015483
 11
3.3140500931
 21
6.1864015483
  0
LINE
  5
270
100
AcDbEntity
  8
ALL_ASSEMBLY_MEMBERS
100
AcDbLine
 62
7
  6
CONTINUOUS
 10
6.2465500931
 20
6.1864015483
 11
7.2465500931
 21
6.1864015483
  0
LINE
  5
271
100
AcDbEntity
  8
ALL_ASSEMBLY_MEMBERS
100
AcDbLine
 62
7
  6
CONTINUOUS
 10
2.2240500931
 20
6.2799015483
 11
3.4040500931
 21
6.2799015483
  0
LINE
  5
272
100
AcDbEntity
  8
ALL_FEATURES
100
AcDbLine
 62
7
  6
CONTINUOUS
 10
4.0915511383
 20
6.2799015483
 11
5.4665490478
 21
6.2799015483
  0
LINE
  5
273
100
AcDbEntity
  8
ALL_ASSEMBLY_MEMBERS
100
AcDbLine
 62
7
  6
CONTINUOUS
 10
6.1565500931
 20
6.2799015483
 11
7.3365500931
 21
6.2799015483
  0
LINE
  5
274
100
AcDbEntity
  8
ALL_ASSEMBLY_MEMBERS
100
AcDbLine
 62
7
  6
CONTINUOUS
 10
6.7059500931
 20
4.6875987106
 11
6.7059500931
 21
4.967503169
  0
LINE
  5
275
100
AcDbEntity
  8
ALL_ASSEMBLY_MEMBERS
100
AcDbLine
 62
7
  6
CONTINUOUS
 10
6.7871500931
 20
4.6875987106
 11
6.7871500931
 21
4.967503169
  0
LINE
  5
276
100
AcDbEntity
  8
ALL_ASSEMBLY_MEMBERS
100
AcDbLine
 62
7
  6
CONTINUOUS
 10
6.8683500931
 20
4.6875987106
 11
6.8683500931
 21
5.0212772704
  0
LINE
  5
277
100
AcDbEntity
  8
ALL_ASSEMBLY_MEMBERS
100
AcDbLine
 62
7
  6
CONTINUOUS
 10
6.9028000931
 20
5.3767765483
 11
6.9028000931
 21
5.0739987791
  0
LINE
  5
278
100
AcDbEntity
  8
ALL_ASSEMBLY_MEMBERS
100
AcDbLine
 62
7
  6
CONTINUOUS
 10
6.5518000931
 20
5.3924015483
 11
6.5418000931
 21
5.4024015483
  0
LINE
  5
279
100
AcDbEntity
  8
ALL_ASSEMBLY_MEMBERS
100
AcDbLine
 62
7
  6
CONTINUOUS
 10
6.9495500931
 20
4.6876002108
 11
6.9495500931
 21
5.0559528858
  0
LINE
  5
27A
100
AcDbEntity
  8
ALL_ASSEMBLY_MEMBERS
100
AcDbLine
 62
7
  6
CONTINUOUS
 10
7.1528000931
 20
6.0924015483
 11
7.1528000931
 21
6.0489015483
  0
LINE
  5
27B
100
AcDbEntity
  8
ALL_ASSEMBLY_MEMBERS
100
AcDbLine
 62
7
  6
CONTINUOUS
 10
8.2435500931
 20
4.7077765483
 11
8.2535500931
 21
4.7177765483
  0
LINE
  5
27C
100
AcDbEntity
  8
ALL_ASSEMBLY_MEMBERS
100
AcDbLine
 62
7
  6
CONTINUOUS
 10
8.2435500931
 20
5.0357765483
 11
8.2535500931
 21
5.0257765483
  0
LINE
  5
27D
100
AcDbEntity
  8
ALL_ASSEMBLY_MEMBERS
100
AcDbLine
 62
7
  6
CONTINUOUS
 10
8.2435500931
 20
4.7077765483
 11
8.2435500931
 21
5.0357765483
  0
LINE
  5
27E
100
AcDbEntity
  8
ALL_ASSEMBLY_MEMBERS
100
AcDbLine
 62
7
  6
CONTINUOUS
 10
8.2535500931
 20
4.7177765483
 11
8.2535500931
 21
5.0257765483
  0
ARC
  5
27F
100
AcDbEntity
  8
ALL_FEATURES
100
AcDbCircle
 62
9
  6
CONTINUOUS
 10
3.9313893648
 20
3.229369472
 40
0.4560061415
100
AcDbArc
 50
357.4964785516
 51
358.3122372838
  0
ARC
  5
280
100
AcDbEntity
  8
ALL_FEATURES
100
AcDbCircle
 62
9
  6
CONTINUOUS
 10
4.2176041762
 20
3.242879365
 40
0.1758557994
100
AcDbArc
 50
341.1614824495
 51
341.5370105869
  0
ARC
  5
281
100
AcDbEntity
  8
ALL_FEATURES
100
AcDbCircle
 62
9
  6
CONTINUOUS
 10
4.4467491376
 20
3.1917167797
 40
0.0625050742
100
AcDbArc
 50
168.3302834409
 51
184.1556838432
  0
ARC
  5
282
100
AcDbEntity
  8
ALL_FEATURES
100
AcDbCircle
 62
9
  6
CONTINUOUS
 10
4.4462943078
 20
3.1906867505
 40
0.0624236014
100
AcDbArc
 50
168.3847093968
 51
184.2182092589
  0
ARC
  5
283
100
AcDbEntity
  8
ALL_FEATURES
100
AcDbCircle
 62
9
  6
CONTINUOUS
 10
4.4461012318
 20
3.1918180062
 40
0.0618500938
100
AcDbArc
 50
162.9775317202
 51
168.3007160897
  0
ARC
  5
284
100
AcDbEntity
  8
ALL_FEATURES
100
AcDbCircle
 62
9
  6
CONTINUOUS
 10
4.4455888649
 20
3.1908006519
 40
0.0617096795
100
AcDbArc
 50
164.1496486262
 51
168.356423964
  0
ARC
  5
285
100
AcDbEntity
  8
ALL_FEATURES
100
AcDbCircle
 62
7
  6
CONTINUOUS
 10
4.4404701691
 20
3.1810359844
 40
0.0606190505
100
AcDbArc
 50
156.4714299857
 51
185.0143974488
  0
ARC
  5
286
100
AcDbEntity
  8
ALL_ASSEMBLY_MEMBERS
100
AcDbCircle
 62
7
  6
CONTINUOUS
 10
2.6516500931
 20
4.7112765483
 40
0.047
100
AcDbArc
 50
210.2506503162
 51
329.7493496838
  0
ARC
  5
287
100
AcDbEntity
  8
ALL_ASSEMBLY_MEMBERS
100
AcDbCircle
 62
7
  6
CONTINUOUS
 10
2.7328500931
 20
4.7112765483
 40
0.047
100
AcDbArc
 50
210.2506503162
 51
329.7493496838
  0
ARC
  5
288
100
AcDbEntity
  8
ALL_ASSEMBLY_MEMBERS
100
AcDbCircle
 62
7
  6
CONTINUOUS
 10
2.8140500931
 20
4.7112765483
 40
0.047
100
AcDbArc
 50
210.2506503162
 51
329.7493496838
  0
ARC
  5
289
100
AcDbEntity
  8
ALL_ASSEMBLY_MEMBERS
100
AcDbCircle
 62
7
  6
CONTINUOUS
 10
2.8952500931
 20
4.7112765483
 40
0.047
100
AcDbArc
 50
210.2506503162
 51
329.7493496838
  0
ARC
  5
28A
100
AcDbEntity
  8
ALL_ASSEMBLY_MEMBERS
100
AcDbCircle
 62
7
  6
CONTINUOUS
 10
2.9764500931
 20
4.7112765483
 40
0.047
100
AcDbArc
 50
210.2506503162
 51
329.7493496838
  0
ARC
  5
28B
100
AcDbEntity
  8
ALL_ASSEMBLY_MEMBERS
100
AcDbCircle
 62
7
  6
CONTINUOUS
 10
1.113455193
 20
5.2908307867
 40
1.5
100
AcDbArc
 50
4.2656285905
 51
30.3566145709
  0
ARC
  5
28C
100
AcDbEntity
  8
ALL_ASSEMBLY_MEMBERS
100
AcDbCircle
 62
7
  6
CONTINUOUS
 10
4.5146449932
 20
5.2908307867
 40
1.5
100
AcDbArc
 50
149.6433854291
 51
175.7343714095
  0
ARC
  5
28D
100
AcDbEntity
  8
ALL_ASSEMBLY_MEMBERS
100
AcDbCircle
 62
7
  6
CONTINUOUS
 10
2.3176181486
 20
6.2799015483
 40
0.0935680556
100
AcDbArc
 50
180.0
 51
267.8145949287
  0
ARC
  5
28E
100
AcDbEntity
  8
ALL_ASSEMBLY_MEMBERS
100
AcDbCircle
 62
7
  6
CONTINUOUS
 10
3.3104820375
 20
6.2799015483
 40
0.0935680556
100
AcDbArc
 50
272.1854050713
 51
360.0
  0
ARC
  5
28F
100
AcDbEntity
  8
ALL_ASSEMBLY_MEMBERS
100
AcDbCircle
 62
7
  6
CONTINUOUS
 10
2.4075487561
 20
6.1859015483
 40
0.0935
100
AcDbArc
 50
179.6936039968
 51
270.0
  0
ARC
  5
290
100
AcDbEntity
  8
ALL_ASSEMBLY_MEMBERS
100
AcDbCircle
 62
7
  6
CONTINUOUS
 10
3.22055143
 20
6.1859015483
 40
0.0935
100
AcDbArc
 50
270.0
 51
0.3063960032
  0
ARC
  5
291
100
AcDbEntity
  8
ALL_ASSEMBLY_MEMBERS
100
AcDbCircle
 62
7
  6
CONTINUOUS
 10
2.6516500931
 20
5.0322765483
 40
0.047
100
AcDbArc
 50
90.1219060058
 51
149.7493496838
  0
ARC
  5
292
100
AcDbEntity
  8
ALL_ASSEMBLY_MEMBERS
100
AcDbCircle
 62
7
  6
CONTINUOUS
 10
2.9764500931
 20
5.0322765483
 40
0.047
100
AcDbArc
 50
30.2506503162
 51
89.8780939942
  0
ARC
  5
293
100
AcDbEntity
  8
ALL_FEATURES
100
AcDbCircle
 62
9
  6
CONTINUOUS
 10
5.6268884594
 20
3.2293777314
 40
0.4561838459
100
AcDbArc
 50
181.6870449595
 51
182.5026618109
  0
ARC
  5
294
100
AcDbEntity
  8
ALL_FEATURES
100
AcDbCircle
 62
9
  6
CONTINUOUS
 10
5.3406252821
 20
3.2429018311
 40
0.1759854023
100
AcDbArc
 50
198.4563830893
 51
198.8318494427
  0
ARC
  5
295
100
AcDbEntity
  8
ALL_FEATURES
100
AcDbCircle
 62
9
  6
CONTINUOUS
 10
5.1113522974
 20
3.1917175394
 40
0.0625037505
100
AcDbArc
 50
355.844144926
 51
11.6696904784
  0
ARC
  5
296
100
AcDbEntity
  8
ALL_FEATURES
100
AcDbCircle
 62
9
  6
CONTINUOUS
 10
5.1119557167
 20
3.1906900097
 40
0.0622744096
100
AcDbArc
 50
355.7686613346
 51
15.8035012768
  0
ARC
  5
297
100
AcDbEntity
  8
ALL_FEATURES
100
AcDbCircle
 62
9
  6
CONTINUOUS
 10
5.1121294296
 20
3.1918492271
 40
0.0617160516
100
AcDbArc
 50
11.6958931856
 51
14.1301918776
  0
ARC
  5
298
100
AcDbEntity
  8
ALL_FEATURES
100
AcDbCircle
 62
7
  6
CONTINUOUS
 10
5.1173295968
 20
3.1809253965
 40
0.0609385292
100
AcDbArc
 50
21.7702543318
 51
23.5111981615
  0
ARC
  5
299
100
AcDbEntity
  8
ALL_FEATURES
100
AcDbCircle
 62
7
  6
CONTINUOUS
 10
5.1176496464
 20
3.1810382987
 40
0.0605995255
100
AcDbArc
 50
354.9818005399
 51
21.7833511044
  0
ARC
  5
29A
100
AcDbEntity
  8
ALL_ASSEMBLY_MEMBERS
100
AcDbCircle
 62
7
  6
CONTINUOUS
 10
6.5841500931
 20
4.7112765483
 40
0.047
100
AcDbArc
 50
210.2506503162
 51
329.7493496838
  0
ARC
  5
29B
100
AcDbEntity
  8
ALL_ASSEMBLY_MEMBERS
100
AcDbCircle
 62
7
  6
CONTINUOUS
 10
6.6653500931
 20
4.7112765483
 40
0.047
100
AcDbArc
 50
210.2506503162
 51
329.7493496838
  0
ARC
  5
29C
100
AcDbEntity
  8
ALL_ASSEMBLY_MEMBERS
100
AcDbCircle
 62
7
  6
CONTINUOUS
 10
6.7465500931
 20
4.7112765483
 40
0.047
100
AcDbArc
 50
210.2506503162
 51
329.7493496838
  0
ARC
  5
29D
100
AcDbEntity
  8
ALL_ASSEMBLY_MEMBERS
100
AcDbCircle
 62
7
  6
CONTINUOUS
 10
6.8277500931
 20
4.7112765483
 40
0.047
100
AcDbArc
 50
210.2506503162
 51
329.7493496838
  0
ARC
  5
29E
100
AcDbEntity
  8
ALL_ASSEMBLY_MEMBERS
100
AcDbCircle
 62
7
  6
CONTINUOUS
 10
6.9089500931
 20
4.7112765483
 40
0.047
100
AcDbArc
 50
210.2506503162
 51
329.7493496838
  0
ARC
  5
29F
100
AcDbEntity
  8
ALL_ASSEMBLY_MEMBERS
100
AcDbCircle
 62
7
  6
CONTINUOUS
 10
5.045955193
 20
5.2908307867
 40
1.5
100
AcDbArc
 50
4.2656285905
 51
30.3566145709
  0
ARC
  5
2A0
100
AcDbEntity
  8
ALL_ASSEMBLY_MEMBERS
100
AcDbCircle
 62
7
  6
CONTINUOUS
 10
8.4471449932
 20
5.2908307867
 40
1.5
100
AcDbArc
 50
149.6433854291
 51
175.7343714095
  0
ARC
  5
2A1
100
AcDbEntity
  8
ALL_ASSEMBLY_MEMBERS
100
AcDbCircle
 62
7
  6
CONTINUOUS
 10
6.2501181486
 20
6.2799015483
 40
0.0935680556
100
AcDbArc
 50
180.0
 51
267.8145949287
  0
ARC
  5
2A2
100
AcDbEntity
  8
ALL_ASSEMBLY_MEMBERS
100
AcDbCircle
 62
7
  6
CONTINUOUS
 10
7.2429820375
 20
6.2799015483
 40
0.0935680556
100
AcDbArc
 50
272.1854050713
 51
360.0
  0
ARC
  5
2A3
100
AcDbEntity
  8
ALL_ASSEMBLY_MEMBERS
100
AcDbCircle
 62
7
  6
CONTINUOUS
 10
6.3400487561
 20
6.1859015483
 40
0.0935
100
AcDbArc
 50
179.6936039968
 51
270.0
  0
ARC
  5
2A4
100
AcDbEntity
  8
ALL_ASSEMBLY_MEMBERS
100
AcDbCircle
 62
7
  6
CONTINUOUS
 10
7.15305143
 20
6.1859015483
 40
0.0935
100
AcDbArc
 50
270.0
 51
0.3063960032
  0
ARC
  5
2A5
100
AcDbEntity
  8
ALL_ASSEMBLY_MEMBERS
100
AcDbCircle
 62
7
  6
CONTINUOUS
 10
6.5841500931
 20
5.0322765483
 40
0.047
100
AcDbArc
 50
90.1219060058
 51
149.7493496838
  0
ARC
  5
2A6
100
AcDbEntity
  8
ALL_ASSEMBLY_MEMBERS
100
AcDbCircle
 62
7
  6
CONTINUOUS
 10
6.9089500931
 20
5.0322765483
 40
0.047
100
AcDbArc
 50
30.2506503162
 51
89.8780939942
  0
SPLINE
  5
2A7
100
AcDbEntity
  8
ALL_ASSEMBLY_MEMBERS
100
AcDbSpline
 62
7
  6
CONTINUOUS
 70
0
 71
3
 72
32
 73
28
 74
0
 42
0.0000001
 43
0.0000001
 44
0.0000000001
 40
0.0
 40
0.0
 40
0.0
 40
0.0
 40
0.0695948296
 40
0.1390787588
 40
0.2083424779
 40
0.2772433814
 40
0.3456437371
 40
0.4133032083
 40
0.4467825881
 40
0.4799645265
 40
0.5128054769
 40
0.5452634684
 40
0.577287374
 40
0.6088283911
 40
0.6702577304
 40
0.7000958789
 40
0.7293036363
 40
0.7578671231
 40
0.7857956204
 40
0.8131216709
 40
0.8399114271
 40
0.8662806257
 40
0.8923915926
 40
0.918485313
 40
0.9448695762
 40
0.9719314763
 40
1.0
 40
1.0
 40
1.0
 40
1.0
 10
6.7059500931
 20
4.967503169
 30
0.0
 10
6.7052519624
 20
4.97010243
 30
0.0
 10
6.703700269
 20
4.9752565616
 30
0.0
 10
6.700866303
 20
4.9828056736
 30
0.0
 10
6.6974900108
 20
4.9901004914
 30
0.0
 10
6.6935595265
 20
4.9970657667
 30
0.0
 10
6.6890730807
 20
5.0036125646
 30
0.0
 10
6.6848790846
 20
5.0086663031
 30
0.0
 10
6.6812746682
 20
5.0124092603
 30
0.0
 10
6.6784689067
 20
5.0150451106
 30
0.0
 10
6.6755610378
 20
5.0175072418
 30
0.0
 10
6.6725614998
 20
5.0197835501
 30
0.0
 10
6.6694829372
 20
5.0218638666
 30
0.0
 10
6.665328849
 20
5.024338956
 30
0.0
 10
6.6610373523
 20
5.0264076665
 30
0.0
 10
6.6566581944
 20
5.0280066893
 30
0.0
 10
6.6533995158
 20
5.0289450894
 30
0.0
 10
6.6501518238
 20
5.0296220544
 30
0.0
 10
6.646931794
 20
5.0300258186
 30
0.0
 10
6.6437566078
 20
5.0301426295
 30
0.0
 10
6.6406444069
 20
5.0299552876
 30
0.0
 10
6.6376148209
 20
5.0294472543
 30
0.0
 10
6.6346902017
 20
5.0285950663
 30
0.0
 10
6.6318964159
 20
5.0273761251
 30
0.0
 10
6.6292644568
 20
5.0257637127
 30
0.0
 10
6.6268367883
 20
5.0237357405
 30
0.0
 10
6.6254126533
 20
5.0221370732
 30
0.0
 10
6.6247500931
 20
5.0212772704
 30
0.0
  0
SPLINE
  5
2A8
100
AcDbEntity
  8
ALL_ASSEMBLY_MEMBERS
100
AcDbSpline
 62
7
  6
CONTINUOUS
 70
0
 71
3
 72
35
 73
31
 74
0
 42
0.0000001
 43
0.0000001
 44
0.0000000001
 40
0.0
 40
0.0
 40
0.0
 40
0.0
 40
0.062477098
 40
0.0937036533
 40
0.1249124333
 40
0.1872227684
 40
0.2183902745
 40
0.2495624074
 40
0.28074741
 40
0.3119626321
 40
0.3432083063
 40
0.3744964726
 40
0.4058260076
 40
0.4371920131
 40
0.4685890164
 40
0.5000000015
 40
0.5314109921
 40
0.5628080102
 40
0.5941740345
 40
0.6255035882
 40
0.6567917737
 40
0.6880374527
 40
0.719252674
 40
0.7504376719
 40
0.7816097849
 40
0.8127772802
 40
0.8750875966
 40
0.90629637
 40
0.9375229165
 40
1.0
 40
1.0
 40
1.0
 40
1.0
 10
6.7871500931
 20
4.967503169
 30
0.0
 10
6.7863811291
 20
4.9697138818
 30
0.0
 10
6.7850755914
 20
4.9729809096
 30
0.0
 10
6.7829875662
 20
4.9771715367
 30
0.0
 10
6.7806564104
 20
4.9812243677
 30
0.0
 10
6.7779374839
 20
4.9850448305
 30
0.0
 10
6.7748205558
 20
4.9885273493
 30
0.0
 10
6.7722848963
 20
4.9909510107
 30
0.0
 10
6.7695574329
 20
4.9931598279
 30
0.0
 10
6.7666482836
 20
4.9951286175
 30
0.0
 10
6.7635746255
 20
4.9968376635
 30
0.0
 10
6.760354916
 20
4.9982636226
 30
0.0
 10
6.7570144086
 20
4.9993919779
 30
0.0
 10
6.7535798127
 20
5.00020786
 30
0.0
 10
6.7500811482
 20
5.0007007073
 30
0.0
 10
6.7465500927
 20
5.0008667997
 30
0.0
 10
6.7430190366
 20
5.0007007071
 30
0.0
 10
6.7395203707
 20
5.0002078592
 30
0.0
 10
6.7360857728
 20
4.999391977
 30
0.0
 10
6.732745264
 20
4.9982636193
 30
0.0
 10
6.7295255527
 20
4.9968376602
 30
0.0
 10
6.7264518944
 20
4.9951286126
 30
0.0
 10
6.7235427463
 20
4.9931598216
 30
0.0
 10
6.7208152828
 20
4.9909510061
 30
0.0
 10
6.7182796255
 20
4.9885273442
 30
0.0
 10
6.7151626992
 20
4.9850448263
 30
0.0
 10
6.7124437738
 20
4.9812243644
 30
0.0
 10
6.7101126187
 20
4.9771715344
 30
0.0
 10
6.708024594
 20
4.9729809083
 30
0.0
 10
6.7067190569
 20
4.9697138813
 30
0.0
 10
6.7059500931
 20
4.967503169
 30
0.0
  0
SPLINE
  5
2A9
100
AcDbEntity
  8
ALL_ASSEMBLY_MEMBERS
100
AcDbSpline
 62
7
  6
CONTINUOUS
 70
0
 71
3
 72
32
 73
28
 74
0
 42
0.0000001
 43
0.0000001
 44
0.0000000001
 40
0.0
 40
0.0
 40
0.0
 40
0.0
 40
0.028068502
 40
0.0551303223
 40
0.081514563
 40
0.1076082803
 40
0.1337192463
 40
0.1600884397
 40
0.1868781873
 40
0.2142042342
 40
0.2421327158
 40
0.2706961881
 40
0.2999039272
 40
0.3297420566
 40
0.3911713709
 40
0.4227123862
 40
0.4547363018
 40
0.4871942982
 40
0.5200352596
 40
0.5532172282
 40
0.5866966421
 40
0.6543562122
 40
0.7227567067
 40
0.7916576693
 40
0.8609213977
 40
0.9304052421
 40
1.0
 40
1.0
 40
1.0
 40
1.0
 10
6.8683500931
 20
5.0212772704
 30
0.0
 10
6.8676875333
 20
5.0221370726
 30
0.0
 10
6.8662634028
 20
5.0237357386
 30
0.0
 10
6.8638357371
 20
5.0257637069
 30
0.0
 10
6.8612037813
 20
5.0273761163
 30
0.0
 10
6.8584099988
 20
5.0285950627
 30
0.0
 10
6.8554853799
 20
5.0294472507
 30
0.0
 10
6.8524557949
 20
5.0299552861
 30
0.0
 10
6.8493435947
 20
5.0301426297
 30
0.0
 10
6.8461684096
 20
5.0300258189
 30
0.0
 10
6.8429483808
 20
5.0296220582
 30
0.0
 10
6.8397006904
 20
5.0289450942
 30
0.0
 10
6.8364420134
 20
5.0280066959
 30
0.0
 10
6.8320628566
 20
5.0264076769
 30
0.0
 10
6.8277713609
 20
5.0243389683
 30
0.0
 10
6.8236172724
 20
5.0218638807
 30
0.0
 10
6.8205387077
 20
5.0197835665
 30
0.0
 10
6.8175391685
 20
5.0175072581
 30
0.0
 10
6.8146312982
 20
5.0150451258
 30
0.0
 10
6.8118255325
 20
5.0124092757
 30
0.0
 10
6.8082211106
 20
5.0086663149
 30
0.0
 10
6.8040271107
 20
5.003612566
 30
0.0
 10
6.799540654
 20
4.9970657617
 30
0.0
 10
6.7956101702
 20
4.9901004767
 30
0.0
 10
6.7922338766
 20
4.9828056605
 30
0.0
 10
6.789399912
 20
4.9752565538
 30
0.0
 10
6.787848223
 20
4.9701024274
 30
0.0
 10
6.7871500931
 20
4.967503169
 30
0.0
  0
SPLINE
  5
2AA
100
AcDbEntity
  8
ALL_ASSEMBLY_MEMBERS
100
AcDbSpline
 62
7
  6
CONTINUOUS
 70
0
 71
3
 72
22
 73
18
 74
0
 42
0.0000001
 43
0.0000001
 44
0.0000000001
 40
0.0
 40
0.0
 40
0.0
 40
0.0
 40
0.1110076514
 40
0.2181814085
 40
0.3206444586
 40
0.4176846982
 40
0.508623915
 40
0.5928220326
 40
0.6697589116
 40
0.7390197889
 40
0.8003240279
 40
0.8534852998
 40
0.9350916663
 40
0.9635429413
 40
0.9838180177
 40
0.9959595502
 40
1.0
 40
1.0
 40
1.0
 40
1.0
 10
6.6247500931
 20
5.0212772704
 30
0.0
 10
6.6238910061
 20
5.0237919221
 30
0.0
 10
6.622044184
 20
5.0286818255
 30
0.0
 10
6.6188957731
 20
5.0356869184
 30
0.0
 10
6.6154958778
 20
5.0421981552
 30
0.0
 10
6.6119396829
 20
5.0481765078
 30
0.0
 10
6.6083186787
 20
5.0535965134
 30
0.0
 10
6.6047245507
 20
5.0584464255
 30
0.0
 10
6.6012411686
 20
5.0627247555
 30
0.0
 10
6.5979464917
 20
5.0664438882
 30
0.0
 10
6.5949055941
 20
5.0696227532
 30
0.0
 10
6.5915476424
 20
5.0729031001
 30
0.0
 10
6.5886400824
 20
5.0755161753
 30
0.0
 10
6.5862482333
 20
5.0775196924
 30
0.0
 10
6.5851150284
 20
5.0784356877
 30
0.0
 10
6.5844320052
 20
5.0789789689
 30
0.0
 10
6.5841265364
 20
5.0792171818
 30
0.0
 10
6.5840500931
 20
5.0792764419
 30
0.0
  0
SPLINE
  5
2AB
100
AcDbEntity
  8
ALL_ASSEMBLY_MEMBERS
100
AcDbSpline
 62
7
  6
CONTINUOUS
 70
0
 71
3
 72
22
 73
18
 74
0
 42
0.0000001
 43
0.0000001
 44
0.0000000001
 40
0.0
 40
0.0
 40
0.0
 40
0.0
 40
0.0040404607
 40
0.0161820254
 40
0.0364571509
 40
0.0649084536
 40
0.1465148333
 40
0.1996760623
 40
0.2609802849
 40
0.3302411441
 40
0.4071780504
 40
0.4913762505
 40
0.5823156216
 40
0.6793558703
 40
0.781818828
 40
0.888992408
 40
1.0
 40
1.0
 40
1.0
 40
1.0
 10
6.9090500931
 20
5.0792764419
 30
0.0
 10
6.9089736489
 20
5.0792171824
 30
0.0
 10
6.9086681776
 20
5.078978971
 30
0.0
 10
6.907985154
 20
5.0784356867
 30
0.0
 10
6.9068519505
 20
5.0775196857
 30
0.0
 10
6.9044600938
 20
5.0755161742
 30
0.0
 10
6.9015525383
 20
5.0729030938
 30
0.0
 10
6.8981945872
 20
5.0696227481
 30
0.0
 10
6.895153691
 20
5.0664438841
 30
0.0
 10
6.8918590141
 20
5.0627247518
 30
0.0
 10
6.8883756305
 20
5.0584464201
 30
0.0
 10
6.8847814997
 20
5.0535965022
 30
0.0
 10
6.8811604939
 20
5.0481764905
 30
0.0
 10
6.8776042968
 20
5.0421981373
 30
0.0
 10
6.8742044076
 20
5.0356869043
 30
0.0
 10
6.8710559978
 20
5.0286818196
 30
0.0
 10
6.8692091796
 20
5.0237919207
 30
0.0
 10
6.8683500931
 20
5.0212772704
 30
0.0
  0
SPLINE
  5
2AC
100
AcDbEntity
  8
ALL_ASSEMBLY_MEMBERS
100
AcDbSpline
 62
7
  6
CONTINUOUS
 70
0
 71
3
 72
32
 73
28
 74
0
 42
0.0000001
 43
0.0000001
 44
0.0000000001
 40
0.0
 40
0.0
 40
0.0
 40
0.0
 40
0.0695948296
 40
0.1390787588
 40
0.2083424779
 40
0.2772433814
 40
0.3456437371
 40
0.4133032083
 40
0.4467825881
 40
0.4799645265
 40
0.5128054769
 40
0.5452634684
 40
0.577287374
 40
0.6088283911
 40
0.6702577304
 40
0.7000958789
 40
0.7293036363
 40
0.7578671231
 40
0.7857956204
 40
0.8131216709
 40
0.8399114271
 40
0.8662806257
 40
0.8923915926
 40
0.918485313
 40
0.9448695762
 40
0.9719314763
 40
1.0
 40
1.0
 40
1.0
 40
1.0
 10
2.7734500931
 20
4.967503169
 30
0.0
 10
2.7727519624
 20
4.97010243
 30
0.0
 10
2.771200269
 20
4.9752565616
 30
0.0
 10
2.768366303
 20
4.9828056736
 30
0.0
 10
2.7649900108
 20
4.9901004914
 30
0.0
 10
2.7610595265
 20
4.9970657667
 30
0.0
 10
2.7565730807
 20
5.0036125646
 30
0.0
 10
2.7523790846
 20
5.0086663031
 30
0.0
 10
2.7487746682
 20
5.0124092603
 30
0.0
 10
2.7459689067
 20
5.0150451106
 30
0.0
 10
2.7430610378
 20
5.0175072418
 30
0.0
 10
2.7400614998
 20
5.0197835501
 30
0.0
 10
2.7369829372
 20
5.0218638666
 30
0.0
 10
2.732828849
 20
5.024338956
 30
0.0
 10
2.7285373523
 20
5.0264076665
 30
0.0
 10
2.7241581944
 20
5.0280066893
 30
0.0
 10
2.7208995158
 20
5.0289450894
 30
0.0
 10
2.7176518238
 20
5.0296220544
 30
0.0
 10
2.714431794
 20
5.0300258186
 30
0.0
 10
2.7112566078
 20
5.0301426295
 30
0.0
 10
2.7081444069
 20
5.0299552876
 30
0.0
 10
2.7051148209
 20
5.0294472543
 30
0.0
 10
2.7021902017
 20
5.0285950663
 30
0.0
 10
2.6993964159
 20
5.0273761251
 30
0.0
 10
2.6967644568
 20
5.0257637127
 30
0.0
 10
2.6943367883
 20
5.0237357405
 30
0.0
 10
2.6929126533
 20
5.0221370732
 30
0.0
 10
2.6922500931
 20
5.0212772704
 30
0.0
  0
SPLINE
  5
2AD
100
AcDbEntity
  8
ALL_ASSEMBLY_MEMBERS
100
AcDbSpline
 62
7
  6
CONTINUOUS
 70
0
 71
3
 72
35
 73
31
 74
0
 42
0.0000001
 43
0.0000001
 44
0.0000000001
 40
0.0
 40
0.0
 40
0.0
 40
0.0
 40
0.062477098
 40
0.0937036533
 40
0.1249124333
 40
0.1872227684
 40
0.2183902745
 40
0.2495624074
 40
0.28074741
 40
0.3119626321
 40
0.3432083063
 40
0.3744964726
 40
0.4058260076
 40
0.4371920131
 40
0.4685890164
 40
0.5000000015
 40
0.5314109921
 40
0.5628080102
 40
0.5941740345
 40
0.6255035882
 40
0.6567917737
 40
0.6880374527
 40
0.719252674
 40
0.7504376719
 40
0.7816097849
 40
0.8127772802
 40
0.8750875966
 40
0.90629637
 40
0.9375229165
 40
1.0
 40
1.0
 40
1.0
 40
1.0
 10
2.8546500931
 20
4.967503169
 30
0.0
 10
2.8538811291
 20
4.9697138818
 30
0.0
 10
2.8525755914
 20
4.9729809096
 30
0.0
 10
2.8504875662
 20
4.9771715367
 30
0.0
 10
2.8481564104
 20
4.9812243677
 30
0.0
 10
2.8454374839
 20
4.9850448305
 30
0.0
 10
2.8423205558
 20
4.9885273493
 30
0.0
 10
2.8397848963
 20
4.9909510107
 30
0.0
 10
2.8370574329
 20
4.9931598279
 30
0.0
 10
2.8341482836
 20
4.9951286175
 30
0.0
 10
2.8310746255
 20
4.9968376635
 30
0.0
 10
2.827854916
 20
4.9982636226
 30
0.0
 10
2.8245144086
 20
4.9993919779
 30
0.0
 10
2.8210798127
 20
5.00020786
 30
0.0
 10
2.8175811482
 20
5.0007007073
 30
0.0
 10
2.8140500927
 20
5.0008667997
 30
0.0
 10
2.8105190366
 20
5.0007007071
 30
0.0
 10
2.8070203707
 20
5.0002078592
 30
0.0
 10
2.8035857728
 20
4.999391977
 30
0.0
 10
2.800245264
 20
4.9982636193
 30
0.0
 10
2.7970255527
 20
4.9968376602
 30
0.0
 10
2.7939518944
 20
4.9951286126
 30
0.0
 10
2.7910427463
 20
4.9931598216
 30
0.0
 10
2.7883152828
 20
4.9909510061
 30
0.0
 10
2.7857796255
 20
4.9885273442
 30
0.0
 10
2.7826626992
 20
4.9850448263
 30
0.0
 10
2.7799437738
 20
4.9812243644
 30
0.0
 10
2.7776126187
 20
4.9771715344
 30
0.0
 10
2.775524594
 20
4.9729809083
 30
0.0
 10
2.7742190569
 20
4.9697138813
 30
0.0
 10
2.7734500931
 20
4.967503169
 30
0.0
  0
SPLINE
  5
2AE
100
AcDbEntity
  8
ALL_ASSEMBLY_MEMBERS
100
AcDbSpline
 62
7
  6
CONTINUOUS
 70
0
 71
3
 72
32
 73
28
 74
0
 42
0.0000001
 43
0.0000001
 44
0.0000000001
 40
0.0
 40
0.0
 40
0.0
 40
0.0
 40
0.028068502
 40
0.0551303223
 40
0.081514563
 40
0.1076082803
 40
0.1337192463
 40
0.1600884397
 40
0.1868781873
 40
0.2142042342
 40
0.2421327158
 40
0.2706961881
 40
0.2999039272
 40
0.3297420566
 40
0.3911713709
 40
0.4227123862
 40
0.4547363018
 40
0.4871942982
 40
0.5200352596
 40
0.5532172282
 40
0.5866966421
 40
0.6543562122
 40
0.7227567067
 40
0.7916576693
 40
0.8609213977
 40
0.9304052421
 40
1.0
 40
1.0
 40
1.0
 40
1.0
 10
2.9358500931
 20
5.0212772704
 30
0.0
 10
2.9351875333
 20
5.0221370726
 30
0.0
 10
2.9337634028
 20
5.0237357386
 30
0.0
 10
2.9313357371
 20
5.0257637069
 30
0.0
 10
2.9287037813
 20
5.0273761163
 30
0.0
 10
2.9259099988
 20
5.0285950627
 30
0.0
 10
2.9229853799
 20
5.0294472507
 30
0.0
 10
2.9199557949
 20
5.0299552861
 30
0.0
 10
2.9168435947
 20
5.0301426297
 30
0.0
 10
2.9136684096
 20
5.0300258189
 30
0.0
 10
2.9104483808
 20
5.0296220582
 30
0.0
 10
2.9072006904
 20
5.0289450942
 30
0.0
 10
2.9039420134
 20
5.0280066959
 30
0.0
 10
2.8995628566
 20
5.0264076769
 30
0.0
 10
2.8952713609
 20
5.0243389683
 30
0.0
 10
2.8911172724
 20
5.0218638807
 30
0.0
 10
2.8880387077
 20
5.0197835665
 30
0.0
 10
2.8850391685
 20
5.0175072581
 30
0.0
 10
2.8821312982
 20
5.0150451258
 30
0.0
 10
2.8793255325
 20
5.0124092757
 30
0.0
 10
2.8757211106
 20
5.0086663149
 30
0.0
 10
2.8715271107
 20
5.003612566
 30
0.0
 10
2.867040654
 20
4.9970657617
 30
0.0
 10
2.8631101702
 20
4.9901004767
 30
0.0
 10
2.8597338766
 20
4.9828056605
 30
0.0
 10
2.856899912
 20
4.9752565538
 30
0.0
 10
2.855348223
 20
4.9701024274
 30
0.0
 10
2.8546500931
 20
4.967503169
 30
0.0
  0
SPLINE
  5
2AF
100
AcDbEntity
  8
ALL_ASSEMBLY_MEMBERS
100
AcDbSpline
 62
7
  6
CONTINUOUS
 70
0
 71
3
 72
22
 73
18
 74
0
 42
0.0000001
 43
0.0000001
 44
0.0000000001
 40
0.0
 40
0.0
 40
0.0
 40
0.0
 40
0.1110076514
 40
0.2181814085
 40
0.3206444586
 40
0.4176846982
 40
0.508623915
 40
0.5928220326
 40
0.6697589116
 40
0.7390197889
 40
0.8003240279
 40
0.8534852998
 40
0.9350916663
 40
0.9635429413
 40
0.9838180177
 40
0.9959595502
 40
1.0
 40
1.0
 40
1.0
 40
1.0
 10
2.6922500931
 20
5.0212772704
 30
0.0
 10
2.6913910061
 20
5.0237919221
 30
0.0
 10
2.689544184
 20
5.0286818255
 30
0.0
 10
2.6863957731
 20
5.0356869184
 30
0.0
 10
2.6829958778
 20
5.0421981552
 30
0.0
 10
2.6794396829
 20
5.0481765078
 30
0.0
 10
2.6758186787
 20
5.0535965134
 30
0.0
 10
2.6722245507
 20
5.0584464255
 30
0.0
 10
2.6687411686
 20
5.0627247555
 30
0.0
 10
2.6654464917
 20
5.0664438882
 30
0.0
 10
2.6624055941
 20
5.0696227532
 30
0.0
 10
2.6590476424
 20
5.0729031001
 30
0.0
 10
2.6561400824
 20
5.0755161753
 30
0.0
 10
2.6537482333
 20
5.0775196924
 30
0.0
 10
2.6526150284
 20
5.0784356877
 30
0.0
 10
2.6519320052
 20
5.0789789689
 30
0.0
 10
2.6516265364
 20
5.0792171818
 30
0.0
 10
2.6515500931
 20
5.0792764419
 30
0.0
  0
SPLINE
  5
2B0
100
AcDbEntity
  8
ALL_ASSEMBLY_MEMBERS
100
AcDbSpline
 62
7
  6
CONTINUOUS
 70
0
 71
3
 72
22
 73
18
 74
0
 42
0.0000001
 43
0.0000001
 44
0.0000000001
 40
0.0
 40
0.0
 40
0.0
 40
0.0
 40
0.0040404607
 40
0.0161820254
 40
0.0364571509
 40
0.0649084536
 40
0.1465148333
 40
0.1996760623
 40
0.2609802849
 40
0.3302411441
 40
0.4071780504
 40
0.4913762505
 40
0.5823156216
 40
0.6793558703
 40
0.781818828
 40
0.888992408
 40
1.0
 40
1.0
 40
1.0
 40
1.0
 10
2.9765500931
 20
5.0792764419
 30
0.0
 10
2.9764736489
 20
5.0792171824
 30
0.0
 10
2.9761681776
 20
5.078978971
 30
0.0
 10
2.975485154
 20
5.0784356867
 30
0.0
 10
2.9743519505
 20
5.0775196857
 30
0.0
 10
2.9719600938
 20
5.0755161742
 30
0.0
 10
2.9690525383
 20
5.0729030938
 30
0.0
 10
2.9656945872
 20
5.0696227481
 30
0.0
 10
2.962653691
 20
5.0664438841
 30
0.0
 10
2.9593590141
 20
5.0627247518
 30
0.0
 10
2.9558756305
 20
5.0584464201
 30
0.0
 10
2.9522814997
 20
5.0535965022
 30
0.0
 10
2.9486604939
 20
5.0481764905
 30
0.0
 10
2.9451042968
 20
5.0421981373
 30
0.0
 10
2.9417044076
 20
5.0356869043
 30
0.0
 10
2.9385559978
 20
5.0286818196
 30
0.0
 10
2.9367091796
 20
5.0237919207
 30
0.0
 10
2.9358500931
 20
5.0212772704
 30
0.0
  0
SPLINE
  5
2B1
100
AcDbEntity
  8
ALL_FEATURES
100
AcDbSpline
 62
7
  6
CONTINUOUS
 70
0
 71
3
 72
10
 73
6
 74
0
 42
0.0000001
 43
0.0000001
 44
0.0000000001
 40
0.0
 40
0.0
 40
0.0
 40
0.0
 40
0.2457108241
 40
0.4948957213
 40
1.0
 40
1.0
 40
1.0
 40
1.0
 10
5.1541727078
 20
2.9066728964
 30
0.0
 10
5.1579396074
 20
2.9862704617
 30
0.0
 10
5.1654845717
 20
3.1465930369
 30
0.0
 10
5.1804042411
 20
3.470560314
 30
0.0
 10
5.1910686083
 20
3.7149528622
 30
0.0
 10
5.1977480994
 20
3.8786273457
 30
0.0
  0
SPLINE
  5
2B2
100
AcDbEntity
  8
ALL_FEATURES
100
AcDbSpline
 62
7
  6
CONTINUOUS
 70
0
 71
3
 72
10
 73
6
 74
0
 42
0.0000001
 43
0.0000001
 44
0.0000000001
 40
0.0
 40
0.0
 40
0.0
 40
0.0
 40
0.2456947369
 40
0.4948764042
 40
1.0
 40
1.0
 40
1.0
 40
1.0
 10
4.4040248122
 20
2.9046162926
 30
0.0
 10
4.400249863
 20
2.9843770633
 30
0.0
 10
4.3926882208
 20
3.1450325922
 30
0.0
 10
4.3777346283
 20
3.4696853348
 30
0.0
 10
4.3670459661
 20
3.714600224
 30
0.0
 10
4.3603520861
 20
3.8786273457
 30
0.0
  0
SPLINE
  5
2B3
100
AcDbEntity
  8
ALL_FEATURES
100
AcDbSpline
 62
7
  6
CONTINUOUS
 70
0
 71
3
 72
10
 73
6
 74
0
 42
0.0000001
 43
0.0000001
 44
0.0000000001
 40
0.0
 40
0.0
 40
0.0
 40
0.0
 40
0.2500014331
 40
0.5000040526
 40
1.0
 40
1.0
 40
1.0
 40
1.0
 10
5.1780168811
 20
3.1757375277
 30
0.0
 10
5.1760430868
 20
3.1533141583
 30
0.0
 10
5.1719845177
 20
3.1084770355
 30
0.0
 10
5.163729628
 20
3.0188169995
 30
0.0
 10
5.1577638189
 20
2.9515487733
 30
0.0
 10
5.1542517988
 20
2.9066664489
 30
0.0
  0
LINE
  5
2B4
100
AcDbEntity
  8
ALL_FEATURES
100
AcDbLine
 62
7
  6
CONTINUOUS
 10
5.1542517988
 20
2.9066664489
 11
5.1540500931
 21
2.9040820721
  0
SPLINE
  5
2B5
100
AcDbEntity
  8
ALL_FEATURES
100
AcDbSpline
 62
7
  6
CONTINUOUS
 70
0
 71
3
 72
10
 73
6
 74
0
 42
0.0000001
 43
0.0000001
 44
0.0000000001
 40
0.0
 40
0.0
 40
0.0
 40
0.0
 40
0.250001531
 40
0.5000042307
 40
1.0
 40
1.0
 40
1.0
 40
1.0
 10
4.380083305
 20
3.1757375277
 30
0.0
 10
4.3820721358
 20
3.153143336
 30
0.0
 10
4.3861624706
 20
3.1079647159
 30
0.0
 10
4.394480619
 20
3.017621736
 30
0.0
 10
4.4004841995
 20
2.9498402987
 30
0.0
 10
4.404008587
 20
2.9046149689
 30
0.0
  0
LINE
  5
2B6
100
AcDbEntity
  8
ALL_FEATURES
100
AcDbLine
 62
7
  6
CONTINUOUS
 10
4.404008587
 20
2.9046149689
 11
4.4040500931
 21
2.9040820721
  0
SPLINE
  5
2B7
100
AcDbEntity
  8
0
100
AcDbSpline
 62
7
  6
CONTINUOUS
 70
0
 71
3
 72
53
 73
49
 74
0
 42
0.0000001
 43
0.0000001
 44
0.0000000001
 40
0.0
 40
0.0
 40
0.0
 40
0.0
 40
0.0619504265
 40
0.0929729062
 40
0.1084923762
 40
0.1240229544
 40
0.1395683827
 40
0.1551235203
 40
0.1706878516
 40
0.1862665991
 40
0.2018616588
 40
0.2174704878
 40
0.2330918807
 40
0.2487273053
 40
0.2643789104
 40
0.2800447053
 40
0.2957191236
 40
0.3114025111
 40
0.3427966416
 40
0.3742121772
 40
0.4056497218
 40
0.4213769125
 40
0.4371005995
 40
0.4685439752
 40
0.5000000775
 40
0.5314561774
 40
0.5628995499
 40
0.5786232376
 40
0.5943504282
 40
0.625787966
 40
0.657203499
 40
0.6885976174
 40
0.7042809981
 40
0.7199554127
 40
0.7356212006
 40
0.7512727962
 40
0.766908211
 40
0.7825295952
 40
0.798138415
 40
0.8137334642
 40
0.8293122
 40
0.8448765232
 40
0.8604316546
 40
0.8759770748
 40
0.8915076427
 40
0.9070271079
 40
0.938049584
 40
1.0
 40
1.0
 40
1.0
 40
1.0
 10
4.4057436731
 20
2.8816908613
 30
0.0
 10
4.4079024918
 20
2.8592114336
 30
0.0
 10
4.4132816836
 20
2.8255919206
 30
0.0
 10
4.4242574453
 20
2.7875487898
 30
0.0
 10
4.4320272136
 20
2.7662882277
 30
0.0
 10
4.4386395985
 20
2.7506347454
 30
0.0
 10
4.4460603487
 20
2.7353327547
 30
0.0
 10
4.4543010798
 20
2.7204415198
 30
0.0
 10
4.4633722634
 20
2.7060256944
 30
0.0
 10
4.4732857732
 20
2.692156883
 30
0.0
 10
4.4840219381
 20
2.6788936697
 30
0.0
 10
4.4955449991
 20
2.6662868578
 30
0.0
 10
4.5078228367
 20
2.6543921858
 30
0.0
 10
4.5208178275
 20
2.6432619259
 30
0.0
 10
4.5344616555
 20
2.6329116772
 30
0.0
 10
4.5486901608
 20
2.6233565089
 30
0.0
 10
4.5634441943
 20
2.614612152
 30
0.0
 10
4.5837352947
 20
2.6040310314
 30
0.0
 10
4.610096154
 20
2.5927740201
 30
0.0
 10
4.6428449858
 20
2.5822512409
 30
0.0
 10
4.6707811405
 20
2.5757765327
 30
0.0
 10
4.6933698577
 20
2.5718436491
 30
0.0
 10
4.716083964
 20
2.568697299
 30
0.0
 10
4.7446553238
 20
2.5661816331
 30
0.0
 10
4.7790557376
 20
2.5652406313
 30
0.0
 10
4.8134561402
 20
2.5661820299
 30
0.0
 10
4.8420274657
 20
2.5686980818
 30
0.0
 10
4.8647415232
 20
2.5718447797
 30
0.0
 10
4.8873301718
 20
2.575778046
 30
0.0
 10
4.9152661984
 20
2.5822533061
 30
0.0
 10
4.9480147748
 20
2.5927768677
 30
0.0
 10
4.9743753124
 20
2.6040346247
 30
0.0
 10
4.9946660667
 20
2.6146163931
 30
0.0
 10
5.0094197908
 20
2.623361261
 30
0.0
 10
5.0236479417
 20
2.6329169447
 30
0.0
 10
5.0372913665
 20
2.6432677103
 30
0.0
 10
5.0502859017
 20
2.6543984872
 30
0.0
 10
5.0625632369
 20
2.6662936635
 30
0.0
 10
5.0740857674
 20
2.6789009462
 30
0.0
 10
5.0848213727
 20
2.6921645979
 30
0.0
 10
5.0947342934
 20
2.7060338165
 30
0.0
 10
5.1038048873
 20
2.7204500011
 30
0.0
 10
5.1120450342
 20
2.7353415495
 30
0.0
 10
5.1194652088
 20
2.7506438088
 30
0.0
 10
5.1260770311
 20
2.766297519
 30
0.0
 10
5.1338460863
 20
2.7875583335
 30
0.0
 10
5.1448207025
 20
2.8256017829
 30
0.0
 10
5.1501991042
 20
2.8592213989
 30
0.0
 10
5.1523574832
 20
2.881700865
 30
0.0
  0
LINE
  5
2B8
100
AcDbEntity
  8
ALL_FEATURES
100
AcDbLine
 62
7
  6
CONTINUOUS
 10
4.3603520806
 20
3.8786273772
 11
4.3603000945
 21
3.8799015139
  0
SPLINE
  5
2B9
100
AcDbEntity
  8
ALL_FEATURES
100
AcDbSpline
 62
7
  6
CONTINUOUS
 70
0
 71
3
 72
55
 73
51
 74
0
 42
0.0000001
 43
0.0000001
 44
0.0000000001
 40
0.0
 40
0.0
 40
0.0
 40
0.0
 40
0.0305543319
 40
0.0611430858
 40
0.0917980352
 40
0.1071638433
 40
0.1225702562
 40
0.1380154577
 40
0.1534955166
 40
0.1690176023
 40
0.1845835023
 40
0.2001870936
 40
0.2158237666
 40
0.2314974606
 40
0.2472037789
 40
0.2629297817
 40
0.2786782606
 40
0.2944501865
 40
0.3102344161
 40
0.3418190758
 40
0.357627422
 40
0.3734390111
 40
0.4050716309
 40
0.4367133635
 40
0.4683591456
 40
0.500006159
 40
0.51583013
 40
0.5316538068
 40
0.5632995021
 40
0.5949411348
 40
0.6265732905
 40
0.6581873736
 40
0.6897705717
 40
0.7055527983
 40
0.7213234073
 40
0.7370712013
 40
0.7527967462
 40
0.7685028249
 40
0.784176504
 40
0.7998132027
 40
0.8154167869
 40
0.8309827168
 40
0.8465048608
 40
0.8619848985
 40
0.8774300831
 40
0.8928365907
 40
0.9082024059
 40
0.9388570893
 40
0.9694457102
 40
1.0
 40
1.0
 40
1.0
 40
1.0
 10
4.4040493156
 20
2.9040820288
 30
0.0
 10
4.4046398386
 20
2.8935064224
 30
0.0
 10
4.4065770005
 20
2.8723731668
 30
0.0
 10
4.4122223585
 20
2.8410108252
 30
0.0
 10
4.4196017696
 20
2.8154335381
 30
0.0
 10
4.4273539891
 20
2.7955864112
 30
0.0
 10
4.434161232
 20
2.7810685332
 30
0.0
 10
4.4419786173
 20
2.7670225694
 30
0.0
 10
4.4508187232
 20
2.7535465097
 30
0.0
 10
4.4606958839
 20
2.7407568
 30
0.0
 10
4.4715551446
 20
2.7287326999
 30
0.0
 10
4.4833242077
 20
2.7175396045
 30
0.0
 10
4.4959403023
 20
2.7072525034
 30
0.0
 10
4.5092922799
 20
2.697881756
 30
0.0
 10
4.5232721847
 20
2.6894191679
 30
0.0
 10
4.5377865624
 20
2.6818569267
 30
0.0
 10
4.5527408912
 20
2.6751554928
 30
0.0
 10
4.5680515891
 20
2.6692609738
 30
0.0
 10
4.5888446785
 20
2.6624009934
 30
0.0
 10
4.6100816289
 20
2.6569322648
 30
0.0
 10
4.6315677672
 20
2.6526274509
 30
0.0
 10
4.6531995651
 20
2.6490172152
 30
0.0
 10
4.6804276062
 20
2.6456930463
 30
0.0
 10
4.7132494824
 20
2.643229868
 30
0.0
 10
4.7461416638
 20
2.6419753292
 30
0.0
 10
4.7735697606
 20
2.6416951792
 30
0.0
 10
4.7955117662
 20
2.6418094699
 30
0.0
 10
4.8174505139
 20
2.6421831214
 30
0.0
 10
4.844860394
 20
2.6432303517
 30
0.0
 10
4.8776824266
 20
2.6456929378
 30
0.0
 10
4.9103490736
 20
2.649682635
 30
0.0
 10
4.9427138679
 20
2.6555670515
 30
0.0
 10
4.9692609677
 20
2.662400906
 30
0.0
 10
4.9900527878
 20
2.6692605014
 30
0.0
 10
5.0053621227
 20
2.6751545117
 30
0.0
 10
5.0203156526
 20
2.6818556868
 30
0.0
 10
5.0348295398
 20
2.6894178322
 30
0.0
 10
5.0488089469
 20
2.6978807859
 30
0.0
 10
5.0621604222
 20
2.7072521065
 30
0.0
 10
5.0747761849
 20
2.7175396092
 30
0.0
 10
5.0865449139
 20
2.7287330844
 30
0.0
 10
5.0974038201
 20
2.7407575315
 30
0.0
 10
5.1072809784
 20
2.7535472629
 30
0.0
 10
5.1161210546
 20
2.7670233551
 30
0.0
 10
5.1239383874
 20
2.7810693661
 30
0.0
 10
5.1307458445
 20
2.7955871686
 30
0.0
 10
5.1384985695
 20
2.8154340341
 30
0.0
 10
5.1458785773
 20
2.8410110182
 30
0.0
 10
5.1515242158
 20
2.8723731694
 30
0.0
 10
5.1534612574
 20
2.8935063863
 30
0.0
 10
5.1540516124
 20
2.9040819874
 30
0.0
  0
LINE
  5
2BA
100
AcDbEntity
  8
ALL_FEATURES
100
AcDbLine
 62
7
  6
CONTINUOUS
 10
5.1977481055
 20
3.8786273772
 11
5.1978000916
 21
3.8799015139
  0
SPLINE
  5
2BB
100
AcDbEntity
  8
ALL_FEATURES
100
AcDbSpline
 62
9
  6
CONTINUOUS
 70
0
 71
3
 72
10
 73
6
 74
0
 42
0.0000001
 43
0.0000001
 44
0.0000000001
 40
0.0
 40
0.0
 40
0.0
 40
0.0
 40
0.5451379089
 40
0.7847678475
 40
1.0
 40
1.0
 40
1.0
 40
1.0
 10
4.3873697254
 20
3.2604790986
 30
0.0
 10
4.3874728
 20
3.2523856749
 30
0.0
 10
4.3875537587
 20
3.2407331784
 30
0.0
 10
4.3874326738
 20
3.2258856782
 30
0.0
 10
4.3872924451
 20
3.2191331453
 30
0.0
 10
4.3871976788
 20
3.2159388342
 30
0.0
  0
SPLINE
  5
2BC
100
AcDbEntity
  8
ALL_FEATURES
100
AcDbSpline
 62
9
  6
CONTINUOUS
 70
0
 71
3
 72
13
 73
9
 74
0
 42
0.0000001
 43
0.0000001
 44
0.0000000001
 40
0.0
 40
0.0
 40
0.0
 40
0.0
 40
0.3383332688
 40
0.6188865697
 40
0.7368626918
 40
0.8397283526
 40
0.927418886
 40
1.0
 40
1.0
 40
1.0
 40
1.0
 10
4.3869602662
 20
3.2094507637
 30
0.0
 10
4.3868479611
 20
3.2069206438
 30
0.0
 10
4.3865963015
 20
3.202294388
 30
0.0
 10
4.3861273793
 20
3.1967967239
 30
0.0
 10
4.3856610783
 20
3.1930721005
 30
0.0
 10
4.3852971744
 20
3.1907907516
 30
0.0
 10
4.384898675
 20
3.1888610752
 30
0.0
 10
4.3845806678
 20
3.1877025228
 30
0.0
 10
4.3844084023
 20
3.1871872462
 30
0.0
  0
LINE
  5
2BD
100
AcDbEntity
  8
ALL_FEATURES
100
AcDbLine
 62
9
  6
CONTINUOUS
 10
4.3840398025
 20
3.186095173
 11
4.380083305
 21
3.1757375277
  0
SPLINE
  5
2BE
100
AcDbEntity
  8
ALL_FEATURES
100
AcDbSpline
 62
9
  6
CONTINUOUS
 70
0
 71
3
 72
18
 73
14
 74
0
 42
0.0000001
 43
0.0000001
 44
0.0000000001
 40
0.0
 40
0.0
 40
0.0
 40
0.0
 40
0.1283209117
 40
0.2561216637
 40
0.3830057155
 40
0.5087635817
 40
0.5711853096
 40
0.6332999717
 40
0.6951095695
 40
0.7566215177
 40
0.8178495733
 40
0.8788080699
 40
1.0
 40
1.0
 40
1.0
 40
1.0
 10
4.3603000948
 20
3.8799015484
 30
0.0
 10
4.3563324393
 20
3.977160881
 30
0.0
 10
4.348655651
 20
4.1712953549
 30
0.0
 10
4.3382027521
 20
4.4616442261
 30
0.0
 10
4.3291900766
 20
4.7500966764
 30
0.0
 10
4.3231609569
 20
4.9890200039
 30
0.0
 10
4.3193969352
 20
5.1788484623
 30
0.0
 10
4.3171224648
 20
5.3201867535
 30
0.0
 10
4.3154135799
 20
5.460842855
 30
0.0
 10
4.3142739721
 20
5.6008321296
 30
0.0
 10
4.313680458
 20
5.7401791622
 30
0.0
 10
4.3135978262
 20
5.9247987828
 30
0.0
 10
4.3142813127
 20
6.0629720403
 30
0.0
 10
4.3150112679
 20
6.1549015483
 30
0.0
  0
SPLINE
  5
2BF
100
AcDbEntity
  8
ALL_FEATURES
100
AcDbSpline
 62
9
  6
CONTINUOUS
 70
0
 71
3
 72
16
 73
12
 74
0
 42
0.0000001
 43
0.0000001
 44
0.0000000001
 40
0.0
 40
0.0
 40
0.0
 40
0.0
 40
0.2568777201
 40
0.3840031838
 40
0.5098702387
 40
0.6343573317
 40
0.6960789592
 40
0.7574612169
 40
0.818521802
 40
0.8792795467
 40
1.0
 40
1.0
 40
1.0
 40
1.0
 10
4.3915241144
 20
3.8811854581
 30
0.0
 10
4.3836439775
 20
4.0758304288
 30
0.0
 10
4.371706082
 20
4.3667963075
 30
0.0
 10
4.3564597623
 20
4.7531582198
 30
0.0
 10
4.3456942566
 20
5.0392193473
 30
0.0
 10
4.3374288394
 20
5.275739565
 30
0.0
 10
4.3314097844
 20
5.4634049663
 30
0.0
 10
4.327244224
 20
5.6030049457
 30
0.0
 10
4.3234663573
 20
5.7418848111
 30
0.0
 10
4.3190240955
 20
5.9257617346
 30
0.0
 10
4.3163965916
 20
6.0633631112
 30
0.0
 10
4.3150112679
 20
6.1549015483
 30
0.0
  0
LINE
  5
2C0
100
AcDbEntity
  8
ALL_FEATURES
100
AcDbLine
 62
9
  6
CONTINUOUS
 10
4.3915718833
 20
3.8799014055
 11
4.3915283298
 21
3.881185601
  0
SPLINE
  5
2C1
100
AcDbEntity
  8
ALL_FEATURES
100
AcDbSpline
 62
9
  6
CONTINUOUS
 70
0
 71
3
 72
11
 73
7
 74
0
 42
0.0000001
 43
0.0000001
 44
0.0000000001
 40
0.0
 40
0.0
 40
0.0
 40
0.0
 40
0.2455044204
 40
0.4946914879
 40
0.7466079073
 40
1.0
 40
1.0
 40
1.0
 40
1.0
 10
4.4352604917
 20
2.8968767448
 30
0.0
 10
4.4314825899
 20
2.9773132559
 30
0.0
 10
4.4238989041
 20
3.1393942144
 30
0.0
 10
4.412717135
 20
3.3840254554
 30
0.0
 10
4.4018419039
 20
3.6312602594
 30
0.0
 10
4.3949310543
 20
3.7968569606
 30
0.0
 10
4.3915760942
 20
3.8799015483
 30
0.0
  0
SPLINE
  5
2C2
100
AcDbEntity
  8
ALL_FEATURES
100
AcDbSpline
 62
9
  6
CONTINUOUS
 70
0
 71
3
 72
11
 73
7
 74
0
 42
0.0000001
 43
0.0000001
 44
0.0000000001
 40
0.0
 40
0.0
 40
0.0
 40
0.0
 40
0.2044227798
 40
0.4288278406
 40
0.6904912517
 40
1.0
 40
1.0
 40
1.0
 40
1.0
 10
4.4040500963
 20
2.9040820723
 30
0.0
 10
4.4040674271
 20
2.9037464051
 30
0.0
 10
4.4042395952
 20
2.9030440895
 30
0.0
 10
4.4048742131
 20
2.9020829079
 30
0.0
 10
4.4058580636
 20
2.9012055912
 30
0.0
 10
4.4066632637
 20
2.9007147664
 30
0.0
 10
4.4071120472
 20
2.9004748283
 30
0.0
  0
SPLINE
  5
2C3
100
AcDbEntity
  8
ALL_FEATURES
100
AcDbSpline
 62
9
  6
CONTINUOUS
 70
0
 71
3
 72
14
 73
10
 74
0
 42
0.0000001
 43
0.0000001
 44
0.0000000001
 40
0.0
 40
0.0
 40
0.0
 40
0.0
 40
0.0827229126
 40
0.1807814447
 40
0.2931220128
 40
0.4180903955
 40
0.697470787
 40
0.8473381765
 40
1.0
 40
1.0
 40
1.0
 40
1.0
 10
4.4071120472
 20
2.9004748283
 30
0.0
 10
4.4078081436
 20
2.9001026665
 30
0.0
 10
4.4094001687
 20
2.8994223555
 30
0.0
 10
4.4120764044
 20
2.8985995515
 30
0.0
 10
4.4152041351
 20
2.8979087206
 30
0.0
 10
4.4200801267
 20
2.8971606696
 30
0.0
 10
4.4253665098
 20
2.8968157836
 30
0.0
 10
4.430918408
 20
2.8967325511
 30
0.0
 10
4.4338055798
 20
2.8968047548
 30
0.0
 10
4.4352604917
 20
2.8968767448
 30
0.0
  0
SPLINE
  5
2C4
100
AcDbEntity
  8
ALL_FEATURES
100
AcDbSpline
 62
9
  6
CONTINUOUS
 70
0
 71
3
 72
50
 73
46
 74
0
 42
0.0000001
 43
0.0000001
 44
0.0000000001
 40
0.0
 40
0.0
 40
0.0
 40
0.0
 40
0.030524808
 40
0.0610262372
 40
0.0915292501
 40
0.1067968529
 40
0.1220938796
 40
0.1527652453
 40
0.168182516
 40
0.1836578085
 40
0.1991897632
 40
0.2147811272
 40
0.2304346402
 40
0.2461379942
 40
0.2776526035
 40
0.2934713631
 40
0.3093069905
 40
0.3410234371
 40
0.3727856013
 40
0.4045753585
 40
0.4363795363
 40
0.468190256
 40
0.5000032398
 40
0.5159102597
 40
0.5318168449
 40
0.5636275018
 40
0.5954315687
 40
0.627220781
 40
0.6589816593
 40
0.6906968033
 40
0.7065308125
 40
0.722347696
 40
0.7538611086
 40
0.7695642841
 40
0.7852179199
 40
0.8008095438
 40
0.8163417229
 40
0.831817246
 40
0.8472347645
 40
0.8779063314
 40
0.893203522
 40
0.9084711778
 40
0.9389739794
 40
0.9694753137
 40
1.0
 40
1.0
 40
1.0
 40
1.0
 10
4.4352604159
 20
2.8968767599
 30
0.0
 10
4.4357977701
 20
2.8872474078
 30
0.0
 10
4.4375342782
 20
2.8680222787
 30
0.0
 10
4.4425704003
 20
2.8395069815
 30
0.0
 10
4.4491636744
 20
2.8162692812
 30
0.0
 10
4.4561351891
 20
2.7982638472
 30
0.0
 10
4.4643287079
 20
2.7807253178
 30
0.0
 10
4.4744318509
 20
2.7640629584
 30
0.0
 10
4.4864739886
 20
2.7487650676
 30
0.0
 10
4.4964561127
 20
2.7379953346
 30
0.0
 10
4.5073106137
 20
2.7280250056
 30
0.0
 10
4.5189662633
 20
2.7189146115
 30
0.0
 10
4.5313031374
 20
2.7106557834
 30
0.0
 10
4.5485416857
 20
2.7007598745
 30
0.0
 10
4.5667345101
 20
2.6925237216
 30
0.0
 10
4.5855075424
 20
2.6857349558
 30
0.0
 10
4.6046409949
 20
2.6798127279
 30
0.0
 10
4.629029502
 20
2.6739371241
 30
0.0
 10
4.6587189532
 20
2.6688784416
 30
0.0
 10
4.6886626777
 20
2.665444692
 30
0.0
 10
4.7187380723
 20
2.6633171127
 30
0.0
 10
4.748873345
 20
2.6622254948
 30
0.0
 10
4.7740021196
 20
2.661978186
 30
0.0
 10
4.7941050123
 20
2.662078778
 30
0.0
 10
4.8142048392
 20
2.6624050793
 30
0.0
 10
4.8393172174
 20
2.6633142085
 30
0.0
 10
4.8693924153
 20
2.6654400065
 30
0.0
 10
4.899335838
 20
2.6688711719
 30
0.0
 10
4.9290247131
 20
2.6739272462
 30
0.0
 10
4.9534126735
 20
2.6797992211
 30
0.0
 10
4.972545781
 20
2.6857174409
 30
0.0
 10
4.9913184869
 20
2.6925027559
 30
0.0
 10
5.0095119987
 20
2.7007347798
 30
0.0
 10
5.0267524213
 20
2.7106266311
 30
0.0
 10
5.0390911966
 20
2.7188827277
 30
0.0
 10
5.050749263
 20
2.7279903184
 30
0.0
 10
5.0616066966
 20
2.7379577864
 30
0.0
 10
5.071591863
 20
2.748724997
 30
0.0
 10
5.0836386133
 20
2.7640195252
 30
0.0
 10
5.093746258
 20
2.7806794315
 30
0.0
 10
5.1019441701
 20
2.7982160519
 30
0.0
 10
5.108920093
 20
2.816219785
 30
0.0
 10
5.1155184426
 20
2.8394559959
 30
0.0
 10
5.120559882
 20
2.8679702462
 30
0.0
 10
5.1222990296
 20
2.8871951073
 30
0.0
 10
5.122837308
 20
2.8968243692
 30
0.0
  0
SPLINE
  5
2C5
100
AcDbEntity
  8
ALL_FEATURES
100
AcDbSpline
 62
9
  6
CONTINUOUS
 70
0
 71
3
 72
22
 73
18
 74
0
 42
0.0000001
 43
0.0000001
 44
0.0000000001
 40
0.0
 40
0.0
 40
0.0
 40
0.0
 40
0.1792638778
 40
0.2668822775
 40
0.3519596427
 40
0.4338222687
 40
0.5118499061
 40
0.5854533617
 40
0.6540564673
 40
0.7171258971
 40
0.7742338489
 40
0.8250107709
 40
0.8693911102
 40
0.9079570439
 40
0.9418649954
 40
0.9722193051
 40
1.0
 40
1.0
 40
1.0
 40
1.0
 10
5.122837308
 20
2.8968243692
 30
0.0
 10
5.1248444819
 20
2.8967229073
 30
0.0
 10
5.1278387189
 20
2.8966816562
 30
0.0
 10
5.1317835251
 20
2.8967733594
 30
0.0
 10
5.1346347546
 20
2.8969038218
 30
0.0
 10
5.1373739434
 20
2.8971084411
 30
0.0
 10
5.1399762786
 20
2.897397848
 30
0.0
 10
5.1424176954
 20
2.8977712533
 30
0.0
 10
5.1446755213
 20
2.8982213311
 30
0.0
 10
5.1467279058
 20
2.898742483
 30
0.0
 10
5.148555586
 20
2.8993235929
 30
0.0
 10
5.1501444906
 20
2.8999521933
 30
0.0
 10
5.1514854617
 20
2.900628743
 30
0.0
 10
5.1525695162
 20
2.9013752622
 30
0.0
 10
5.1533743022
 20
2.9022148942
 30
0.0
 10
5.1538883903
 20
2.9031230378
 30
0.0
 10
5.1540355527
 20
2.9037709509
 30
0.0
 10
5.1540516124
 20
2.9040819874
 30
0.0
  0
SPLINE
  5
2C6
100
AcDbEntity
  8
ALL_FEATURES
100
AcDbSpline
 62
9
  6
CONTINUOUS
 70
0
 71
3
 72
11
 73
7
 74
0
 42
0.0000001
 43
0.0000001
 44
0.0000000001
 40
0.0
 40
0.0
 40
0.0
 40
0.0
 40
0.2455040153
 40
0.4946910001
 40
0.7466075774
 40
1.0
 40
1.0
 40
1.0
 40
1.0
 10
5.1228371209
 20
2.8968243498
 30
0.0
 10
5.1266152273
 20
2.9772650159
 30
0.0
 10
5.1341994206
 20
3.1393544501
 30
0.0
 10
5.1453818784
 20
3.3839986202
 30
0.0
 10
5.1562577002
 20
3.6312467371
 30
0.0
 10
5.1631689433
 20
3.7968524255
 30
0.0
 10
5.1665240919
 20
3.8799015483
 30
0.0
  0
LINE
  5
2C7
100
AcDbEntity
  8
ALL_FEATURES
100
AcDbLine
 62
9
  6
CONTINUOUS
 10
5.1665283028
 20
3.8799014055
 11
5.1665718563
 21
3.881185601
  0
SPLINE
  5
2C8
100
AcDbEntity
  8
ALL_FEATURES
100
AcDbSpline
 62
9
  6
CONTINUOUS
 70
0
 71
3
 72
16
 73
12
 74
0
 42
0.0000001
 43
0.0000001
 44
0.0000000001
 40
0.0
 40
0.0
 40
0.0
 40
0.0
 40
0.2568775455
 40
0.3840029521
 40
0.5098699471
 40
0.6343570914
 40
0.6960787083
 40
0.7574610279
 40
0.8185217016
 40
0.8792794854
 40
1.0
 40
1.0
 40
1.0
 40
1.0
 10
5.1665760717
 20
3.8811854581
 30
0.0
 10
5.1744562093
 20
4.0758302962
 30
0.0
 10
5.1863941073
 20
4.366795999
 30
0.0
 10
5.2016403793
 20
4.7531576917
 30
0.0
 10
5.2124059656
 20
5.0392187666
 30
0.0
 10
5.2206712346
 20
5.2757389747
 30
0.0
 10
5.2266904264
 20
5.4634044494
 30
0.0
 10
5.2308560098
 20
5.6030045343
 30
0.0
 10
5.2346338399
 20
5.7418845447
 30
0.0
 10
5.2390759919
 20
5.9257616141
 30
0.0
 10
5.2417035532
 20
6.0633630654
 30
0.0
 10
5.2430889182
 20
6.1549015483
 30
0.0
  0
SPLINE
  5
2C9
100
AcDbEntity
  8
ALL_FEATURES
100
AcDbSpline
 62
9
  6
CONTINUOUS
 70
0
 71
3
 72
18
 73
14
 74
0
 42
0.0000001
 43
0.0000001
 44
0.0000000001
 40
0.0
 40
0.0
 40
0.0
 40
0.0
 40
0.1283208681
 40
0.2561214993
 40
0.3830054975
 40
0.5087633124
 40
0.5711850444
 40
0.6332997423
 40
0.695109344
 40
0.7566213486
 40
0.8178494776
 40
0.8788080114
 40
1.0
 40
1.0
 40
1.0
 40
1.0
 10
5.1978000914
 20
3.8799015484
 30
0.0
 10
5.2017677487
 20
3.9771608478
 30
0.0
 10
5.2094445288
 20
4.1712951972
 30
0.0
 10
5.2198974102
 20
4.4616439034
 30
0.0
 10
5.228910131
 20
4.7500961812
 30
0.0
 10
5.234939138
 20
4.9890194349
 30
0.0
 10
5.2387032625
 20
5.1788478823
 30
0.0
 10
5.2409778279
 20
5.3201862055
 30
0.0
 10
5.2426864869
 20
5.4608423826
 30
0.0
 10
5.2438261422
 20
5.6008317578
 30
0.0
 10
5.244419763
 20
5.7401789169
 30
0.0
 10
5.244502326
 20
5.9247986659
 30
0.0
 10
5.243818833
 20
6.0629719956
 30
0.0
 10
5.2430889182
 20
6.1549015483
 30
0.0
  0
SPLINE
  5
2CA
100
AcDbEntity
  8
ALL_FEATURES
100
AcDbSpline
 62
9
  6
CONTINUOUS
 70
0
 71
3
 72
10
 73
6
 74
0
 42
0.0000001
 43
0.0000001
 44
0.0000000001
 40
0.0
 40
0.0
 40
0.0
 40
0.0
 40
0.54512525
 40
0.7847578728
 40
1.0
 40
1.0
 40
1.0
 40
1.0
 10
5.1707304618
 20
3.2604796185
 30
0.0
 10
5.1706274184
 20
3.2523878762
 30
0.0
 10
5.1705464812
 20
3.2407376786
 30
0.0
 10
5.1706674861
 20
3.2258929182
 30
0.0
 10
5.1708076368
 20
3.2191414428
 30
0.0
 10
5.1709023499
 20
3.2159475719
 30
0.0
  0
SPLINE
  5
2CB
100
AcDbEntity
  8
ALL_FEATURES
100
AcDbSpline
 62
9
  6
CONTINUOUS
 70
0
 71
3
 72
13
 73
9
 74
0
 42
0.0000001
 43
0.0000001
 44
0.0000000001
 40
0.0
 40
0.0
 40
0.0
 40
0.0
 40
0.3383236005
 40
0.618872551
 40
0.7368489657
 40
0.8397170049
 40
0.9274121069
 40
1.0
 40
1.0
 40
1.0
 40
1.0
 10
5.1711397244
 20
3.2094580986
 30
0.0
 10
5.1712520209
 20
3.2069273032
 30
0.0
 10
5.1715036722
 20
3.2022997836
 30
0.0
 10
5.171972606
 20
3.1968005912
 30
0.0
 10
5.1724389306
 20
3.1930748679
 30
0.0
 10
5.17280286
 20
3.1907927787
 30
0.0
 10
5.1732013925
 20
3.1888624111
 30
0.0
 10
5.173519423
 20
3.187703411
 30
0.0
 10
5.1736916989
 20
3.1871879154
 30
0.0
  0
LINE
  5
2CC
100
AcDbEntity
  8
ALL_FEATURES
100
AcDbLine
 62
9
  6
CONTINUOUS
 10
5.1740603831
 20
3.1860951746
 11
5.1780168811
 21
3.1757375277
  0
ENDSEC
  0
SECTION
  2
OBJECTS
  0
DICTIONARY
  5
C
100
AcDbDictionary
280
0
281
1
  3
ACAD_GROUP
350
D
  3
ACAD_MLINESTYLE
350
17
  3
ACAD_LAYOUT
350
1A
  3
ACAD_PLOTSETTINGS
350
19
  3
ACAD_PLOTSTYLENAME
350
E
  0
DICTIONARY
  5
D
102
{ACAD_REACTORS
330
C
102
}
100
AcDbDictionary
280
0
281
1
  0
ACDBDICTIONARYWDFLT
  5
E
102
{ACAD_REACTORS
330
C
102
}
100
AcDbDictionary
281
1
  3
Normal
350
F
100
AcDbDictionaryWithDefault
340
F
  0
DICTIONARY
  5
17
102
{ACAD_REACTORS
330
C
102
}
100
AcDbDictionary
280
0
281
1
  3
Standard
350
18
  0
DICTIONARY
  5
19
102
{ACAD_REACTORS
330
C
102
}
100
AcDbDictionary
281
1
  0
DICTIONARY
  5
1A
102
{ACAD_REACTORS
330
C
102
}
100
AcDbDictionary
281
1
  3
Model
350
2CD
  3
Layout1
350
2CE
  0
ACDBPLACEHOLDER
  5
F
102
{ACAD_REACTORS
330
E
102
}
  0
MLINESTYLE
  5
18
102
{ACAD_REACTORS
330
17
102
}
100
AcDbMlineStyle
  2
STANDARD
 70
0
  3

 62
256
 51
90.0
 52
90.0
 71
2
 49
0.5
 62
256
  6
BYLAYER
 49
-0.5
 62
256
  6
BYLAYER
  0
LAYOUT
  5
2CD
102
{ACAD_REACTORS
330
1A
102
}
100
AcDbPlotSettings
  1

  2
none_device
  4
ANSI_A_(11.00_x_8.50_Inches)
  6

 40
0.0
 41
0.0
 42
0.0
 43
0.0
 44
279.4
 45
215.9
 46
0.0
 47
0.0
 48
0.0
 49
0.0
140
0.0
141
0.0
142
1.0
143
1.0
 70
1024
 72
0
 73
0
 74
0
  7

 75
0
147
1.0
148
0.0
149
0.0
100
AcDbLayout
  1
Model
 70
0
 71
0
 10
0.0
 20
0.0
 11
11.0
 21
8.5
 12
0.0
 22
0.0
 32
0.0
 14
0.0
 24
0.0
 34
0.0
 15
0.0
 25
0.0
 35
0.0
146
0.0
 13
0.0
 23
0.0
 33
0.0
 16
1.0
 26
0.0
 36
0.0
 17
0.0
 27
1.0
 37
0.0
 76
0
330
222
345
0
346
0
  0
LAYOUT
  5
2CE
102
{ACAD_REACTORS
330
1A
102
}
100
AcDbPlotSettings
  1

  2
none_device
  4
ANSI_A_(11.00_x_8.50_Inches)
  6

 40
0.0
 41
0.0
 42
0.0
 43
0.0
 44
279.4
 45
215.9
 46
0.0
 47
0.0
 48
0.0
 49
0.0
140
0.0
141
0.0
142
1.0
143
1.0
 70
0
 72
0
 73
0
 74
0
  7

 75
0
147
1.0
148
0.0
149
0.0
100
AcDbLayout
  1
Layout1
 70
0
 71
1
 10
0.0
 20
0.0
 11
11.0
 21
8.5
 12
0.0
 22
0.0
 32
0.0
 14
0.0
 24
0.0
 34
0.0
 15
0.0
 25
0.0
 35
0.0
146
0.0
 13
0.0
 23
0.0
 33
0.0
 16
1.0
 26
0.0
 36
0.0
 17
0.0
 27
1.0
 37
0.0
 76
0
330
223
345
0
346
0
  0
ENDSEC
  0
EOF
