  0
SECTION
  2
HEADER
  9
$ACADVER
  1
AC1015
  9
$DWGCODEPAGE
  3
ANSI_1252
  9
$EXTMAX
 10
23.3858267717
 20
16.5354330709
 30
0.0
  9
$EXTMIN
 10
0.0
 20
0.0
 30
0.0
  9
$LIMMIN
 10
0.0
 20
0.0
  9
$LIMMAX
 10
23.3858267717
 20
16.5354330709
  9
$VIEWCTR
 10
11.6929133858
 20
8.2677165354
  9
$VIEWSIZE
 40
16.5354330709
  9
$CLAYER
  8
0
  9
$LTSCALE
 40
1.2862204724
  9
$CELTYPE
  6
BYLAYER
  9
$DIMSCALE
 40
1.0
  9
$DIMASZ
 40
0.1875
  9
$DIMEXO
 40
0.1461614173
  9
$DIMDLI
 40
0.8886614173
  9
$DIMEXE
 40
0.4209448819
  9
$DIMCEN
 40
0.2104724409
  9
$DIMLFAC
 40
1.0
  9
$DIMBLK
  1
_CLOSED
  9
$DIMTXT
 40
0.15625
  9
$DIMTOL
 70
0
  9
$DIMLIM
 70
0
  9
$DIMTFAC
 40
1.0
  9
$PDMODE
 70
3
  9
$PDSIZE
 40
0.3125
  9
$HANDSEED
  5
31F
  9
$TILEMODE
 70
1
  9
$MEASUREMENT
 70
0
  9
$INSUNITS
 70
1
  0
ENDSEC
  0
SECTION
  2
CLASSES
  0
CLASS
  1
ACDBDICTIONARYWDFLT
  2
AcDbDictionaryWithDefault
  3
AutoCAD 2000
 90
0
280
0
281
0
  0
CLASS
  1
ACDBPLACEHOLDER
  2
AcDbPlaceHolder
  3
AutoCAD 2000
 90
0
280
0
281
0
  0
CLASS
  1
LAYOUT
  2
AcDbLayout
  3
AutoCAD 2000
 90
0
280
0
281
0
  0
ENDSEC
  0
SECTION
  2
TABLES
  0
TABLE
  2
VPORT
  5
8
100
AcDbSymbolTable
 70
2
  0
VPORT
  5
1F4
100
AcDbSymbolTableRecord
100
AcDbViewportTableRecord
  2
*ACTIVE
 70
0
 10
0.0
 20
0.0
 11
1.0
 21
1.0
 12
11.6929133858
 22
8.2677165354
 13
0.0
 23
0.0
 14
1.0
 24
1.0
 15
0.0
 25
0.0
 16
0.0
 26
0.0
 36
1.0
 17
0.0
 27
0.0
 37
0.0
 40
16.5354330709
 41
1.4142857143
 42
50.0
 43
0.0
 44
0.0
 50
0.0
 51
0.0
 71
0
 72
100
 73
1
 74
1
 75
0
 76
0
 77
0
 78
0
  0
ENDTAB
  0
TABLE
  2
LTYPE
  5
5
100
AcDbSymbolTable
 70
6
  0
LTYPE
  5
14
100
AcDbSymbolTableRecord
100
AcDbLinetypeTableRecord
  2
BYBLOCK
 70
0
  3

 72
65
 73
0
 40
0.0
  0
LTYPE
  5
15
100
AcDbSymbolTableRecord
100
AcDbLinetypeTableRecord
  2
BYLAYER
 70
0
  3

 72
65
 73
0
 40
0.0
  0
LTYPE
  5
16
100
AcDbSymbolTableRecord
100
AcDbLinetypeTableRecord
  2
CONTINUOUS
 70
64
  3
Solid line
 72
65
 73
0
 40
0.0
  0
LTYPE
  5
1F5
100
AcDbSymbolTableRecord
100
AcDbLinetypeTableRecord
  2
CENTER
 70
64
  3
____ _ ____ _ ____ _ ____ _ ____ _ ____ _ ____
 72
65
 73
4
 40
0.6
 49
0.375
 74
0
 49
-0.075
 74
0
 49
0.075
 74
0
 49
-0.075
 74
0
  0
LTYPE
  5
1F6
100
AcDbSymbolTableRecord
100
AcDbLinetypeTableRecord
  2
HIDDEN
 70
64
  3
- - - - - - - - - - - - - - - - - - - -
 72
65
 73
2
 40
0.2
 49
0.1
 74
0
 49
-0.1
 74
0
  0
LTYPE
  5
1F7
100
AcDbSymbolTableRecord
100
AcDbLinetypeTableRecord
  2
PHANTOM
 70
64
  3
_____ _ _ _____ _ _ _____ _ _ _____
 72
65
 73
6
 40
0.8
 49
0.45
 74
0
 49
-0.05
 74
0
 49
0.1
 74
0
 49
-0.05
 74
0
 49
0.1
 74
0
 49
-0.05
 74
0
  0
LTYPE
  5
1F8
100
AcDbSymbolTableRecord
100
AcDbLinetypeTableRecord
  2
DOT
 70
64
  3
. . . . . . . . . . . . . . . . . . . .
 72
65
 73
2
 40
0.2
 49
0.1
 74
0
 49
-0.1
 74
0
  0
LTYPE
  5
1F9
100
AcDbSymbolTableRecord
100
AcDbLinetypeTableRecord
  2
DASHED
 70
64
  3
- - - - - - - - - - - - - - - - - - - -
 72
65
 73
2
 40
0.2
 49
0.1
 74
0
 49
-0.1
 74
0
  0
ENDTAB
  0
TABLE
  2
LAYER
  5
2
100
AcDbSymbolTable
 70
36
  0
LAYER
  5
10
100
AcDbSymbolTableRecord
100
AcDbLayerTableRecord
  2
0
 70
0
 62
7
  6
CONTINUOUS
370
-3
390
F
  0
LAYER
  5
1FA
100
AcDbSymbolTableRecord
100
AcDbLayerTableRecord
  2
DEFAULT_1
 70
0
 62
7
  6
CENTER
370
-3
390
F
  0
LAYER
  5
1FB
100
AcDbSymbolTableRecord
100
AcDbLayerTableRecord
  2
DEFAULT_2
 70
0
 62
8
  6
HIDDEN
370
-3
390
F
  0
LAYER
  5
1FC
100
AcDbSymbolTableRecord
100
AcDbLayerTableRecord
  2
DEFAULT_3
 70
0
 62
7
  6
PHANTOM
370
-3
390
F
  0
LAYER
  5
1FD
100
AcDbSymbolTableRecord
100
AcDbLayerTableRecord
  2
DEFAULT_COORDINATE_SYSTEM
 70
0
 62
7
  6
CONTINUOUS
370
-3
390
F
  0
LAYER
  5
1FE
100
AcDbSymbolTableRecord
100
AcDbLayerTableRecord
  2
DEFAULT_DATUM_AXES
 70
0
 62
7
  6
CONTINUOUS
370
-3
390
F
  0
LAYER
  5
1FF
100
AcDbSymbolTableRecord
100
AcDbLayerTableRecord
  2
DEFAULT_DATUM_CURVES
 70
0
 62
7
  6
CONTINUOUS
370
-3
390
F
  0
LAYER
  5
200
100
AcDbSymbolTableRecord
100
AcDbLayerTableRecord
  2
DEFAULT_DATUM_PLANES
 70
0
 62
7
  6
CONTINUOUS
370
-3
390
F
  0
ENDTAB
  0
TABLE
  2
STYLE
  5
3
100
AcDbSymbolTable
 70
1
  0
STYLE
  5
11
100
AcDbSymbolTableRecord
100
AcDbTextStyleTableRecord
  2
STANDARD
 70
0
 40
0.0
 41
0.8
 50
0.0
 71
0
 42
0.2
  3
txt
  4

  0
STYLE
  5
201
100
AcDbSymbolTableRecord
100
AcDbTextStyleTableRecord
  2
TEXTSTYLE_1
 70
0
 40
0.0
 41
0.8
 50
0.0
 71
0
 42
0.2
  3
gdt
  4

  0
ENDTAB
  0
TABLE
  2
VIEW
  5
6
100
AcDbSymbolTable
 70
0
  0
ENDTAB
  0
TABLE
  2
UCS
  5
7
100
AcDbSymbolTable
 70
0
  0
ENDTAB
  0
TABLE
  2
APPID
  5
9
100
AcDbSymbolTable
 70
1
  0
APPID
  5
202
100
AcDbSymbolTableRecord
100
AcDbRegAppTableRecord
  2
ACAD
 70
0
  0
ENDTAB
  0
TABLE
  2
BLOCK_RECORD
  5
1
100
AcDbSymbolTable
 70
0
  0
BLOCK_RECORD
  5
203
100
AcDbSymbolTableRecord
100
AcDbBlockTableRecord
  2
*Model_Space
  0
BLOCK_RECORD
  5
204
100
AcDbSymbolTableRecord
100
AcDbBlockTableRecord
  2
*Paper_Space
  0
ENDTAB
  0
TABLE
  2
DIMSTYLE
  5
A
100
AcDbSymbolTable
 70
1
100
AcDbDimStyleTable
 71
0
  0
DIMSTYLE
105
205
100
AcDbSymbolTableRecord
100
AcDbDimStyleTableRecord
  2
STANDARD
 70
0
  3

  4

 40
1.0
 41
0.1875
 42
0.0625
 43
0.38
 44
0.18
 45
0.0
 46
0.0
 47
0.01
 48
0.01
140
0.15625
141
0.09
142
0.0
143
25.4
144
1.0
145
0.0
146
1.0
147
0.09
 71
0.0
 72
0.0
 73
1
 74
1
 75
0
 76
0
 77
0
 78
4
170
0
171
2
172
0
173
0
174
0
175
0
176
0
177
0
178
0
270
2
271
2
272
2
273
2
274
2
275
0
280
0
281
0
282
0
283
1
284
4
285
0
286
0
287
3
288
0
340
11
  0
ENDTAB
  0
ENDSEC
  0
SECTION
  2
BLOCKS
  0
BLOCK
  5
20
100
AcDbEntity
  8
0
100
AcDbBlockBegin
  2
*Model_Space
 70
0
 10
0.0
 20
0.0
 30
0.0
  3
*Model_Space
  1

  0
ENDBLK
  5
21
100
AcDbEntity
  8
0
100
AcDbBlockEnd
  0
BLOCK
  5
1C
100
AcDbEntity
  8
0
100
AcDbBlockBegin
  2
*Paper_Space
 70
0
 10
0.0
 20
0.0
 30
0.0
  3
*Paper_Space
  1

  0
ENDBLK
  5
1D
100
AcDbEntity
  8
0
100
AcDbBlockEnd
  0
ENDSEC
  0
SECTION
  2
ENTITIES
  0
LINE
  5
206
100
AcDbEntity
  8
0
100
AcDbLine
 62
6
  6
CONTINUOUS
 10
4.5957366277
 20
12.2519969165
 11
4.5757366277
 21
12.2319969165
  0
LINE
  5
207
100
AcDbEntity
  8
0
100
AcDbLine
 62
6
  6
CONTINUOUS
 10
4.5757366277
 20
11.6160107556
 11
4.5757366277
 21
12.2319830774
  0
LINE
  5
208
100
AcDbEntity
  8
0
100
AcDbLine
 62
6
  6
CONTINUOUS
 10
4.5957366277
 20
11.5959969165
 11
4.5957366277
 21
12.2519969165
  0
LINE
  5
209
100
AcDbEntity
  8
0
100
AcDbLine
 62
6
  6
CONTINUOUS
 10
8.4757366277
 20
11.6159969165
 11
8.4557366277
 21
11.5959969165
  0
LINE
  5
20A
100
AcDbEntity
  8
0
100
AcDbLine
 62
6
  6
CONTINUOUS
 10
7.1837366277
 20
12.292352592
 11
7.1837366277
 21
11.555641241
  0
LINE
  5
20B
100
AcDbEntity
  8
0
100
AcDbLine
 62
6
  6
CONTINUOUS
 10
7.3461366277
 20
12.292352592
 11
7.3461366277
 21
11.555641241
  0
LINE
  5
20C
100
AcDbEntity
  8
0
100
AcDbLine
 62
6
  6
CONTINUOUS
 10
7.5085366277
 20
12.292352592
 11
7.5085366277
 21
11.555641241
  0
LINE
  5
20D
100
AcDbEntity
  8
0
100
AcDbLine
 62
6
  6
CONTINUOUS
 10
7.6709366277
 20
12.292352592
 11
7.6709366277
 21
11.555641241
  0
LINE
  5
20E
100
AcDbEntity
  8
0
100
AcDbLine
 62
6
  6
CONTINUOUS
 10
7.8333366277
 20
12.292352592
 11
7.8333366277
 21
11.555641241
  0
LINE
  5
20F
100
AcDbEntity
  8
0
100
AcDbLine
 62
6
  6
CONTINUOUS
 10
7.9957366277
 20
12.292352592
 11
7.9957366277
 21
11.555641241
  0
LINE
  5
210
100
AcDbEntity
  8
0
100
AcDbLine
 62
6
  6
CONTINUOUS
 10
8.4557366277
 20
11.5959969165
 11
8.4557366277
 21
12.2519969165
  0
LINE
  5
211
100
AcDbEntity
  8
0
100
AcDbLine
 62
6
  6
CONTINUOUS
 10
8.4757366277
 20
11.6160107556
 11
8.4757366277
 21
12.2319830774
  0
LINE
  5
212
100
AcDbEntity
  8
0
100
AcDbLine
 62
6
  6
CONTINUOUS
 10
4.5957366277
 20
11.5959969165
 11
4.5757366277
 21
11.6159969165
  0
LINE
  5
213
100
AcDbEntity
  8
0
100
AcDbLine
 62
6
  6
CONTINUOUS
 10
14.7037366277
 20
12.2319969165
 11
14.7237366277
 21
12.2519969165
  0
LWPOLYLINE
  5
214
100
AcDbEntity
  8
0
100
AcDbPolyline
 62
6
  6
CONTINUOUS
 90
59
 70
0
 10
10.8885753179
 20
8.0940794782
 10
10.8950074528
 20
7.9903735775
 10
10.9013337191
 20
7.8846971172
 10
10.9074922563
 20
7.7779545888
 10
10.913468807
 20
7.6703100071
 10
10.9192506077
 20
7.5619155001
 10
10.9248293398
 20
7.4528498204
 10
10.9301979397
 20
7.343168244
 10
10.935349229
 20
7.2329267588
 10
10.9402751985
 20
7.1221976951
 10
10.9449672216
 20
7.0110698015
 10
10.9494168546
 20
6.8996332086
 10
10.9536159269
 20
6.7879775181
 10
10.9575566351
 20
6.6761890068
 10
10.9612314145
 20
6.564353649
 10
10.9646330298
 20
6.4525540304
 10
10.9677559892
 20
6.3408134074
 10
10.970595385
 20
6.2291135041
 10
10.9731433371
 20
6.1175363648
 10
10.9753905519
 20
6.006250244
 10
10.9773295175
 20
5.8953849202
 10
10.9789540497
 20
5.7850303266
 10
10.9802583677
 20
5.6752747225
 10
10.9812370902
 20
5.5662051376
 10
10.9818853309
 20
5.4578873033
 10
10.9821983923
 20
5.3503677052
 10
10.9821715038
 20
5.2436923136
 10
10.9817998339
 20
5.1379100293
 10
10.9810786556
 20
5.0330859176
 10
10.9800034965
 20
4.9292902379
 10
10.9785701748
 20
4.8265937609
 10
10.9767752451
 20
4.7250887063
 10
10.974616722
 20
4.6249003722
 10
10.9720939274
 20
4.5261547612
 10
10.969207311
 20
4.4289685395
 10
10.9659559611
 20
4.3333820528
 10
10.9623373076
 20
4.2393910673
 10
10.9583489401
 20
4.1470064679
 10
10.9539889302
 20
4.0562537031
 10
10.9492579209
 20
3.9672055728
 10
10.9441600321
 20
3.8799762203
 10
10.9387012618
 20
3.794678077
 10
10.9328893186
 20
3.7114171098
 10
10.9267322972
 20
3.6302754027
 10
10.9202392317
 20
3.5513236192
 10
10.9134208073
 20
3.4746304887
 10
10.906288583
 20
3.4002535414
 10
10.8988510596
 20
3.328203742
 10
10.8911166714
 20
3.2584818325
 10
10.8831014686
 20
3.1911440023
 10
10.8748268136
 20
3.1262675513
 10
10.866317853
 20
3.0639311367
 10
10.8576035134
 20
3.0042114246
 10
10.8487156758
 20
2.9471755148
 10
10.8396892837
 20
2.892881375
 10
10.8305623894
 20
2.8413778534
 10
10.8213760579
 20
2.7927040269
 10
10.8121746019
 20
2.7468904598
 10
10.8030786962
 20
2.7042911502
  0
LINE
  5
215
100
AcDbEntity
  8
0
100
AcDbLine
 62
6
  6
CONTINUOUS
 10
11.5897366277
 20
1.7434905746
 11
11.5897366277
 21
13.0489969165
  0
LWPOLYLINE
  5
216
100
AcDbEntity
  8
0
100
AcDbPolyline
 62
6
  6
CONTINUOUS
 90
137
 70
0
 10
12.6461838809
 20
11.5305213072
 10
12.6489277475
 20
11.5378225402
 10
12.6556919989
 20
11.5568812878
 10
12.6618940511
 20
11.5753901594
 10
12.6675880529
 20
11.5933984823
 10
12.6728124939
 20
11.6109228538
 10
12.6776004422
 20
11.627972128
 10
12.6819828849
 20
11.6445566821
 10
12.6859890192
 20
11.6606891092
 10
12.6896492095
 20
11.6763971004
 10
12.6929935702
 20
11.6917209479
 10
12.6960491606
 20
11.7067025204
 10
12.6988400572
 20
11.7213847709
 10
12.701387343
 20
11.7358107194
 10
12.7037065267
 20
11.7500057576
 10
12.7058089216
 20
11.7639782377
 10
12.7077050094
 20
11.7777361735
 10
12.7094045875
 20
11.7912879043
 10
12.7109167877
 20
11.8046420645
 10
12.7122500948
 20
11.8178075559
 10
12.7134123634
 20
11.8307935224
 10
12.7144108347
 20
11.8436093248
 10
12.7152521516
 20
11.8562645195
 10
12.7159423318
 20
11.8687679939
 10
12.7164866469
 20
11.8811232647
 10
12.7168900285
 20
11.8933317523
 10
12.7171572302
 20
11.9053949889
 10
12.717292831
 20
11.9173146183
 10
12.7173012448
 20
11.9290923881
 10
12.7171869311
 20
11.9407301438
 10
12.7169544184
 20
11.9522298221
 10
12.7166080536
 20
11.963593445
 10
12.7161519912
 20
11.974823114
 10
12.715590198
 20
11.9859210045
 10
12.7149264677
 20
11.9968892107
 10
12.7141645521
 20
12.0077281411
 10
12.7133081977
 20
12.0184371374
 10
12.712361095
 20
12.0290155856
 10
12.7113268793
 20
12.0394629329
 10
12.7102091299
 20
12.0497786858
 10
12.7090113718
 20
12.0599624083
 10
12.7077370753
 20
12.0700137201
 10
12.7063896567
 20
12.0799322947
 10
12.704972479
 20
12.0897178574
 10
12.7034888523
 20
12.099370184
 10
12.7019420339
 20
12.1088890986
 10
12.7003352292
 20
12.1182744719
 10
12.6986716119
 20
12.1275261108
 10
12.6969544438
 20
12.1366431623
 10
12.6951870178
 20
12.1456245418
 10
12.6933726112
 20
12.1544692107
 10
12.6915144837
 20
12.1631761764
 10
12.6896158775
 20
12.1717444908
 10
12.6876800158
 20
12.1801732495
 10
12.6857101017
 20
12.1884615897
 10
12.6837093181
 20
12.19660869
 10
12.6816805976
 20
12.2046146558
 10
12.6796259224
 20
12.2124830291
 10
12.6775469081
 20
12.2202181723
 10
12.6754450072
 20
12.2278244435
 10
12.6733215147
 20
12.2353061945
 10
12.6711775721
 20
12.2426677684
 10
12.6690141729
 20
12.2499134979
 10
12.6668321667
 20
12.2570477034
 10
12.6646322633
 20
12.2640746912
 10
12.6624150373
 20
12.2709987518
 10
12.6601810246
 20
12.2778238776
 10
12.6579312612
 20
12.2845522076
 10
12.6556669658
 20
12.2911851419
 10
12.653389306
 20
12.2977240827
 10
12.651099399
 20
12.3041704356
 10
12.6487983122
 20
12.3105256089
 10
12.6464870646
 20
12.316791013
 10
12.6441666278
 20
12.3229680592
 10
12.6418379267
 20
12.3290581598
 10
12.6395018408
 20
12.3350627268
 10
12.6371592051
 20
12.3409831718
 10
12.6348108109
 20
12.3468209055
 10
12.6324572901
 20
12.3525776203
 10
12.6300988771
 20
12.3582558445
 10
12.6277357097
 20
12.3638582626
 10
12.6253678831
 20
12.3693875543
 10
12.6229954242
 20
12.374846383
 10
12.6206182925
 20
12.3802373945
 10
12.6182363817
 20
12.3855632173
 10
12.6158495223
 20
12.390826462
 10
12.6134574824
 20
12.3960297211
 10
12.61105997
 20
12.4011755688
 10
12.6086566345
 20
12.4062665609
 10
12.6062470677
 20
12.4113052343
 10
12.6038308058
 20
12.4162941067
 10
12.6014073658
 20
12.4212356053
 10
12.5989767018
 20
12.4261311596
 10
12.5965390942
 20
12.4309814816
 10
12.5940948139
 20
12.4357872648
 10
12.5916441151
 20
12.4405491995
 10
12.5891872357
 20
12.4452679733
 10
12.586724397
 20
12.4499442709
 10
12.5842558048
 20
12.4545787737
 10
12.581781649
 20
12.4591721599
 10
12.5793021045
 20
12.4637251044
 10
12.5768173309
 20
12.468238279
 10
12.5743274731
 20
12.4727123517
 10
12.5718326615
 20
12.4771479872
 10
12.5693330123
 20
12.4815458466
 10
12.5668286277
 20
12.4859065872
 10
12.5643195961
 20
12.4902308629
 10
12.5618059923
 20
12.4945193235
 10
12.5592878781
 20
12.4987726151
 10
12.556765302
 20
12.5029913797
 10
12.5542382998
 20
12.5071762557
 10
12.5517068947
 20
12.5113278772
 10
12.5491710975
 20
12.5154468743
 10
12.5466309068
 20
12.5195338729
 10
12.5440863092
 20
12.5235894948
 10
12.5415372797
 20
12.5276143575
 10
12.5389837815
 20
12.5316090743
 10
12.5364257963
 20
12.535574208
 10
12.5338634595
 20
12.5395100668
 10
12.5312969557
 20
12.5434168734
 10
12.5287264654
 20
12.54729485
 10
12.526152164
 20
12.5511442183
 10
12.5235742226
 20
12.5549651998
 10
12.5209928078
 20
12.5587580154
 10
12.5184080818
 20
12.5625228858
 10
12.5158202021
 20
12.5662600309
 10
12.5132293223
 20
12.5699696705
 10
12.5106355916
 20
12.5736520235
 10
12.5080391547
 20
12.5773073086
 10
12.5054401525
 20
12.5809357436
 10
12.5028387215
 20
12.584537546
 10
12.5002349944
 20
12.5881129325
 10
12.4976290998
 20
12.5916621193
 10
12.4950211621
 20
12.5951853218
 10
12.4924113022
 20
12.5986827549
 10
12.4897996367
 20
12.6021546328
 10
12.4845713374
 20
12.6090225756
  0
LWPOLYLINE
  5
217
100
AcDbEntity
  8
0
100
AcDbPolyline
 62
6
  6
CONTINUOUS
 90
59
 70
0
 10
10.5198573468
 20
11.5961207351
 10
10.5200233532
 20
11.5954238044
 10
10.5204004839
 20
11.5938041021
 10
10.52098508
 20
11.5912344327
 10
10.5217742197
 20
11.5876855973
 10
10.5227656996
 20
11.5831261602
 10
10.5239580873
 20
11.5775218609
 10
10.5253511856
 20
11.5708329858
 10
10.5269458184
 20
11.5630147929
 10
10.52874363
 20
11.5540179826
 10
10.5307501057
 20
11.5437726586
 10
10.53298029
 20
11.5321562173
 10
10.5354537017
 20
11.5190155247
 10
10.5381930319
 20
11.5041713664
 10
10.5412244813
 20
11.4874143469
 10
10.5445781965
 20
11.4684997398
 10
10.5482780616
 20
11.4472045314
 10
10.5523235642
 20
11.4234389937
 10
10.5567073818
 20
11.3971530251
 10
10.5614211698
 20
11.3683041174
 10
10.566474561
 20
11.3367378639
 10
10.5718888276
 20
11.3022167402
 10
10.5776866616
 20
11.2644785867
 10
10.5838921472
 20
11.223234283
 10
10.59053187
 20
11.1781572384
 10
10.5976359851
 20
11.1288744577
 10
10.6052279058
 20
11.0750387461
 10
10.6132471735
 20
11.0168923349
 10
10.6215623658
 20
10.9552366097
 10
10.6300363152
 20
10.8909934104
 10
10.6386175506
 20
10.8244962323
 10
10.6473204505
 20
10.7555782393
 10
10.6561562958
 20
10.6840835767
 10
10.6651220025
 20
10.6099667465
 10
10.6742065667
 20
10.5332438479
 10
10.6833863848
 20
10.4540395231
 10
10.6926387623
 20
10.3724783419
 10
10.7019464451
 20
10.2886431172
 10
10.7112931705
 20
10.2026115565
 10
10.720667642
 20
10.1144224629
 10
10.7300632003
 20
10.0240744675
 10
10.73947293
 20
9.9315644958
 10
10.7488834501
 20
9.8369505318
 10
10.758277222
 20
9.7403347581
 10
10.7676367401
 20
9.6418240886
 10
10.7769456083
 20
9.5415192905
 10
10.7861984181
 20
9.4394079361
 10
10.7953952651
 20
9.3354109307
 10
10.8045210231
 20
9.2296141167
 10
10.8135512625
 20
9.1222185082
 10
10.8224704035
 20
9.0133311282
 10
10.8312689193
 20
8.9029875773
 10
10.8399374477
 20
8.7912193203
 10
10.8484672101
 20
8.6780497565
 10
10.8568494834
 20
8.5634981151
 10
10.8650734907
 20
8.4476075761
 10
10.8731218282
 20
8.3305166867
 10
10.8809760746
 20
8.2123898491
 10
10.8885753184
 20
8.0940794697
  0
LWPOLYLINE
  5
218
100
AcDbEntity
  8
0
100
AcDbPolyline
 62
6
  6
CONTINUOUS
 90
59
 70
0
 10
12.3763945593
 20
2.7042911502
 10
12.3672986535
 20
2.74689046
 10
12.3580971975
 20
2.7927040271
 10
12.3489108661
 20
2.8413778536
 10
12.3397839718
 20
2.8928813752
 10
12.3307575796
 20
2.947175515
 10
12.3218697421
 20
3.0042114249
 10
12.3131554025
 20
3.0639311369
 10
12.3046464419
 20
3.1262675515
 10
12.2963717868
 20
3.1911440025
 10
12.2883565841
 20
3.2584818328
 10
12.2806221958
 20
3.3282037422
 10
12.2731846725
 20
3.4002535417
 10
12.2660524482
 20
3.4746304889
 10
12.2592340238
 20
3.5513236194
 10
12.2527409583
 20
3.630275403
 10
12.2465839368
 20
3.7114171101
 10
12.2407719937
 20
3.7946780772
 10
12.2353132234
 20
3.8799762206
 10
12.2302153346
 20
3.9672055731
 10
12.2254843253
 20
4.0562537034
 10
12.2211243154
 20
4.1470064682
 10
12.2171359479
 20
4.2393910675
 10
12.2135172944
 20
4.333382053
 10
12.2102659445
 20
4.4289685398
 10
12.2073793281
 20
4.5261547614
 10
12.2048565335
 20
4.6249003724
 10
12.2026980104
 20
4.7250887065
 10
12.2009030807
 20
4.8265937611
 10
12.199469759
 20
4.9292902381
 10
12.1983945999
 20
5.0330859178
 10
12.1976734216
 20
5.1379100295
 10
12.1973017517
 20
5.2436923137
 10
12.1972748632
 20
5.3503677054
 10
12.1975879246
 20
5.4578873035
 10
12.1982361653
 20
5.5662051378
 10
12.1992148878
 20
5.6752747227
 10
12.2005192058
 20
5.7850303268
 10
12.202143738
 20
5.8953849203
 10
12.2040827036
 20
6.0062502442
 10
12.2063299184
 20
6.117536365
 10
12.2088778705
 20
6.2291135042
 10
12.2117172663
 20
6.3408134076
 10
12.2148402257
 20
6.4525540305
 10
12.218241841
 20
6.5643536491
 10
12.2219166204
 20
6.6761890069
 10
12.2258573286
 20
6.7879775181
 10
12.2300564009
 20
6.8996332087
 10
12.2345060339
 20
7.0110698016
 10
12.239198057
 20
7.1221976951
 10
12.2441240265
 20
7.2329267588
 10
12.2492753158
 20
7.3431682441
 10
12.2546439157
 20
7.4528498204
 10
12.2602226478
 20
7.5619155001
 10
12.2660044485
 20
7.6703100072
 10
12.2719809992
 20
7.7779545888
 10
12.2781395364
 20
7.8846971172
 10
12.2844658027
 20
7.9903735775
 10
12.2908979376
 20
8.0940794782
  0
LWPOLYLINE
  5
219
100
AcDbEntity
  8
0
100
AcDbPolyline
 62
6
  6
CONTINUOUS
 90
60
 70
0
 10
12.2908979371
 20
8.0940794697
 10
12.2984701875
 20
8.2119768422
 10
12.3062960283
 20
8.3296972932
 10
12.314314736
 20
8.4463901469
 10
12.3225080868
 20
8.5618926787
 10
12.3308587963
 20
8.676066824
 10
12.3393561225
 20
8.7888688214
 10
12.3479914284
 20
8.9002796748
 10
12.3567560391
 20
9.0102764105
 10
12.3656406973
 20
9.1188280228
 10
12.3746360045
 20
9.2258996916
 10
12.3837269242
 20
9.3313898511
 10
12.3928893488
 20
9.4350998881
 10
12.4021075318
 20
9.5369359715
 10
12.4113813553
 20
9.636974502
 10
12.4207061005
 20
9.7352346036
 10
12.4300657654
 20
9.8316186313
 10
12.4394430321
 20
9.9260205581
 10
12.4488205154
 20
10.0183387068
 10
12.4581844844
 20
10.1085108415
 10
12.4675279409
 20
10.1965387686
 10
12.4768443789
 20
10.2824248099
 10
12.4861231331
 20
10.3661347645
 10
12.4953481947
 20
10.4475921863
 10
12.5045026631
 20
10.5267163635
 10
12.5135646761
 20
10.6033885877
 10
12.5225105641
 20
10.677482203
 10
12.5313278088
 20
10.7489678183
 10
12.5400119888
 20
10.8178800437
 10
12.5485723643
 20
10.8843592623
 10
12.5570242001
 20
10.9485808413
 10
12.565336126
 20
11.010359433
 10
12.5733735216
 20
11.0687804993
 10
12.5809974442
 20
11.1229779321
 10
12.5881289082
 20
11.1725754334
 10
12.5947879934
 20
11.2179007656
 10
12.6010073321
 20
11.2593471014
 10
12.6068159356
 20
11.2972598402
 10
12.6122399557
 20
11.3319431502
 10
12.6173038838
 20
11.363671385
 10
12.6220306754
 20
11.3926925877
 10
12.6264327307
 20
11.4191770751
 10
12.6305046393
 20
11.4431825239
 10
12.6342412368
 20
11.4647683973
 10
12.637641519
 20
11.4840180372
 10
12.6407231682
 20
11.5011173896
 10
12.6435125993
 20
11.5162907365
 10
12.6460339678
 20
11.5297374485
 10
12.6483089375
 20
11.5416327029
 10
12.6503563658
 20
11.5521277416
 10
12.6521918078
 20
11.5613492331
 10
12.6538231211
 20
11.5693797811
 10
12.6552522201
 20
11.5762703146
 10
12.6564802243
 20
11.5820671904
 10
12.657507616
 20
11.5868133495
 10
12.6583341591
 20
11.5905482853
 10
12.6589588647
 20
11.5933082497
 10
12.6593799622
 20
11.5951264807
 10
12.6595948308
 20
11.5960332683
 10
12.6596243455
 20
11.5961555439
  0
LINE
  5
21A
100
AcDbEntity
  8
0
100
AcDbLine
 62
6
  6
CONTINUOUS
 10
8.4757366277
 20
12.2319969165
 11
8.4557366277
 21
12.2519969165
  0
LINE
  5
21B
100
AcDbEntity
  8
0
100
AcDbLine
 62
6
  6
CONTINUOUS
 10
18.5837366277
 20
11.5959969165
 11
18.6037366277
 21
11.6159969165
  0
LINE
  5
21C
100
AcDbEntity
  8
0
100
AcDbLine
 62
6
  6
CONTINUOUS
 10
14.7037366277
 20
11.6160107556
 11
14.7037366277
 21
12.2319830774
  0
LINE
  5
21D
100
AcDbEntity
  8
0
100
AcDbLine
 62
6
  6
CONTINUOUS
 10
14.7237366277
 20
11.5959969165
 11
14.7237366277
 21
12.2519969165
  0
LINE
  5
21E
100
AcDbEntity
  8
0
100
AcDbLine
 62
6
  6
CONTINUOUS
 10
15.1837366277
 20
12.292352592
 11
15.1837366277
 21
11.555641241
  0
LINE
  5
21F
100
AcDbEntity
  8
0
100
AcDbLine
 62
6
  6
CONTINUOUS
 10
15.3461366277
 20
12.292352592
 11
15.3461366277
 21
11.555641241
  0
LINE
  5
220
100
AcDbEntity
  8
0
100
AcDbLine
 62
6
  6
CONTINUOUS
 10
15.5085366277
 20
12.292352592
 11
15.5085366277
 21
11.555641241
  0
LINE
  5
221
100
AcDbEntity
  8
0
100
AcDbLine
 62
6
  6
CONTINUOUS
 10
15.6709366277
 20
12.292352592
 11
15.6709366277
 21
11.555641241
  0
LINE
  5
222
100
AcDbEntity
  8
0
100
AcDbLine
 62
6
  6
CONTINUOUS
 10
15.8333366277
 20
12.292352592
 11
15.8333366277
 21
11.555641241
  0
LINE
  5
223
100
AcDbEntity
  8
0
100
AcDbLine
 62
6
  6
CONTINUOUS
 10
8.4557366277
 20
11.5959969165
 11
7.9957366277
 21
11.5959969165
  0
LINE
  5
224
100
AcDbEntity
  8
0
100
AcDbLine
 62
6
  6
CONTINUOUS
 10
7.1837366277
 20
11.5959969165
 11
4.5957366277
 21
11.5959969165
  0
LINE
  5
225
100
AcDbEntity
  8
0
100
AcDbLine
 62
6
  6
CONTINUOUS
 10
14.7237366277
 20
11.5959969165
 11
15.1837366277
 21
11.5959969165
  0
LINE
  5
226
100
AcDbEntity
  8
0
100
AcDbLine
 62
6
  6
CONTINUOUS
 10
15.9957366277
 20
11.5959969165
 11
18.5837366277
 21
11.5959969165
  0
LINE
  5
227
100
AcDbEntity
  8
0
100
AcDbLine
 62
6
  6
CONTINUOUS
 10
12.3698367365
 20
12.7369655416
 11
12.364741239
 21
12.7418047565
  0
LINE
  5
228
100
AcDbEntity
  8
0
100
AcDbLine
 62
6
  6
CONTINUOUS
 10
12.3749509702
 20
12.7320465418
 11
12.3698367365
 21
12.7369655416
  0
LINE
  5
229
100
AcDbEntity
  8
0
100
AcDbLine
 62
6
  6
CONTINUOUS
 10
12.3800824978
 20
12.7270472584
 11
12.3749509702
 21
12.7320465418
  0
LINE
  5
22A
100
AcDbEntity
  8
0
100
AcDbLine
 62
6
  6
CONTINUOUS
 10
12.3852301838
 20
12.7219668799
 11
12.3800824978
 21
12.7270472584
  0
LINE
  5
22B
100
AcDbEntity
  8
0
100
AcDbLine
 62
6
  6
CONTINUOUS
 10
12.390392899
 20
12.7168045726
 11
12.3852301838
 21
12.7219668799
  0
LINE
  5
22C
100
AcDbEntity
  8
0
100
AcDbLine
 62
6
  6
CONTINUOUS
 10
12.3955695387
 20
12.7115595511
 11
12.390392899
 21
12.7168045726
  0
LINE
  5
22D
100
AcDbEntity
  8
0
100
AcDbLine
 62
6
  6
CONTINUOUS
 10
12.40075901
 20
12.7062310665
 11
12.3955695387
 21
12.7115595511
  0
LINE
  5
22E
100
AcDbEntity
  8
0
100
AcDbLine
 62
6
  6
CONTINUOUS
 10
12.4059601995
 20
12.7008183755
 11
12.40075901
 21
12.7062310665
  0
LINE
  5
22F
100
AcDbEntity
  8
0
100
AcDbLine
 62
6
  6
CONTINUOUS
 10
12.4111719731
 20
12.6953207399
 11
12.4059601995
 21
12.7008183755
  0
LINE
  5
230
100
AcDbEntity
  8
0
100
AcDbLine
 62
6
  6
CONTINUOUS
 10
12.4163931753
 20
12.6897374268
 11
12.4111719731
 21
12.6953207399
  0
LINE
  5
231
100
AcDbEntity
  8
0
100
AcDbLine
 62
6
  6
CONTINUOUS
 10
12.421622629
 20
12.6840677096
 11
12.4163931753
 21
12.6897374268
  0
LINE
  5
232
100
AcDbEntity
  8
0
100
AcDbLine
 62
6
  6
CONTINUOUS
 10
12.4268591352
 20
12.6783108678
 11
12.421622629
 21
12.6840677096
  0
LINE
  5
233
100
AcDbEntity
  8
0
100
AcDbLine
 62
6
  6
CONTINUOUS
 10
12.4321014727
 20
12.6724661874
 11
12.4268591352
 21
12.6783108678
  0
LINE
  5
234
100
AcDbEntity
  8
0
100
AcDbLine
 62
6
  6
CONTINUOUS
 10
12.4373483978
 20
12.6665329618
 11
12.4321014727
 21
12.6724661874
  0
LINE
  5
235
100
AcDbEntity
  8
0
100
AcDbLine
 62
6
  6
CONTINUOUS
 10
12.4425986442
 20
12.6605104915
 11
12.4373483978
 21
12.6665329618
  0
LINE
  5
236
100
AcDbEntity
  8
0
100
AcDbLine
 62
6
  6
CONTINUOUS
 10
12.4478509223
 20
12.654398085
 11
12.4425986442
 21
12.6605104915
  0
LINE
  5
237
100
AcDbEntity
  8
0
100
AcDbLine
 62
6
  6
CONTINUOUS
 10
12.4531039193
 20
12.6481950589
 11
12.4478509223
 21
12.654398085
  0
LINE
  5
238
100
AcDbEntity
  8
0
100
AcDbLine
 62
6
  6
CONTINUOUS
 10
12.4583562985
 20
12.6419007386
 11
12.4531039193
 21
12.6481950589
  0
LINE
  5
239
100
AcDbEntity
  8
0
100
AcDbLine
 62
6
  6
CONTINUOUS
 10
12.4636067074
 20
12.6355144485
 11
12.4583562985
 21
12.6419007386
  0
LINE
  5
23A
100
AcDbEntity
  8
0
100
AcDbLine
 62
6
  6
CONTINUOUS
 10
12.4688540934
 20
12.6290351184
 11
12.4636067074
 21
12.6355144485
  0
LINE
  5
23B
100
AcDbEntity
  8
0
100
AcDbLine
 62
6
  6
CONTINUOUS
 10
12.4740977943
 20
12.6224611386
 11
12.4688540934
 21
12.6290351184
  0
LINE
  5
23C
100
AcDbEntity
  8
0
100
AcDbLine
 62
6
  6
CONTINUOUS
 10
12.4793371232
 20
12.6157908488
 11
12.4740977943
 21
12.6224611386
  0
LINE
  5
23D
100
AcDbEntity
  8
0
100
AcDbLine
 62
6
  6
CONTINUOUS
 10
12.4845713374
 20
12.6090225756
 11
12.4793371232
 21
12.6157908488
  0
LINE
  5
23E
100
AcDbEntity
  8
0
100
AcDbLine
 62
6
  6
CONTINUOUS
 10
15.9957366277
 20
12.292352592
 11
15.9957366277
 21
11.555641241
  0
LINE
  5
23F
100
AcDbEntity
  8
0
100
AcDbLine
 62
6
  6
CONTINUOUS
 10
8.4557366277
 20
12.2519969165
 11
7.9957366277
 21
12.2519969165
  0
LINE
  5
240
100
AcDbEntity
  8
0
100
AcDbLine
 62
6
  6
CONTINUOUS
 10
7.1837366277
 20
12.2519969165
 11
4.5957366277
 21
12.2519969165
  0
LINE
  5
241
100
AcDbEntity
  8
0
100
AcDbLine
 62
6
  6
CONTINUOUS
 10
14.7237366277
 20
12.2519969165
 11
15.1837366277
 21
12.2519969165
  0
LINE
  5
242
100
AcDbEntity
  8
0
100
AcDbLine
 62
6
  6
CONTINUOUS
 10
15.9957366277
 20
12.2519969165
 11
18.5837366277
 21
12.2519969165
  0
LINE
  5
243
100
AcDbEntity
  8
0
100
AcDbLine
 62
6
  6
CONTINUOUS
 10
12.1616244188
 20
12.894131206
 11
12.1554818907
 21
12.8977124292
  0
LINE
  5
244
100
AcDbEntity
  8
0
100
AcDbLine
 62
6
  6
CONTINUOUS
 10
12.1677951045
 20
12.8904811796
 11
12.1616244188
 21
12.894131206
  0
LINE
  5
245
100
AcDbEntity
  8
0
100
AcDbLine
 62
6
  6
CONTINUOUS
 10
12.1739949548
 20
12.8867604433
 11
12.1677951045
 21
12.8904811796
  0
LINE
  5
246
100
AcDbEntity
  8
0
100
AcDbLine
 62
6
  6
CONTINUOUS
 10
12.1802249317
 20
12.8829670436
 11
12.1739949548
 21
12.8867604433
  0
LINE
  5
247
100
AcDbEntity
  8
0
100
AcDbLine
 62
6
  6
CONTINUOUS
 10
12.1864859503
 20
12.8790989797
 11
12.1802249317
 21
12.8829670436
  0
LINE
  5
248
100
AcDbEntity
  8
0
100
AcDbLine
 62
6
  6
CONTINUOUS
 10
12.1906776381
 20
12.8764777808
 11
12.1864859503
 21
12.8790989797
  0
LINE
  5
249
100
AcDbEntity
  8
0
100
AcDbLine
 62
6
  6
CONTINUOUS
 10
12.1948837528
 20
12.8738218698
 11
12.1906776381
 21
12.8764777808
  0
LINE
  5
24A
100
AcDbEntity
  8
0
100
AcDbLine
 62
6
  6
CONTINUOUS
 10
12.1991045288
 20
12.8711306182
 11
12.1948837528
 21
12.8738218698
  0
LINE
  5
24B
100
AcDbEntity
  8
0
100
AcDbLine
 62
6
  6
CONTINUOUS
 10
12.2033401901
 20
12.8684033884
 11
12.1991045288
 21
12.8711306182
  0
LINE
  5
24C
100
AcDbEntity
  8
0
100
AcDbLine
 62
6
  6
CONTINUOUS
 10
12.2075909498
 20
12.865639533
 11
12.2033401901
 21
12.8684033884
  0
LINE
  5
24D
100
AcDbEntity
  8
0
100
AcDbLine
 62
6
  6
CONTINUOUS
 10
12.2118570104
 20
12.8628383947
 11
12.2075909498
 21
12.865639533
  0
LINE
  5
24E
100
AcDbEntity
  8
0
100
AcDbLine
 62
6
  6
CONTINUOUS
 10
12.2161385631
 20
12.859999307
 11
12.2118570104
 21
12.8628383947
  0
LINE
  5
24F
100
AcDbEntity
  8
0
100
AcDbLine
 62
6
  6
CONTINUOUS
 10
12.2204357878
 20
12.8571215931
 11
12.2161385631
 21
12.859999307
  0
LINE
  5
250
100
AcDbEntity
  8
0
100
AcDbLine
 62
6
  6
CONTINUOUS
 10
12.2247488526
 20
12.8542045668
 11
12.2204357878
 21
12.8571215931
  0
LINE
  5
251
100
AcDbEntity
  8
0
100
AcDbLine
 62
6
  6
CONTINUOUS
 10
12.2290779137
 20
12.8512475317
 11
12.2247488526
 21
12.8542045668
  0
LINE
  5
252
100
AcDbEntity
  8
0
100
AcDbLine
 62
6
  6
CONTINUOUS
 10
12.2334231149
 20
12.8482497819
 11
12.2290779137
 21
12.8512475317
  0
LINE
  5
253
100
AcDbEntity
  8
0
100
AcDbLine
 62
6
  6
CONTINUOUS
 10
12.2377845877
 20
12.8452106011
 11
12.2334231149
 21
12.8482497819
  0
LINE
  5
254
100
AcDbEntity
  8
0
100
AcDbLine
 62
6
  6
CONTINUOUS
 10
12.2421624505
 20
12.8421292634
 11
12.2377845877
 21
12.8452106011
  0
LINE
  5
255
100
AcDbEntity
  8
0
100
AcDbLine
 62
6
  6
CONTINUOUS
 10
12.2465568088
 20
12.8390050325
 11
12.2421624505
 21
12.8421292634
  0
LINE
  5
256
100
AcDbEntity
  8
0
100
AcDbLine
 62
6
  6
CONTINUOUS
 10
12.2509677544
 20
12.8358371622
 11
12.2465568088
 21
12.8390050325
  0
LINE
  5
257
100
AcDbEntity
  8
0
100
AcDbLine
 62
6
  6
CONTINUOUS
 10
12.2553954797
 20
12.8326248126
 11
12.2509677544
 21
12.8358371622
  0
LINE
  5
258
100
AcDbEntity
  8
0
100
AcDbLine
 62
6
  6
CONTINUOUS
 10
12.2598411886
 20
12.8293663751
 11
12.2553954797
 21
12.8326248126
  0
LINE
  5
259
100
AcDbEntity
  8
0
100
AcDbLine
 62
6
  6
CONTINUOUS
 10
12.2643065951
 20
12.8260598051
 11
12.2598411886
 21
12.8293663751
  0
LINE
  5
25A
100
AcDbEntity
  8
0
100
AcDbLine
 62
6
  6
CONTINUOUS
 10
12.2687933781
 20
12.8227030109
 11
12.2643065951
 21
12.8260598051
  0
LINE
  5
25B
100
AcDbEntity
  8
0
100
AcDbLine
 62
6
  6
CONTINUOUS
 10
12.2733031753
 20
12.8192938567
 11
12.2687933781
 21
12.8227030109
  0
LINE
  5
25C
100
AcDbEntity
  8
0
100
AcDbLine
 62
6
  6
CONTINUOUS
 10
12.2778375813
 20
12.8158301619
 11
12.2733031753
 21
12.8192938567
  0
LINE
  5
25D
100
AcDbEntity
  8
0
100
AcDbLine
 62
6
  6
CONTINUOUS
 10
12.2823981462
 20
12.8123097009
 11
12.2778375813
 21
12.8158301619
  0
LINE
  5
25E
100
AcDbEntity
  8
0
100
AcDbLine
 62
6
  6
CONTINUOUS
 10
12.2869863747
 20
12.8087302025
 11
12.2823981462
 21
12.8123097009
  0
LINE
  5
25F
100
AcDbEntity
  8
0
100
AcDbLine
 62
6
  6
CONTINUOUS
 10
12.2916037234
 20
12.805089349
 11
12.2869863747
 21
12.8087302025
  0
LINE
  5
260
100
AcDbEntity
  8
0
100
AcDbLine
 62
6
  6
CONTINUOUS
 10
12.2962516002
 20
12.8013847761
 11
12.2916037234
 21
12.805089349
  0
LINE
  5
261
100
AcDbEntity
  8
0
100
AcDbLine
 62
6
  6
CONTINUOUS
 10
12.3009313617
 20
12.797614072
 11
12.2962516002
 21
12.8013847761
  0
LINE
  5
262
100
AcDbEntity
  8
0
100
AcDbLine
 62
6
  6
CONTINUOUS
 10
12.3056443119
 20
12.7937747766
 11
12.3009313617
 21
12.797614072
  0
LINE
  5
263
100
AcDbEntity
  8
0
100
AcDbLine
 62
6
  6
CONTINUOUS
 10
12.3103916998
 20
12.7898643812
 11
12.3056443119
 21
12.7937747766
  0
LINE
  5
264
100
AcDbEntity
  8
0
100
AcDbLine
 62
6
  6
CONTINUOUS
 10
12.3151747154
 20
12.7858803294
 11
12.3103916998
 21
12.7898643812
  0
LINE
  5
265
100
AcDbEntity
  8
0
100
AcDbLine
 62
6
  6
CONTINUOUS
 10
12.3199937907
 20
12.7818206071
 11
12.3151747154
 21
12.7858803294
  0
LINE
  5
266
100
AcDbEntity
  8
0
100
AcDbLine
 62
6
  6
CONTINUOUS
 10
12.3248476344
 20
12.7776846007
 11
12.3199937907
 21
12.7818206071
  0
LINE
  5
267
100
AcDbEntity
  8
0
100
AcDbLine
 62
6
  6
CONTINUOUS
 10
12.3297346931
 20
12.7734719134
 11
12.3248476344
 21
12.7776846007
  0
LINE
  5
268
100
AcDbEntity
  8
0
100
AcDbLine
 62
6
  6
CONTINUOUS
 10
12.3346534017
 20
12.7691821575
 11
12.3297346931
 21
12.7734719134
  0
LINE
  5
269
100
AcDbEntity
  8
0
100
AcDbLine
 62
6
  6
CONTINUOUS
 10
12.3396021837
 20
12.764814955
 11
12.3346534017
 21
12.7691821575
  0
LINE
  5
26A
100
AcDbEntity
  8
0
100
AcDbLine
 62
6
  6
CONTINUOUS
 10
12.3445794514
 20
12.7603699382
 11
12.3396021837
 21
12.764814955
  0
LINE
  5
26B
100
AcDbEntity
  8
0
100
AcDbLine
 62
6
  6
CONTINUOUS
 10
12.3495836059
 20
12.75584675
 11
12.3445794514
 21
12.7603699382
  0
LINE
  5
26C
100
AcDbEntity
  8
0
100
AcDbLine
 62
6
  6
CONTINUOUS
 10
12.3546130374
 20
12.7512450446
 11
12.3495836059
 21
12.75584675
  0
LINE
  5
26D
100
AcDbEntity
  8
0
100
AcDbLine
 62
6
  6
CONTINUOUS
 10
12.3596661255
 20
12.7465644875
 11
12.3546130374
 21
12.7512450446
  0
LINE
  5
26E
100
AcDbEntity
  8
0
100
AcDbLine
 62
6
  6
CONTINUOUS
 10
12.364741239
 20
12.7418047565
 11
12.3596661255
 21
12.7465644875
  0
LWPOLYLINE
  5
26F
100
AcDbEntity
  8
0
100
AcDbPolyline
 62
6
  6
CONTINUOUS
 90
57
 70
0
 10
11.5897366277
 20
13.0489969165
 10
11.5512266412
 20
13.0484008842
 10
11.5125709755
 20
13.0464673147
 10
11.4738611735
 20
13.0431900011
 10
11.4351884969
 20
13.0385690781
 10
11.3966440665
 20
13.0326109289
 10
11.3583187147
 20
13.0253281521
 10
11.3203023842
 20
13.016739481
 10
11.2826813408
 20
13.0068690556
 10
11.2455066004
 20
12.9957360063
 10
11.2088024181
 20
12.9833511327
 10
11.1725927202
 20
12.9697222774
 10
11.1368958722
 20
12.954852548
 10
11.1017128053
 20
12.938743226
 10
11.0670419571
 20
12.9213958052
 10
11.0328924259
 20
12.9028107298
 10
10.9993296922
 20
12.8830169437
 10
10.9664389833
 20
12.8620605395
 10
10.9342877056
 20
12.8399833319
 10
10.9029371337
 20
12.8168280193
 10
10.8724668153
 20
12.7926572456
 10
10.8429527374
 20
12.7675405441
 10
10.8143982021
 20
12.7414895955
 10
10.7867787135
 20
12.7144811074
 10
10.7600950631
 20
12.6865107198
 10
10.7343562393
 20
12.6575907673
 10
10.7095738446
 20
12.6277326131
 10
10.6857779478
 20
12.5969655977
 10
10.6630217015
 20
12.5653512507
 10
10.6413564931
 20
12.5329571093
 10
10.6208292019
 20
12.4998533136
 10
10.6014814862
 20
12.4661111884
 10
10.5833504604
 20
12.4318040255
 10
10.5664668779
 20
12.3970031692
 10
10.5508335428
 20
12.3617252135
 10
10.5364387757
 20
12.3259422197
 10
10.5232706212
 20
12.2896281569
 10
10.5113236219
 20
12.2527604179
 10
10.5006177636
 20
12.2153750815
 10
10.4911873636
 20
12.1775668015
 10
10.4830599326
 20
12.1394339605
 10
10.4762552943
 20
12.1010748643
 10
10.4707828915
 20
12.0625637382
 10
10.4666459703
 20
12.0239488357
 10
10.4638474277
 20
11.9852767962
 10
10.4623898758
 20
11.9465855837
 10
10.4622770872
 20
11.9078889495
 10
10.4635097718
 20
11.8691961535
 10
10.4660839029
 20
11.8305188905
 10
10.4699968908
 20
11.7918910656
 10
10.4752458615
 20
11.7533591769
 10
10.4818277428
 20
11.7149706298
 10
10.4897348302
 20
11.6767930416
 10
10.4989487649
 20
11.6389234241
 10
10.5094433278
 20
11.6014602661
 10
10.5211848784
 20
11.5645002678
 10
10.5332920022
 20
11.5305001587
  0
LINE
  5
270
100
AcDbEntity
  8
0
100
AcDbLine
 62
7
  6
CONTINUOUS
 10
11.5522780728
 20
13.0489969165
 11
11.4992430014
 21
13.0489969165
  0
LINE
  5
271
100
AcDbEntity
  8
0
100
AcDbLine
 62
6
  6
CONTINUOUS
 10
11.7147366277
 20
13.0489969165
 11
11.5522780728
 21
13.0489969165
  0
LINE
  5
272
100
AcDbEntity
  8
0
100
AcDbLine
 62
6
  6
CONTINUOUS
 10
11.5992837955
 20
13.048973139
 11
11.5943158317
 21
13.0489957275
  0
LINE
  5
273
100
AcDbEntity
  8
0
100
AcDbLine
 62
6
  6
CONTINUOUS
 10
11.6048082615
 20
13.0489220099
 11
11.5992837955
 21
13.048973139
  0
LINE
  5
274
100
AcDbEntity
  8
0
100
AcDbLine
 62
6
  6
CONTINUOUS
 10
11.6098863118
 20
13.0488508698
 11
11.6048082615
 21
13.0489220099
  0
LINE
  5
275
100
AcDbEntity
  8
0
100
AcDbLine
 62
6
  6
CONTINUOUS
 10
11.6152246977
 20
13.048751163
 11
11.6098863118
 21
13.0488508698
  0
LINE
  5
276
100
AcDbEntity
  8
0
100
AcDbLine
 62
6
  6
CONTINUOUS
 10
11.6207918399
 20
13.0486199907
 11
11.6152246977
 21
13.048751163
  0
LINE
  5
277
100
AcDbEntity
  8
0
100
AcDbLine
 62
6
  6
CONTINUOUS
 10
11.6265668263
 20
13.0484545973
 11
11.6207918399
 21
13.0486199907
  0
LINE
  5
278
100
AcDbEntity
  8
0
100
AcDbLine
 62
6
  6
CONTINUOUS
 10
11.631523038
 20
13.0482888509
 11
11.6265668263
 21
13.0484545973
  0
LINE
  5
279
100
AcDbEntity
  8
0
100
AcDbLine
 62
6
  6
CONTINUOUS
 10
11.6365973113
 20
13.0480963843
 11
11.631523038
 21
13.0482888509
  0
LINE
  5
27A
100
AcDbEntity
  8
0
100
AcDbLine
 62
6
  6
CONTINUOUS
 10
11.6417814216
 20
13.0478759621
 11
11.6365973113
 21
13.0480963843
  0
LINE
  5
27B
100
AcDbEntity
  8
0
100
AcDbLine
 62
6
  6
CONTINUOUS
 10
11.6470695406
 20
13.0476263472
 11
11.6417814216
 21
13.0478759621
  0
LINE
  5
27C
100
AcDbEntity
  8
0
100
AcDbLine
 62
6
  6
CONTINUOUS
 10
11.6524558747
 20
13.0473463791
 11
11.6470695406
 21
13.0476263472
  0
LINE
  5
27D
100
AcDbEntity
  8
0
100
AcDbLine
 62
6
  6
CONTINUOUS
 10
11.657934621
 20
13.0470349797
 11
11.6524558747
 21
13.0473463791
  0
LINE
  5
27E
100
AcDbEntity
  8
0
100
AcDbLine
 62
6
  6
CONTINUOUS
 10
11.663499968
 20
13.0466911591
 11
11.657934621
 21
13.0470349797
  0
LINE
  5
27F
100
AcDbEntity
  8
0
100
AcDbLine
 62
6
  6
CONTINUOUS
 10
11.6691460967
 20
13.0463140192
 11
11.663499968
 21
13.0466911591
  0
LINE
  5
280
100
AcDbEntity
  8
0
100
AcDbLine
 62
6
  6
CONTINUOUS
 10
11.674867182
 20
13.0459027579
 11
11.6691460967
 21
13.0463140192
  0
LINE
  5
281
100
AcDbEntity
  8
0
100
AcDbLine
 62
6
  6
CONTINUOUS
 10
11.6806575372
 20
13.045456662
 11
11.674867182
 21
13.0459027579
  0
LINE
  5
282
100
AcDbEntity
  8
0
100
AcDbLine
 62
6
  6
CONTINUOUS
 10
11.6865141861
 20
13.0449748881
 11
11.6806575372
 21
13.045456662
  0
LINE
  5
283
100
AcDbEntity
  8
0
100
AcDbLine
 62
6
  6
CONTINUOUS
 10
11.6924365696
 20
13.0444564204
 11
11.6865141861
 21
13.0449748881
  0
LINE
  5
284
100
AcDbEntity
  8
0
100
AcDbLine
 62
6
  6
CONTINUOUS
 10
11.6984242017
 20
13.0439002317
 11
11.6924365696
 21
13.0444564204
  0
LINE
  5
285
100
AcDbEntity
  8
0
100
AcDbLine
 62
6
  6
CONTINUOUS
 10
11.7044765848
 20
13.0433052889
 11
11.6984242017
 21
13.0439002317
  0
LINE
  5
286
100
AcDbEntity
  8
0
100
AcDbLine
 62
6
  6
CONTINUOUS
 10
11.7105932089
 20
13.0426705543
 11
11.7044765848
 21
13.0433052889
  0
LINE
  5
287
100
AcDbEntity
  8
0
100
AcDbLine
 62
6
  6
CONTINUOUS
 10
11.7155324109
 20
13.0421334158
 11
11.7105932089
 21
13.0426705543
  0
LINE
  5
288
100
AcDbEntity
  8
0
100
AcDbLine
 62
6
  6
CONTINUOUS
 10
11.7205121197
 20
13.041569607
 11
11.7155324109
 21
13.0421334158
  0
LINE
  5
289
100
AcDbEntity
  8
0
100
AcDbLine
 62
6
  6
CONTINUOUS
 10
11.7255320566
 20
13.0409785899
 11
11.7205121197
 21
13.041569607
  0
LINE
  5
28A
100
AcDbEntity
  8
0
100
AcDbLine
 62
6
  6
CONTINUOUS
 10
11.7305919376
 20
13.0403598246
 11
11.7255320566
 21
13.0409785899
  0
LINE
  5
28B
100
AcDbEntity
  8
0
100
AcDbLine
 62
6
  6
CONTINUOUS
 10
11.7356914731
 20
13.0397127695
 11
11.7305919376
 21
13.0403598246
  0
LINE
  5
28C
100
AcDbEntity
  8
0
100
AcDbLine
 62
6
  6
CONTINUOUS
 10
11.7408303682
 20
13.0390368812
 11
11.7356914731
 21
13.0397127695
  0
LINE
  5
28D
100
AcDbEntity
  8
0
100
AcDbLine
 62
6
  6
CONTINUOUS
 10
11.7460083222
 20
13.038331615
 11
11.7408303682
 21
13.0390368812
  0
LINE
  5
28E
100
AcDbEntity
  8
0
100
AcDbLine
 62
6
  6
CONTINUOUS
 10
11.7512250288
 20
13.0375964241
 11
11.7460083222
 21
13.038331615
  0
LINE
  5
28F
100
AcDbEntity
  8
0
100
AcDbLine
 62
6
  6
CONTINUOUS
 10
11.7564801759
 20
13.0368307605
 11
11.7512250288
 21
13.0375964241
  0
LINE
  5
290
100
AcDbEntity
  8
0
100
AcDbLine
 62
6
  6
CONTINUOUS
 10
11.7617734456
 20
13.0360340747
 11
11.7564801759
 21
13.0368307605
  0
LINE
  5
291
100
AcDbEntity
  8
0
100
AcDbLine
 62
6
  6
CONTINUOUS
 10
11.7671045212
 20
13.0352058145
 11
11.7617734456
 21
13.0360340747
  0
LINE
  5
292
100
AcDbEntity
  8
0
100
AcDbLine
 62
6
  6
CONTINUOUS
 10
11.7724736133
 20
13.0343453398
 11
11.7671045212
 21
13.0352058145
  0
LINE
  5
293
100
AcDbEntity
  8
0
100
AcDbLine
 62
6
  6
CONTINUOUS
 10
11.7778818077
 20
13.0334518503
 11
11.7724736133
 21
13.0343453398
  0
LINE
  5
294
100
AcDbEntity
  8
0
100
AcDbLine
 62
6
  6
CONTINUOUS
 10
11.7833302626
 20
13.0325245023
 11
11.7778818077
 21
13.0334518503
  0
LINE
  5
295
100
AcDbEntity
  8
0
100
AcDbLine
 62
6
  6
CONTINUOUS
 10
11.7888201243
 20
13.0315624212
 11
11.7833302626
 21
13.0325245023
  0
LINE
  5
296
100
AcDbEntity
  8
0
100
AcDbLine
 62
6
  6
CONTINUOUS
 10
11.7943525271
 20
13.0305647006
 11
11.7888201243
 21
13.0315624212
  0
LINE
  5
297
100
AcDbEntity
  8
0
100
AcDbLine
 62
6
  6
CONTINUOUS
 10
11.7999285921
 20
13.0295304019
 11
11.7943525271
 21
13.0305647006
  0
LINE
  5
298
100
AcDbEntity
  8
0
100
AcDbLine
 62
6
  6
CONTINUOUS
 10
11.8055494272
 20
13.028458554
 11
11.7999285921
 21
13.0295304019
  0
LINE
  5
299
100
AcDbEntity
  8
0
100
AcDbLine
 62
6
  6
CONTINUOUS
 10
11.8112161259
 20
13.0273481527
 11
11.8055494272
 21
13.028458554
  0
LINE
  5
29A
100
AcDbEntity
  8
0
100
AcDbLine
 62
6
  6
CONTINUOUS
 10
11.8169297673
 20
13.02619816
 11
11.8112161259
 21
13.0273481527
  0
LINE
  5
29B
100
AcDbEntity
  8
0
100
AcDbLine
 62
6
  6
CONTINUOUS
 10
11.8226914149
 20
13.0250075039
 11
11.8169297673
 21
13.02619816
  0
LINE
  5
29C
100
AcDbEntity
  8
0
100
AcDbLine
 62
6
  6
CONTINUOUS
 10
11.828502116
 20
13.0237750773
 11
11.8226914149
 21
13.0250075039
  0
LINE
  5
29D
100
AcDbEntity
  8
0
100
AcDbLine
 62
6
  6
CONTINUOUS
 10
11.8343629012
 20
13.022499738
 11
11.828502116
 21
13.0237750773
  0
LINE
  5
29E
100
AcDbEntity
  8
0
100
AcDbLine
 62
6
  6
CONTINUOUS
 10
11.8402747834
 20
13.0211803079
 11
11.8343629012
 21
13.022499738
  0
LINE
  5
29F
100
AcDbEntity
  8
0
100
AcDbLine
 62
6
  6
CONTINUOUS
 10
11.8462387571
 20
13.0198155723
 11
11.8402747834
 21
13.0211803079
  0
LINE
  5
2A0
100
AcDbEntity
  8
0
100
AcDbLine
 62
6
  6
CONTINUOUS
 10
11.8522557979
 20
13.0184042792
 11
11.8462387571
 21
13.0198155723
  0
LINE
  5
2A1
100
AcDbEntity
  8
0
100
AcDbLine
 62
6
  6
CONTINUOUS
 10
11.8583267004
 20
13.0169451783
 11
11.8522557979
 21
13.0184042792
  0
LINE
  5
2A2
100
AcDbEntity
  8
0
100
AcDbLine
 62
6
  6
CONTINUOUS
 10
11.8644515639
 20
13.0154371523
 11
11.8583267004
 21
13.0169451783
  0
LINE
  5
2A3
100
AcDbEntity
  8
0
100
AcDbLine
 62
6
  6
CONTINUOUS
 10
11.8706302927
 20
13.0138791096
 11
11.8644515639
 21
13.0154371523
  0
LINE
  5
2A4
100
AcDbEntity
  8
0
100
AcDbLine
 62
6
  6
CONTINUOUS
 10
11.8768627745
 20
13.0122699421
 11
11.8706302927
 21
13.0138791096
  0
LINE
  5
2A5
100
AcDbEntity
  8
0
100
AcDbLine
 62
6
  6
CONTINUOUS
 10
11.8831488797
 20
13.0106085251
 11
11.8768627745
 21
13.0122699421
  0
LINE
  5
2A6
100
AcDbEntity
  8
0
100
AcDbLine
 62
6
  6
CONTINUOUS
 10
11.8894884613
 20
13.0088937175
 11
11.8831488797
 21
13.0106085251
  0
LINE
  5
2A7
100
AcDbEntity
  8
0
100
AcDbLine
 62
6
  6
CONTINUOUS
 10
11.8942781428
 20
13.0075718785
 11
11.8894884613
 21
13.0088937175
  0
LINE
  5
2A8
100
AcDbEntity
  8
0
100
AcDbLine
 62
6
  6
CONTINUOUS
 10
11.8990977356
 20
13.0062188617
 11
11.8942781428
 21
13.0075718785
  0
LINE
  5
2A9
100
AcDbEntity
  8
0
100
AcDbLine
 62
6
  6
CONTINUOUS
 10
11.9039471574
 20
13.0048341672
 11
11.8990977356
 21
13.0062188617
  0
LINE
  5
2AA
100
AcDbEntity
  8
0
100
AcDbLine
 62
6
  6
CONTINUOUS
 10
11.9088263193
 20
13.0034172896
 11
11.9039471574
 21
13.0048341672
  0
LINE
  5
2AB
100
AcDbEntity
  8
0
100
AcDbLine
 62
6
  6
CONTINUOUS
 10
11.9137351265
 20
13.0019677182
 11
11.9088263193
 21
13.0034172896
  0
LINE
  5
2AC
100
AcDbEntity
  8
0
100
AcDbLine
 62
6
  6
CONTINUOUS
 10
11.9186734777
 20
13.0004849369
 11
11.9137351265
 21
13.0019677182
  0
LINE
  5
2AD
100
AcDbEntity
  8
0
100
AcDbLine
 62
6
  6
CONTINUOUS
 10
11.9236412649
 20
12.9989684238
 11
11.9186734777
 21
13.0004849369
  0
LINE
  5
2AE
100
AcDbEntity
  8
0
100
AcDbLine
 62
6
  6
CONTINUOUS
 10
11.9286383738
 20
12.997417652
 11
11.9236412649
 21
12.9989684238
  0
LINE
  5
2AF
100
AcDbEntity
  8
0
100
AcDbLine
 62
6
  6
CONTINUOUS
 10
11.933664683
 20
12.9958320888
 11
11.9286383738
 21
12.997417652
  0
LINE
  5
2B0
100
AcDbEntity
  8
0
100
AcDbLine
 62
6
  6
CONTINUOUS
 10
11.9387200645
 20
12.9942111958
 11
11.933664683
 21
12.9958320888
  0
LINE
  5
2B1
100
AcDbEntity
  8
0
100
AcDbLine
 62
6
  6
CONTINUOUS
 10
11.9438044126
 20
12.9925544198
 11
11.9387200645
 21
12.9942111958
  0
LINE
  5
2B2
100
AcDbEntity
  8
0
100
AcDbLine
 62
6
  6
CONTINUOUS
 10
11.9489176649
 20
12.9908611841
 11
11.9438044126
 21
12.9925544198
  0
LINE
  5
2B3
100
AcDbEntity
  8
0
100
AcDbLine
 62
6
  6
CONTINUOUS
 10
11.9540597563
 20
12.9891309032
 11
11.9489176649
 21
12.9908611841
  0
LINE
  5
2B4
100
AcDbEntity
  8
0
100
AcDbLine
 62
6
  6
CONTINUOUS
 10
11.9592306132
 20
12.9873629845
 11
11.9540597563
 21
12.9891309032
  0
LINE
  5
2B5
100
AcDbEntity
  8
0
100
AcDbLine
 62
6
  6
CONTINUOUS
 10
11.9644301536
 20
12.985556828
 11
11.9592306132
 21
12.9873629845
  0
LINE
  5
2B6
100
AcDbEntity
  8
0
100
AcDbLine
 62
6
  6
CONTINUOUS
 10
11.9696582868
 20
12.9837118264
 11
11.9644301536
 21
12.985556828
  0
LINE
  5
2B7
100
AcDbEntity
  8
0
100
AcDbLine
 62
6
  6
CONTINUOUS
 10
11.9749149135
 20
12.9818273648
 11
11.9696582868
 21
12.9837118264
  0
LINE
  5
2B8
100
AcDbEntity
  8
0
100
AcDbLine
 62
6
  6
CONTINUOUS
 10
11.9801999253
 20
12.979902821
 11
11.9749149135
 21
12.9818273648
  0
LINE
  5
2B9
100
AcDbEntity
  8
0
100
AcDbLine
 62
6
  6
CONTINUOUS
 10
11.9855132043
 20
12.9779375654
 11
11.9801999253
 21
12.979902821
  0
LINE
  5
2BA
100
AcDbEntity
  8
0
100
AcDbLine
 62
6
  6
CONTINUOUS
 10
11.9908546237
 20
12.9759309607
 11
11.9855132043
 21
12.9779375654
  0
LINE
  5
2BB
100
AcDbEntity
  8
0
100
AcDbLine
 62
6
  6
CONTINUOUS
 10
11.9962240466
 20
12.9738823621
 11
11.9908546237
 21
12.9759309607
  0
LINE
  5
2BC
100
AcDbEntity
  8
0
100
AcDbLine
 62
6
  6
CONTINUOUS
 10
12.0016213267
 20
12.9717911172
 11
11.9962240466
 21
12.9738823621
  0
LINE
  5
2BD
100
AcDbEntity
  8
0
100
AcDbLine
 62
6
  6
CONTINUOUS
 10
12.0070463072
 20
12.9696565657
 11
12.0016213267
 21
12.9717911172
  0
LINE
  5
2BE
100
AcDbEntity
  8
0
100
AcDbLine
 62
6
  6
CONTINUOUS
 10
12.0124988215
 20
12.9674780399
 11
12.0070463072
 21
12.9696565657
  0
LINE
  5
2BF
100
AcDbEntity
  8
0
100
AcDbLine
 62
6
  6
CONTINUOUS
 10
12.0179786922
 20
12.9652548641
 11
12.0124988215
 21
12.9674780399
  0
LINE
  5
2C0
100
AcDbEntity
  8
0
100
AcDbLine
 62
6
  6
CONTINUOUS
 10
12.0234857316
 20
12.9629863558
 11
12.0179786922
 21
12.9652548641
  0
LINE
  5
2C1
100
AcDbEntity
  8
0
100
AcDbLine
 62
6
  6
CONTINUOUS
 10
12.0290197516
 20
12.96067185
 11
12.0234857316
 21
12.9629863558
  0
LINE
  5
2C2
100
AcDbEntity
  8
0
100
AcDbLine
 62
6
  6
CONTINUOUS
 10
12.0345805664
 20
12.9583107085
 11
12.0290197516
 21
12.96067185
  0
LINE
  5
2C3
100
AcDbEntity
  8
0
100
AcDbLine
 62
6
  6
CONTINUOUS
 10
12.040167981
 20
12.9559022901
 11
12.0345805664
 21
12.9583107085
  0
LINE
  5
2C4
100
AcDbEntity
  8
0
100
AcDbLine
 62
6
  6
CONTINUOUS
 10
12.0457817897
 20
12.953445948
 11
12.040167981
 21
12.9559022901
  0
LINE
  5
2C5
100
AcDbEntity
  8
0
100
AcDbLine
 62
6
  6
CONTINUOUS
 10
12.0514217917
 20
12.9509410236
 11
12.0457817897
 21
12.953445948
  0
LINE
  5
2C6
100
AcDbEntity
  8
0
100
AcDbLine
 62
6
  6
CONTINUOUS
 10
12.0570880024
 20
12.9483867495
 11
12.0514217917
 21
12.9509410236
  0
LINE
  5
2C7
100
AcDbEntity
  8
0
100
AcDbLine
 62
6
  6
CONTINUOUS
 10
12.0627805923
 20
12.94578227
 11
12.0570880024
 21
12.9483867495
  0
LINE
  5
2C8
100
AcDbEntity
  8
0
100
AcDbLine
 62
6
  6
CONTINUOUS
 10
12.0684997202
 20
12.9431267131
 11
12.0627805923
 21
12.94578227
  0
LINE
  5
2C9
100
AcDbEntity
  8
0
100
AcDbLine
 62
6
  6
CONTINUOUS
 10
12.0742455292
 20
12.9404191924
 11
12.0684997202
 21
12.9431267131
  0
LINE
  5
2CA
100
AcDbEntity
  8
0
100
AcDbLine
 62
6
  6
CONTINUOUS
 10
12.0800181455
 20
12.9376588066
 11
12.0742455292
 21
12.9404191924
  0
LINE
  5
2CB
100
AcDbEntity
  8
0
100
AcDbLine
 62
6
  6
CONTINUOUS
 10
12.0858176788
 20
12.9348446401
 11
12.0800181455
 21
12.9376588066
  0
LINE
  5
2CC
100
AcDbEntity
  8
0
100
AcDbLine
 62
6
  6
CONTINUOUS
 10
12.0916442211
 20
12.9319757625
 11
12.0858176788
 21
12.9348446401
  0
LINE
  5
2CD
100
AcDbEntity
  8
0
100
AcDbLine
 62
6
  6
CONTINUOUS
 10
12.0974978466
 20
12.9290512285
 11
12.0916442211
 21
12.9319757625
  0
LINE
  5
2CE
100
AcDbEntity
  8
0
100
AcDbLine
 62
6
  6
CONTINUOUS
 10
12.1033786114
 20
12.9260700783
 11
12.0974978466
 21
12.9290512285
  0
LINE
  5
2CF
100
AcDbEntity
  8
0
100
AcDbLine
 62
6
  6
CONTINUOUS
 10
12.1092865526
 20
12.9230313372
 11
12.1033786114
 21
12.9260700783
  0
LINE
  5
2D0
100
AcDbEntity
  8
0
100
AcDbLine
 62
6
  6
CONTINUOUS
 10
12.1152216878
 20
12.9199340155
 11
12.1092865526
 21
12.9230313372
  0
LINE
  5
2D1
100
AcDbEntity
  8
0
100
AcDbLine
 62
6
  6
CONTINUOUS
 10
12.1211840151
 20
12.916777109
 11
12.1152216878
 21
12.9199340155
  0
LINE
  5
2D2
100
AcDbEntity
  8
0
100
AcDbLine
 62
6
  6
CONTINUOUS
 10
12.127173512
 20
12.9135595982
 11
12.1211840151
 21
12.916777109
  0
LINE
  5
2D3
100
AcDbEntity
  8
0
100
AcDbLine
 62
6
  6
CONTINUOUS
 10
12.1331901351
 20
12.9102804491
 11
12.127173512
 21
12.9135595982
  0
LINE
  5
2D4
100
AcDbEntity
  8
0
100
AcDbLine
 62
6
  6
CONTINUOUS
 10
12.1392338196
 20
12.9069386124
 11
12.1331901351
 21
12.9102804491
  0
LINE
  5
2D5
100
AcDbEntity
  8
0
100
AcDbLine
 62
6
  6
CONTINUOUS
 10
12.1453044786
 20
12.9035330242
 11
12.1392338196
 21
12.9069386124
  0
LINE
  5
2D6
100
AcDbEntity
  8
0
100
AcDbLine
 62
6
  6
CONTINUOUS
 10
12.1514020025
 20
12.9000626053
 11
12.1453044786
 21
12.9035330242
  0
LINE
  5
2D7
100
AcDbEntity
  8
0
100
AcDbLine
 62
6
  6
CONTINUOUS
 10
12.1554818907
 20
12.8977124292
 11
12.1514020025
 21
12.9000626053
  0
LINE
  5
2D8
100
AcDbEntity
  8
0
100
AcDbLine
 62
6
  6
CONTINUOUS
 10
14.7037366277
 20
11.6159969165
 11
14.7237366277
 21
11.5959969165
  0
LINE
  5
2D9
100
AcDbEntity
  8
0
100
AcDbLine
 62
6
  6
CONTINUOUS
 10
18.5837366277
 20
11.5959969165
 11
18.5837366277
 21
12.2519969165
  0
LINE
  5
2DA
100
AcDbEntity
  8
0
100
AcDbLine
 62
6
  6
CONTINUOUS
 10
18.6037366277
 20
11.6160107556
 11
18.6037366277
 21
12.2319830774
  0
LINE
  5
2DB
100
AcDbEntity
  8
0
100
AcDbLine
 62
6
  6
CONTINUOUS
 10
18.5837366277
 20
12.2519969165
 11
18.6037366277
 21
12.2319969165
  0
ARC
  5
2DC
100
AcDbEntity
  8
0
100
AcDbCircle
 62
6
  6
CONTINUOUS
 10
7.4273366277
 20
11.6029969165
 40
0.094
100
AcDbArc
 50
210.2506503162
 51
329.7493496838
  0
ARC
  5
2DD
100
AcDbEntity
  8
0
100
AcDbCircle
 62
6
  6
CONTINUOUS
 10
7.5897366277
 20
11.6029969165
 40
0.094
100
AcDbArc
 50
210.2506503162
 51
329.7493496838
  0
ARC
  5
2DE
100
AcDbEntity
  8
0
100
AcDbCircle
 62
6
  6
CONTINUOUS
 10
7.7521366277
 20
11.6029969165
 40
0.094
100
AcDbArc
 50
210.2506503162
 51
329.7493496838
  0
ARC
  5
2DF
100
AcDbEntity
  8
0
100
AcDbCircle
 62
6
  6
CONTINUOUS
 10
7.9145366277
 20
11.6029969165
 40
0.094
100
AcDbArc
 50
210.2506503162
 51
329.7493496838
  0
ARC
  5
2E0
100
AcDbEntity
  8
0
100
AcDbCircle
 62
6
  6
CONTINUOUS
 10
7.2649366277
 20
11.6029969165
 40
0.094
100
AcDbArc
 50
210.2506503162
 51
329.7493496838
  0
ARC
  5
2E1
100
AcDbEntity
  8
0
100
AcDbCircle
 62
6
  6
CONTINUOUS
 10
7.5897366277
 20
11.9239969165
 40
1.18
100
AcDbArc
 50
196.1421580743
 51
163.8578419257
  0
ARC
  5
2E2
100
AcDbEntity
  8
0
100
AcDbCircle
 62
6
  6
CONTINUOUS
 10
7.5897366277
 20
11.9239969165
 40
1.0000034206
100
AcDbArc
 50
199.1504537927
 51
160.8495462073
  0
ARC
  5
2E3
100
AcDbEntity
  8
0
100
AcDbCircle
 62
7
  6
CONTINUOUS
 10
7.5897366277
 20
11.9239969165
 40
0.8130034206
100
AcDbArc
 50
203.8127156336
 51
336.1872843664
  0
ARC
  5
2E4
100
AcDbEntity
  8
0
100
AcDbCircle
 62
7
  6
CONTINUOUS
 10
7.5897366277
 20
11.9239969165
 40
0.8130034206
100
AcDbArc
 50
23.8127156336
 51
156.1872843664
  0
ARC
  5
2E5
100
AcDbEntity
  8
0
100
AcDbCircle
 62
6
  6
CONTINUOUS
 10
7.5897366277
 20
11.9239969165
 40
0.8125
100
AcDbArc
 50
203.8430887737
 51
336.1569112263
  0
ARC
  5
2E6
100
AcDbEntity
  8
0
100
AcDbCircle
 62
6
  6
CONTINUOUS
 10
7.5897366277
 20
11.9239969165
 40
0.8125
100
AcDbArc
 50
23.8430887737
 51
156.1569112263
  0
ARC
  5
2E7
100
AcDbEntity
  8
0
100
AcDbCircle
 62
6
  6
CONTINUOUS
 10
7.5897366277
 20
11.9239969165
 40
0.4095
100
AcDbArc
 50
275.4992586672
 51
284.7845381477
  0
ARC
  5
2E8
100
AcDbEntity
  8
0
100
AcDbCircle
 62
6
  6
CONTINUOUS
 10
7.5897366277
 20
11.9239969165
 40
0.4095
100
AcDbArc
 50
255.2154618523
 51
264.5007413328
  0
ARC
  5
2E9
100
AcDbEntity
  8
0
100
AcDbCircle
 62
6
  6
CONTINUOUS
 10
7.5897366277
 20
11.9239969165
 40
0.4095
100
AcDbArc
 50
75.2154618523
 51
84.5007413328
  0
ARC
  5
2EA
100
AcDbEntity
  8
0
100
AcDbCircle
 62
6
  6
CONTINUOUS
 10
7.5897366277
 20
11.9239969165
 40
0.4095
100
AcDbArc
 50
95.4992586672
 51
104.7845381477
  0
ARC
  5
2EB
100
AcDbEntity
  8
0
100
AcDbCircle
 62
6
  6
CONTINUOUS
 10
7.5897366277
 20
11.9239969165
 40
0.3895
100
AcDbArc
 50
76.9256102817
 51
79.4319167379
  0
ARC
  5
2EC
100
AcDbEntity
  8
0
100
AcDbCircle
 62
6
  6
CONTINUOUS
 10
7.5897366277
 20
11.9239969165
 40
0.3895
100
AcDbArc
 50
100.5680832621
 51
103.0743897183
  0
ARC
  5
2ED
100
AcDbEntity
  8
0
100
AcDbCircle
 62
6
  6
CONTINUOUS
 10
7.5897366277
 20
11.9239969165
 40
0.3895
100
AcDbArc
 50
280.5680832621
 51
283.0743897183
  0
ARC
  5
2EE
100
AcDbEntity
  8
0
100
AcDbCircle
 62
6
  6
CONTINUOUS
 10
7.5897366277
 20
11.9239969165
 40
0.3895
100
AcDbArc
 50
256.9256102817
 51
259.4319167379
  0
ARC
  5
2EF
100
AcDbEntity
  8
0
100
AcDbCircle
 62
6
  6
CONTINUOUS
 10
7.4273366277
 20
12.2449969165
 40
0.094
100
AcDbArc
 50
30.2506503162
 51
149.7493496838
  0
ARC
  5
2F0
100
AcDbEntity
  8
0
100
AcDbCircle
 62
6
  6
CONTINUOUS
 10
7.5897366277
 20
12.2449969165
 40
0.094
100
AcDbArc
 50
30.2506503162
 51
149.7493496838
  0
ARC
  5
2F1
100
AcDbEntity
  8
0
100
AcDbCircle
 62
6
  6
CONTINUOUS
 10
7.7521366277
 20
12.2449969165
 40
0.094
100
AcDbArc
 50
30.2506503162
 51
149.7493496838
  0
ARC
  5
2F2
100
AcDbEntity
  8
0
100
AcDbCircle
 62
6
  6
CONTINUOUS
 10
7.9145366277
 20
12.2449969165
 40
0.094
100
AcDbArc
 50
30.2506503162
 51
149.7493496838
  0
ARC
  5
2F3
100
AcDbEntity
  8
0
100
AcDbCircle
 62
6
  6
CONTINUOUS
 10
7.2649366277
 20
12.2449969165
 40
0.094
100
AcDbArc
 50
30.2506503162
 51
149.7493496838
  0
ARC
  5
2F4
100
AcDbEntity
  8
0
100
AcDbCircle
 62
7
  6
CONTINUOUS
 10
11.7338881474
 20
10.9814688975
 40
2.0754889372
100
AcDbArc
 50
95.0199329445
 51
95.3315206173
  0
ARC
  5
2F5
100
AcDbEntity
  8
0
100
AcDbCircle
 62
6
  6
CONTINUOUS
 10
15.2649366277
 20
11.6029969165
 40
0.094
100
AcDbArc
 50
210.2506503162
 51
329.7493496838
  0
ARC
  5
2F6
100
AcDbEntity
  8
0
100
AcDbCircle
 62
6
  6
CONTINUOUS
 10
15.9145366277
 20
11.6029969165
 40
0.094
100
AcDbArc
 50
210.2506503162
 51
329.7493496838
  0
ARC
  5
2F7
100
AcDbEntity
  8
0
100
AcDbCircle
 62
6
  6
CONTINUOUS
 10
15.4273366277
 20
11.6029969165
 40
0.094
100
AcDbArc
 50
210.2506503162
 51
329.7493496838
  0
ARC
  5
2F8
100
AcDbEntity
  8
0
100
AcDbCircle
 62
6
  6
CONTINUOUS
 10
15.5897366277
 20
11.6029969165
 40
0.094
100
AcDbArc
 50
210.2506503162
 51
329.7493496838
  0
ARC
  5
2F9
100
AcDbEntity
  8
0
100
AcDbCircle
 62
6
  6
CONTINUOUS
 10
15.7521366277
 20
11.6029969165
 40
0.094
100
AcDbArc
 50
210.2506503162
 51
329.7493496838
  0
ARC
  5
2FA
100
AcDbEntity
  8
0
100
AcDbCircle
 62
6
  6
CONTINUOUS
 10
11.5897366277
 20
11.9239969165
 40
1.253
100
AcDbArc
 50
217.1301051625
 51
217.2358782824
  0
ARC
  5
2FB
100
AcDbEntity
  8
0
100
AcDbCircle
 62
6
  6
CONTINUOUS
 10
11.5897366277
 20
11.9239969165
 40
1.425
100
AcDbArc
 50
312.182441053
 51
227.8173273644
  0
ARC
  5
2FC
100
AcDbEntity
  8
0
100
AcDbCircle
 62
9
  6
CONTINUOUS
 10
11.5897366277
 20
11.9239969165
 40
1.2931676657
100
AcDbArc
 50
319.8029228788
 51
220.197285993
  0
ARC
  5
2FD
100
AcDbEntity
  8
0
100
AcDbCircle
 62
7
  6
CONTINUOUS
 10
11.5897366277
 20
11.9239969165
 40
1.253
100
AcDbArc
 50
322.8692864967
 51
217.1301051625
  0
ARC
  5
2FE
100
AcDbEntity
  8
0
100
AcDbCircle
 62
6
  6
CONTINUOUS
 10
11.5897366277
 20
11.9239969165
 40
1.253
100
AcDbArc
 50
322.7636163466
 51
322.8692864967
  0
ARC
  5
2FF
100
AcDbEntity
  8
0
100
AcDbCircle
 62
6
  6
CONTINUOUS
 10
15.5897366277
 20
11.9239969165
 40
1.18
100
AcDbArc
 50
16.1421580743
 51
343.8578419257
  0
ARC
  5
300
100
AcDbEntity
  8
0
100
AcDbCircle
 62
6
  6
CONTINUOUS
 10
15.5897366277
 20
11.9239969165
 40
1.0000034206
100
AcDbArc
 50
19.1504537927
 51
340.8495462073
  0
ARC
  5
301
100
AcDbEntity
  8
0
100
AcDbCircle
 62
7
  6
CONTINUOUS
 10
15.5897366277
 20
11.9239969165
 40
0.8130034206
100
AcDbArc
 50
203.8127156336
 51
336.1872843664
  0
ARC
  5
302
100
AcDbEntity
  8
0
100
AcDbCircle
 62
7
  6
CONTINUOUS
 10
15.5897366277
 20
11.9239969165
 40
0.8130034206
100
AcDbArc
 50
23.8127156336
 51
156.1872843664
  0
ARC
  5
303
100
AcDbEntity
  8
0
100
AcDbCircle
 62
6
  6
CONTINUOUS
 10
15.5897366277
 20
11.9239969165
 40
0.8125
100
AcDbArc
 50
203.8430887737
 51
336.1569112263
  0
ARC
  5
304
100
AcDbEntity
  8
0
100
AcDbCircle
 62
6
  6
CONTINUOUS
 10
15.5897366277
 20
11.9239969165
 40
0.8125
100
AcDbArc
 50
23.8430887737
 51
156.1569112263
  0
ARC
  5
305
100
AcDbEntity
  8
0
100
AcDbCircle
 62
6
  6
CONTINUOUS
 10
15.5897366277
 20
11.9239969165
 40
0.4095
100
AcDbArc
 50
275.4992586672
 51
284.7845381477
  0
ARC
  5
306
100
AcDbEntity
  8
0
100
AcDbCircle
 62
6
  6
CONTINUOUS
 10
15.5897366277
 20
11.9239969165
 40
0.4095
100
AcDbArc
 50
255.2154618523
 51
264.5007413328
  0
ARC
  5
307
100
AcDbEntity
  8
0
100
AcDbCircle
 62
6
  6
CONTINUOUS
 10
15.5897366277
 20
11.9239969165
 40
0.4095
100
AcDbArc
 50
75.2154618523
 51
84.5007413328
  0
ARC
  5
308
100
AcDbEntity
  8
0
100
AcDbCircle
 62
6
  6
CONTINUOUS
 10
15.5897366277
 20
11.9239969165
 40
0.4095
100
AcDbArc
 50
95.4992586672
 51
104.7845381477
  0
ARC
  5
309
100
AcDbEntity
  8
0
100
AcDbCircle
 62
6
  6
CONTINUOUS
 10
15.5897366277
 20
11.9239969165
 40
0.3895
100
AcDbArc
 50
76.9256102817
 51
79.4319167379
  0
ARC
  5
30A
100
AcDbEntity
  8
0
100
AcDbCircle
 62
6
  6
CONTINUOUS
 10
15.5897366277
 20
11.9239969165
 40
0.3895
100
AcDbArc
 50
100.5680832621
 51
103.0743897183
  0
ARC
  5
30B
100
AcDbEntity
  8
0
100
AcDbCircle
 62
6
  6
CONTINUOUS
 10
15.5897366277
 20
11.9239969165
 40
0.3895
100
AcDbArc
 50
280.5680832621
 51
283.0743897183
  0
ARC
  5
30C
100
AcDbEntity
  8
0
100
AcDbCircle
 62
6
  6
CONTINUOUS
 10
15.5897366277
 20
11.9239969165
 40
0.3895
100
AcDbArc
 50
256.9256102817
 51
259.4319167379
  0
ARC
  5
30D
100
AcDbEntity
  8
0
100
AcDbCircle
 62
6
  6
CONTINUOUS
 10
15.2649366277
 20
12.2449969165
 40
0.094
100
AcDbArc
 50
30.2506503162
 51
149.7493496838
  0
ARC
  5
30E
100
AcDbEntity
  8
0
100
AcDbCircle
 62
6
  6
CONTINUOUS
 10
15.4273366277
 20
12.2449969165
 40
0.094
100
AcDbArc
 50
30.2506503162
 51
149.7493496838
  0
ARC
  5
30F
100
AcDbEntity
  8
0
100
AcDbCircle
 62
6
  6
CONTINUOUS
 10
15.5897366277
 20
12.2449969165
 40
0.094
100
AcDbArc
 50
30.2506503162
 51
149.7493496838
  0
ARC
  5
310
100
AcDbEntity
  8
0
100
AcDbCircle
 62
6
  6
CONTINUOUS
 10
15.7521366277
 20
12.2449969165
 40
0.094
100
AcDbArc
 50
30.2506503162
 51
149.7493496838
  0
ARC
  5
311
100
AcDbEntity
  8
0
100
AcDbCircle
 62
6
  6
CONTINUOUS
 10
15.9145366277
 20
12.2449969165
 40
0.094
100
AcDbArc
 50
30.2506503162
 51
149.7493496838
  0
LINE
  5
312
100
AcDbEntity
  8
0
100
AcDbLine
 62
7
  6
CONTINUOUS
 10
11.5903780801
 20
13.0489978797
 11
11.5897366277
 21
13.0489969165
  0
SPLINE
  5
313
100
AcDbEntity
  8
0
100
AcDbSpline
 62
7
  6
CONTINUOUS
 70
0
 71
3
 72
27
 73
23
 74
21
 42
0.0000001
 43
0.0000001
 44
0.0000000001
 12
0.0
 22
-0.0217185556
 32
0.0
 13
-0.0215760399
 23
-0.0024839806
 33
0.0
 40
0.0
 40
0.0
 40
0.0
 40
0.0
 40
0.0067734705
 40
0.0140784528
 40
0.0223408593
 40
0.0318574054
 40
0.0428221505
 40
0.0553609446
 40
0.0695568208
 40
0.0854659731
 40
0.103126119
 40
0.122560794
 40
0.1668060103
 40
0.218273242
 40
0.2769804784
 40
0.3429082431
 40
0.4159974503
 40
0.4961757486
 40
0.5833638109
 40
0.6774641805
 40
0.7783550369
 40
1.0
 40
1.0
 40
1.0
 40
1.0
 10
11.7147366277
 20
13.0489969165
 30
0.0
 10
11.7147366277
 20
13.0489478798
 30
0.0
 10
11.7147212476
 20
13.0488454701
 30
0.0
 10
11.7146544791
 20
13.0486964879
 30
0.0
 10
11.7145459106
 20
13.0485495956
 30
0.0
 10
11.7143963696
 20
13.048403947
 30
0.0
 10
11.7142058966
 20
13.0482587848
 30
0.0
 10
11.7139743416
 20
13.0481137736
 30
0.0
 10
11.713701571
 20
13.0479687617
 30
0.0
 10
11.71338751
 20
13.0478237112
 30
0.0
 10
11.7130321681
 20
13.0476786029
 30
0.0
 10
11.7124790729
 20
13.0474761942
 30
0.0
 10
11.7116832231
 20
13.047226707
 30
0.0
 10
11.710602987
 20
13.0469380521
 30
0.0
 10
11.7093611289
 20
13.0466489018
 30
0.0
 10
11.707959178
 20
13.046359343
 30
0.0
 10
11.7063989272
 20
13.0460694464
 30
0.0
 10
11.7046824336
 20
13.04577929
 30
0.0
 10
11.7028118896
 20
13.0454889628
 30
0.0
 10
11.700789764
 20
13.0451985042
 30
0.0
 10
11.6978001407
 20
13.044798388
 30
0.0
 10
11.6954819288
 20
13.0445179293
 30
0.0
 10
11.6938878553
 20
13.0443344087
 30
0.0
 11
11.7147366277
 21
13.0489969165
 31
0.0
 11
11.7147156489
 21
13.04885131
 31
0.0
 11
11.7146527486
 21
13.0487056579
 31
0.0
 11
11.7145479814
 21
13.048559969
 31
0.0
 11
11.7144014019
 21
13.0484142522
 31
0.0
 11
11.7142130645
 21
13.0482685163
 31
0.0
 11
11.7139830238
 21
13.0481227703
 31
0.0
 11
11.7137113343
 21
13.047977023
 31
0.0
 11
11.7133980507
 21
13.0478312833
 31
0.0
 11
11.7130432598
 21
13.0476855567
 31
0.0
 11
11.7126471162
 21
13.0475398418
 31
0.0
 11
11.7117314234
 21
13.0472484375
 31
0.0
 11
11.7106522767
 21
13.0469570517
 31
0.0
 11
11.7094109822
 21
13.0466656656
 31
0.0
 11
11.7080090913
 21
13.0463742675
 31
0.0
 11
11.7064486762
 21
13.0460828601
 31
0.0
 11
11.7047318761
 21
13.0457914481
 31
0.0
 11
11.7028608348
 21
13.0455000362
 31
0.0
 11
11.700837993
 21
13.045208627
 31
0.0
 11
11.6986662529
 21
13.0449172199
 31
0.0
 11
11.6938878553
 21
13.0443344087
 31
0.0
  0
SPLINE
  5
314
100
AcDbEntity
  8
0
100
AcDbSpline
 62
6
  6
CONTINUOUS
 70
0
 71
3
 72
46
 73
42
 74
40
 42
0.0000001
 43
0.0000001
 44
0.0000000001
 12
-0.3061361428
 22
-1.3907713621
 32
0.0
 13
1.4240661219
 23
0.0000000077
 33
0.0
 40
0.0
 40
0.0
 40
0.0
 40
0.0
 40
0.0310564162
 40
0.0621033044
 40
0.0931423608
 40
0.1086614836
 40
0.124180095
 40
0.1396989755
 40
0.1552188193
 40
0.1862602606
 40
0.2173102479
 40
0.2483701274
 40
0.2794408261
 40
0.3105237639
 40
0.326072192
 40
0.341624912
 40
0.3571825971
 40
0.3727458131
 40
0.4038871463
 40
0.4350534393
 40
0.4662445851
 40
0.4974598896
 40
0.5286989878
 40
0.5443292017
 40
0.5599658525
 40
0.5912569072
 40
0.6225768418
 40
0.6539247852
 40
0.6852983056
 40
0.7166943374
 40
0.7481101043
 40
0.7795440398
 40
0.810996494
 40
0.8424675205
 40
0.8582108654
 40
0.8739579002
 40
0.9054581211
 40
0.9369669947
 40
0.9527249467
 40
0.9684837474
 40
1.0
 40
1.0
 40
1.0
 40
1.0
 10
10.8030786963
 20
2.7042911504
 30
0.0
 10
10.7999095324
 20
2.6898936923
 30
0.0
 10
10.7943794125
 20
2.6609184864
 30
0.0
 10
10.7885418644
 20
2.6170700851
 30
0.0
 10
10.785747892
 20
2.5803160609
 30
0.0
 10
10.7847694561
 20
2.5508618984
 30
0.0
 10
10.7846675588
 20
2.5287590952
 30
0.0
 10
10.7851989996
 20
2.5066621312
 30
0.0
 10
10.7867463332
 20
2.4772307578
 30
0.0
 10
10.7902459209
 20
2.4405346022
 30
0.0
 10
10.7969209092
 20
2.3968004829
 30
0.0
 10
10.8060445504
 20
2.3534958292
 30
0.0
 10
10.8175891529
 20
2.3107575037
 30
0.0
 10
10.8292044835
 20
2.2757272738
 30
0.0
 10
10.8396777482
 20
2.2481261729
 30
0.0
 10
10.8481226569
 20
2.2276475521
 30
0.0
 10
10.8571511737
 20
2.2074117795
 30
0.0
 10
10.8699548548
 20
2.1807703419
 30
0.0
 10
10.8873718315
 20
2.1481422987
 30
0.0
 10
10.9104424421
 20
2.1102005749
 30
0.0
 10
10.9356116091
 20
2.0735736453
 30
0.0
 10
10.9628006619
 20
2.0383774584
 30
0.0
 10
10.9870745366
 20
2.0103378809
 30
0.0
 10
11.0074225505
 20
1.9887388251
 30
0.0
 10
11.0283878523
 20
1.9677035149
 30
0.0
 10
11.0557139717
 20
1.9425145533
 30
0.0
 10
11.0901601587
 20
1.9141468333
 30
0.0
 10
11.1261550941
 20
1.8877050535
 30
0.0
 10
11.1635815819
 20
1.8632661339
 30
0.0
 10
11.2023234672
 20
1.8409064099
 30
0.0
 10
11.2422642393
 20
1.8207024465
 30
0.0
 10
11.2832880995
 20
1.8027312748
 30
0.0
 10
11.3252751178
 20
1.7870693698
 30
0.0
 10
11.3609493806
 20
1.7759644779
 30
0.0
 10
11.3898301478
 20
1.7682619099
 30
0.0
 10
11.4189244308
 20
1.7613492958
 30
0.0
 10
11.4556395035
 20
1.7542013694
 30
0.0
 10
11.4926951275
 20
1.7490676198
 30
0.0
 10
11.5224766559
 20
1.7461819848
 30
0.0
 10
11.5523288717
 20
1.7441148506
 30
0.0
 10
11.5747762229
 20
1.7434905745
 30
0.0
 10
11.5897366321
 20
1.7434905746
 30
0.0
 11
10.8030786963
 21
2.7042911504
 31
0.0
 11
10.7947881634
 21
2.6608487672
 31
0.0
 11
10.7889554507
 21
2.6170223704
 31
0.0
 11
10.7856079758
 21
2.5729476393
 31
0.0
 11
10.7848747705
 21
2.5508595481
 31
0.0
 11
10.7847731117
 21
2.5287602532
 31
0.0
 11
10.7853038154
 21
2.5066667143
 31
0.0
 11
10.7864637839
 21
2.4845958914
 31
0.0
 11
10.7906578062
 21
2.4405902333
 31
0.0
 11
10.7973277609
 21
2.3968789582
 31
0.0
 11
10.8064462303
 21
2.3535977455
 31
0.0
 11
10.8179857967
 21
2.3108822744
 31
0.0
 11
10.8319190425
 21
2.2688682243
 31
0.0
 11
10.8397747272
 21
2.2481666319
 31
0.0
 11
10.8482185326
 21
2.2276912674
 31
0.0
 11
10.857245003
 21
2.2074582623
 31
0.0
 11
10.8668448245
 21
2.1874821728
 31
0.0
 11
10.8877255196
 21
2.1483582523
 31
0.0
 11
10.9107826153
 21
2.1104345293
 31
0.0
 11
10.935938109
 21
2.0738260271
 31
0.0
 11
10.963113998
 21
2.0386477692
 31
0.0
 11
10.9922322796
 21
2.0050147788
 31
0.0
 11
11.0074954419
 21
1.9888137038
 31
0.0
 11
11.0232149473
 21
1.9730420755
 31
0.0
 11
11.0559757245
 21
1.9428365727
 31
0.0
 11
11.0904026438
 21
1.914480002
 31
0.0
 11
11.1263787638
 21
1.8880492196
 31
0.0
 11
11.1637871433
 21
1.8636210816
 31
0.0
 11
11.202510841
 21
1.8412724442
 31
0.0
 11
11.2424329153
 21
1.8210801635
 31
0.0
 11
11.2834364248
 21
1.8031210952
 31
0.0
 11
11.3254005972
 21
1.7874626825
 31
0.0
 11
11.3681911653
 21
1.7741392117
 31
0.0
 11
11.389853461
 21
1.7683615133
 31
0.0
 11
11.4116708916
 21
1.7631776709
 31
0.0
 11
11.4557025388
 21
1.7546050485
 31
0.0
 11
11.5001488695
 21
1.7484483328
 31
0.0
 11
11.5224846545
 21
1.7462843738
 31
0.0
 11
11.5448726464
 21
1.7447345121
 31
0.0
 11
11.5897366321
 21
1.7434905746
 31
0.0
  0
SPLINE
  5
315
100
AcDbEntity
  8
0
100
AcDbSpline
 62
6
  6
CONTINUOUS
 70
0
 71
3
 72
15
 73
11
 74
9
 42
0.0000001
 43
0.0000001
 44
0.0000000001
 12
0.0
 22
0.4262671692
 32
0.0
 13
0.2083869433
 23
0.3718582814
 33
0.0
 40
0.0
 40
0.0
 40
0.0
 40
0.0
 40
0.1249062498
 40
0.2498216721
 40
0.3747557644
 40
0.4997173899
 40
0.6247150428
 40
0.7497566598
 40
0.8748494969
 40
1.0
 40
1.0
 40
1.0
 40
1.0
 10
10.7372366277
 20
2.5110622274
 30
0.0
 10
10.7372366277
 20
2.5288100385
 30
0.0
 10
10.7383729303
 20
2.5643174467
 30
0.0
 10
10.7434792787
 20
2.6173554582
 30
0.0
 10
10.7519666564
 20
2.6699686097
 30
0.0
 10
10.7638004718
 20
2.7219428576
 30
0.0
 10
10.7789323623
 20
2.7730702619
 30
0.0
 10
10.7973010456
 20
2.8231463786
 30
0.0
 10
10.8188304079
 20
2.8719683709
 30
0.0
 10
10.8352315749
 20
2.9035485837
 30
0.0
 10
10.8439248185
 20
2.919061334
 30
0.0
 11
10.7372366277
 21
2.5110622274
 31
0.0
 11
10.7389397766
 21
2.5642784138
 31
0.0
 11
10.7440422638
 21
2.6172807176
 31
0.0
 11
10.7525232653
 21
2.6698563753
 31
0.0
 11
10.764348199
 21
2.7217943029
 31
0.0
 11
10.7794688769
 21
2.7728861691
 31
0.0
 11
10.7978237382
 21
2.822927254
 31
0.0
 11
10.8193381634
 21
2.8717173
 31
0.0
 11
10.8439248185
 21
2.919061334
 31
0.0
  0
SPLINE
  5
316
100
AcDbEntity
  8
0
100
AcDbSpline
 62
6
  6
CONTINUOUS
 70
0
 71
3
 72
15
 73
11
 74
9
 42
0.0000001
 43
0.0000001
 44
0.0000000001
 12
0.2083892118
 22
-0.3718598013
 32
0.0
 13
0.0
 23
-0.4262696042
 33
0.0
 40
0.0
 40
0.0
 40
0.0
 40
0.0
 40
0.1251505021
 40
0.2502433383
 40
0.3752849544
 40
0.5002826068
 40
0.6252442322
 40
0.7501783249
 40
0.8750937483
 40
1.0
 40
1.0
 40
1.0
 40
1.0
 10
12.3355472461
 20
2.9190634592
 30
0.0
 10
12.3442405843
 20
2.9035506456
 30
0.0
 10
12.360641931
 20
2.8719702971
 30
0.0
 10
12.3821715317
 20
2.8231480768
 30
0.0
 10
12.4005404204
 20
2.7730717108
 30
0.0
 10
12.4156724814
 20
2.7219440392
 30
0.0
 10
12.427506431
 20
2.6699695092
 30
0.0
 10
12.4359939054
 20
2.6173560642
 30
0.0
 10
12.4411003122
 20
2.5643177518
 30
0.0
 10
12.4422366277
 20
2.5288101402
 30
0.0
 10
12.4422366277
 20
2.5110622274
 30
0.0
 11
12.3355472461
 21
2.9190634592
 31
0.0
 11
12.3601341704
 21
2.8717192221
 31
0.0
 11
12.3816488336
 21
2.8229289486
 31
0.0
 11
12.4000039
 21
2.772887615
 31
0.0
 11
12.4151247481
 21
2.7217954821
 31
0.0
 11
12.4269498158
 21
2.669857273
 31
0.0
 11
12.4354309139
 21
2.6172813225
 31
0.0
 11
12.4405334594
 21
2.5642787183
 31
0.0
 11
12.4422366277
 21
2.5110622274
 31
0.0
  0
SPLINE
  5
317
100
AcDbEntity
  8
0
100
AcDbSpline
 62
6
  6
CONTINUOUS
 70
0
 71
3
 72
75
 73
71
 74
69
 42
0.0000001
 43
0.0000001
 44
0.0000000001
 12
0.0
 22
-2.6619354623
 32
0.0
 13
0.0
 23
2.6619354623
 33
0.0
 40
0.0
 40
0.0
 40
0.0
 40
0.0
 40
0.0155512708
 40
0.0233276855
 40
0.0311043875
 40
0.0466577457
 40
0.0622131897
 40
0.0699925049
 40
0.0777725904
 40
0.0933341886
 40
0.108899792
 40
0.1244699708
 40
0.1400452523
 40
0.1556261146
 40
0.1712129834
 40
0.1868062272
 40
0.2024061532
 40
0.2180130055
 40
0.2336269615
 40
0.2492481301
 40
0.2648765518
 40
0.2805121962
 40
0.2961549636
 40
0.311804686
 40
0.3274611268
 40
0.3431239852
 40
0.3587928975
 40
0.3744674408
 40
0.3901471381
 40
0.405831461
 40
0.4215198366
 40
0.4372116521
 40
0.4529062607
 40
0.4686029886
 40
0.484301141
 40
0.5000000092
 40
0.5156988773
 40
0.5313970295
 40
0.5470937573
 40
0.5627883655
 40
0.5784801806
 40
0.5941685557
 40
0.6098528781
 40
0.6255325749
 40
0.6412071175
 40
0.6568760291
 40
0.6725388867
 40
0.6881953267
 40
0.7038450483
 40
0.7194878149
 40
0.7351234584
 40
0.7507518792
 40
0.7663730468
 40
0.7819870019
 40
0.7975938534
 40
0.8131937785
 40
0.8287870215
 40
0.8443738896
 40
0.8599547511
 40
0.8755300319
 40
0.8911002101
 40
0.9066658129
 40
0.9222274107
 40
0.930007496
 40
0.937786811
 40
0.9533422547
 40
0.9688956127
 40
0.9766723146
 40
0.9844487292
 40
1.0
 40
1.0
 40
1.0
 40
1.0
 10
12.4422366277
 20
2.5110622274
 30
0.0
 10
12.4422366277
 20
2.4972634009
 30
0.0
 10
12.4417215294
 20
2.4765596278
 30
0.0
 10
12.4400062658
 20
2.4490116685
 30
0.0
 10
12.4376063861
 20
2.4215124413
 30
0.0
 10
12.433325033
 20
2.387260353
 30
0.0
 10
12.4273460678
 20
2.3532610707
 30
0.0
 10
12.4215539651
 20
2.326264361
 30
0.0
 10
12.4150918873
 20
2.2994145749
 30
0.0
 10
12.4057651155
 20
2.2661593928
 30
0.0
 10
12.3926048889
 20
2.2268521981
 30
0.0
 10
12.3775076381
 20
2.1882339825
 30
0.0
 10
12.3605106054
 20
2.1503987586
 30
0.0
 10
12.3416554562
 20
2.1134377528
 30
0.0
 10
12.3209884381
 20
2.0774401626
 30
0.0
 10
12.2985601423
 20
2.0424926909
 30
0.0
 10
12.274425376
 20
2.0086794188
 30
0.0
 10
12.2486430584
 20
1.9760815539
 30
0.0
 10
12.2212760201
 20
1.9447772719
 30
0.0
 10
12.1923908306
 20
1.9148415465
 30
0.0
 10
12.162057669
 20
1.8863459404
 30
0.0
 10
12.1303501067
 20
1.859358473
 30
0.0
 10
12.0973449142
 20
1.8339434867
 30
0.0
 10
12.0631219053
 20
1.8101614608
 30
0.0
 10
12.0277637123
 20
1.7880689113
 30
0.0
 10
11.991355577
 20
1.7677182909
 30
0.0
 10
11.9539851732
 20
1.7491578303
 30
0.0
 10
11.9157423792
 20
1.7324314645
 30
0.0
 10
11.8767190569
 20
1.7175787687
 30
0.0
 10
11.8370088586
 20
1.7046348276
 30
0.0
 10
11.7967069977
 20
1.693630185
 30
0.0
 10
11.7559100221
 20
1.6845908149
 30
0.0
 10
11.7147156072
 20
1.6775380207
 30
0.0
 10
11.6732223271
 20
1.6724884055
 30
0.0
 10
11.6315294264
 20
1.6694538771
 30
0.0
 10
11.5897366034
 20
1.6684415793
 30
0.0
 10
11.5479437806
 20
1.6694538798
 30
0.0
 10
11.5062508803
 20
1.6724884099
 30
0.0
 10
11.4647576011
 20
1.6775380276
 30
0.0
 10
11.4235631875
 20
1.6845908242
 30
0.0
 10
11.3827662132
 20
1.6936301957
 30
0.0
 10
11.3424643541
 20
1.7046348404
 30
0.0
 10
11.3027541579
 20
1.7175787834
 30
0.0
 10
11.2637308377
 20
1.7324314801
 30
0.0
 10
11.2254880461
 20
1.7491578471
 30
0.0
 10
11.188117645
 20
1.7677183089
 30
0.0
 10
11.1517095121
 20
1.7880689295
 30
0.0
 10
11.1163513219
 20
1.8101614794
 30
0.0
 10
11.082128316
 20
1.8339435056
 30
0.0
 10
11.0491231259
 20
1.8593584914
 30
0.0
 10
11.0174155664
 20
1.8863459583
 30
0.0
 10
10.9870824075
 20
1.9148415639
 30
0.0
 10
10.9581972204
 20
1.9447772882
 30
0.0
 10
10.9308301843
 20
1.9760815691
 30
0.0
 10
10.9050478691
 20
2.0086794329
 30
0.0
 10
10.8809131047
 20
2.0424927035
 30
0.0
 10
10.8584848106
 20
2.0774401738
 30
0.0
 10
10.8378177941
 20
2.1134377625
 30
0.0
 10
10.8189626462
 20
2.1503987668
 30
0.0
 10
10.8019656145
 20
2.1882339893
 30
0.0
 10
10.7868683648
 20
2.2268522035
 30
0.0
 10
10.7737081388
 20
2.2661593969
 30
0.0
 10
10.7643813674
 20
2.2994145779
 30
0.0
 10
10.7579192899
 20
2.3262643634
 30
0.0
 10
10.7521271874
 20
2.3532610724
 30
0.0
 10
10.7461482224
 20
2.3872603542
 30
0.0
 10
10.7418668693
 20
2.4215124419
 30
0.0
 10
10.7394669897
 20
2.4490116688
 30
0.0
 10
10.7377517261
 20
2.4765596279
 30
0.0
 10
10.7372366277
 20
2.4972634009
 30
0.0
 10
10.7372366277
 20
2.5110622274
 30
0.0
 11
12.4422366277
 21
2.5110622274
 31
0.0
 11
12.4412070687
 21
2.4696785529
 31
0.0
 11
12.4399207229
 21
2.4490182453
 31
0.0
 11
12.438120942
 21
2.4283955526
 31
0.0
 11
12.4329858617
 21
2.3873132022
 31
0.0
 11
12.425814483
 21
2.3465313475
 31
0.0
 11
12.421470519
 21
2.3262840591
 31
0.0
 11
12.416624494
 21
2.3061489234
 31
0.0
 11
12.4054385344
 21
2.2662638434
 31
0.0
 11
12.3922841293
 21
2.2269727462
 31
0.0
 11
12.3771936374
 21
2.1883707358
 31
0.0
 11
12.3602041298
 21
2.150551152
 31
0.0
 11
12.3413572848
 21
2.1136053434
 31
0.0
 11
12.3206992947
 21
2.0776224259
 31
0.0
 11
12.2982807142
 21
2.0426890802
 31
0.0
 11
12.2741563189
 21
2.0088893478
 31
0.0
 11
12.2483849791
 21
1.9763044124
 31
0.0
 11
12.221029483
 21
1.9450124274
 31
0.0
 11
12.1921563668
 21
1.9150883401
 31
0.0
 11
12.1618357606
 21
1.8866036993
 31
0.0
 11
12.1301411951
 21
1.8596265145
 31
0.0
 11
12.0971494067
 21
1.8342211093
 31
0.0
 11
12.062940165
 21
1.8104479591
 31
0.0
 11
12.0275960655
 21
1.7883635787
 31
0.0
 11
11.9912023176
 21
1.7680204085
 31
0.0
 11
11.9538465584
 21
1.7494666821
 31
0.0
 11
11.9156186333
 21
1.7327463388
 31
0.0
 11
11.8766103759
 21
1.7178989458
 31
0.0
 11
11.8369154093
 21
1.7049595933
 31
0.0
 11
11.7966289177
 21
1.6939588322
 31
0.0
 11
11.7558474257
 21
1.6849226308
 31
0.0
 11
11.7146685839
 21
1.6778722968
 31
0.0
 11
11.6731909417
 21
1.6728244415
 31
0.0
 11
11.631513723
 21
1.6697909667
 31
0.0
 11
11.5897366034
 21
1.6687790175
 31
0.0
 11
11.5479594839
 21
1.6697909692
 31
0.0
 11
11.5062822656
 21
1.672824446
 31
0.0
 11
11.4648046244
 21
1.6778723037
 31
0.0
 11
11.4236257838
 21
1.68492264
 31
0.0
 11
11.3828442932
 21
1.6939588431
 31
0.0
 11
11.3425578034
 21
1.704959606
 31
0.0
 11
11.3028628388
 21
1.7178989604
 31
0.0
 11
11.2638545835
 21
1.7327463545
 31
0.0
 11
11.2256266609
 21
1.7494666989
 31
0.0
 11
11.1882709043
 21
1.7680204264
 31
0.0
 11
11.1518771589
 21
1.788363597
 31
0.0
 11
11.1165330621
 21
1.8104479777
 31
0.0
 11
11.0823238233
 21
1.834221128
 31
0.0
 11
11.0493320376
 21
1.8596265329
 31
0.0
 11
11.0176374747
 21
1.8866037173
 31
0.0
 11
10.9873168712
 21
1.9150883575
 31
0.0
 11
10.9584437574
 21
1.9450124437
 31
0.0
 11
10.9310882637
 21
1.9763044277
 31
0.0
 11
10.9053169261
 21
2.0088893619
 31
0.0
 11
10.8811925327
 21
2.0426890928
 31
0.0
 11
10.858773954
 21
2.0776224371
 31
0.0
 11
10.8381159655
 21
2.113605353
 31
0.0
 11
10.8192691217
 21
2.1505511601
 31
0.0
 11
10.8022796153
 21
2.1883707425
 31
0.0
 11
10.7871891243
 21
2.2269727515
 31
0.0
 11
10.7740347199
 21
2.2662638474
 31
0.0
 11
10.7628487608
 21
2.3061489262
 31
0.0
 11
10.758002736
 21
2.3262840614
 31
0.0
 11
10.7536587721
 21
2.3465313494
 31
0.0
 11
10.7464873936
 21
2.3873132033
 31
0.0
 11
10.7413523135
 21
2.4283955531
 31
0.0
 11
10.7395525326
 21
2.4490182456
 31
0.0
 11
10.7382661868
 21
2.469678553
 31
0.0
 11
10.7372366277
 21
2.5110622274
 31
0.0
  0
SPLINE
  5
318
100
AcDbEntity
  8
0
100
AcDbSpline
 62
6
  6
CONTINUOUS
 70
0
 71
3
 72
46
 73
42
 74
40
 42
0.0000001
 43
0.0000001
 44
0.0000000001
 12
0.3061361409
 22
-1.3907713536
 32
0.0
 13
-1.4240661132
 23
-0.0000000077
 33
0.0
 40
0.0
 40
0.0
 40
0.0
 40
0.0
 40
0.0310564162
 40
0.0621033044
 40
0.0931423608
 40
0.1086614836
 40
0.124180095
 40
0.1396989755
 40
0.1552188193
 40
0.1862602607
 40
0.2173102479
 40
0.2483701274
 40
0.2794408261
 40
0.3105237639
 40
0.3260721921
 40
0.341624912
 40
0.3571825971
 40
0.3727458131
 40
0.4038871463
 40
0.4350534393
 40
0.4662445851
 40
0.4974598896
 40
0.5286989878
 40
0.5443292017
 40
0.5599658525
 40
0.5912569072
 40
0.6225768418
 40
0.6539247852
 40
0.6852983056
 40
0.7166943374
 40
0.7481101043
 40
0.7795440398
 40
0.810996494
 40
0.8424675205
 40
0.8582108654
 40
0.8739579002
 40
0.9054581211
 40
0.9369669947
 40
0.9527249467
 40
0.9684837474
 40
1.0
 40
1.0
 40
1.0
 40
1.0
 10
12.3763945592
 20
2.7042911504
 30
0.0
 10
12.379563723
 20
2.6898936924
 30
0.0
 10
12.3850938429
 20
2.6609184866
 30
0.0
 10
12.3909313911
 20
2.6170700856
 30
0.0
 10
12.3937253635
 20
2.5803160616
 30
0.0
 10
12.3947037994
 20
2.5508618994
 30
0.0
 10
12.3948056967
 20
2.5287590963
 30
0.0
 10
12.394274256
 20
2.5066621324
 30
0.0
 10
12.3927269224
 20
2.4772307592
 30
0.0
 10
12.3892273348
 20
2.4405346038
 30
0.0
 10
12.3825523466
 20
2.3968004847
 30
0.0
 10
12.3734287056
 20
2.3534958313
 30
0.0
 10
12.3618841033
 20
2.310757506
 30
0.0
 10
12.3502687728
 20
2.2757272763
 30
0.0
 10
12.3397955084
 20
2.2481261755
 30
0.0
 10
12.3313505998
 20
2.2276475548
 30
0.0
 10
12.3223220831
 20
2.2074117823
 30
0.0
 10
12.3095184022
 20
2.1807703448
 30
0.0
 10
12.2921014257
 20
2.1481423017
 30
0.0
 10
12.2690308154
 20
2.1102005781
 30
0.0
 10
12.2438616488
 20
2.0735736486
 30
0.0
 10
12.2166725964
 20
2.0383774617
 30
0.0
 10
12.1923987219
 20
2.0103378842
 30
0.0
 10
12.1720507083
 20
1.9887388285
 30
0.0
 10
12.1510854067
 20
1.9677035183
 30
0.0
 10
12.1237592877
 20
1.9425145567
 30
0.0
 10
12.089313101
 20
1.9141468367
 30
0.0
 10
12.053318166
 20
1.8877050567
 30
0.0
 10
12.0158916787
 20
1.863266137
 30
0.0
 10
11.9771497937
 20
1.8409064129
 30
0.0
 10
11.9372090221
 20
1.8207024492
 30
0.0
 10
11.8961851623
 20
1.8027312773
 30
0.0
 10
11.8541981444
 20
1.787069372
 30
0.0
 10
11.8185238818
 20
1.77596448
 30
0.0
 10
11.7896431149
 20
1.7682619117
 30
0.0
 10
11.7605488322
 20
1.7613492974
 30
0.0
 10
11.7238337597
 20
1.7542013707
 30
0.0
 10
11.686778136
 20
1.7490676207
 30
0.0
 10
11.6569966079
 20
1.7461819855
 30
0.0
 10
11.6271443923
 20
1.744114851
 30
0.0
 10
11.6046970412
 20
1.7434905747
 30
0.0
 10
11.5897366321
 20
1.7434905746
 30
0.0
 11
12.3763945592
 21
2.7042911504
 31
0.0
 11
12.384685092
 21
2.6608487675
 31
0.0
 11
12.3905178047
 21
2.6170223709
 31
0.0
 11
12.3938652797
 21
2.5729476401
 31
0.0
 11
12.394598485
 21
2.5508595491
 31
0.0
 11
12.3947001438
 21
2.5287602542
 31
0.0
 11
12.3941694401
 21
2.5066667155
 31
0.0
 11
12.3930094717
 21
2.4845958927
 31
0.0
 11
12.3888154495
 21
2.4405902349
 31
0.0
 11
12.3821454949
 21
2.3968789601
 31
0.0
 11
12.3730270257
 21
2.3535977476
 31
0.0
 11
12.3614874594
 21
2.3108822767
 31
0.0
 11
12.3475542139
 21
2.2688682268
 31
0.0
 11
12.3396985294
 21
2.2481666345
 31
0.0
 11
12.3312547241
 21
2.2276912701
 31
0.0
 11
12.3222282538
 21
2.2074582651
 31
0.0
 11
12.3126284325
 21
2.1874821757
 31
0.0
 11
12.2917477376
 21
2.1483582554
 31
0.0
 11
12.2686906422
 21
2.1104345325
 31
0.0
 11
12.2435351489
 21
2.0738260304
 31
0.0
 11
12.2163592602
 21
2.0386477725
 31
0.0
 11
12.1872409789
 21
2.0050147822
 31
0.0
 11
12.1719778169
 21
1.9888137072
 31
0.0
 11
12.1562583116
 21
1.9730420789
 31
0.0
 11
12.1234975349
 21
1.9428365761
 31
0.0
 11
12.089070616
 21
1.9144800053
 31
0.0
 11
12.0530944963
 21
1.8880492228
 31
0.0
 11
12.0156861172
 21
1.8636210847
 31
0.0
 11
11.97696242
 21
1.8412724471
 31
0.0
 11
11.9370403461
 21
1.8210801663
 31
0.0
 11
11.8960368369
 21
1.8031210977
 31
0.0
 11
11.8540726649
 21
1.7874626848
 31
0.0
 11
11.8112820973
 21
1.7741392137
 31
0.0
 11
11.7896198017
 21
1.7683615151
 31
0.0
 11
11.7678023713
 21
1.7631776726
 31
0.0
 11
11.7237707245
 21
1.7546050498
 31
0.0
 11
11.6793243941
 21
1.7484483337
 31
0.0
 11
11.6569886092
 21
1.7462843745
 31
0.0
 11
11.6346006175
 21
1.7447345125
 31
0.0
 11
11.5897366321
 21
1.7434905746
 31
0.0
  0
SPLINE
  5
319
100
AcDbEntity
  8
0
100
AcDbSpline
 62
9
  6
CONTINUOUS
 70
0
 71
3
 72
54
 73
50
 74
48
 42
0.0000001
 43
0.0000001
 44
0.0000000001
 12
-0.6855453148
 22
2.0208504464
 32
0.0
 13
2.1339643817
 23
0.002218734
 33
0.0
 40
0.0
 40
0.0
 40
0.0
 40
0.0
 40
0.0312533107
 40
0.062508997
 40
0.0937652772
 40
0.1250201212
 40
0.1406483112
 40
0.1562758789
 40
0.171903027
 40
0.1875301524
 40
0.2031576672
 40
0.2187857925
 40
0.2500405258
 40
0.2812967801
 40
0.3125525435
 40
0.3438059947
 40
0.3594333553
 40
0.3750601543
 40
0.3906867419
 40
0.406313556
 40
0.4375653145
 40
0.4688190936
 40
0.5000733524
 40
0.5313260167
 40
0.5469529597
 40
0.5625790934
 40
0.5782045344
 40
0.5860173012
 40
0.5938300258
 40
0.6094551286
 40
0.625080584
 40
0.656329426
 40
0.6875792685
 40
0.7188280809
 40
0.7500737329
 40
0.765696693
 40
0.7813186318
 40
0.7969397824
 40
0.8125605756
 40
0.8281814109
 40
0.8438025001
 40
0.8594238954
 40
0.8750455259
 40
0.9062854221
 40
0.9375239273
 40
0.9531439141
 40
0.968763168
 40
0.9843817775
 40
1.0
 40
1.0
 40
1.0
 40
1.0
 10
10.5260299277
 20
11.5620378561
 30
0.0
 10
10.5188880741
 20
11.5830906117
 30
0.0
 10
10.5058515436
 20
11.6256326948
 30
0.0
 10
10.4900982357
 20
11.6904809141
 30
0.0
 10
10.4781876252
 20
11.7561459368
 30
0.0
 10
10.4715028569
 20
11.8113601333
 30
0.0
 10
10.4681235136
 20
11.8557020735
 30
0.0
 10
10.4665785049
 20
11.8890202627
 30
0.0
 10
10.4660289476
 20
11.9223687614
 30
0.0
 10
10.4664808893
 20
11.9557186921
 30
0.0
 10
10.4679289969
 20
11.9890411408
 30
0.0
 10
10.471179844
 20
12.0333925196
 30
0.0
 10
10.4777054275
 20
12.0886256913
 30
0.0
 10
10.4894271717
 20
12.1543243924
 30
0.0
 10
10.5049942341
 20
12.2192186818
 30
0.0
 10
10.5211353474
 20
12.2724405236
 30
0.0
 10
10.5359232649
 20
12.3143780905
 30
0.0
 10
10.5479473673
 20
12.3454876863
 30
0.0
 10
10.5608993424
 20
12.3762221645
 30
0.0
 10
10.5793859217
 20
12.4166639357
 30
0.0
 10
10.6047404482
 20
12.466160686
 30
0.0
 10
10.6386197047
 20
12.5236521441
 30
0.0
 10
10.6758245073
 20
12.5790502121
 30
0.0
 10
10.7094951394
 20
12.6233124676
 30
0.0
 10
10.737960106
 20
12.6574748194
 30
0.0
 10
10.7600598171
 20
12.68245231
 30
0.0
 10
10.7790878033
 20
12.7027086006
 30
0.0
 10
10.794667993
 20
12.7185654526
 30
0.0
 10
10.8104843042
 20
12.7341863924
 30
0.0
 10
10.8306911225
 20
12.7532662082
 30
0.0
 10
10.863914539
 20
12.7828146724
 30
0.0
 10
10.9070683805
 20
12.8178841108
 30
0.0
 10
10.9612398886
 20
12.8568371234
 30
0.0
 10
11.0176074686
 20
12.8925342355
 30
0.0
 10
11.0662535565
 20
12.9194624963
 30
0.0
 10
11.1060668304
 20
12.9392428519
 30
0.0
 10
11.1363547812
 20
12.9531831007
 30
0.0
 10
11.167044543
 20
12.9662103958
 30
0.0
 10
11.1981107466
 20
12.9783105649
 30
0.0
 10
11.2295239155
 20
12.989478766
 30
0.0
 10
11.2612552918
 20
12.999708998
 30
0.0
 10
11.2932763654
 20
13.00899567
 30
0.0
 10
11.3363149969
 20
13.0201111749
 30
0.0
 10
11.3906991673
 20
13.0316195199
 30
0.0
 10
11.4456655637
 20
13.0399055444
 30
0.0
 10
11.4898665257
 20
13.0445775085
 30
0.0
 10
11.5231073005
 20
13.0470978628
 30
0.0
 10
11.5564065279
 20
13.0486285285
 30
0.0
 10
11.5786270509
 20
13.0489853656
 30
0.0
 10
11.5897366277
 20
13.0489969165
 30
0.0
 11
10.5260299277
 21
11.5620378561
 31
0.0
 11
10.5064856221
 21
11.6258033753
 31
0.0
 11
10.4907388236
 21
11.6906164596
 31
0.0
 11
10.478835625
 21
11.7562455726
 31
0.0
 11
10.4708221192
 21
11.8224591778
 31
0.0
 11
10.4682884051
 21
11.8557128099
 31
0.0
 11
10.4667443991
 21
11.8890257388
 31
0.0
 11
10.4661958627
 21
11.9223690226
 31
0.0
 11
10.4666469047
 21
11.9557137191
 31
0.0
 11
10.4680939786
 21
11.9890308864
 31
0.0
 11
10.470531323
 21
12.0222915823
 31
0.0
 11
10.478353777
 21
12.088527792
 31
0.0
 11
10.4900681737
 21
12.1541908117
 31
0.0
 11
10.5056284204
 21
12.219049105
 31
0.0
 11
10.5249884241
 21
12.2828711355
 31
0.0
 11
10.5360789308
 21
12.314321197
 31
0.0
 11
10.548102092
 21
12.3454253667
 31
0.0
 11
10.5610515028
 21
12.376154969
 31
0.0
 11
10.5749144198
 21
12.406483956
 31
0.0
 11
10.6053153309
 21
12.4658418883
 31
0.0
 11
10.6391737339
 21
12.5233028593
 31
0.0
 11
10.6763584959
 21
12.5786705818
 31
0.0
 11
10.7167384837
 21
12.6317487687
 31
0.0
 11
10.7380857082
 21
12.6573679466
 31
0.0
 11
10.7601825643
 21
12.6823411329
 31
0.0
 11
10.7830126603
 21
12.7066437918
 31
0.0
 11
10.7946975508
 21
12.718536006
 31
0.0
 11
10.8065594578
 21
12.7302515333
 31
0.0
 11
10.8308026238
 21
12.7531437433
 31
0.0
 11
10.8557177806
 21
12.7753038318
 31
0.0
 11
10.9074657692
 21
12.8173620667
 31
0.0
 11
10.9616068294
 21
12.8562950831
 31
0.0
 11
11.017944367
 21
12.8919717263
 31
0.0
 11
11.0762817876
 21
12.9242608414
 31
0.0
 11
11.1061390183
 21
12.93909409
 31
0.0
 11
11.1364224969
 21
12.9530312735
 31
0.0
 11
11.1671076395
 21
12.9660560213
 31
0.0
 11
11.1981685525
 21
12.97815523
 31
0.0
 11
11.2295767112
 21
12.9893223574
 31
0.0
 11
11.2613032764
 21
12.9995516467
 31
0.0
 11
11.2933194086
 21
13.0088373409
 31
0.0
 11
11.3255962687
 21
13.0171736831
 31
0.0
 11
11.3908168146
 21
13.0309752837
 31
0.0
 11
11.4567341996
 21
13.0409103931
 31
0.0
 11
11.4898821083
 21
13.0444136213
 31
0.0
 11
11.5231177089
 21
13.0469329559
 31
0.0
 11
11.5564121618
 21
13.0484626399
 31
0.0
 11
11.5897366277
 21
13.0489969165
 31
0.0
  0
SPLINE
  5
31A
100
AcDbEntity
  8
0
100
AcDbSpline
 62
9
  6
CONTINUOUS
 70
0
 71
3
 72
48
 73
44
 74
42
 42
0.0000001
 43
0.0000001
 44
0.0000000001
 12
-0.0550286726
 22
0.8720882717
 32
0.0
 13
0.8735227703
 23
0.022892754
 33
0.0
 40
0.0
 40
0.0
 40
0.0
 40
0.0
 40
0.0105034479
 40
0.0210013161
 40
0.0315120934
 40
0.04205392
 40
0.0526444389
 40
0.0633007287
 40
0.0740392464
 40
0.0848757815
 40
0.0958254221
 40
0.1069025314
 40
0.1294881326
 40
0.1527379328
 40
0.1767406368
 40
0.1890509754
 40
0.2015774975
 40
0.2143264159
 40
0.2273026923
 40
0.2539500201
 40
0.2815464495
 40
0.3101051309
 40
0.3396305259
 40
0.3701199879
 40
0.3857247116
 40
0.4015668767
 40
0.4176447037
 40
0.4339552891
 40
0.4672546494
 40
0.5014255134
 40
0.5364221598
 40
0.5721952505
 40
0.6086926003
 40
0.6458598283
 40
0.6836409158
 40
0.7219776775
 40
0.7608040052
 40
0.8000492461
 40
0.8396411918
 40
0.8795065021
 40
0.9195710828
 40
0.9597604369
 40
1.0
 40
1.0
 40
1.0
 40
1.0
 10
10.8885753179
 20
8.0940794782
 30
0.0
 10
10.8883826543
 20
8.0971327895
 30
0.0
 10
10.8881443886
 20
8.1032481198
 30
0.0
 10
10.8882332672
 20
8.1124297942
 30
0.0
 10
10.8887676218
 20
8.1216077076
 30
0.0
 10
10.8897449802
 20
8.1307760832
 30
0.0
 10
10.8911631873
 20
8.1399295208
 30
0.0
 10
10.8930199884
 20
8.1490625362
 30
0.0
 10
10.8953131545
 20
8.158169698
 30
0.0
 10
10.8980404156
 20
8.1672455273
 30
0.0
 10
10.9011996211
 20
8.1762847663
 30
0.0
 10
10.9060152017
 20
8.1883575893
 30
0.0
 10
10.913135634
 20
8.2033506294
 30
0.0
 10
10.9233169215
 20
8.2209840433
 30
0.0
 10
10.9331136688
 20
8.2353230012
 30
0.0
 10
10.9417519079
 20
8.2466285468
 30
0.0
 10
10.9486970482
 20
8.2550942131
 30
0.0
 10
10.9560474776
 20
8.2634700114
 30
0.0
 10
10.966472139
 20
8.2746100595
 30
0.0
 10
10.9805086052
 20
8.2882785606
 30
0.0
 10
10.9987244547
 20
8.3041035756
 30
0.0
 10
11.018411152
 20
8.3194596921
 30
0.0
 10
11.039519096
 20
8.3343105169
 30
0.0
 10
11.0581068358
 20
8.3461424173
 30
0.0
 10
11.0736329226
 20
8.3553314184
 30
0.0
 10
11.0856934937
 20
8.3621279814
 30
0.0
 10
11.0980731149
 20
8.3687708923
 30
0.0
 10
11.1151117721
 20
8.3774773782
 30
0.0
 10
11.1371640489
 20
8.3879427074
 30
0.0
 10
11.1645815617
 20
8.3997503709
 30
0.0
 10
11.1930605649
 20
8.4108684418
 30
0.0
 10
11.2225272629
 20
8.4212724372
 30
0.0
 10
11.2529081949
 20
8.430938023
 30
0.0
 10
11.2841297578
 20
8.4398406782
 30
0.0
 10
11.3161179825
 20
8.4479562207
 30
0.0
 10
11.3487967796
 20
8.4552583636
 30
0.0
 10
11.3820830321
 20
8.4617371602
 30
0.0
 10
11.4158908766
 20
8.4673847625
 30
0.0
 10
11.4501338357
 20
8.472192419
 30
0.0
 10
11.4847253445
 20
8.4761515764
 30
0.0
 10
11.5195789293
 20
8.4792536304
 30
0.0
 10
11.5546077336
 20
8.4814899844
 30
0.0
 10
11.5780199029
 20
8.4823980394
 30
0.0
 10
11.5897366277
 20
8.4827051042
 30
0.0
 11
10.8885753179
 21
8.0940794782
 31
0.0
 11
10.8882187396
 21
8.1032507001
 31
0.0
 11
10.8883072795
 21
8.1124235483
 31
0.0
 11
10.8888403027
 21
8.1215926242
 31
0.0
 11
10.889815662
 21
8.1307525291
 31
0.0
 11
10.8912311905
 21
8.1398978645
 31
0.0
 11
10.8930847211
 21
8.1490232318
 31
0.0
 11
10.895374087
 21
8.1581232324
 31
0.0
 11
10.898097121
 21
8.1671924678
 31
0.0
 11
10.9012516562
 21
8.1762255394
 31
0.0
 11
10.9048355257
 21
8.1852170485
 31
0.0
 11
10.9132825993
 21
8.2030537853
 31
0.0
 11
10.9234210061
 21
8.2206594895
 31
0.0
 11
10.9352334101
 21
8.2379909725
 31
0.0
 11
10.9417619436
 21
8.2465403845
 31
0.0
 11
10.9487017598
 21
8.2550051927
 31
0.0
 11
10.9560473131
 21
8.2633806928
 31
0.0
 11
10.9637924385
 21
8.2716623083
 31
0.0
 11
10.9804567454
 21
8.2879255786
 31
0.0
 11
10.9986453604
 21
8.3037583899
 31
0.0
 11
11.0183089634
 21
8.3191241287
 31
0.0
 11
11.0393982342
 21
8.3339861814
 31
0.0
 11
11.0618638526
 21
8.3483079344
 31
0.0
 11
11.0735973797
 21
8.3552547568
 31
0.0
 11
11.0856564986
 21
8.3620527743
 31
0.0
 11
11.0980350225
 21
8.3686974208
 31
0.0
 11
11.1107255918
 21
8.3751847092
 31
0.0
 11
11.1370063197
 21
8.3876747704
 31
0.0
 11
11.1644248831
 21
8.3994984239
 31
0.0
 11
11.1929073414
 21
8.4106312051
 31
0.0
 11
11.2223797539
 21
8.4210486497
 31
0.0
 11
11.25276818
 21
8.4307262933
 31
0.0
 11
11.2839986792
 21
8.4396396716
 31
0.0
 11
11.3159973108
 21
8.44776432
 31
0.0
 11
11.3486888785
 21
8.4550773274
 31
0.0
 11
11.3819899427
 21
8.4615659793
 31
0.0
 11
11.415813739
 21
8.4672216736
 31
0.0
 11
11.4500734938
 21
8.4720358196
 31
0.0
 11
11.4846824336
 21
8.4759998263
 31
0.0
 11
11.5195537849
 21
8.4791051032
 31
0.0
 11
11.5546007741
 21
8.4813430594
 31
0.0
 11
11.5897366277
 21
8.4827051042
 31
0.0
  0
SPLINE
  5
31B
100
AcDbEntity
  8
0
100
AcDbSpline
 62
9
  6
CONTINUOUS
 70
0
 71
3
 72
54
 73
50
 74
48
 42
0.0000001
 43
0.0000001
 44
0.0000000001
 12
0.685538307
 22
2.0208493366
 32
0.0
 13
-2.1339610795
 23
0.0022187305
 33
0.0
 40
0.0
 40
0.0
 40
0.0
 40
0.0
 40
0.0312533108
 40
0.0625089973
 40
0.0937652774
 40
0.1250201214
 40
0.1406483113
 40
0.156275879
 40
0.1719030271
 40
0.1875301524
 40
0.2031576673
 40
0.2187857926
 40
0.250040526
 40
0.2812967804
 40
0.3125525437
 40
0.3438059948
 40
0.3594333554
 40
0.3750601543
 40
0.390686742
 40
0.4063135561
 40
0.4375653147
 40
0.4688190938
 40
0.5000733526
 40
0.5313260169
 40
0.5469529598
 40
0.5625790934
 40
0.5782045344
 40
0.5860173013
 40
0.5938300259
 40
0.6094551286
 40
0.625080584
 40
0.6563294261
 40
0.6875792686
 40
0.718828081
 40
0.7500737329
 40
0.7656966931
 40
0.7813186318
 40
0.7969397824
 40
0.8125605755
 40
0.8281814109
 40
0.8438025001
 40
0.8594238954
 40
0.8750455259
 40
0.9062854221
 40
0.9375239273
 40
0.9531439141
 40
0.968763168
 40
0.9843817775
 40
1.0
 40
1.0
 40
1.0
 40
1.0
 10
12.653444389
 20
11.5620409842
 30
0.0
 10
12.6605861696
 20
11.5830937284
 30
0.0
 10
12.6736225572
 20
11.6256357833
 30
0.0
 10
12.6893756604
 20
11.6904839461
 30
0.0
 10
12.701286076
 20
11.756148899
 30
0.0
 10
12.70797069
 20
11.8113630273
 30
0.0
 10
12.7113499151
 20
11.8557049074
 30
0.0
 10
12.7128948377
 20
11.8890230488
 30
0.0
 10
12.7134443114
 20
11.9223714972
 30
0.0
 10
12.7129922891
 20
11.9557213752
 30
0.0
 10
12.7115441046
 20
11.989043769
 30
0.0
 10
12.7082931596
 20
12.0333950717
 30
0.0
 10
12.7017674626
 20
12.0886281433
 30
0.0
 10
12.6900455959
 20
12.1543267176
 30
0.0
 10
12.6744784244
 20
12.2192208745
 30
0.0
 10
12.6583372314
 20
12.2724426019
 30
0.0
 10
12.6435492567
 20
12.3143800755
 30
0.0
 10
12.6315251146
 20
12.3454896006
 30
0.0
 10
12.6185731031
 20
12.3762240074
 30
0.0
 10
12.6000864806
 20
12.4166656832
 30
0.0
 10
12.5747319093
 20
12.4661623139
 30
0.0
 10
12.5408526134
 20
12.5236536289
 30
0.0
 10
12.5036477852
 20
12.5790515552
 30
0.0
 10
12.4699771427
 20
12.6233136944
 30
0.0
 10
12.4415121739
 20
12.6574759548
 30
0.0
 10
12.4194124644
 20
12.6824533777
 30
0.0
 10
12.4003844819
 20
12.7027096127
 30
0.0
 10
12.3848042967
 20
12.7185664208
 30
0.0
 10
12.3689879909
 20
12.7341873171
 30
0.0
 10
12.3487811813
 20
12.7532670795
 30
0.0
 10
12.3155577829
 20
12.7828154607
 30
0.0
 10
12.2724039714
 20
12.8178847993
 30
0.0
 10
12.2182325099
 20
12.8568376997
 30
0.0
 10
12.1618649863
 20
12.8925347077
 30
0.0
 10
12.1132189529
 20
12.919462889
 30
0.0
 10
12.0734057266
 20
12.9392431855
 30
0.0
 10
12.0431178135
 20
12.9531833924
 30
0.0
 10
12.012428091
 20
12.9662106481
 30
0.0
 10
11.9813619284
 20
12.9783107805
 30
0.0
 10
11.9499488023
 20
12.9894789477
 30
0.0
 10
11.9182174701
 20
12.9997091486
 30
0.0
 10
11.8861964421
 20
13.0089957923
 30
0.0
 10
11.8431578728
 20
13.0201112633
 30
0.0
 10
11.7887737831
 20
13.0316195731
 30
0.0
 10
11.7338074699
 20
13.0399055722
 30
0.0
 10
11.6896065756
 20
13.0445775219
 30
0.0
 10
11.656365852
 20
13.0470978686
 30
0.0
 10
11.623066676
 20
13.0486285296
 30
0.0
 10
11.6008461874
 20
13.0489853656
 30
0.0
 10
11.5897366277
 20
13.0489969165
 30
0.0
 11
12.653444389
 21
11.5620409842
 31
0.0
 11
12.6729884803
 21
11.6258064615
 31
0.0
 11
12.6887350742
 21
11.6906194895
 31
0.0
 11
12.7006380778
 21
11.7562485329
 31
0.0
 11
12.7086513986
 21
11.8224620564
 31
0.0
 11
12.711185024
 21
11.8557156433
 31
0.0
 11
12.7127289439
 21
11.8890285244
 31
0.0
 11
12.7132773968
 21
11.9223717579
 31
0.0
 11
12.7128262744
 21
11.9557164018
 31
0.0
 11
12.7113791236
 21
11.9890335142
 31
0.0
 11
12.7089417057
 21
12.0222941531
 31
0.0
 11
12.7011191154
 21
12.088530243
 31
0.0
 11
12.6894045961
 21
12.1541931361
 31
0.0
 11
12.6738442404
 21
12.219051297
 31
0.0
 11
12.654484141
 21
12.2828731904
 31
0.0
 11
12.6433935913
 21
12.3143231819
 31
0.0
 11
12.6313703904
 21
12.3454272809
 31
0.0
 11
12.6184209434
 21
12.3761568119
 31
0.0
 11
12.6045579939
 21
12.4064857273
 31
0.0
 11
12.574157029
 21
12.4658435163
 31
0.0
 11
12.5402985864
 21
12.5233043444
 31
0.0
 11
12.5031137987
 21
12.5786719253
 31
0.0
 11
12.4627337984
 21
12.6317499728
 31
0.0
 11
12.4413865723
 21
12.6573690821
 31
0.0
 11
12.4192897177
 21
12.6823422007
 31
0.0
 11
12.3964596262
 21
12.7066447929
 31
0.0
 11
12.3847747389
 21
12.7185369742
 31
0.0
 11
12.372912836
 21
12.7302524689
 31
0.0
 11
12.3486696805
 21
12.7531446149
 31
0.0
 11
12.3237545374
 21
12.775304641
 31
0.0
 11
12.2720065844
 21
12.8173627564
 31
0.0
 11
12.2178655707
 21
12.8562956608
 31
0.0
 11
12.1615280894
 21
12.8919722
 31
0.0
 11
12.1031907341
 21
12.9242612196
 31
0.0
 11
12.0733335391
 21
12.939094424
 31
0.0
 11
12.0430500981
 21
12.9530315656
 31
0.0
 11
12.0123649948
 21
12.9660562741
 31
0.0
 11
11.9813041229
 21
12.978155446
 31
0.0
 11
11.9498960068
 21
12.9893225395
 31
0.0
 11
11.9181694858
 21
12.9995517977
 31
0.0
 11
11.886153399
 21
13.0088374636
 31
0.0
 11
11.8538765857
 21
13.0171737804
 31
0.0
 11
11.7886561363
 21
13.0309753389
 31
0.0
 11
11.722738851
 21
13.0409104179
 31
0.0
 11
11.689590993
 21
13.0444136353
 31
0.0
 11
11.6563554437
 21
13.0469329622
 31
0.0
 11
11.6230610422
 21
13.0484626415
 31
0.0
 11
11.5897366277
 21
13.0489969165
 31
0.0
  0
SPLINE
  5
31C
100
AcDbEntity
  8
0
100
AcDbSpline
 62
9
  6
CONTINUOUS
 70
0
 71
3
 72
48
 73
44
 74
42
 42
0.0000001
 43
0.0000001
 44
0.0000000001
 12
0.0550286726
 22
0.8720882717
 32
0.0
 13
-0.8735227703
 23
0.022892754
 33
0.0
 40
0.0
 40
0.0
 40
0.0
 40
0.0
 40
0.0105034479
 40
0.0210013161
 40
0.0315120934
 40
0.04205392
 40
0.0526444389
 40
0.0633007287
 40
0.0740392464
 40
0.0848757815
 40
0.0958254221
 40
0.1069025314
 40
0.1294881326
 40
0.1527379328
 40
0.1767406368
 40
0.1890509754
 40
0.2015774975
 40
0.2143264159
 40
0.2273026923
 40
0.2539500201
 40
0.2815464495
 40
0.3101051309
 40
0.3396305259
 40
0.3701199879
 40
0.3857247116
 40
0.4015668767
 40
0.4176447037
 40
0.4339552891
 40
0.4672546494
 40
0.5014255134
 40
0.5364221598
 40
0.5721952505
 40
0.6086926003
 40
0.6458598283
 40
0.6836409158
 40
0.7219776775
 40
0.7608040052
 40
0.8000492461
 40
0.8396411918
 40
0.8795065021
 40
0.9195710828
 40
0.9597604369
 40
1.0
 40
1.0
 40
1.0
 40
1.0
 10
12.2908979376
 20
8.0940794782
 30
0.0
 10
12.2910906012
 20
8.0971327895
 30
0.0
 10
12.2913288669
 20
8.1032481198
 30
0.0
 10
12.2912399883
 20
8.1124297942
 30
0.0
 10
12.2907056337
 20
8.1216077076
 30
0.0
 10
12.2897282753
 20
8.1307760832
 30
0.0
 10
12.2883100682
 20
8.1399295208
 30
0.0
 10
12.2864532671
 20
8.1490625362
 30
0.0
 10
12.284160101
 20
8.158169698
 30
0.0
 10
12.2814328399
 20
8.1672455273
 30
0.0
 10
12.2782736344
 20
8.1762847663
 30
0.0
 10
12.2734580538
 20
8.1883575893
 30
0.0
 10
12.2663376215
 20
8.2033506294
 30
0.0
 10
12.256156334
 20
8.2209840433
 30
0.0
 10
12.2463595867
 20
8.2353230012
 30
0.0
 10
12.2377213476
 20
8.2466285468
 30
0.0
 10
12.2307762073
 20
8.2550942131
 30
0.0
 10
12.2234257779
 20
8.2634700114
 30
0.0
 10
12.2130011165
 20
8.2746100595
 30
0.0
 10
12.1989646503
 20
8.2882785606
 30
0.0
 10
12.1807488008
 20
8.3041035756
 30
0.0
 10
12.1610621035
 20
8.3194596921
 30
0.0
 10
12.1399541595
 20
8.3343105169
 30
0.0
 10
12.1213664197
 20
8.3461424173
 30
0.0
 10
12.1058403329
 20
8.3553314184
 30
0.0
 10
12.0937797618
 20
8.3621279814
 30
0.0
 10
12.0814001406
 20
8.3687708923
 30
0.0
 10
12.0643614834
 20
8.3774773782
 30
0.0
 10
12.0423092066
 20
8.3879427074
 30
0.0
 10
12.0148916938
 20
8.3997503709
 30
0.0
 10
11.9864126906
 20
8.4108684418
 30
0.0
 10
11.9569459926
 20
8.4212724372
 30
0.0
 10
11.9265650606
 20
8.430938023
 30
0.0
 10
11.8953434977
 20
8.4398406782
 30
0.0
 10
11.863355273
 20
8.4479562207
 30
0.0
 10
11.8306764759
 20
8.4552583636
 30
0.0
 10
11.7973902234
 20
8.4617371602
 30
0.0
 10
11.7635823789
 20
8.4673847625
 30
0.0
 10
11.7293394198
 20
8.472192419
 30
0.0
 10
11.694747911
 20
8.4761515764
 30
0.0
 10
11.6598943262
 20
8.4792536304
 30
0.0
 10
11.6248655219
 20
8.4814899844
 30
0.0
 10
11.6014533526
 20
8.4823980394
 30
0.0
 10
11.5897366277
 20
8.4827051042
 30
0.0
 11
12.2908979376
 21
8.0940794782
 31
0.0
 11
12.2912545159
 21
8.1032507001
 31
0.0
 11
12.291165976
 21
8.1124235483
 31
0.0
 11
12.2906329528
 21
8.1215926242
 31
0.0
 11
12.2896575935
 21
8.1307525291
 31
0.0
 11
12.288242065
 21
8.1398978645
 31
0.0
 11
12.2863885344
 21
8.1490232318
 31
0.0
 11
12.2840991685
 21
8.1581232324
 31
0.0
 11
12.2813761345
 21
8.1671924678
 31
0.0
 11
12.2782215993
 21
8.1762255394
 31
0.0
 11
12.2746377298
 21
8.1852170485
 31
0.0
 11
12.2661906562
 21
8.2030537853
 31
0.0
 11
12.2560522494
 21
8.2206594895
 31
0.0
 11
12.2442398454
 21
8.2379909725
 31
0.0
 11
12.2377113119
 21
8.2465403845
 31
0.0
 11
12.2307714957
 21
8.2550051927
 31
0.0
 11
12.2234259424
 21
8.2633806928
 31
0.0
 11
12.215680817
 21
8.2716623083
 31
0.0
 11
12.1990165101
 21
8.2879255786
 31
0.0
 11
12.1808278951
 21
8.3037583899
 31
0.0
 11
12.1611642921
 21
8.3191241287
 31
0.0
 11
12.1400750213
 21
8.3339861814
 31
0.0
 11
12.1176094029
 21
8.3483079344
 31
0.0
 11
12.1058758758
 21
8.3552547568
 31
0.0
 11
12.0938167569
 21
8.3620527743
 31
0.0
 11
12.081438233
 21
8.3686974208
 31
0.0
 11
12.0687476637
 21
8.3751847092
 31
0.0
 11
12.0424669358
 21
8.3876747704
 31
0.0
 11
12.0150483724
 21
8.3994984239
 31
0.0
 11
11.9865659141
 21
8.4106312051
 31
0.0
 11
11.9570935016
 21
8.4210486497
 31
0.0
 11
11.9267050755
 21
8.4307262933
 31
0.0
 11
11.8954745763
 21
8.4396396716
 31
0.0
 11
11.8634759447
 21
8.44776432
 31
0.0
 11
11.830784377
 21
8.4550773274
 31
0.0
 11
11.7974833128
 21
8.4615659793
 31
0.0
 11
11.7636595165
 21
8.4672216736
 31
0.0
 11
11.7293997617
 21
8.4720358196
 31
0.0
 11
11.6947908219
 21
8.4759998263
 31
0.0
 11
11.6599194706
 21
8.4791051032
 31
0.0
 11
11.6248724814
 21
8.4813430594
 31
0.0
 11
11.5897366277
 21
8.4827051042
 31
0.0
  0
ENDSEC
  0
SECTION
  2
OBJECTS
  0
DICTIONARY
  5
C
100
AcDbDictionary
280
0
281
1
  3
ACAD_GROUP
350
D
  3
ACAD_MLINESTYLE
350
17
  3
ACAD_LAYOUT
350
1A
  3
ACAD_PLOTSETTINGS
350
19
  3
ACAD_PLOTSTYLENAME
350
E
  0
DICTIONARY
  5
D
102
{ACAD_REACTORS
330
C
102
}
100
AcDbDictionary
280
0
281
1
  0
ACDBDICTIONARYWDFLT
  5
E
102
{ACAD_REACTORS
330
C
102
}
100
AcDbDictionary
281
1
  3
Normal
350
F
100
AcDbDictionaryWithDefault
340
F
  0
DICTIONARY
  5
17
102
{ACAD_REACTORS
330
C
102
}
100
AcDbDictionary
280
0
281
1
  3
Standard
350
18
  0
DICTIONARY
  5
19
102
{ACAD_REACTORS
330
C
102
}
100
AcDbDictionary
281
1
  0
DICTIONARY
  5
1A
102
{ACAD_REACTORS
330
C
102
}
100
AcDbDictionary
281
1
  3
Model
350
31D
  3
Layout1
350
31E
  0
ACDBPLACEHOLDER
  5
F
102
{ACAD_REACTORS
330
E
102
}
  0
MLINESTYLE
  5
18
102
{ACAD_REACTORS
330
17
102
}
100
AcDbMlineStyle
  2
STANDARD
 70
0
  3

 62
256
 51
90.0
 52
90.0
 71
2
 49
0.5
 62
256
  6
BYLAYER
 49
-0.5
 62
256
  6
BYLAYER
  0
LAYOUT
  5
31D
102
{ACAD_REACTORS
330
1A
102
}
100
AcDbPlotSettings
  1

  2
none_device
  4
ISO_A2_(594.00_x_420.00_MM)
  6

 40
0.0
 41
0.0
 42
0.0
 43
0.0
 44
594.0
 45
420.0
 46
0.0
 47
0.0
 48
0.0
 49
0.0
140
0.0
141
0.0
142
1.0
143
1.0
 70
1024
 72
0
 73
0
 74
0
  7

 75
0
147
1.0
148
0.0
149
0.0
100
AcDbLayout
  1
Model
 70
0
 71
0
 10
0.0
 20
0.0
 11
23.3858267717
 21
16.5354330709
 12
0.0
 22
0.0
 32
0.0
 14
0.0
 24
0.0
 34
0.0
 15
0.0
 25
0.0
 35
0.0
146
0.0
 13
0.0
 23
0.0
 33
0.0
 16
1.0
 26
0.0
 36
0.0
 17
0.0
 27
1.0
 37
0.0
 76
0
330
203
345
0
346
0
  0
LAYOUT
  5
31E
102
{ACAD_REACTORS
330
1A
102
}
100
AcDbPlotSettings
  1

  2
none_device
  4
ISO_A2_(594.00_x_420.00_MM)
  6

 40
0.0
 41
0.0
 42
0.0
 43
0.0
 44
594.0
 45
420.0
 46
0.0
 47
0.0
 48
0.0
 49
0.0
140
0.0
141
0.0
142
1.0
143
1.0
 70
0
 72
0
 73
0
 74
0
  7

 75
0
147
1.0
148
0.0
149
0.0
100
AcDbLayout
  1
Layout1
 70
0
 71
1
 10
0.0
 20
0.0
 11
23.3858267717
 21
16.5354330709
 12
0.0
 22
0.0
 32
0.0
 14
0.0
 24
0.0
 34
0.0
 15
0.0
 25
0.0
 35
0.0
146
0.0
 13
0.0
 23
0.0
 33
0.0
 16
1.0
 26
0.0
 36
0.0
 17
0.0
 27
1.0
 37
0.0
 76
0
330
204
345
0
346
0
  0
ENDSEC
  0
EOF
