  0
SECTION
  2
HEADER
  9
$ACADVER
  1
AC1015
  9
$DWGCODEPAGE
  3
ANSI_1252
  9
$EXTMAX
 10
33.1102362205
 20
23.3858267717
 30
0.0
  9
$EXTMIN
 10
0.0
 20
0.0
 30
0.0
  9
$LIMMIN
 10
0.0
 20
0.0
  9
$LIMMAX
 10
33.1102362205
 20
23.3858267717
  9
$VIEWCTR
 10
16.5551181102
 20
11.6929133858
  9
$VIEWSIZE
 40
23.3858267717
  9
$CLAYER
  8
0
  9
$LTSCALE
 40
1.8210629921
  9
$CELTYPE
  6
BYLAYER
  9
$DIMSCALE
 40
1.0
  9
$DIMASZ
 40
0.1875
  9
$DIMEXO
 40
0.2069389764
  9
$DIMDLI
 40
1.2581889764
  9
$DIMEXE
 40
0.595984252
  9
$DIMCEN
 40
0.297992126
  9
$DIMLFAC
 40
1.0
  9
$DIMBLK
  1
_CLOSED
  9
$DIMTXT
 40
0.15625
  9
$DIMTOL
 70
0
  9
$DIMLIM
 70
0
  9
$DIMTFAC
 40
1.0
  9
$PDMODE
 70
3
  9
$PDSIZE
 40
0.3125
  9
$HANDSEED
  5
390
  9
$TILEMODE
 70
1
  9
$MEASUREMENT
 70
0
  9
$INSUNITS
 70
1
  0
ENDSEC
  0
SECTION
  2
CLASSES
  0
CLASS
  1
ACDBDICTIONARYWDFLT
  2
AcDbDictionaryWithDefault
  3
AutoCAD 2000
 90
0
280
0
281
0
  0
CLASS
  1
ACDBPLACEHOLDER
  2
AcDbPlaceHolder
  3
AutoCAD 2000
 90
0
280
0
281
0
  0
CLASS
  1
LAYOUT
  2
AcDbLayout
  3
AutoCAD 2000
 90
0
280
0
281
0
  0
ENDSEC
  0
SECTION
  2
TABLES
  0
TABLE
  2
VPORT
  5
8
100
AcDbSymbolTable
 70
2
  0
VPORT
  5
1F4
100
AcDbSymbolTableRecord
100
AcDbViewportTableRecord
  2
*ACTIVE
 70
0
 10
0.0
 20
0.0
 11
1.0
 21
1.0
 12
16.5551181102
 22
11.6929133858
 13
0.0
 23
0.0
 14
1.0
 24
1.0
 15
0.0
 25
0.0
 16
0.0
 26
0.0
 36
1.0
 17
0.0
 27
0.0
 37
0.0
 40
23.3858267717
 41
1.4158249158
 42
50.0
 43
0.0
 44
0.0
 50
0.0
 51
0.0
 71
0
 72
100
 73
1
 74
1
 75
0
 76
0
 77
0
 78
0
  0
ENDTAB
  0
TABLE
  2
LTYPE
  5
5
100
AcDbSymbolTable
 70
6
  0
LTYPE
  5
14
100
AcDbSymbolTableRecord
100
AcDbLinetypeTableRecord
  2
BYBLOCK
 70
0
  3

 72
65
 73
0
 40
0.0
  0
LTYPE
  5
15
100
AcDbSymbolTableRecord
100
AcDbLinetypeTableRecord
  2
BYLAYER
 70
0
  3

 72
65
 73
0
 40
0.0
  0
LTYPE
  5
16
100
AcDbSymbolTableRecord
100
AcDbLinetypeTableRecord
  2
CONTINUOUS
 70
64
  3
Solid line
 72
65
 73
0
 40
0.0
  0
LTYPE
  5
1F5
100
AcDbSymbolTableRecord
100
AcDbLinetypeTableRecord
  2
CENTER
 70
64
  3
____ _ ____ _ ____ _ ____ _ ____ _ ____ _ ____
 72
65
 73
4
 40
0.6
 49
0.375
 74
0
 49
-0.075
 74
0
 49
0.075
 74
0
 49
-0.075
 74
0
  0
LTYPE
  5
1F6
100
AcDbSymbolTableRecord
100
AcDbLinetypeTableRecord
  2
HIDDEN
 70
64
  3
- - - - - - - - - - - - - - - - - - - -
 72
65
 73
2
 40
0.2
 49
0.1
 74
0
 49
-0.1
 74
0
  0
LTYPE
  5
1F7
100
AcDbSymbolTableRecord
100
AcDbLinetypeTableRecord
  2
PHANTOM
 70
64
  3
_____ _ _ _____ _ _ _____ _ _ _____
 72
65
 73
6
 40
0.8
 49
0.45
 74
0
 49
-0.05
 74
0
 49
0.1
 74
0
 49
-0.05
 74
0
 49
0.1
 74
0
 49
-0.05
 74
0
  0
LTYPE
  5
1F8
100
AcDbSymbolTableRecord
100
AcDbLinetypeTableRecord
  2
DOT
 70
64
  3
. . . . . . . . . . . . . . . . . . . .
 72
65
 73
2
 40
0.2
 49
0.1
 74
0
 49
-0.1
 74
0
  0
LTYPE
  5
1F9
100
AcDbSymbolTableRecord
100
AcDbLinetypeTableRecord
  2
DASHED
 70
64
  3
- - - - - - - - - - - - - - - - - - - -
 72
65
 73
2
 40
0.2
 49
0.1
 74
0
 49
-0.1
 74
0
  0
ENDTAB
  0
TABLE
  2
LAYER
  5
2
100
AcDbSymbolTable
 70
36
  0
LAYER
  5
10
100
AcDbSymbolTableRecord
100
AcDbLayerTableRecord
  2
0
 70
0
 62
7
  6
CONTINUOUS
370
-3
390
F
  0
LAYER
  5
1FA
100
AcDbSymbolTableRecord
100
AcDbLayerTableRecord
  2
DEFAULT_1
 70
0
 62
7
  6
CENTER
370
-3
390
F
  0
LAYER
  5
1FB
100
AcDbSymbolTableRecord
100
AcDbLayerTableRecord
  2
DEFAULT_2
 70
0
 62
8
  6
HIDDEN
370
-3
390
F
  0
LAYER
  5
1FC
100
AcDbSymbolTableRecord
100
AcDbLayerTableRecord
  2
DEFAULT_3
 70
0
 62
7
  6
PHANTOM
370
-3
390
F
  0
LAYER
  5
1FD
100
AcDbSymbolTableRecord
100
AcDbLayerTableRecord
  2
DEFAULT_COORDINATE_SYSTEM
 70
0
 62
7
  6
CONTINUOUS
370
-3
390
F
  0
LAYER
  5
1FE
100
AcDbSymbolTableRecord
100
AcDbLayerTableRecord
  2
DEFAULT_DATUM_AXES
 70
0
 62
7
  6
CONTINUOUS
370
-3
390
F
  0
LAYER
  5
1FF
100
AcDbSymbolTableRecord
100
AcDbLayerTableRecord
  2
DEFAULT_DATUM_CURVES
 70
0
 62
7
  6
CONTINUOUS
370
-3
390
F
  0
LAYER
  5
200
100
AcDbSymbolTableRecord
100
AcDbLayerTableRecord
  2
DEFAULT_DATUM_PLANES
 70
0
 62
7
  6
CONTINUOUS
370
-3
390
F
  0
ENDTAB
  0
TABLE
  2
STYLE
  5
3
100
AcDbSymbolTable
 70
1
  0
STYLE
  5
11
100
AcDbSymbolTableRecord
100
AcDbTextStyleTableRecord
  2
STANDARD
 70
0
 40
0.0
 41
0.8
 50
0.0
 71
0
 42
0.2
  3
txt
  4

  0
STYLE
  5
201
100
AcDbSymbolTableRecord
100
AcDbTextStyleTableRecord
  2
TEXTSTYLE_1
 70
0
 40
0.0
 41
0.8
 50
0.0
 71
0
 42
0.2
  3
gdt
  4

  0
ENDTAB
  0
TABLE
  2
VIEW
  5
6
100
AcDbSymbolTable
 70
0
  0
ENDTAB
  0
TABLE
  2
UCS
  5
7
100
AcDbSymbolTable
 70
0
  0
ENDTAB
  0
TABLE
  2
APPID
  5
9
100
AcDbSymbolTable
 70
1
  0
APPID
  5
202
100
AcDbSymbolTableRecord
100
AcDbRegAppTableRecord
  2
ACAD
 70
0
  0
ENDTAB
  0
TABLE
  2
BLOCK_RECORD
  5
1
100
AcDbSymbolTable
 70
0
  0
BLOCK_RECORD
  5
203
100
AcDbSymbolTableRecord
100
AcDbBlockTableRecord
  2
*Model_Space
  0
BLOCK_RECORD
  5
204
100
AcDbSymbolTableRecord
100
AcDbBlockTableRecord
  2
*Paper_Space
  0
ENDTAB
  0
TABLE
  2
DIMSTYLE
  5
A
100
AcDbSymbolTable
 70
1
100
AcDbDimStyleTable
 71
0
  0
DIMSTYLE
105
205
100
AcDbSymbolTableRecord
100
AcDbDimStyleTableRecord
  2
STANDARD
 70
0
  3

  4

 40
1.0
 41
0.1875
 42
0.0625
 43
0.38
 44
0.18
 45
0.0
 46
0.0
 47
0.01
 48
0.01
140
0.15625
141
0.09
142
0.0
143
25.4
144
1.0
145
0.0
146
1.0
147
0.09
 71
0.0
 72
0.0
 73
1
 74
1
 75
0
 76
0
 77
0
 78
4
170
0
171
2
172
0
173
0
174
0
175
0
176
0
177
0
178
0
270
2
271
2
272
2
273
2
274
2
275
0
280
0
281
0
282
0
283
1
284
4
285
0
286
0
287
3
288
0
340
11
  0
ENDTAB
  0
ENDSEC
  0
SECTION
  2
BLOCKS
  0
BLOCK
  5
20
100
AcDbEntity
  8
0
100
AcDbBlockBegin
  2
*Model_Space
 70
0
 10
0.0
 20
0.0
 30
0.0
  3
*Model_Space
  1

  0
ENDBLK
  5
21
100
AcDbEntity
  8
0
100
AcDbBlockEnd
  0
BLOCK
  5
1C
100
AcDbEntity
  8
0
100
AcDbBlockBegin
  2
*Paper_Space
 70
0
 10
0.0
 20
0.0
 30
0.0
  3
*Paper_Space
  1

  0
ENDBLK
  5
1D
100
AcDbEntity
  8
0
100
AcDbBlockEnd
  0
ENDSEC
  0
SECTION
  2
ENTITIES
  0
LINE
  5
206
100
AcDbEntity
  8
0
100
AcDbLine
 62
6
  6
CONTINUOUS
 10
4.4434464813
 20
15.1023976123
 11
4.4434464813
 21
15.718369934
  0
LINE
  5
207
100
AcDbEntity
  8
0
100
AcDbLine
 62
6
  6
CONTINUOUS
 10
4.4634464813
 20
15.0823837731
 11
4.4634464813
 21
15.7383837731
  0
LINE
  5
208
100
AcDbEntity
  8
0
100
AcDbLine
 62
6
  6
CONTINUOUS
 10
4.4634464813
 20
15.7383837731
 11
4.4434464813
 21
15.7183837731
  0
LINE
  5
209
100
AcDbEntity
  8
0
100
AcDbLine
 62
6
  6
CONTINUOUS
 10
7.0514464813
 20
15.0420280976
 11
7.0514464813
 21
15.7787394486
  0
LINE
  5
20A
100
AcDbEntity
  8
0
100
AcDbLine
 62
6
  6
CONTINUOUS
 10
7.2138464813
 20
15.0420280976
 11
7.2138464813
 21
15.7787394486
  0
LINE
  5
20B
100
AcDbEntity
  8
0
100
AcDbLine
 62
6
  6
CONTINUOUS
 10
7.3762464813
 20
15.0420280976
 11
7.3762464813
 21
15.7787394486
  0
LINE
  5
20C
100
AcDbEntity
  8
0
100
AcDbLine
 62
6
  6
CONTINUOUS
 10
7.5386464813
 20
15.0420280976
 11
7.5386464813
 21
15.7787394486
  0
LINE
  5
20D
100
AcDbEntity
  8
0
100
AcDbLine
 62
6
  6
CONTINUOUS
 10
7.7010464813
 20
15.0420280976
 11
7.7010464813
 21
15.7787394486
  0
LINE
  5
20E
100
AcDbEntity
  8
0
100
AcDbLine
 62
6
  6
CONTINUOUS
 10
7.8634464813
 20
15.0420280976
 11
7.8634464813
 21
15.7787394486
  0
LINE
  5
20F
100
AcDbEntity
  8
0
100
AcDbLine
 62
6
  6
CONTINUOUS
 10
8.3234464813
 20
15.0823837731
 11
8.3234464813
 21
15.7383837731
  0
LINE
  5
210
100
AcDbEntity
  8
0
100
AcDbLine
 62
6
  6
CONTINUOUS
 10
8.3434464813
 20
15.1023976123
 11
8.3434464813
 21
15.718369934
  0
LINE
  5
211
100
AcDbEntity
  8
0
100
AcDbLine
 62
6
  6
CONTINUOUS
 10
8.3434464813
 20
15.1023837731
 11
8.3234464813
 21
15.0823837731
  0
LWPOLYLINE
  5
212
100
AcDbEntity
  8
0
100
AcDbPolyline
 62
6
  6
CONTINUOUS
 90
12
 70
0
 10
10.996768073
 20
14.6896420934
 10
10.9940499301
 20
14.6854751261
 10
10.9896664679
 20
14.6779298439
 10
10.9856558694
 20
14.6701118845
 10
10.9820604536
 20
14.6620494906
 10
10.9789592068
 20
14.6538910765
 10
10.9763888039
 20
14.6457690962
 10
10.9743247589
 20
14.6376817205
 10
10.9727379738
 20
14.629581801
 10
10.9716117958
 20
14.6214177757
 10
10.9709426021
 20
14.6131365273
 10
10.9707383258
 20
14.6053269574
  0
LINE
  5
213
100
AcDbEntity
  8
0
100
AcDbLine
 62
6
  6
CONTINUOUS
 10
11.3285987436
 20
14.9700208151
 11
11.3247153154
 21
14.9668375464
  0
LWPOLYLINE
  5
214
100
AcDbEntity
  8
0
100
AcDbPolyline
 62
6
  6
CONTINUOUS
 90
18
 70
0
 10
11.0534429799
 20
14.7973629135
 10
11.0485859762
 20
14.7934490548
 10
11.0422032506
 20
14.7877276208
 10
11.0363360775
 20
14.7818749043
 10
11.0309398433
 20
14.7758802199
 10
11.0259805373
 20
14.7697380141
 10
11.021414144
 20
14.7634185085
 10
11.0172022254
 20
14.7568810312
 10
11.013307544
 20
14.7500623086
 10
11.0097765514
 20
14.7430177327
 10
11.006684408
 20
14.7358935001
 10
11.0040141043
 20
14.7286722222
 10
11.0017552208
 20
14.7213378527
 10
10.9999034065
 20
14.7138784844
 10
10.9984561777
 20
14.7062713571
 10
10.9974147371
 20
14.6984756165
 10
10.9967878269
 20
14.6904298165
 10
10.9965939367
 20
14.6826980855
  0
LINE
  5
215
100
AcDbEntity
  8
0
100
AcDbLine
 62
6
  6
CONTINUOUS
 10
11.0674938728
 20
11.6578207206
 11
11.0648837082
 21
11.6923289387
  0
LWPOLYLINE
  5
216
100
AcDbEntity
  8
0
100
AcDbPolyline
 62
6
  6
CONTINUOUS
 90
18
 70
0
 10
10.4627496704
 20
10.2413453048
 10
10.4637131993
 20
10.2125905958
 10
10.4655964524
 20
10.1828386479
 10
10.4683956848
 20
10.1529192173
 10
10.4721195833
 20
10.1228777797
 10
10.4767748601
 20
10.0927607383
 10
10.4823659317
 20
10.0626171022
 10
10.4888948956
 20
10.032497424
 10
10.4963610081
 20
10.0024552345
 10
10.5047561301
 20
9.9725609659
 10
10.5140655207
 20
9.9428910831
 10
10.5242718311
 20
9.9135138687
 10
10.535364303
 20
9.8844692345
 10
10.5473344775
 20
9.8557895423
 10
10.560174008
 20
9.8275067216
 10
10.5738700408
 20
9.799652639
 10
10.5884048869
 20
9.7722566278
 10
10.6027117731
 20
9.7471251809
  0
LWPOLYLINE
  5
217
100
AcDbEntity
  8
0
100
AcDbPolyline
 62
6
  6
CONTINUOUS
 90
5
 70
0
 10
11.0467287419
 20
12.6312188894
 10
11.0469204989
 20
12.6229995169
 10
11.0475806444
 20
12.6137379817
 10
11.0487388764
 20
12.6041208516
 10
11.0503990877
 20
12.5942799485
  0
LWPOLYLINE
  5
218
100
AcDbEntity
  8
0
100
AcDbPolyline
 62
6
  6
CONTINUOUS
 90
5
 70
0
 10
10.9965939367
 20
12.5614986269
 10
10.9967614948
 20
12.5542530054
 10
10.997390314
 20
12.545625402
 10
10.9985560887
 20
12.5364586842
 10
10.9992895782
 20
12.5324434856
  0
LINE
  5
219
100
AcDbEntity
  8
0
100
AcDbLine
 62
9
  6
CONTINUOUS
 10
10.4627501246
 20
10.2413212697
 11
10.4627496704
 21
10.2413453048
  0
LINE
  5
21A
100
AcDbEntity
  8
0
100
AcDbLine
 62
9
  6
CONTINUOUS
 10
11.1179156846
 20
12.6893182632
 11
11.117921262
 21
12.6886270108
  0
LINE
  5
21B
100
AcDbEntity
  8
0
100
AcDbLine
 62
9
  6
CONTINUOUS
 10
11.1179156846
 20
14.8105170534
 11
11.117921262
 21
14.8098261228
  0
LINE
  5
21C
100
AcDbEntity
  8
0
100
AcDbLine
 62
6
  6
CONTINUOUS
 10
11.117921262
 20
12.6886270108
 11
11.1179427681
 21
12.6859585895
  0
LINE
  5
21D
100
AcDbEntity
  8
0
100
AcDbLine
 62
6
  6
CONTINUOUS
 10
10.9674464813
 20
15.1135604711
 11
10.9674464813
 21
15.0299980818
  0
LINE
  5
21E
100
AcDbEntity
  8
0
100
AcDbLine
 62
6
  6
CONTINUOUS
 10
10.9699464813
 20
15.4103837731
 11
10.9699464813
 21
15.151281177
  0
LINE
  5
21F
100
AcDbEntity
  8
0
100
AcDbLine
 62
6
  6
CONTINUOUS
 10
10.9707383258
 20
14.6053267121
 11
10.9707383258
 21
12.4841276001
  0
LINE
  5
220
100
AcDbEntity
  8
0
100
AcDbLine
 62
6
  6
CONTINUOUS
 10
10.9884464813
 20
15.1387089383
 11
10.9884464813
 21
14.714068407
  0
LINE
  5
221
100
AcDbEntity
  8
0
100
AcDbLine
 62
6
  6
CONTINUOUS
 10
10.9965939367
 20
14.6826978996
 11
10.9965939367
 21
12.5614987877
  0
LINE
  5
222
100
AcDbEntity
  8
0
100
AcDbLine
 62
6
  6
CONTINUOUS
 10
11.0467287419
 20
14.7524180557
 11
11.0467287419
 21
12.6312189437
  0
LINE
  5
223
100
AcDbEntity
  8
0
100
AcDbLine
 62
6
  6
CONTINUOUS
 10
11.1179156846
 20
14.8105173751
 11
11.1179156846
 21
12.6893182632
  0
LINE
  5
224
100
AcDbEntity
  8
0
100
AcDbLine
 62
6
  6
CONTINUOUS
 10
11.2078792115
 20
14.8668349112
 11
11.2078792115
 21
12.7456357992
  0
LINE
  5
225
100
AcDbEntity
  8
0
100
AcDbLine
 62
6
  6
CONTINUOUS
 10
11.0709108887
 20
11.5674407244
 11
11.0701192003
 21
11.555779202
  0
LWPOLYLINE
  5
226
100
AcDbEntity
  8
0
100
AcDbPolyline
 62
6
  6
CONTINUOUS
 90
3
 70
0
 10
11.0710196801
 20
11.5660484166
 10
11.0706443128
 20
11.5608483891
 10
11.0697772828
 20
11.5507221033
  0
LINE
  5
227
100
AcDbEntity
  8
0
100
AcDbLine
 62
6
  6
CONTINUOUS
 10
11.0701192003
 20
11.555779202
 11
11.0690774165
 21
11.54414818
  0
LWPOLYLINE
  5
228
100
AcDbEntity
  8
0
100
AcDbPolyline
 62
6
  6
CONTINUOUS
 90
3
 70
0
 10
11.0697772828
 20
11.5507221033
 10
11.0686747234
 20
11.540053505
 10
11.0673139671
 20
11.5288499288
  0
LINE
  5
229
100
AcDbEntity
  8
0
100
AcDbLine
 62
6
  6
CONTINUOUS
 10
11.0690774193
 20
11.5441482073
 11
11.0682423211
 21
11.5364933875
  0
LINE
  5
22A
100
AcDbEntity
  8
0
100
AcDbLine
 62
6
  6
CONTINUOUS
 10
11.0673139671
 20
11.5288499288
 11
11.0656718091
 21
11.5171195743
  0
LINE
  5
22B
100
AcDbEntity
  8
0
100
AcDbLine
 62
6
  6
CONTINUOUS
 10
11.0656718091
 20
11.5171195743
 11
11.0637255108
 21
11.5048790316
  0
LINE
  5
22C
100
AcDbEntity
  8
0
100
AcDbLine
 62
6
  6
CONTINUOUS
 10
11.0637255108
 20
11.5048790316
 11
11.0616037352
 21
11.4929748181
  0
LINE
  5
22D
100
AcDbEntity
  8
0
100
AcDbLine
 62
6
  6
CONTINUOUS
 10
11.0616702938
 20
11.4933004817
 11
11.0615430124
 21
11.492634133
  0
LWPOLYLINE
  5
22E
100
AcDbEntity
  8
0
100
AcDbPolyline
 62
6
  6
CONTINUOUS
 90
11
 70
0
 10
11.0616702938
 20
11.4933004817
 10
11.0596765157
 20
11.4835451468
 10
11.0572580691
 20
11.4727940424
 10
11.0544659528
 20
11.4614429833
 10
11.0512739331
 20
11.4494926207
 10
11.0476552109
 20
11.4369442786
 10
11.0435826399
 20
11.423800733
 10
11.0390283594
 20
11.4100649425
 10
11.0339640154
 20
11.3957408059
 10
11.0283609739
 20
11.3808335998
 10
11.0224168549
 20
11.3659028973
  0
LINE
  5
22F
100
AcDbEntity
  8
0
100
AcDbLine
 62
9
  6
CONTINUOUS
 10
10.9708278724
 20
11.2599928892
 11
10.9628268292
 21
11.2376148444
  0
LWPOLYLINE
  5
230
100
AcDbEntity
  8
0
100
AcDbPolyline
 62
6
  6
CONTINUOUS
 90
22
 70
0
 10
11.1293924069
 20
14.8782909499
 10
11.122409444
 20
14.875082293
 10
11.1149463332
 20
14.8711941068
 10
11.1079744625
 20
14.8670694634
 10
11.1014572297
 20
14.8627137113
 10
11.0953659901
 20
14.8581352274
 10
11.0896900836
 20
14.8533517807
 10
11.0844157369
 20
14.8483766016
 10
11.0795277156
 20
14.8432185463
 10
11.0750265851
 20
14.837902625
 10
11.0709202239
 20
14.8324698874
 10
11.067183077
 20
14.8269228956
 10
11.0637170662
 20
14.8211297918
 10
11.0604280001
 20
14.8148832935
 10
11.0573539635
 20
14.8081341912
 10
11.0545979921
 20
14.8009879037
 10
11.0522406169
 20
14.7935893136
 10
11.0502995106
 20
14.7859772508
 10
11.0487641039
 20
14.778077436
 10
11.0476398978
 20
14.7698076582
 10
11.046949022
 20
14.7610813738
 10
11.0467287419
 20
14.7524182878
  0
LWPOLYLINE
  5
231
100
AcDbEntity
  8
0
100
AcDbPolyline
 62
6
  6
CONTINUOUS
 90
24
 70
0
 10
11.1984362098
 20
14.9314436519
 10
11.1930145981
 20
14.9295312267
 10
11.1866548704
 20
14.9269381761
 10
11.1804844704
 20
14.9240269756
 10
11.1745538897
 20
14.9208198047
 10
11.1689091501
 20
14.9173460504
 10
11.1635823051
 20
14.9136357313
 10
11.158590288
 20
14.9097151305
 10
11.1539423313
 20
14.9056090521
 10
11.1496394903
 20
14.9013385592
 10
11.1456633694
 20
14.8969052266
 10
11.1419751649
 20
14.8922815786
 10
11.1385561647
 20
14.887454376
 10
11.1353922022
 20
14.8824082386
 10
11.1324655315
 20
14.8771121401
 10
11.1297574125
 20
14.8715164574
 10
11.1272400071
 20
14.8655038621
 10
11.1249356068
 20
14.8590153002
 10
11.1228810403
 20
14.8520077404
 10
11.1211288755
 20
14.8444902331
 10
11.1197274295
 20
14.8364968675
 10
11.1187113654
 20
14.8280583877
 10
11.1181033684
 20
14.8192000521
 10
11.1179156846
 20
14.8105170534
  0
LINE
  5
232
100
AcDbEntity
  8
0
100
AcDbLine
 62
6
  6
CONTINUOUS
 10
4.4634464813
 20
15.0823837731
 11
4.4434464813
 21
15.1023837731
  0
LWPOLYLINE
  5
233
100
AcDbEntity
  8
0
100
AcDbPolyline
 62
6
  6
CONTINUOUS
 90
12
 70
0
 10
11.0674938728
 20
11.6578207206
 10
11.0681609489
 20
11.6531726867
 10
11.0688863204
 20
11.6474693668
 10
11.0695886251
 20
11.6410725141
 10
11.0702389235
 20
11.6339992474
 10
11.0708079625
 20
11.6262709922
 10
11.0712666996
 20
11.6179093689
 10
11.0715861976
 20
11.6089390328
 10
11.0717379299
 20
11.5993842825
 10
11.0716940053
 20
11.5892657931
 10
11.0714271658
 20
11.5786098455
 10
11.0709108887
 20
11.5674407244
  0
LINE
  5
234
100
AcDbEntity
  8
0
100
AcDbLine
 62
6
  6
CONTINUOUS
 10
11.8466506415
 20
11.5364933875
 11
11.8458155433
 21
11.5441482073
  0
LWPOLYLINE
  5
235
100
AcDbEntity
  8
0
100
AcDbPolyline
 62
6
  6
CONTINUOUS
 90
4
 70
0
 10
11.8462182392
 20
11.540053505
 10
11.8451156798
 20
11.5507221033
 10
11.8442486498
 20
11.5608483891
 10
11.8438732825
 20
11.5660484166
  0
LINE
  5
236
100
AcDbEntity
  8
0
100
AcDbLine
 62
6
  6
CONTINUOUS
 10
11.8458155461
 20
11.54414818
 11
11.8447737623
 21
11.555779202
  0
LINE
  5
237
100
AcDbEntity
  8
0
100
AcDbLine
 62
6
  6
CONTINUOUS
 10
11.7526190173
 20
14.8640985417
 11
11.7543337708
 21
14.8404982981
  0
LWPOLYLINE
  5
238
100
AcDbEntity
  8
0
100
AcDbPolyline
 62
6
  6
CONTINUOUS
 90
13
 70
0
 10
11.8447737623
 20
11.555779202
 10
11.8439820739
 20
11.5674407244
 10
11.8434657968
 20
11.5786098455
 10
11.8431989573
 20
11.5892657931
 10
11.8431550327
 20
11.5993842825
 10
11.843306765
 20
11.6089390328
 10
11.843626263
 20
11.6179093689
 10
11.8440850001
 20
11.6262709922
 10
11.8446540391
 20
11.6339992474
 10
11.8453043375
 20
11.6410725141
 10
11.8460066422
 20
11.6474693668
 10
11.8467320137
 20
11.6531726867
 10
11.8473990898
 20
11.6578207206
  0
LWPOLYLINE
  5
239
100
AcDbEntity
  8
0
100
AcDbPolyline
 62
6
  6
CONTINUOUS
 90
20
 70
0
 10
11.8960938345
 20
14.7188137495
 10
11.8958761067
 20
14.7271896188
 10
11.8951858638
 20
14.7357357026
 10
11.8940549484
 20
14.7439043638
 10
11.8925015379
 20
14.7517684417
 10
11.8905285145
 20
14.7593983345
 10
11.8881147294
 20
14.7668876537
 10
11.8852521517
 20
14.7742455766
 10
11.8819930449
 20
14.7813520711
 10
11.878424347
 20
14.7880850741
 10
11.8745944143
 20
14.7944371063
 10
11.8704267106
 20
14.8005650443
 10
11.8658541074
 20
14.8065478737
 10
11.8608509307
 20
14.8123850807
 10
11.8554042288
 20
14.8180581152
 10
11.8495052026
 20
14.8235453462
 10
11.8431387021
 20
14.8288315816
 10
11.8362678812
 20
14.8339168989
 10
11.8288609108
 20
14.838795577
 10
11.8233642715
 20
14.8420088441
  0
LWPOLYLINE
  5
23A
100
AcDbEntity
  8
0
100
AcDbPolyline
 62
6
  6
CONTINUOUS
 90
15
 70
0
 10
11.9344059021
 20
14.6445724614
 10
11.9342094259
 20
14.6522556874
 10
11.9335667151
 20
14.6603678944
 10
11.9324886955
 20
14.6683198584
 10
11.9309775962
 20
14.6761549572
 10
11.929025496
 20
14.6839149298
 10
11.9266146677
 20
14.6916379312
 10
11.9237298627
 20
14.6993285272
 10
11.9203879572
 20
14.7069161704
 10
11.9166264536
 20
14.714323352
 10
11.9124826601
 20
14.7215048608
 10
11.9079239969
 20
14.7285183734
 10
11.9029358169
 20
14.7353618145
 10
11.8974961386
 20
14.7420422845
 10
11.8935662915
 20
14.7463781693
  0
LWPOLYLINE
  5
23B
100
AcDbEntity
  8
0
100
AcDbPolyline
 62
6
  6
CONTINUOUS
 90
9
 70
0
 10
11.9474177355
 20
14.5655842469
 10
11.947229886
 20
14.5730746189
 10
11.9466075898
 20
14.5811093308
 10
11.9455540132
 20
14.5890817825
 10
11.9440643477
 20
14.5970309892
 10
11.9421244752
 20
14.604994974
 10
11.9397109131
 20
14.6130106332
 10
11.9367918449
 20
14.6211105385
 10
11.9344059021
 20
14.6267692622
  0
LWPOLYLINE
  5
23C
100
AcDbEntity
  8
0
100
AcDbPolyline
 62
6
  6
CONTINUOUS
 90
23
 70
0
 10
11.8349558829
 20
14.7831083588
 10
11.8347376541
 20
14.7920398787
 10
11.8340495283
 20
14.8010190961
 10
11.8329256922
 20
14.80949741
 10
11.8313970258
 20
14.8175168891
 10
11.8294903742
 20
14.82511478
 10
11.8272287525
 20
14.8323240498
 10
11.8246382589
 20
14.8391575817
 10
11.8217803269
 20
14.8455538099
 10
11.8187361588
 20
14.8514521254
 10
11.8155102784
 20
14.8569428336
 10
11.8120663206
 20
14.8621323805
 10
11.8083490065
 20
14.8671159316
 10
11.8043059426
 20
14.8719527257
 10
11.7999170238
 20
14.8766445621
 10
11.7951734238
 20
14.8811777699
 10
11.7900711319
 20
14.8855343232
 10
11.7846090363
 20
14.889694651
 10
11.7787878715
 20
14.8936386793
 10
11.7726137667
 20
14.8973438474
 10
11.7660972824
 20
14.9007869803
 10
11.7592350649
 20
14.9039536863
 10
11.7530396967
 20
14.90645316
  0
LINE
  5
23D
100
AcDbEntity
  8
0
100
AcDbLine
 62
6
  6
CONTINUOUS
 10
11.3135183905
 20
14.9049149991
 11
11.3135183905
 21
12.7837158871
  0
LINE
  5
23E
100
AcDbEntity
  8
0
100
AcDbLine
 62
6
  6
CONTINUOUS
 10
11.4282011008
 20
14.9216736745
 11
11.4282011008
 21
12.8004745625
  0
LINE
  5
23F
100
AcDbEntity
  8
0
100
AcDbLine
 62
6
  6
CONTINUOUS
 10
11.4574464813
 20
11.0647726744
 11
11.4574464813
 21
10.5406690925
  0
LINE
  5
240
100
AcDbEntity
  8
0
100
AcDbLine
 62
9
  6
CONTINUOUS
 10
11.4574464813
 20
9.2802936916
 11
11.4574464813
 21
10.5406690834
  0
LINE
  5
241
100
AcDbEntity
  8
0
100
AcDbLine
 62
9
  6
CONTINUOUS
 10
11.4574464813
 20
11.0647726744
 11
11.4574464813
 21
12.749176
  0
LINE
  5
242
100
AcDbEntity
  8
0
100
AcDbLine
 62
6
  6
CONTINUOUS
 10
11.5447214058
 20
14.9160579281
 11
11.5447214058
 21
12.7948588162
  0
LINE
  5
243
100
AcDbEntity
  8
0
100
AcDbLine
 62
6
  6
CONTINUOUS
 10
11.6557579064
 20
14.888420618
 11
11.6557579064
 21
12.7672215061
  0
LINE
  5
244
100
AcDbEntity
  8
0
100
AcDbLine
 62
6
  6
CONTINUOUS
 10
11.7543337708
 20
14.8404982981
 11
11.7543337708
 21
12.7192991861
  0
LINE
  5
245
100
AcDbEntity
  8
0
100
AcDbLine
 62
6
  6
CONTINUOUS
 10
11.8342551149
 20
14.7753021038
 11
11.8342551149
 21
12.6541029918
  0
LINE
  5
246
100
AcDbEntity
  8
0
100
AcDbLine
 62
6
  6
CONTINUOUS
 10
11.8349558829
 20
12.6619092174
 11
11.8349558829
 21
14.7831083294
  0
LINE
  5
247
100
AcDbEntity
  8
0
100
AcDbLine
 62
6
  6
CONTINUOUS
 10
11.8960938345
 20
12.5976143854
 11
11.8960938345
 21
14.7188134973
  0
LINE
  5
248
100
AcDbEntity
  8
0
100
AcDbLine
 62
6
  6
CONTINUOUS
 10
11.9264464813
 20
14.71406695
 11
11.9264464813
 21
15.1387089383
  0
LINE
  5
249
100
AcDbEntity
  8
0
100
AcDbLine
 62
6
  6
CONTINUOUS
 10
11.9344059021
 20
12.523373156
 11
11.9344059021
 21
14.6445722679
  0
LINE
  5
24A
100
AcDbEntity
  8
0
100
AcDbLine
 62
6
  6
CONTINUOUS
 10
11.9449464813
 20
15.4103837731
 11
11.9449464813
 21
15.1512804082
  0
LINE
  5
24B
100
AcDbEntity
  8
0
100
AcDbLine
 62
6
  6
CONTINUOUS
 10
11.9474177355
 20
12.4727458754
 11
11.9474177355
 21
14.5655840338
  0
LINE
  5
24C
100
AcDbEntity
  8
0
100
AcDbLine
 62
6
  6
CONTINUOUS
 10
11.9474464813
 20
15.1135604711
 11
11.9474464813
 21
15.0299980818
  0
LINE
  5
24D
100
AcDbEntity
  8
0
100
AcDbLine
 62
6
  6
CONTINUOUS
 10
11.8347525471
 20
12.6530953868
 11
11.8349558829
 21
12.6619093253
  0
LINE
  5
24E
100
AcDbEntity
  8
0
100
AcDbLine
 62
6
  6
CONTINUOUS
 10
11.8473990898
 20
11.6578207206
 11
11.8500092544
 21
11.6923289387
  0
LINE
  5
24F
100
AcDbEntity
  8
0
100
AcDbLine
 62
9
  6
CONTINUOUS
 10
11.8342551149
 20
14.7753021038
 11
11.8349558829
 21
14.7831083294
  0
LINE
  5
250
100
AcDbEntity
  8
0
100
AcDbLine
 62
9
  6
CONTINUOUS
 10
11.8342551149
 20
12.6541029918
 11
11.8349558829
 21
12.6619092174
  0
LWPOLYLINE
  5
251
100
AcDbEntity
  8
0
100
AcDbPolyline
 62
6
  6
CONTINUOUS
 90
4
 70
0
 10
11.9331987755
 20
12.5046214316
 10
11.9335488225
 20
12.5072472324
 10
11.9342087974
 20
12.5156555035
 10
11.9344059021
 20
12.5233738194
  0
LWPOLYLINE
  5
252
100
AcDbEntity
  8
0
100
AcDbPolyline
 62
6
  6
CONTINUOUS
 90
4
 70
0
 10
11.8317393496
 20
12.6257088069
 10
11.8328780528
 20
12.6330580303
 10
11.834066783
 20
12.6432603524
 10
11.8347525471
 20
12.6530953868
  0
LWPOLYLINE
  5
253
100
AcDbEntity
  8
0
100
AcDbPolyline
 62
6
  6
CONTINUOUS
 90
5
 70
0
 10
11.8928943777
 20
12.5647041795
 10
11.8942068388
 20
12.5723177893
 10
11.8953226032
 20
12.5815526584
 10
11.8959299181
 20
12.5902586986
 10
11.8960938345
 20
12.5976141533
  0
LINE
  5
254
100
AcDbEntity
  8
0
100
AcDbLine
 62
6
  6
CONTINUOUS
 10
11.8469295318
 20
11.6545489476
 11
11.9675679168
 21
12.2984677804
  0
LWPOLYLINE
  5
255
100
AcDbEntity
  8
0
100
AcDbPolyline
 62
6
  6
CONTINUOUS
 90
8
 70
0
 10
11.0224168107
 20
11.3659027892
 10
11.0166596753
 20
11.3521688777
 10
11.0102243532
 20
11.33754167
 10
11.003304176
 20
11.3225500931
 10
10.995885011
 20
11.3072164738
 10
10.9879526478
 20
11.291563965
 10
10.9794929176
 20
11.2756167817
 10
10.9708279707
 20
11.2599930626
  0
LWPOLYLINE
  5
256
100
AcDbEntity
  8
0
100
AcDbPolyline
 62
6
  6
CONTINUOUS
 90
9
 70
0
 10
10.9708278724
 20
11.2599928892
 10
10.9595898433
 20
11.2407489502
 10
10.9474852398
 20
11.2212163424
 10
10.9348365685
 20
11.2019661467
 10
10.921656522
 20
11.1830222319
 10
10.9079576653
 20
11.164407991
 10
10.8937534982
 20
11.1461475413
 10
10.8790575596
 20
11.1282642323
 10
10.8643623808
 20
11.1113180556
  0
LWPOLYLINE
  5
257
100
AcDbEntity
  8
0
100
AcDbPolyline
 62
6
  6
CONTINUOUS
 90
22
 70
0
 10
10.6931468058
 20
10.915018503
 10
10.6727065618
 20
10.8870237582
 10
10.651122523
 20
10.8555716315
 10
10.6306924126
 20
10.823729906
 10
10.611432111
 20
10.7915535219
 10
10.5933488304
 20
10.7590854101
 10
10.5764558093
 20
10.7263815095
 10
10.5607537647
 20
10.6934905094
 10
10.5462393981
 20
10.6604616083
 10
10.5329138111
 20
10.6273553615
 10
10.5207835864
 20
10.5942424635
 10
10.5098522442
 20
10.5611999633
 10
10.5001184948
 20
10.5283122313
 10
10.4915631695
 20
10.4956246005
 10
10.4841599531
 20
10.4631448701
 10
10.4778862349
 20
10.4308759288
 10
10.4727168769
 20
10.398811359
 10
10.4686242524
 20
10.3669051295
 10
10.4655867804
 20
10.335073442
 10
10.4636007544
 20
10.3033256614
 10
10.462664637
 20
10.2717592604
 10
10.4627494966
 20
10.2413210814
  0
LINE
  5
258
100
AcDbEntity
  8
0
100
AcDbLine
 62
9
  6
CONTINUOUS
 10
10.7832697013
 20
11.0224843463
 11
10.7753578174
 21
11.0117992096
  0
LINE
  5
259
100
AcDbEntity
  8
0
100
AcDbLine
 62
9
  6
CONTINUOUS
 10
10.6932266236
 20
10.9151247074
 11
10.6931520163
 21
10.9150254348
  0
LINE
  5
25A
100
AcDbEntity
  8
0
100
AcDbLine
 62
6
  6
CONTINUOUS
 10
14.4634464813
 20
15.7383837731
 11
14.4434464813
 21
15.7183837731
  0
LINE
  5
25B
100
AcDbEntity
  8
0
100
AcDbLine
 62
6
  6
CONTINUOUS
 10
11.8552164469
 20
11.4835451468
 11
11.8532226688
 21
11.4933004817
  0
LINE
  5
25C
100
AcDbEntity
  8
0
100
AcDbLine
 62
6
  6
CONTINUOUS
 10
11.8532226688
 20
11.4933004817
 11
11.8533499502
 21
11.492634133
  0
LINE
  5
25D
100
AcDbEntity
  8
0
100
AcDbLine
 62
6
  6
CONTINUOUS
 10
10.9473250458
 20
12.2984677804
 11
11.0679634308
 21
11.6545489476
  0
LWPOLYLINE
  5
25E
100
AcDbEntity
  8
0
100
AcDbPolyline
 62
6
  6
CONTINUOUS
 90
3
 70
0
 10
11.8532892274
 20
11.4929748181
 10
11.8511674518
 20
11.5048790316
 10
11.8492211535
 20
11.5171195743
  0
LWPOLYLINE
  5
25F
100
AcDbEntity
  8
0
100
AcDbPolyline
 62
6
  6
CONTINUOUS
 90
3
 70
0
 10
11.8492211535
 20
11.5171195743
 10
11.8475789955
 20
11.5288499288
 10
11.8462182392
 20
11.540053505
  0
LWPOLYLINE
  5
260
100
AcDbEntity
  8
0
100
AcDbPolyline
 62
6
  6
CONTINUOUS
 90
22
 70
0
 10
12.452143466
 20
10.2413210814
 10
12.4522283256
 20
10.2717592604
 10
12.4512922082
 20
10.3033256614
 10
12.4493061822
 20
10.335073442
 10
12.4462687102
 20
10.3669051295
 10
12.4421760857
 20
10.398811359
 10
12.4370067277
 20
10.4308759288
 10
12.4307330095
 20
10.4631448701
 10
12.4233297931
 20
10.4956246005
 10
12.4147744678
 20
10.5283122313
 10
12.4050407184
 20
10.5611999633
 10
12.3941093762
 20
10.5942424635
 10
12.3819791515
 20
10.6273553615
 10
12.3686535645
 20
10.6604616083
 10
12.3541391979
 20
10.6934905094
 10
12.3384371533
 20
10.7263815095
 10
12.3215441322
 20
10.7590854101
 10
12.3034608516
 20
10.7915535219
 10
12.28420055
 20
10.823729906
 10
12.2637704396
 20
10.8555716315
 10
12.2421864008
 20
10.8870237582
 10
12.2217461568
 20
10.915018503
  0
LINE
  5
261
100
AcDbEntity
  8
0
100
AcDbLine
 62
9
  6
CONTINUOUS
 10
12.452142838
 20
10.2413212697
 11
12.4521432922
 21
10.2413453048
  0
LWPOLYLINE
  5
262
100
AcDbEntity
  8
0
100
AcDbPolyline
 62
6
  6
CONTINUOUS
 90
3
 70
0
 10
10.8643623148
 20
11.1113179815
 10
10.8509934538
 20
11.0963520321
 10
10.8368437629
 20
11.0806160624
  0
LINE
  5
263
100
AcDbEntity
  8
0
100
AcDbLine
 62
6
  6
CONTINUOUS
 10
10.8368437629
 20
11.0806160624
 11
10.8230515103
 21
11.0653776353
  0
LWPOLYLINE
  5
264
100
AcDbEntity
  8
0
100
AcDbPolyline
 62
6
  6
CONTINUOUS
 90
5
 70
0
 10
10.7832697934
 20
11.0224844452
 10
10.7590567659
 20
10.9957955563
 10
10.7352989184
 20
10.9681577711
 10
10.7125678984
 20
10.9402086158
 10
10.6932266182
 20
10.9151247002
  0
LINE
  5
265
100
AcDbEntity
  8
0
100
AcDbLine
 62
6
  6
CONTINUOUS
 10
10.8229045932
 20
11.0652153133
 11
10.823226839
 21
11.0655672348
  0
LWPOLYLINE
  5
266
100
AcDbEntity
  8
0
100
AcDbPolyline
 62
6
  6
CONTINUOUS
 90
4
 70
0
 10
10.823226839
 20
11.0655672348
 10
10.8101476167
 20
11.0514234287
 10
10.7964507913
 20
11.0366551821
 10
10.7832697013
 20
11.0224843464
  0
LINE
  5
267
100
AcDbEntity
  8
0
100
AcDbLine
 62
9
  6
CONTINUOUS
 10
12.1316232613
 20
11.0224843463
 11
12.1395351452
 21
11.0117992096
  0
LWPOLYLINE
  5
268
100
AcDbEntity
  8
0
100
AcDbPolyline
 62
6
  6
CONTINUOUS
 90
8
 70
0
 10
11.9440649919
 20
11.2599930626
 10
11.935400045
 20
11.2756167817
 10
11.9269403148
 20
11.291563965
 10
11.9190079516
 20
11.3072164738
 10
11.9115887866
 20
11.3225500931
 10
11.9046686094
 20
11.33754167
 10
11.8982332873
 20
11.3521688777
 10
11.8924761519
 20
11.3659027892
  0
LWPOLYLINE
  5
269
100
AcDbEntity
  8
0
100
AcDbPolyline
 62
6
  6
CONTINUOUS
 90
10
 70
0
 10
11.8924761077
 20
11.3659028973
 10
11.8865319887
 20
11.3808335998
 10
11.8809289472
 20
11.3957408059
 10
11.8758646032
 20
11.4100649425
 10
11.8713103227
 20
11.423800733
 10
11.8672377517
 20
11.4369442786
 10
11.8636190295
 20
11.4494926207
 10
11.8604270098
 20
11.4614429833
 10
11.8576348935
 20
11.4727940424
 10
11.8552164469
 20
11.4835451468
  0
LINE
  5
26A
100
AcDbEntity
  8
0
100
AcDbLine
 62
9
  6
CONTINUOUS
 10
11.9440650902
 20
11.2599928892
 11
11.9520661334
 21
11.2376148444
  0
LWPOLYLINE
  5
26B
100
AcDbEntity
  8
0
100
AcDbPolyline
 62
6
  6
CONTINUOUS
 90
23
 70
0
 10
11.7526190173
 20
14.8640985417
 10
11.7518451825
 20
14.8685660502
 10
11.7504356297
 20
14.8751772337
 10
11.7487936679
 20
14.8813917248
 10
11.7469395343
 20
14.8872299853
 10
11.7448949644
 20
14.8927080987
 10
11.7426810938
 20
14.8978436864
 10
11.7403125427
 20
14.9026579633
 10
11.7378304339
 20
14.9071185867
 10
11.7351986433
 20
14.9113319112
 10
11.7323242796
 20
14.9154462227
 10
11.7291428648
 20
14.9195185953
 10
11.7256192384
 20
14.9235460442
 10
11.7217444214
 20
14.9274916243
 10
11.7175783317
 20
14.9312633158
 10
11.7131810523
 20
14.9347992164
 10
11.7084993717
 20
14.93813994
 10
11.7034398441
 20
14.9413309058
 10
11.6980186364
 20
14.9443316739
 10
11.6923529043
 20
14.9470618118
 10
11.6865738669
 20
14.9494651454
 10
11.6808166081
 20
14.9515117561
 10
11.6764362501
 20
14.9528532685
  0
LWPOLYLINE
  5
26C
100
AcDbEntity
  8
0
100
AcDbPolyline
 62
6
  6
CONTINUOUS
 90
18
 70
0
 10
12.3121811895
 20
9.7471251809
 10
12.3264880935
 20
9.7722566601
 10
12.3410229374
 20
9.7996526697
 10
12.3547189683
 20
9.8275067507
 10
12.3675584971
 20
9.8557895697
 10
12.3795286699
 20
9.8844692603
 10
12.3906211402
 20
9.9135138926
 10
12.4008274492
 20
9.9428911051
 10
12.4101368384
 20
9.9725609859
 10
12.4185319593
 20
10.0024552524
 10
12.4259980707
 20
10.0324974397
 10
12.4325270336
 20
10.0626171157
 10
12.4381181044
 20
10.0927607495
 10
12.4427733805
 20
10.1228777886
 10
12.4464972785
 20
10.152919224
 10
12.4492965105
 20
10.1828386523
 10
12.4511797634
 20
10.212590598
 10
12.4521432922
 20
10.2413453048
  0
LWPOLYLINE
  5
26D
100
AcDbEntity
  8
0
100
AcDbPolyline
 62
6
  6
CONTINUOUS
 90
3
 70
0
 10
12.1316232613
 20
11.0224843464
 10
12.1184421713
 20
11.0366551821
 10
12.1047453459
 20
11.0514234287
  0
LINE
  5
26E
100
AcDbEntity
  8
0
100
AcDbLine
 62
6
  6
CONTINUOUS
 10
12.1047453459
 20
11.0514234287
 11
12.0916661236
 21
11.0655672348
  0
LINE
  5
26F
100
AcDbEntity
  8
0
100
AcDbLine
 62
6
  6
CONTINUOUS
 10
12.0919883694
 20
11.0652153133
 11
12.0916661236
 21
11.0655672348
  0
LINE
  5
270
100
AcDbEntity
  8
0
100
AcDbLine
 62
6
  6
CONTINUOUS
 10
12.1558361967
 20
10.9957955563
 11
12.1316231692
 21
11.0224844452
  0
LWPOLYLINE
  5
271
100
AcDbEntity
  8
0
100
AcDbPolyline
 62
6
  6
CONTINUOUS
 90
4
 70
0
 10
12.0918414523
 20
11.0653776353
 10
12.0780491997
 20
11.0806160624
 10
12.0638995088
 20
11.0963520321
 10
12.0505306478
 20
11.1113179815
  0
LWPOLYLINE
  5
272
100
AcDbEntity
  8
0
100
AcDbPolyline
 62
6
  6
CONTINUOUS
 90
9
 70
0
 10
12.0505305818
 20
11.1113180556
 10
12.035835403
 20
11.1282642323
 10
12.0211394644
 20
11.1461475413
 10
12.0069352973
 20
11.164407991
 10
11.9932364406
 20
11.1830222319
 10
11.9800563941
 20
11.2019661467
 10
11.9674077228
 20
11.2212163424
 10
11.9553031193
 20
11.2407489502
 10
11.9440650902
 20
11.2599928892
  0
LWPOLYLINE
  5
273
100
AcDbEntity
  8
0
100
AcDbPolyline
 62
6
  6
CONTINUOUS
 90
4
 70
0
 10
12.2216663444
 20
10.9151247002
 10
12.2023250642
 20
10.9402086158
 10
12.1795940441
 20
10.9681577711
 10
12.1558361967
 20
10.9957955563
  0
LINE
  5
274
100
AcDbEntity
  8
0
100
AcDbLine
 62
9
  6
CONTINUOUS
 10
12.221666339
 20
10.9151247074
 11
12.2217409463
 21
10.9150254348
  0
LINE
  5
275
100
AcDbEntity
  8
0
100
AcDbLine
 62
6
  6
CONTINUOUS
 10
14.4434464813
 20
15.1023976123
 11
14.4434464813
 21
15.718369934
  0
LINE
  5
276
100
AcDbEntity
  8
0
100
AcDbLine
 62
6
  6
CONTINUOUS
 10
14.4634464813
 20
15.0823837731
 11
14.4634464813
 21
15.7383837731
  0
LINE
  5
277
100
AcDbEntity
  8
0
100
AcDbLine
 62
6
  6
CONTINUOUS
 10
8.3434464813
 20
15.7183837731
 11
8.3234464813
 21
15.7383837731
  0
LWPOLYLINE
  5
278
100
AcDbEntity
  8
0
100
AcDbPolyline
 62
6
  6
CONTINUOUS
 90
17
 70
0
 10
11.645387539
 20
14.9452174804
 10
11.6442710212
 20
14.9470372413
 10
11.6424880509
 20
14.9497253777
 10
11.6405454151
 20
14.9523957463
 10
11.6383975383
 20
14.955086554
 10
11.6359886241
 20
14.9578308654
 10
11.6332572308
 20
14.9606493029
 10
11.6301397581
 20
14.9635463674
 10
11.6265982099
 20
14.9664893339
 10
11.6226608296
 20
14.9693930679
 10
11.6183770789
 20
14.9721756992
 10
11.6137980742
 20
14.9747739411
 10
11.6089817343
 20
14.9771376891
 10
11.6039851384
 20
14.9792368525
 10
11.5988602721
 20
14.9810575724
 10
11.5936595114
 20
14.9825929227
 10
11.5903194998
 20
14.9834241692
  0
LINE
  5
279
100
AcDbEntity
  8
0
100
AcDbLine
 62
6
  6
CONTINUOUS
 10
18.3434464813
 20
15.1023837731
 11
18.3234464813
 21
15.0823837731
  0
LINE
  5
27A
100
AcDbEntity
  8
0
100
AcDbLine
 62
6
  6
CONTINUOUS
 10
11.5358839253
 20
14.9797524234
 11
11.5355792212
 21
14.9799989651
  0
LINE
  5
27B
100
AcDbEntity
  8
0
100
AcDbLine
 62
6
  6
CONTINUOUS
 10
17.0514464813
 20
15.7787394486
 11
17.0514464813
 21
15.0420280976
  0
LINE
  5
27C
100
AcDbEntity
  8
0
100
AcDbLine
 62
6
  6
CONTINUOUS
 10
17.2138464813
 20
15.7787394486
 11
17.2138464813
 21
15.0420280976
  0
LINE
  5
27D
100
AcDbEntity
  8
0
100
AcDbLine
 62
6
  6
CONTINUOUS
 10
17.3762464813
 20
15.7787394486
 11
17.3762464813
 21
15.0420280976
  0
LINE
  5
27E
100
AcDbEntity
  8
0
100
AcDbLine
 62
6
  6
CONTINUOUS
 10
17.5386464813
 20
15.7787394486
 11
17.5386464813
 21
15.0420280976
  0
LINE
  5
27F
100
AcDbEntity
  8
0
100
AcDbLine
 62
6
  6
CONTINUOUS
 10
17.7010464813
 20
15.7787394486
 11
17.7010464813
 21
15.0420280976
  0
LINE
  5
280
100
AcDbEntity
  8
0
100
AcDbLine
 62
6
  6
CONTINUOUS
 10
17.8634464813
 20
15.7787394486
 11
17.8634464813
 21
15.0420280976
  0
LINE
  5
281
100
AcDbEntity
  8
0
100
AcDbLine
 62
6
  6
CONTINUOUS
 10
18.3234464813
 20
15.0823837731
 11
18.3234464813
 21
15.7383837731
  0
LINE
  5
282
100
AcDbEntity
  8
0
100
AcDbLine
 62
6
  6
CONTINUOUS
 10
18.3434464813
 20
15.1023976123
 11
18.3434464813
 21
15.718369934
  0
LINE
  5
283
100
AcDbEntity
  8
0
100
AcDbLine
 62
6
  6
CONTINUOUS
 10
14.4634464813
 20
15.0823837731
 11
14.4434464813
 21
15.1023837731
  0
LINE
  5
284
100
AcDbEntity
  8
0
100
AcDbLine
 62
6
  6
CONTINUOUS
 10
24.5714464813
 20
15.7183837731
 11
24.5914464813
 21
15.7383837731
  0
LWPOLYLINE
  5
285
100
AcDbEntity
  8
0
100
AcDbPolyline
 62
6
  6
CONTINUOUS
 90
64
 70
0
 10
20.7562851715
 20
11.5804663343
 10
20.7622081421
 20
11.4851024653
 10
20.7680498831
 20
11.3879391634
 10
20.7737511896
 20
11.2898546063
 10
20.7793003229
 20
11.1909859358
 10
20.784686802
 20
11.0914598033
 10
20.7899039532
 20
10.991340449
 10
20.794946178
 20
10.8906726023
 10
20.7998078359
 20
10.7895010135
 10
20.8044830682
 20
10.6878739881
 10
20.8089653237
 20
10.5858547231
 10
20.8132479867
 20
10.4835107075
 10
20.8173245775
 20
10.3809099393
 10
20.8211887803
 20
10.2781203697
 10
20.824834489
 20
10.1752086544
 10
20.8282557533
 20
10.0722414913
 10
20.831446775
 20
9.9692858893
 10
20.8344022996
 20
9.8663943864
 10
20.8371186195
 20
9.7635582934
 10
20.8395913268
 20
9.6607767383
 10
20.8418133183
 20
9.5581578661
 10
20.8437776699
 20
9.4558325044
 10
20.8454789785
 20
9.3538876671
 10
20.8469124554
 20
9.2523964275
 10
20.8480736246
 20
9.1514317406
 10
20.8489583753
 20
9.0510616015
 10
20.8495629938
 20
8.9513316525
 10
20.8498838332
 20
8.85228124
 10
20.8499172326
 20
8.7539498373
 10
20.8496595047
 20
8.6563726927
 10
20.8491067859
 20
8.559568443
 10
20.8482549694
 20
8.4635584691
 10
20.8471004879
 20
8.3684219958
 10
20.8456407862
 20
8.2742673175
 10
20.8438739374
 20
8.1811865148
 10
20.8417984677
 20
8.0892570687
 10
20.839413902
 20
7.9985684517
 10
20.8367210111
 20
7.9092206441
 10
20.8337196341
 20
7.8212556936
 10
20.8304072381
 20
7.7346493513
 10
20.8267813713
 20
7.6493952797
 10
20.8228406635
 20
7.5655178628
 10
20.8185850844
 20
7.4830657276
 10
20.8140172126
 20
7.4021231937
 10
20.8091410115
 20
7.3227760738
 10
20.8039617019
 20
7.245107309
 10
20.7984852914
 20
7.1691897073
 10
20.7927185871
 20
7.0950876985
 10
20.7866696501
 20
7.022863669
 10
20.7803475957
 20
6.9525748597
 10
20.7737601199
 20
6.8842486125
 10
20.7669142045
 20
6.8178967778
 10
20.7598175933
 20
6.7535298433
 10
20.7524822669
 20
6.6911859337
 10
20.7449234365
 20
6.6309154851
 10
20.7371584263
 20
6.5727681825
 10
20.7292086796
 20
6.5168052276
 10
20.7210994111
 20
6.4630920107
 10
20.7128571895
 20
6.4116801544
 10
20.7045100636
 20
6.3626098553
 10
20.6960884222
 20
6.3159156837
 10
20.6876249927
 20
6.2716262716
 10
20.6791548365
 20
6.2297641234
 10
20.6707885491
 20
6.190678004
  0
LWPOLYLINE
  5
286
100
AcDbEntity
  8
0
100
AcDbPolyline
 62
6
  6
CONTINUOUS
 90
65
 70
0
 10
22.5139543914
 20
15.0172219277
 10
22.516841819
 20
15.0247691782
 10
22.5284564768
 20
15.0582708899
 10
22.5390276979
 20
15.0921889258
 10
22.5485438462
 20
15.1264958425
 10
22.5569903763
 20
15.1611546889
 10
22.564346498
 20
15.1960939576
 10
22.5705956694
 20
15.2312382081
 10
22.5757290326
 20
15.266531059
 10
22.5797402665
 20
15.301914823
 10
22.5826241873
 20
15.3373062716
 10
22.5843821092
 20
15.3726348607
 10
22.5850200514
 20
15.4079180177
 10
22.5845385654
 20
15.4431982114
 10
22.5829375026
 20
15.4785179525
 10
22.5802112845
 20
15.5139033606
 10
22.5763574379
 20
15.5492935584
 10
22.5713805869
 20
15.5846029656
 10
22.5652870044
 20
15.6197710236
 10
22.5580848621
 20
15.6547430283
 10
22.5497895605
 20
15.6894457392
 10
22.5404219449
 20
15.7238046644
 10
22.5299975507
 20
15.7577786439
 10
22.5185281538
 20
15.7913401047
 10
22.5060228727
 20
15.824466407
 10
22.4924798507
 20
15.8571576424
 10
22.4778957364
 20
15.889421693
 10
22.4622715147
 20
15.9212606319
 10
22.4456166207
 20
15.9526523614
 10
22.4279424094
 20
15.9835688045
 10
22.4092664839
 20
16.0139708007
 10
22.3896262495
 20
16.0437916569
 10
22.3690628357
 20
16.0729681873
 10
22.3476094035
 20
16.1014555022
 10
22.325303751
 20
16.129207036
 10
22.3022023227
 20
16.1561597701
 10
22.2783513658
 20
16.182270579
 10
22.2537376039
 20
16.2075606558
 10
22.2283309336
 20
16.2320602647
 10
22.2021013278
 20
16.2557987211
 10
22.1750306115
 20
16.27878572
 10
22.1471654423
 20
16.3009722668
 10
22.1185686702
 20
16.322302643
 10
22.0892873257
 20
16.3427391116
 10
22.0593676042
 20
16.3622480621
 10
22.0288695292
 20
16.38079083
 10
21.9978554645
 20
16.3983325397
 10
21.9663717225
 20
16.4148514414
 10
21.9344594492
 20
16.4303303634
 10
21.9021399228
 20
16.4447619362
 10
21.8693762868
 20
16.4581603608
 10
21.8361214209
 20
16.4705412904
 10
21.8024002475
 20
16.4818922002
 10
21.7683654529
 20
16.4921634421
 10
21.7342047414
 20
16.5013128532
 10
21.7005483732
 20
16.5092214353
 10
21.6684836061
 20
16.5157579708
 10
21.6385098026
 20
16.521003261
 10
21.610255535
 20
16.5251927997
 10
21.5833291717
 20
16.5285106244
 10
21.557605776
 20
16.5310695497
 10
21.5330352725
 20
16.5329592043
 10
21.5095655968
 20
16.5342594838
 10
21.4871220507
 20
16.5350419412
 10
21.4656944867
 20
16.535368042
  0
LINE
  5
287
100
AcDbEntity
  8
0
100
AcDbLine
 62
6
  6
CONTINUOUS
 10
18.3234464813
 20
15.0823837731
 11
17.8634464813
 21
15.0823837731
  0
LINE
  5
288
100
AcDbEntity
  8
0
100
AcDbLine
 62
6
  6
CONTINUOUS
 10
17.0514464813
 20
15.0823837731
 11
14.4634464813
 21
15.0823837731
  0
LINE
  5
289
100
AcDbEntity
  8
0
100
AcDbLine
 62
6
  6
CONTINUOUS
 10
8.3234464813
 20
15.0823837731
 11
7.8634464813
 21
15.0823837731
  0
LINE
  5
28A
100
AcDbEntity
  8
0
100
AcDbLine
 62
6
  6
CONTINUOUS
 10
7.0514464813
 20
15.0823837731
 11
4.4634464813
 21
15.0823837731
  0
LINE
  5
28B
100
AcDbEntity
  8
0
100
AcDbLine
 62
6
  6
CONTINUOUS
 10
24.5914464813
 20
15.0823837731
 11
25.0514464813
 21
15.0823837731
  0
LINE
  5
28C
100
AcDbEntity
  8
0
100
AcDbLine
 62
6
  6
CONTINUOUS
 10
25.8634464813
 20
15.0823837731
 11
28.4514464813
 21
15.0823837731
  0
LINE
  5
28D
100
AcDbEntity
  8
0
100
AcDbLine
 62
6
  6
CONTINUOUS
 10
21.4574464813
 20
5.2298774312
 11
21.4574464813
 21
16.5353837731
  0
LWPOLYLINE
  5
28E
100
AcDbEntity
  8
0
100
AcDbPolyline
 62
6
  6
CONTINUOUS
 90
4
 70
0
 10
22.5244340607
 20
15.0695903953
 10
22.5260609451
 20
15.0770107426
 10
22.5266222438
 20
15.0794920598
 10
22.5270190569
 20
15.0812109361
  0
LINE
  5
28F
100
AcDbEntity
  8
0
100
AcDbLine
 62
6
  6
CONTINUOUS
 10
22.5270190569
 20
15.0812109361
 11
22.5273154417
 21
15.0824648302
  0
LWPOLYLINE
  5
290
100
AcDbEntity
  8
0
100
AcDbPolyline
 62
6
  6
CONTINUOUS
 90
20
 70
0
 10
11.2809481798
 20
14.9702982414
 10
11.2768012914
 20
14.9691724783
 10
11.2712645872
 20
14.9673948323
 10
11.2658295476
 20
14.9653218395
 10
11.2605364371
 20
14.9629597266
 10
11.2554263938
 20
14.960319582
 10
11.2505369975
 20
14.9574159428
 10
11.2459097967
 20
14.9542733417
 10
11.2416097303
 20
14.9509526129
 10
11.2376927379
 20
14.9475343171
 10
11.2341631088
 20
14.9440731796
 10
11.2310029411
 20
14.9406078871
 10
11.2281703096
 20
14.9371473813
 10
11.2256170218
 20
14.9336804143
 10
11.2232797143
 20
14.930154487
 10
11.2211027689
 20
14.9264985041
 10
11.2190651552
 20
14.9226730663
 10
11.2171665191
 20
14.9186675319
 10
11.2154070183
 20
14.9144727902
 10
11.2143403483
 20
14.9116480165
  0
LWPOLYLINE
  5
291
100
AcDbEntity
  8
0
100
AcDbPolyline
 62
6
  6
CONTINUOUS
 90
14
 70
0
 10
11.3663492794
 20
14.9915540448
 10
11.3645515524
 20
14.9910793231
 10
11.3598959522
 20
14.9896705375
 10
11.3553094794
 20
14.9880110143
 10
11.3508843519
 20
14.9861297107
 10
11.3467075513
 20
14.9840769161
 10
11.3428553283
 20
14.981918131
 10
11.3393510681
 20
14.979704763
 10
11.3361637647
 20
14.9774561156
 10
11.3332612702
 20
14.9751836573
 10
11.33062847
 20
14.9729070243
 10
11.328255754
 20
14.9706497576
 10
11.3261337897
 20
14.9684365296
 10
11.3247153154
 20
14.9668375464
  0
LINE
  5
292
100
AcDbEntity
  8
0
100
AcDbLine
 62
6
  6
CONTINUOUS
 10
18.3234464813
 20
15.7383837731
 11
17.8634464813
 21
15.7383837731
  0
LINE
  5
293
100
AcDbEntity
  8
0
100
AcDbLine
 62
6
  6
CONTINUOUS
 10
17.0514464813
 20
15.7383837731
 11
14.4634464813
 21
15.7383837731
  0
LINE
  5
294
100
AcDbEntity
  8
0
100
AcDbLine
 62
6
  6
CONTINUOUS
 10
8.3234464813
 20
15.7383837731
 11
7.8634464813
 21
15.7383837731
  0
LINE
  5
295
100
AcDbEntity
  8
0
100
AcDbLine
 62
6
  6
CONTINUOUS
 10
7.0514464813
 20
15.7383837731
 11
4.4634464813
 21
15.7383837731
  0
LINE
  5
296
100
AcDbEntity
  8
0
100
AcDbLine
 62
6
  6
CONTINUOUS
 10
24.5914464813
 20
15.7383837731
 11
25.0514464813
 21
15.7383837731
  0
LINE
  5
297
100
AcDbEntity
  8
0
100
AcDbLine
 62
6
  6
CONTINUOUS
 10
25.8634464813
 20
15.7383837731
 11
28.4514464813
 21
15.7383837731
  0
LINE
  5
298
100
AcDbEntity
  8
0
100
AcDbLine
 62
6
  6
CONTINUOUS
 10
18.3434464813
 20
15.7183837731
 11
18.3234464813
 21
15.7383837731
  0
LWPOLYLINE
  5
299
100
AcDbEntity
  8
0
100
AcDbPolyline
 62
6
  6
CONTINUOUS
 90
64
 70
0
 10
20.387558795
 20
15.0825422708
 10
20.3877679783
 20
15.0816630546
 10
20.3881420639
 20
15.0800531155
 10
20.3887011907
 20
15.0775934808
 10
20.3894426522
 20
15.0742606534
 10
20.3903636548
 20
15.0700325112
 10
20.3914614119
 20
15.0648879259
 10
20.3927332098
 20
15.0588064468
 10
20.3941764367
 20
15.0517681149
 10
20.3957886047
 20
15.0437532857
 10
20.3975694322
 20
15.0347318908
 10
20.3995237318
 20
15.0246473238
 10
20.401658436
 20
15.0134297538
 10
20.4039819701
 20
15.000998425
 10
20.4065038328
 20
14.9872631221
 10
20.4092310858
 20
14.9721431189
 10
20.4121687295
 20
14.9555660442
 10
20.4153236017
 20
14.9374467358
 10
20.4187024644
 20
14.9176981547
 10
20.4223278527
 20
14.8961352448
 10
20.4262359744
 20
14.8724790213
 10
20.4304667673
 20
14.8464101945
 10
20.4350621661
 20
14.8175766413
 10
20.4400592423
 20
14.7856345813
 10
20.4454903816
 20
14.750248063
 10
20.4513729211
 20
14.7111590511
 10
20.4577192538
 20
14.668125994
 10
20.464532102
 20
14.6209605652
 10
20.4717065228
 20
14.570237308
 10
20.4790755872
 20
14.5170379173
 10
20.4865838525
 20
14.4617078846
 10
20.4942529081
 20
14.4040352365
 10
20.5020781122
 20
14.3439923002
 10
20.5100343624
 20
14.2817098733
 10
20.5180969023
 20
14.2173258737
 10
20.5262555944
 20
14.1508725422
 10
20.5345097419
 20
14.0823065981
 10
20.5428586249
 20
14.0115792614
 10
20.5512920227
 20
13.9387186074
 10
20.5597926272
 20
13.8638159611
 10
20.5683428545
 20
13.786970349
 10
20.5769257834
 20
13.70828039
 10
20.5855339715
 20
13.6277634298
 10
20.5941658335
 20
13.545384095
 10
20.6028183502
 20
13.4611156566
 10
20.6114776706
 20
13.3750348679
 10
20.6201258156
 20
13.2872642137
 10
20.6287514902
 20
13.1978634555
 10
20.6373465202
 20
13.1068608265
 10
20.6459022131
 20
13.0142900056
 10
20.6544096175
 20
12.9201911171
 10
20.6628595948
 20
12.824607714
 10
20.6712429294
 20
12.7275842162
 10
20.6795497899
 20
12.6291724682
 10
20.6877701232
 20
12.5294278016
 10
20.6958939226
 20
12.4284060811
 10
20.703911556
 20
12.3261595872
 10
20.7118149195
 20
12.2227227039
 10
20.7195962157
 20
12.1181261172
 10
20.7272475383
 20
12.0124001799
 10
20.7347597438
 20
11.9055909631
 10
20.7421196802
 20
11.7978037778
 10
20.7493136354
 20
11.6891596515
 10
20.7562851719
 20
11.580466327
  0
LWPOLYLINE
  5
29A
100
AcDbEntity
  8
0
100
AcDbPolyline
 62
6
  6
CONTINUOUS
 90
64
 70
0
 10
22.2441044135
 20
6.190678004
 10
22.235738126
 20
6.2297641236
 10
22.2272679699
 20
6.2716262718
 10
22.2188045403
 20
6.3159156839
 10
22.210382899
 20
6.3626098555
 10
22.202035773
 20
6.4116801546
 10
22.1937935515
 20
6.4630920109
 10
22.185684283
 20
6.5168052278
 10
22.1777345362
 20
6.5727681828
 10
22.169969526
 20
6.6309154853
 10
22.1624106956
 20
6.691185934
 10
22.1550753693
 20
6.7535298435
 10
22.1479787581
 20
6.817896778
 10
22.1411328427
 20
6.8842486127
 10
22.1345453669
 20
6.95257486
 10
22.1282233125
 20
7.0228636692
 10
22.1221743755
 20
7.0950876987
 10
22.1164076712
 20
7.1691897076
 10
22.1109312606
 20
7.2451073093
 10
22.105751951
 20
7.322776074
 10
22.10087575
 20
7.402123194
 10
22.0963078782
 20
7.4830657278
 10
22.092052299
 20
7.5655178631
 10
22.0881115913
 20
7.6493952799
 10
22.0844857245
 20
7.7346493516
 10
22.0811733285
 20
7.8212556938
 10
22.0781719515
 20
7.9092206443
 10
22.0754790606
 20
7.998568452
 10
22.0730944949
 20
8.0892570689
 10
22.0710190252
 20
8.181186515
 10
22.0692521764
 20
8.2742673177
 10
22.0677924747
 20
8.368421996
 10
22.0666379932
 20
8.4635584693
 10
22.0657861767
 20
8.5595684432
 10
22.0652334579
 20
8.6563726929
 10
22.06497573
 20
8.7539498375
 10
22.0650091294
 20
8.8522812402
 10
22.0653299688
 20
8.9513316527
 10
22.0659345873
 20
9.0510616017
 10
22.066819338
 20
9.1514317408
 10
22.0679805072
 20
9.2523964276
 10
22.0694139841
 20
9.3538876673
 10
22.0711152927
 20
9.4558325046
 10
22.0730796443
 20
9.5581578663
 10
22.0753016358
 20
9.6607767385
 10
22.0777743431
 20
9.7635582936
 10
22.080490663
 20
9.8663943865
 10
22.0834461877
 20
9.9692858894
 10
22.0866372093
 20
10.0722414914
 10
22.0900584736
 20
10.1752086545
 10
22.0937041823
 20
10.2781203698
 10
22.0975683851
 20
10.3809099394
 10
22.1016449759
 20
10.4835107076
 10
22.1059276389
 20
10.5858547232
 10
22.1104098944
 20
10.6878739881
 10
22.1150851267
 20
10.7895010136
 10
22.1199467846
 20
10.8906726024
 10
22.1249890094
 20
10.991340449
 10
22.1302061606
 20
11.0914598033
 10
22.1355926397
 20
11.1909859358
 10
22.141141773
 20
11.2898546064
 10
22.1468430795
 20
11.3879391634
 10
22.1526848205
 20
11.4851024653
 10
22.1586077911
 20
11.5804663343
  0
LWPOLYLINE
  5
29B
100
AcDbEntity
  8
0
100
AcDbPolyline
 62
6
  6
CONTINUOUS
 90
60
 70
0
 10
22.1586077907
 20
11.580466327
 10
22.165573063
 20
11.6890635427
 10
22.1727604544
 20
11.7976130315
 10
22.1801135588
 20
11.9053073042
 10
22.1876186961
 20
12.0120255813
 10
22.195262737
 20
12.1176626448
 10
22.2030365572
 20
12.2221724809
 10
22.2109322809
 20
12.3255249529
 10
22.2189421416
 20
12.4276895804
 10
22.2270580675
 20
12.528632174
 10
22.2352704294
 20
12.6283003001
 10
22.2435692093
 20
12.7266377956
 10
22.251944341
 20
12.8235890534
 10
22.2603860162
 20
12.9191023861
 10
22.2688851636
 20
13.0131348578
 10
22.2774328148
 20
13.1056445638
 10
22.286020185
 20
13.1965927983
 10
22.2946382788
 20
13.2859423887
 10
22.3032776505
 20
13.3736521921
 10
22.3119277906
 20
13.4596708362
 10
22.3205759863
 20
13.5439267597
 10
22.3292105575
 20
13.6263608314
 10
22.337822745
 20
13.7069426953
 10
22.3464043442
 20
13.7856470216
 10
22.3549475464
 20
13.8624560984
 10
22.3634418218
 20
13.9373300913
 10
22.37187219
 20
14.0101918646
 10
22.3802231617
 20
14.0809636939
 10
22.3884794421
 20
14.1495732926
 10
22.3966327517
 20
14.2160085511
 10
22.4046857659
 20
14.2803431034
 10
22.4126426752
 20
14.3426576577
 10
22.4205052392
 20
14.4030110025
 10
22.4282440242
 20
14.4612233323
 10
22.4357908213
 20
14.5168442259
 10
22.443078721
 20
14.569467627
 10
22.4500451859
 20
14.618751292
 10
22.4566115184
 20
14.664271541
 10
22.4626820149
 20
14.705527352
 10
22.4682266562
 20
14.7424966883
 10
22.4733313056
 20
14.7759144248
 10
22.4780859427
 20
14.8064917462
 10
22.4825351807
 20
14.834609228
 10
22.4866981747
 20
14.8604675442
 10
22.4905929013
 20
14.8842494165
 10
22.494235646
 20
14.9061179628
 10
22.497637944
 20
14.9262002781
 10
22.5008096207
 20
14.9446077713
 10
22.5037601448
 20
14.9614450023
 10
22.5065013934
 20
14.9768258599
 10
22.5090475186
 20
14.9908724742
 10
22.5114109447
 20
15.0036919157
 10
22.5136026526
 20
15.0153785399
 10
22.5156314681
 20
15.0260111294
 10
22.5175001439
 20
15.0356339952
 10
22.5192086925
 20
15.0442765231
 10
22.5207569263
 20
15.0519669683
 10
22.5221444489
 20
15.0587325456
 10
22.5233706323
 20
15.064599449
 10
22.5244340607
 20
15.0695903953
  0
LINE
  5
29C
100
AcDbEntity
  8
0
100
AcDbLine
 62
6
  6
CONTINUOUS
 10
28.4514464813
 20
15.0823837731
 11
28.4714464813
 21
15.1023837731
  0
LWPOLYLINE
  5
29D
100
AcDbEntity
  8
0
100
AcDbPolyline
 62
6
  6
CONTINUOUS
 90
65
 70
0
 10
21.4491984759
 20
16.535368042
 10
21.427770913
 20
16.5350419413
 10
21.4053273682
 20
16.5342594839
 10
21.3818576939
 20
16.5329592045
 10
21.3572871919
 20
16.5310695502
 10
21.3315637979
 20
16.5285106252
 10
21.3046374364
 20
16.5251928009
 10
21.2763831708
 20
16.5210032627
 10
21.2464093697
 20
16.5157579733
 10
21.2143446053
 20
16.5092214387
 10
21.1806882394
 20
16.5013128578
 10
21.1465275296
 20
16.4921634478
 10
21.1124927362
 20
16.4818922069
 10
21.0787715638
 20
16.4705412982
 10
21.0455166988
 20
16.4581603698
 10
21.0127530639
 20
16.4447619465
 10
20.9804335384
 20
16.4303303751
 10
20.9485212661
 20
16.4148514545
 10
20.917037525
 20
16.3983325543
 10
20.8860234611
 20
16.3807908462
 10
20.8555253869
 20
16.36224808
 10
20.825605666
 20
16.3427391312
 10
20.796324322
 20
16.3223026644
 10
20.7677275503
 20
16.3009722899
 10
20.7398623814
 20
16.2787857449
 10
20.7127916652
 20
16.2557987478
 10
20.6865620595
 20
16.2320602932
 10
20.6611553893
 20
16.2075606862
 10
20.6365416274
 20
16.1822706115
 10
20.6126906705
 20
16.1561598047
 10
20.5895892421
 20
16.1292070728
 10
20.5672835894
 20
16.1014555411
 10
20.5458301568
 20
16.0729682284
 10
20.5252667425
 20
16.0437917001
 10
20.5056265076
 20
16.013970846
 10
20.4869505812
 20
15.9835688518
 10
20.4692763692
 20
15.9526524108
 10
20.4526214741
 20
15.9212606833
 10
20.4369972513
 20
15.8894217463
 10
20.4224131359
 20
15.8571576978
 10
20.4088701126
 20
15.8244664644
 10
20.3963648303
 20
15.7913401643
 10
20.3848954319
 20
15.7577787056
 10
20.3744710362
 20
15.7238047282
 10
20.3651034189
 20
15.6894458051
 10
20.3568081156
 20
15.6547430961
 10
20.3496059714
 20
15.6197710933
 10
20.3435123869
 20
15.5846030371
 10
20.3385355339
 20
15.5492936315
 10
20.334681685
 20
15.5139034353
 10
20.3319554646
 20
15.4785180284
 10
20.3303543995
 20
15.4431982887
 10
20.329872911
 20
15.4079180963
 10
20.3305108507
 20
15.3726349408
 10
20.3322687699
 20
15.3373063533
 10
20.335152688
 20
15.3019149062
 10
20.3391639191
 20
15.2665311435
 10
20.3442972794
 20
15.2312382937
 10
20.3505464478
 20
15.1960940442
 10
20.3579025665
 20
15.1611547763
 10
20.3663490935
 20
15.1264959305
 10
20.3758652386
 20
15.0921890142
 10
20.3864364566
 20
15.0582709786
 10
20.3980511112
 20
15.0247692671
 10
20.4009350166
 20
15.0172312213
  0
LINE
  5
29E
100
AcDbEntity
  8
0
100
AcDbLine
 62
7
  6
CONTINUOUS
 10
21.4199879264
 20
16.5353837731
 11
21.366952855
 21
16.5353837731
  0
LINE
  5
29F
100
AcDbEntity
  8
0
100
AcDbLine
 62
6
  6
CONTINUOUS
 10
21.4199879264
 20
16.5353837731
 11
21.4491984759
 21
16.5353837731
  0
LINE
  5
2A0
100
AcDbEntity
  8
0
100
AcDbLine
 62
6
  6
CONTINUOUS
 10
21.4574464813
 20
16.5353837731
 11
21.5824464813
 21
16.5353837731
  0
LINE
  5
2A1
100
AcDbEntity
  8
0
100
AcDbLine
 62
6
  6
CONTINUOUS
 10
24.5714464813
 20
15.1023976123
 11
24.5714464813
 21
15.718369934
  0
LINE
  5
2A2
100
AcDbEntity
  8
0
100
AcDbLine
 62
6
  6
CONTINUOUS
 10
24.5914464813
 20
15.0823837731
 11
24.5914464813
 21
15.7383837731
  0
LINE
  5
2A3
100
AcDbEntity
  8
0
100
AcDbLine
 62
6
  6
CONTINUOUS
 10
25.0514464813
 20
15.7787394486
 11
25.0514464813
 21
15.0420280976
  0
LINE
  5
2A4
100
AcDbEntity
  8
0
100
AcDbLine
 62
6
  6
CONTINUOUS
 10
25.2138464813
 20
15.7787394486
 11
25.2138464813
 21
15.0420280976
  0
LINE
  5
2A5
100
AcDbEntity
  8
0
100
AcDbLine
 62
6
  6
CONTINUOUS
 10
25.3762464813
 20
15.7787394486
 11
25.3762464813
 21
15.0420280976
  0
LINE
  5
2A6
100
AcDbEntity
  8
0
100
AcDbLine
 62
6
  6
CONTINUOUS
 10
24.5714464813
 20
15.1023837731
 11
24.5914464813
 21
15.0823837731
  0
LINE
  5
2A7
100
AcDbEntity
  8
0
100
AcDbLine
 62
6
  6
CONTINUOUS
 10
25.5386464813
 20
15.7787394486
 11
25.5386464813
 21
15.0420280976
  0
LINE
  5
2A8
100
AcDbEntity
  8
0
100
AcDbLine
 62
6
  6
CONTINUOUS
 10
25.7010464813
 20
15.7787394486
 11
25.7010464813
 21
15.0420280976
  0
LINE
  5
2A9
100
AcDbEntity
  8
0
100
AcDbLine
 62
6
  6
CONTINUOUS
 10
25.8634464813
 20
15.7787394486
 11
25.8634464813
 21
15.0420280976
  0
LINE
  5
2AA
100
AcDbEntity
  8
0
100
AcDbLine
 62
6
  6
CONTINUOUS
 10
28.4514464813
 20
15.0823837731
 11
28.4514464813
 21
15.7383837731
  0
LINE
  5
2AB
100
AcDbEntity
  8
0
100
AcDbLine
 62
6
  6
CONTINUOUS
 10
28.4714464813
 20
15.1023976123
 11
28.4714464813
 21
15.718369934
  0
LINE
  5
2AC
100
AcDbEntity
  8
0
100
AcDbLine
 62
6
  6
CONTINUOUS
 10
28.4514464813
 20
15.7383837731
 11
28.4714464813
 21
15.7183837731
  0
ARC
  5
2AD
100
AcDbEntity
  8
0
100
AcDbCircle
 62
6
  6
CONTINUOUS
 10
14.1831045687
 20
12.8039621738
 40
2.7549078596
100
AcDbArc
 50
180.0725344112
 51
181.172069782
  0
ARC
  5
2AE
100
AcDbEntity
  8
0
100
AcDbCircle
 62
6
  6
CONTINUOUS
 10
12.5282002945
 20
11.6195937708
 40
0.6867322438
100
AcDbArc
 50
191.1995614574
 51
192.9381826373
  0
ARC
  5
2AF
100
AcDbEntity
  8
0
100
AcDbCircle
 62
6
  6
CONTINUOUS
 10
10.3866926681
 20
11.6195937708
 40
0.6867322438
100
AcDbArc
 50
347.0618173627
 51
348.8004385426
  0
ARC
  5
2B0
100
AcDbEntity
  8
0
100
AcDbCircle
 62
6
  6
CONTINUOUS
 10
12.5219092709
 20
11.6183343712
 40
0.6803164134
100
AcDbArc
 50
190.8864323636
 51
191.1984219121
  0
ARC
  5
2B1
100
AcDbEntity
  8
0
100
AcDbCircle
 62
6
  6
CONTINUOUS
 10
10.3929836924
 20
11.6183343711
 40
0.6803164127
100
AcDbArc
 50
348.8015780877
 51
349.1135676366
  0
ARC
  5
2B2
100
AcDbEntity
  8
0
100
AcDbCircle
 62
9
  6
CONTINUOUS
 10
11.1973556778
 20
11.5312863021
 40
0.1289214498
100
AcDbArc
 50
173.5334845422
 51
174.2743365135
  0
ARC
  5
2B3
100
AcDbEntity
  8
0
100
AcDbCircle
 62
9
  6
CONTINUOUS
 10
11.7175372848
 20
11.5312863021
 40
0.1289214498
100
AcDbArc
 50
5.7256634865
 51
6.466515458
  0
ARC
  5
2B4
100
AcDbEntity
  8
0
100
AcDbCircle
 62
9
  6
CONTINUOUS
 10
11.1962940322
 20
11.5314059988
 40
0.127853078
100
AcDbArc
 50
172.5198113665
 51
173.5332022147
  0
ARC
  5
2B5
100
AcDbEntity
  8
0
100
AcDbCircle
 62
9
  6
CONTINUOUS
 10
11.7185989305
 20
11.5314059988
 40
0.1278530779
100
AcDbArc
 50
6.4667977848
 51
7.4801886338
  0
ARC
  5
2B6
100
AcDbEntity
  8
0
100
AcDbCircle
 62
6
  6
CONTINUOUS
 10
7.1326464813
 20
15.0893837731
 40
0.094
100
AcDbArc
 50
210.2506503162
 51
329.7493496838
  0
ARC
  5
2B7
100
AcDbEntity
  8
0
100
AcDbCircle
 62
6
  6
CONTINUOUS
 10
7.2950464813
 20
15.0893837731
 40
0.094
100
AcDbArc
 50
210.2506503162
 51
329.7493496838
  0
ARC
  5
2B8
100
AcDbEntity
  8
0
100
AcDbCircle
 62
6
  6
CONTINUOUS
 10
7.4574464813
 20
15.0893837731
 40
0.094
100
AcDbArc
 50
210.2506503162
 51
329.7493496838
  0
ARC
  5
2B9
100
AcDbEntity
  8
0
100
AcDbCircle
 62
6
  6
CONTINUOUS
 10
7.6198464813
 20
15.0893837731
 40
0.094
100
AcDbArc
 50
210.2506503162
 51
329.7493496838
  0
ARC
  5
2BA
100
AcDbEntity
  8
0
100
AcDbCircle
 62
6
  6
CONTINUOUS
 10
7.7822464813
 20
15.0893837731
 40
0.094
100
AcDbArc
 50
210.2506503162
 51
329.7493496838
  0
ARC
  5
2BB
100
AcDbEntity
  8
0
100
AcDbCircle
 62
6
  6
CONTINUOUS
 10
7.4574464813
 20
15.4103837731
 40
1.18
100
AcDbArc
 50
196.1421580743
 51
163.8578419257
  0
ARC
  5
2BC
100
AcDbEntity
  8
0
100
AcDbCircle
 62
6
  6
CONTINUOUS
 10
7.4574464813
 20
15.4103837731
 40
1.0000026738
100
AcDbArc
 50
199.1491926513
 51
160.8508073486
  0
ARC
  5
2BD
100
AcDbEntity
  8
0
100
AcDbCircle
 62
7
  6
CONTINUOUS
 10
7.4574464813
 20
15.4103837731
 40
0.8130026738
100
AcDbArc
 50
203.8127385016
 51
336.1872614984
  0
ARC
  5
2BE
100
AcDbEntity
  8
0
100
AcDbCircle
 62
7
  6
CONTINUOUS
 10
7.4574464813
 20
15.4103837731
 40
0.8130026738
100
AcDbArc
 50
23.8127385016
 51
156.1872614984
  0
ARC
  5
2BF
100
AcDbEntity
  8
0
100
AcDbCircle
 62
6
  6
CONTINUOUS
 10
7.4574464813
 20
15.4103837731
 40
0.8125
100
AcDbArc
 50
203.8430887737
 51
336.1569112263
  0
ARC
  5
2C0
100
AcDbEntity
  8
0
100
AcDbCircle
 62
6
  6
CONTINUOUS
 10
7.4574464813
 20
15.4103837731
 40
0.8125
100
AcDbArc
 50
23.8430887737
 51
156.1569112263
  0
ARC
  5
2C1
100
AcDbEntity
  8
0
100
AcDbCircle
 62
6
  6
CONTINUOUS
 10
7.4574464813
 20
15.4103837731
 40
0.4095
100
AcDbArc
 50
275.4996529318
 51
284.7896359509
  0
ARC
  5
2C2
100
AcDbEntity
  8
0
100
AcDbCircle
 62
6
  6
CONTINUOUS
 10
7.4574464813
 20
15.4103837731
 40
0.4095
100
AcDbArc
 50
255.2103640491
 51
264.5003470682
  0
ARC
  5
2C3
100
AcDbEntity
  8
0
100
AcDbCircle
 62
6
  6
CONTINUOUS
 10
7.4574464813
 20
15.4103837731
 40
0.4095
100
AcDbArc
 50
75.2103640491
 51
84.5003470682
  0
ARC
  5
2C4
100
AcDbEntity
  8
0
100
AcDbCircle
 62
6
  6
CONTINUOUS
 10
7.4574464813
 20
15.4103837731
 40
0.4095
100
AcDbArc
 50
95.4996529318
 51
104.7896359509
  0
ARC
  5
2C5
100
AcDbEntity
  8
0
100
AcDbCircle
 62
6
  6
CONTINUOUS
 10
7.4574464813
 20
15.4103837731
 40
0.3895
100
AcDbArc
 50
76.9218703082
 51
79.4310679899
  0
ARC
  5
2C6
100
AcDbEntity
  8
0
100
AcDbCircle
 62
6
  6
CONTINUOUS
 10
7.4574464813
 20
15.4103837731
 40
0.3895
100
AcDbArc
 50
100.5689320101
 51
103.0781296918
  0
ARC
  5
2C7
100
AcDbEntity
  8
0
100
AcDbCircle
 62
6
  6
CONTINUOUS
 10
7.4574464813
 20
15.4103837731
 40
0.3895
100
AcDbArc
 50
280.5689320101
 51
283.0781296918
  0
ARC
  5
2C8
100
AcDbEntity
  8
0
100
AcDbCircle
 62
6
  6
CONTINUOUS
 10
7.4574464813
 20
15.4103837731
 40
0.3895
100
AcDbArc
 50
256.9218703082
 51
259.4310679899
  0
ARC
  5
2C9
100
AcDbEntity
  8
0
100
AcDbCircle
 62
6
  6
CONTINUOUS
 10
7.2950464813
 20
15.7313837731
 40
0.094
100
AcDbArc
 50
30.2506503162
 51
149.7493496838
  0
ARC
  5
2CA
100
AcDbEntity
  8
0
100
AcDbCircle
 62
6
  6
CONTINUOUS
 10
7.4574464813
 20
15.7313837731
 40
0.094
100
AcDbArc
 50
30.2506503162
 51
149.7493496838
  0
ARC
  5
2CB
100
AcDbEntity
  8
0
100
AcDbCircle
 62
6
  6
CONTINUOUS
 10
7.6198464813
 20
15.7313837731
 40
0.094
100
AcDbArc
 50
30.2506503162
 51
149.7493496838
  0
ARC
  5
2CC
100
AcDbEntity
  8
0
100
AcDbCircle
 62
6
  6
CONTINUOUS
 10
7.1326464813
 20
15.7313837731
 40
0.094
100
AcDbArc
 50
30.2506503162
 51
149.7493496838
  0
ARC
  5
2CD
100
AcDbEntity
  8
0
100
AcDbCircle
 62
6
  6
CONTINUOUS
 10
7.7822464813
 20
15.7313837731
 40
0.094
100
AcDbArc
 50
30.2506503162
 51
149.7493496838
  0
ARC
  5
2CE
100
AcDbEntity
  8
0
100
AcDbCircle
 62
6
  6
CONTINUOUS
 10
11.6272772922
 20
14.8306411212
 40
0.3210797885
100
AcDbArc
 50
337.8875082449
 51
338.7107956719
  0
ARC
  5
2CF
100
AcDbEntity
  8
0
100
AcDbCircle
 62
6
  6
CONTINUOUS
 10
11.2873124398
 20
14.8305204353
 40
0.3207534323
100
AcDbArc
 50
201.2887836944
 51
202.1142154318
  0
ARC
  5
2D0
100
AcDbEntity
  8
0
100
AcDbCircle
 62
6
  6
CONTINUOUS
 10
11.64724687
 20
15.124450587
 40
0.297882277
100
AcDbArc
 50
11.5206961919
 51
17.8298732059
  0
ARC
  5
2D1
100
AcDbEntity
  8
0
100
AcDbCircle
 62
6
  6
CONTINUOUS
 10
11.2676425323
 20
15.1244514916
 40
0.2978786055
100
AcDbArc
 50
162.1730002308
 51
168.4806550922
  0
ARC
  5
2D2
100
AcDbEntity
  8
0
100
AcDbCircle
 62
6
  6
CONTINUOUS
 10
11.2622534794
 20
15.1256473614
 40
0.2923593044
100
AcDbArc
 50
168.4993894534
 51
169.078878426
  0
ARC
  5
2D3
100
AcDbEntity
  8
0
100
AcDbCircle
 62
6
  6
CONTINUOUS
 10
11.6527631809
 20
15.1256718811
 40
0.2922332015
100
AcDbArc
 50
10.9205927041
 51
11.5020781125
  0
ARC
  5
2D4
100
AcDbEntity
  8
0
100
AcDbCircle
 62
9
  6
CONTINUOUS
 10
11.2681938049
 20
14.8119523715
 40
0.2807728912
100
AcDbArc
 50
184.8986282133
 51
193.9765715968
  0
ARC
  5
2D5
100
AcDbEntity
  8
0
100
AcDbCircle
 62
9
  6
CONTINUOUS
 10
11.6466999664
 20
14.8119522525
 40
0.2807720754
100
AcDbArc
 50
346.0245142076
 51
355.1013818938
  0
ARC
  5
2D6
100
AcDbEntity
  8
0
100
AcDbCircle
 62
7
  6
CONTINUOUS
 10
11.2634393035
 20
15.1264234921
 40
0.2759928222
100
AcDbArc
 50
180.0015089931
 51
183.0626883149
  0
ARC
  5
2D7
100
AcDbEntity
  8
0
100
AcDbCircle
 62
7
  6
CONTINUOUS
 10
11.6515902517
 20
15.1264117591
 40
0.2758562296
100
AcDbArc
 50
0.0009272197
 51
2.4250889356
  0
ARC
  5
2D8
100
AcDbEntity
  8
0
100
AcDbCircle
 62
7
  6
CONTINUOUS
 10
11.6516396941
 20
15.1264185707
 40
0.2758067873
100
AcDbArc
 50
356.9452600096
 51
359.9995123392
  0
ARC
  5
2D9
100
AcDbEntity
  8
0
100
AcDbCircle
 62
7
  6
CONTINUOUS
 10
11.2631596541
 20
15.1264147627
 40
0.2757131728
100
AcDbArc
 50
177.5723812036
 51
179.9996964743
  0
ARC
  5
2DA
100
AcDbEntity
  8
0
100
AcDbCircle
 62
6
  6
CONTINUOUS
 10
11.4574464813
 20
15.4103837731
 40
0.9794250637
100
AcDbArc
 50
300.0176463464
 51
240.2010799709
  0
ARC
  5
2DB
100
AcDbEntity
  8
0
100
AcDbCircle
 62
9
  6
CONTINUOUS
 10
11.4574464813
 20
15.4103837731
 40
0.7622057069
100
AcDbArc
 50
308.1274518306
 51
231.8742260776
  0
ARC
  5
2DC
100
AcDbEntity
  8
0
100
AcDbCircle
 62
9
  6
CONTINUOUS
 10
11.4574464813
 20
15.4103837731
 40
0.7298140823
100
AcDbArc
 50
310.1037339901
 51
229.9039393486
  0
ARC
  5
2DD
100
AcDbEntity
  8
0
100
AcDbCircle
 62
7
  6
CONTINUOUS
 10
11.4574464813
 20
15.4103837731
 40
0.5475
100
AcDbArc
 50
332.8578493095
 51
207.142162349
  0
ARC
  5
2DE
100
AcDbEntity
  8
0
100
AcDbCircle
 62
9
  6
CONTINUOUS
 10
11.4574464813
 20
15.4103837731
 40
0.5175
100
AcDbArc
 50
340.7711902576
 51
199.2288097424
  0
ARC
  5
2DF
100
AcDbEntity
  8
0
100
AcDbCircle
 62
6
  6
CONTINUOUS
 10
11.4574464813
 20
15.4103837731
 40
0.4875
100
AcDbArc
 50
0.0
 51
180.0
  0
ARC
  5
2E0
100
AcDbEntity
  8
0
100
AcDbCircle
 62
6
  6
CONTINUOUS
 10
17.6198464813
 20
15.0893837731
 40
0.094
100
AcDbArc
 50
210.2506503162
 51
329.7493496838
  0
ARC
  5
2E1
100
AcDbEntity
  8
0
100
AcDbCircle
 62
6
  6
CONTINUOUS
 10
17.4574464813
 20
15.0893837731
 40
0.094
100
AcDbArc
 50
210.2506503162
 51
329.7493496838
  0
ARC
  5
2E2
100
AcDbEntity
  8
0
100
AcDbCircle
 62
6
  6
CONTINUOUS
 10
17.2950464813
 20
15.0893837731
 40
0.094
100
AcDbArc
 50
210.2506503162
 51
329.7493496838
  0
ARC
  5
2E3
100
AcDbEntity
  8
0
100
AcDbCircle
 62
6
  6
CONTINUOUS
 10
17.7822464813
 20
15.0893837731
 40
0.094
100
AcDbArc
 50
210.2506503162
 51
329.7493496838
  0
ARC
  5
2E4
100
AcDbEntity
  8
0
100
AcDbCircle
 62
6
  6
CONTINUOUS
 10
17.1326464813
 20
15.0893837731
 40
0.094
100
AcDbArc
 50
210.2506503162
 51
329.7493496838
  0
ARC
  5
2E5
100
AcDbEntity
  8
0
100
AcDbCircle
 62
6
  6
CONTINUOUS
 10
17.4574464813
 20
15.4103837731
 40
1.18
100
AcDbArc
 50
196.1421580743
 51
163.8578419257
  0
ARC
  5
2E6
100
AcDbEntity
  8
0
100
AcDbCircle
 62
6
  6
CONTINUOUS
 10
17.4574464813
 20
15.4103837731
 40
1.0000034206
100
AcDbArc
 50
199.1491777446
 51
160.8508222553
  0
ARC
  5
2E7
100
AcDbEntity
  8
0
100
AcDbCircle
 62
7
  6
CONTINUOUS
 10
17.4574464813
 20
15.4103837731
 40
0.8130034206
100
AcDbArc
 50
203.8127156336
 51
336.1872843664
  0
ARC
  5
2E8
100
AcDbEntity
  8
0
100
AcDbCircle
 62
7
  6
CONTINUOUS
 10
17.4574464813
 20
15.4103837731
 40
0.8130034206
100
AcDbArc
 50
23.8127156336
 51
156.1872843664
  0
ARC
  5
2E9
100
AcDbEntity
  8
0
100
AcDbCircle
 62
6
  6
CONTINUOUS
 10
17.4574464813
 20
15.4103837731
 40
0.8125
100
AcDbArc
 50
203.8430887737
 51
336.1569112263
  0
ARC
  5
2EA
100
AcDbEntity
  8
0
100
AcDbCircle
 62
6
  6
CONTINUOUS
 10
17.4574464813
 20
15.4103837731
 40
0.8125
100
AcDbArc
 50
23.8430887737
 51
156.1569112263
  0
ARC
  5
2EB
100
AcDbEntity
  8
0
100
AcDbCircle
 62
6
  6
CONTINUOUS
 10
17.4574464813
 20
15.4103837731
 40
0.4095
100
AcDbArc
 50
275.4996529318
 51
284.7896359509
  0
ARC
  5
2EC
100
AcDbEntity
  8
0
100
AcDbCircle
 62
6
  6
CONTINUOUS
 10
17.4574464813
 20
15.4103837731
 40
0.4095
100
AcDbArc
 50
255.2103640491
 51
264.5003470682
  0
ARC
  5
2ED
100
AcDbEntity
  8
0
100
AcDbCircle
 62
6
  6
CONTINUOUS
 10
17.4574464813
 20
15.4103837731
 40
0.4095
100
AcDbArc
 50
75.2103640491
 51
84.5003470682
  0
ARC
  5
2EE
100
AcDbEntity
  8
0
100
AcDbCircle
 62
6
  6
CONTINUOUS
 10
17.4574464813
 20
15.4103837731
 40
0.4095
100
AcDbArc
 50
95.4996529318
 51
104.7896359509
  0
ARC
  5
2EF
100
AcDbEntity
  8
0
100
AcDbCircle
 62
6
  6
CONTINUOUS
 10
17.4574464813
 20
15.4103837731
 40
0.3895
100
AcDbArc
 50
76.9218703082
 51
79.4310679899
  0
ARC
  5
2F0
100
AcDbEntity
  8
0
100
AcDbCircle
 62
6
  6
CONTINUOUS
 10
17.4574464813
 20
15.4103837731
 40
0.3895
100
AcDbArc
 50
100.5689320101
 51
103.0781296918
  0
ARC
  5
2F1
100
AcDbEntity
  8
0
100
AcDbCircle
 62
6
  6
CONTINUOUS
 10
17.4574464813
 20
15.4103837731
 40
0.3895
100
AcDbArc
 50
280.5689320101
 51
283.0781296918
  0
ARC
  5
2F2
100
AcDbEntity
  8
0
100
AcDbCircle
 62
6
  6
CONTINUOUS
 10
17.4574464813
 20
15.4103837731
 40
0.3895
100
AcDbArc
 50
256.9218703082
 51
259.4310679899
  0
ARC
  5
2F3
100
AcDbEntity
  8
0
100
AcDbCircle
 62
6
  6
CONTINUOUS
 10
17.7822464813
 20
15.7313837731
 40
0.094
100
AcDbArc
 50
30.2506503162
 51
149.7493496838
  0
ARC
  5
2F4
100
AcDbEntity
  8
0
100
AcDbCircle
 62
6
  6
CONTINUOUS
 10
17.6198464813
 20
15.7313837731
 40
0.094
100
AcDbArc
 50
30.2506503162
 51
149.7493496838
  0
ARC
  5
2F5
100
AcDbEntity
  8
0
100
AcDbCircle
 62
6
  6
CONTINUOUS
 10
17.4574464813
 20
15.7313837731
 40
0.094
100
AcDbArc
 50
30.2506503162
 51
149.7493496838
  0
ARC
  5
2F6
100
AcDbEntity
  8
0
100
AcDbCircle
 62
6
  6
CONTINUOUS
 10
17.2950464813
 20
15.7313837731
 40
0.094
100
AcDbArc
 50
30.2506503162
 51
149.7493496838
  0
ARC
  5
2F7
100
AcDbEntity
  8
0
100
AcDbCircle
 62
6
  6
CONTINUOUS
 10
17.1326464813
 20
15.7313837731
 40
0.094
100
AcDbArc
 50
30.2506503162
 51
149.7493496838
  0
ARC
  5
2F8
100
AcDbEntity
  8
0
100
AcDbCircle
 62
7
  6
CONTINUOUS
 10
21.6024734511
 20
14.4580102221
 40
2.0853733089
100
AcDbArc
 50
95.0202237791
 51
95.3228215241
  0
ARC
  5
2F9
100
AcDbEntity
  8
0
100
AcDbCircle
 62
6
  6
CONTINUOUS
 10
25.6198464813
 20
15.0893837731
 40
0.094
100
AcDbArc
 50
210.2506503162
 51
329.7493496838
  0
ARC
  5
2FA
100
AcDbEntity
  8
0
100
AcDbCircle
 62
6
  6
CONTINUOUS
 10
25.4574464813
 20
15.0893837731
 40
0.094
100
AcDbArc
 50
210.2506503162
 51
329.7493496838
  0
ARC
  5
2FB
100
AcDbEntity
  8
0
100
AcDbCircle
 62
6
  6
CONTINUOUS
 10
25.2950464813
 20
15.0893837731
 40
0.094
100
AcDbArc
 50
210.2506503162
 51
329.7493496838
  0
ARC
  5
2FC
100
AcDbEntity
  8
0
100
AcDbCircle
 62
6
  6
CONTINUOUS
 10
25.7822464813
 20
15.0893837731
 40
0.094
100
AcDbArc
 50
210.2506503162
 51
329.7493496838
  0
ARC
  5
2FD
100
AcDbEntity
  8
0
100
AcDbCircle
 62
6
  6
CONTINUOUS
 10
25.1326464813
 20
15.0893837731
 40
0.094
100
AcDbArc
 50
210.2506503162
 51
329.7493496838
  0
ARC
  5
2FE
100
AcDbEntity
  8
0
100
AcDbCircle
 62
6
  6
CONTINUOUS
 10
21.4574464813
 20
15.4103837731
 40
1.253
100
AcDbArc
 50
217.129892614
 51
217.2453707732
  0
ARC
  5
2FF
100
AcDbEntity
  8
0
100
AcDbCircle
 62
6
  6
CONTINUOUS
 10
21.4574464813
 20
15.4103837731
 40
1.425
100
AcDbArc
 50
312.1821674398
 51
227.8179001544
  0
ARC
  5
300
100
AcDbEntity
  8
0
100
AcDbCircle
 62
9
  6
CONTINUOUS
 10
21.4574464813
 20
15.4103837731
 40
1.2931676657
100
AcDbArc
 50
319.8020574846
 51
220.1979490558
  0
ARC
  5
301
100
AcDbEntity
  8
0
100
AcDbCircle
 62
6
  6
CONTINUOUS
 10
21.4574464813
 20
15.4103837731
 40
1.253
100
AcDbArc
 50
322.7543508343
 51
322.8697636896
  0
ARC
  5
302
100
AcDbEntity
  8
0
100
AcDbCircle
 62
7
  6
CONTINUOUS
 10
21.4574464813
 20
15.4103837731
 40
1.253
100
AcDbArc
 50
322.8697636896
 51
217.129892614
  0
ARC
  5
303
100
AcDbEntity
  8
0
100
AcDbCircle
 62
6
  6
CONTINUOUS
 10
25.4574464813
 20
15.4103837731
 40
1.18
100
AcDbArc
 50
16.1421580743
 51
343.8578419257
  0
ARC
  5
304
100
AcDbEntity
  8
0
100
AcDbCircle
 62
6
  6
CONTINUOUS
 10
25.4574464813
 20
15.4103837731
 40
1.0000034206
100
AcDbArc
 50
19.1491777446
 51
340.8508222553
  0
ARC
  5
305
100
AcDbEntity
  8
0
100
AcDbCircle
 62
7
  6
CONTINUOUS
 10
25.4574464813
 20
15.4103837731
 40
0.8130034206
100
AcDbArc
 50
23.8127156336
 51
156.1872843664
  0
ARC
  5
306
100
AcDbEntity
  8
0
100
AcDbCircle
 62
7
  6
CONTINUOUS
 10
25.4574464813
 20
15.4103837731
 40
0.8130034206
100
AcDbArc
 50
203.8127156336
 51
336.1872843664
  0
ARC
  5
307
100
AcDbEntity
  8
0
100
AcDbCircle
 62
6
  6
CONTINUOUS
 10
25.4574464813
 20
15.4103837731
 40
0.8125
100
AcDbArc
 50
203.8430887737
 51
336.1569112263
  0
ARC
  5
308
100
AcDbEntity
  8
0
100
AcDbCircle
 62
6
  6
CONTINUOUS
 10
25.4574464813
 20
15.4103837731
 40
0.8125
100
AcDbArc
 50
23.8430887737
 51
156.1569112263
  0
ARC
  5
309
100
AcDbEntity
  8
0
100
AcDbCircle
 62
6
  6
CONTINUOUS
 10
25.4574464813
 20
15.4103837731
 40
0.4095
100
AcDbArc
 50
275.4996529318
 51
284.7896359509
  0
ARC
  5
30A
100
AcDbEntity
  8
0
100
AcDbCircle
 62
6
  6
CONTINUOUS
 10
25.4574464813
 20
15.4103837731
 40
0.4095
100
AcDbArc
 50
255.2103640491
 51
264.5003470682
  0
ARC
  5
30B
100
AcDbEntity
  8
0
100
AcDbCircle
 62
6
  6
CONTINUOUS
 10
25.4574464813
 20
15.4103837731
 40
0.4095
100
AcDbArc
 50
75.2103640491
 51
84.5003470682
  0
ARC
  5
30C
100
AcDbEntity
  8
0
100
AcDbCircle
 62
6
  6
CONTINUOUS
 10
25.4574464813
 20
15.4103837731
 40
0.4095
100
AcDbArc
 50
95.4996529318
 51
104.7896359509
  0
ARC
  5
30D
100
AcDbEntity
  8
0
100
AcDbCircle
 62
6
  6
CONTINUOUS
 10
25.4574464813
 20
15.4103837731
 40
0.3895
100
AcDbArc
 50
76.9218703082
 51
79.4310679899
  0
ARC
  5
30E
100
AcDbEntity
  8
0
100
AcDbCircle
 62
6
  6
CONTINUOUS
 10
25.4574464813
 20
15.4103837731
 40
0.3895
100
AcDbArc
 50
100.5689320101
 51
103.0781296918
  0
ARC
  5
30F
100
AcDbEntity
  8
0
100
AcDbCircle
 62
6
  6
CONTINUOUS
 10
25.4574464813
 20
15.4103837731
 40
0.3895
100
AcDbArc
 50
280.5689320101
 51
283.0781296918
  0
ARC
  5
310
100
AcDbEntity
  8
0
100
AcDbCircle
 62
6
  6
CONTINUOUS
 10
25.4574464813
 20
15.4103837731
 40
0.3895
100
AcDbArc
 50
256.9218703082
 51
259.4310679899
  0
ARC
  5
311
100
AcDbEntity
  8
0
100
AcDbCircle
 62
6
  6
CONTINUOUS
 10
25.7822464813
 20
15.7313837731
 40
0.094
100
AcDbArc
 50
30.2506503162
 51
149.7493496838
  0
ARC
  5
312
100
AcDbEntity
  8
0
100
AcDbCircle
 62
6
  6
CONTINUOUS
 10
25.6198464813
 20
15.7313837731
 40
0.094
100
AcDbArc
 50
30.2506503162
 51
149.7493496838
  0
ARC
  5
313
100
AcDbEntity
  8
0
100
AcDbCircle
 62
6
  6
CONTINUOUS
 10
25.4574464813
 20
15.7313837731
 40
0.094
100
AcDbArc
 50
30.2506503162
 51
149.7493496838
  0
ARC
  5
314
100
AcDbEntity
  8
0
100
AcDbCircle
 62
6
  6
CONTINUOUS
 10
25.2950464813
 20
15.7313837731
 40
0.094
100
AcDbArc
 50
30.2506503162
 51
149.7493496838
  0
ARC
  5
315
100
AcDbEntity
  8
0
100
AcDbCircle
 62
6
  6
CONTINUOUS
 10
25.1326464813
 20
15.7313837731
 40
0.094
100
AcDbArc
 50
30.2506503162
 51
149.7493496838
  0
SPLINE
  5
316
100
AcDbEntity
  8
0
100
AcDbSpline
 62
6
  6
CONTINUOUS
 70
0
 71
3
 72
15
 73
11
 74
9
 42
0.0000001
 43
0.0000001
 44
0.0000000001
 12
0.0
 22
0.4267385314
 32
0.0
 13
0.2088266467
 23
0.3721521273
 33
0.0
 40
0.0
 40
0.0
 40
0.0
 40
0.0
 40
0.1249059802
 40
0.2498212908
 40
0.3747552551
 40
0.499716804
 40
0.6247144563
 40
0.749756164
 40
0.8748491936
 40
1.0
 40
1.0
 40
1.0
 40
1.0
 10
20.6049464813
 20
5.997449084
 30
0.0
 10
20.6049464813
 20
6.0152164822
 30
0.0
 10
20.6060852964
 20
6.0507631229
 30
0.0
 10
20.6112029154
 20
6.1038592457
 30
0.0
 10
20.6197089918
 20
6.1565291099
 30
0.0
 10
20.6315687602
 20
6.2085579509
 30
0.0
 10
20.6467336476
 20
6.2597371599
 30
0.0
 10
20.6651421126
 20
6.3098616333
 30
0.0
 10
20.6867177108
 20
6.3587278889
 30
0.0
 10
20.7031537268
 20
6.3903344872
 30
0.0
 10
20.7118653346
 20
6.4058595335
 30
0.0
 11
20.6049464813
 21
5.997449084
 31
0.0
 11
20.6066533911
 21
6.0507239411
 31
0.0
 11
20.6117671372
 21
6.1037842655
 31
0.0
 11
20.6202668054
 21
6.1564165064
 31
0.0
 11
20.6321176531
 21
6.2084089084
 31
0.0
 11
20.6472712805
 21
6.2595524653
 31
0.0
 11
20.6656658639
 21
6.3096417969
 31
0.0
 11
20.687226455
 21
6.3584760115
 31
0.0
 11
20.7118653346
 21
6.4058595335
 31
0.0
  0
SPLINE
  5
317
100
AcDbEntity
  8
0
100
AcDbSpline
 62
6
  6
CONTINUOUS
 70
0
 71
3
 72
15
 73
11
 74
9
 42
0.0000001
 43
0.0000001
 44
0.0000000001
 12
0.2088223814
 22
-0.3721492733
 32
0.0
 13
0.0
 23
-0.4267339553
 33
0.0
 40
0.0
 40
0.0
 40
0.0
 40
0.0
 40
0.1251508014
 40
0.2502438274
 40
0.3752855332
 40
0.500283185
 40
0.625244735
 40
0.7501787015
 40
0.8750940155
 40
1.0
 40
1.0
 40
1.0
 40
1.0
 10
22.2030298685
 20
6.4058555407
 30
0.0
 10
22.211741298
 20
6.3903306141
 30
0.0
 10
22.2281769749
 20
6.358724272
 30
0.0
 10
22.249752124
 20
6.3098584468
 30
0.0
 10
22.2681602025
 20
6.2597344432
 30
0.0
 10
22.2833247694
 20
6.2085557373
 30
0.0
 10
22.2951842859
 20
6.1565274262
 30
0.0
 10
22.3036901809
 20
6.1038581121
 30
0.0
 10
22.3088076905
 20
6.0507625527
 30
0.0
 10
22.3099464813
 20
6.0152162923
 30
0.0
 10
22.3099464813
 20
5.997449084
 30
0.0
 11
22.2030298685
 21
6.4058555407
 31
0.0
 11
22.2276682404
 21
6.3584724027
 31
0.0
 11
22.2492283828
 21
6.3096386174
 31
0.0
 11
22.2676225805
 21
6.2595497545
 31
0.0
 11
22.2827758878
 21
6.2084066996
 31
0.0
 11
22.294626484
 21
6.1564148264
 31
0.0
 11
22.3031259711
 21
6.1037831343
 31
0.0
 11
22.308239608
 21
6.0507233723
 31
0.0
 11
22.3099464813
 21
5.997449084
 31
0.0
  0
SPLINE
  5
318
100
AcDbEntity
  8
0
100
AcDbSpline
 62
6
  6
CONTINUOUS
 70
0
 71
3
 72
71
 73
67
 74
65
 42
0.0000001
 43
0.0000001
 44
0.0000000001
 12
0.0
 22
-2.6619226729
 32
0.0
 13
0.0
 23
2.6619226729
 33
0.0
 40
0.0
 40
0.0
 40
0.0
 40
0.0
 40
0.0155513382
 40
0.0311033383
 40
0.0466567661
 40
0.0622122849
 40
0.0777705601
 40
0.0933322327
 40
0.1088979106
 40
0.124468164
 40
0.1400435201
 40
0.155624457
 40
0.1712114005
 40
0.1868047191
 40
0.2024047199
 40
0.2180116471
 40
0.233625678
 40
0.2492469215
 40
0.2648754183
 40
0.2805111377
 40
0.2961539804
 40
0.311803778
 40
0.3274602941
 40
0.3431232279
 40
0.3587922155
 40
0.3744668343
 40
0.3901466071
 40
0.4058310056
 40
0.4215194567
 40
0.4372113479
 40
0.4529060321
 40
0.4686028357
 40
0.4843010638
 40
0.5000000077
 40
0.5156989515
 40
0.5313971795
 40
0.5470939829
 40
0.5627886669
 40
0.5784805577
 40
0.5941690084
 40
0.6098534065
 40
0.6255331788
 40
0.641207797
 40
0.6568767841
 40
0.6725397173
 40
0.6881962326
 40
0.7038460295
 40
0.7194888715
 40
0.7351245902
 40
0.7507530862
 40
0.766374329
 40
0.7819883591
 40
0.7975952856
 40
0.8131952857
 40
0.8287886036
 40
0.8443755464
 40
0.8599564828
 40
0.8755318383
 40
0.8911020912
 40
0.9066677686
 40
0.9222294408
 40
0.9377877157
 40
0.9533432342
 40
0.9688966619
 40
0.9844486619
 40
1.0
 40
1.0
 40
1.0
 40
1.0
 10
22.3099464813
 20
5.997449084
 30
0.0
 10
22.3099464813
 20
5.9836502641
 30
0.0
 10
22.3092597909
 20
5.9560471097
 30
0.0
 10
22.3061722545
 20
5.9147472184
 30
0.0
 10
22.3010348286
 20
5.8736471574
 30
0.0
 10
22.2938601978
 20
5.8328480169
 30
0.0
 10
22.2846660428
 20
5.7924484638
 30
0.0
 10
22.2734750346
 20
5.7525465634
 30
0.0
 10
22.2603147296
 20
5.7132389758
 30
0.0
 10
22.2452174996
 20
5.6746208666
 30
0.0
 10
22.2282204601
 20
5.6367856155
 30
0.0
 10
22.2093653124
 20
5.5998246181
 30
0.0
 10
22.188698302
 20
5.5638270215
 30
0.0
 10
22.1662699942
 20
5.5288795587
 30
0.0
 10
22.1421352395
 20
5.4950662789
 30
0.0
 10
22.1163529181
 20
5.4624684172
 30
0.0
 10
22.0889858789
 20
5.4311641364
 30
0.0
 10
22.0601006915
 20
5.4012284094
 30
0.0
 10
22.029767532
 20
5.3727328011
 30
0.0
 10
21.9980599667
 20
5.3457453372
 30
0.0
 10
21.965054775
 20
5.3203303501
 30
0.0
 10
21.9308317708
 20
5.2965483168
 30
0.0
 10
21.8954735708
 20
5.2744557786
 30
0.0
 10
21.8590654412
 20
5.2541051475
 30
0.0
 10
21.8216950351
 20
5.2355446905
 30
0.0
 10
21.7834522411
 20
5.2188183237
 30
0.0
 10
21.7444289176
 20
5.2039656301
 30
0.0
 10
21.7047187212
 20
5.1910216815
 30
0.0
 10
21.6644168578
 20
5.1800170452
 30
0.0
 10
21.6236198819
 20
5.1709776745
 30
0.0
 10
21.5824254677
 20
5.1639248717
 30
0.0
 10
21.5409321856
 20
5.1588752672
 30
0.0
 10
21.4992392848
 20
5.1558407311
 30
0.0
 10
21.4574464609
 20
5.1548284356
 30
0.0
 10
21.4156536372
 20
5.1558407332
 30
0.0
 10
21.3739607368
 20
5.1588752709
 30
0.0
 10
21.3324674555
 20
5.1639248778
 30
0.0
 10
21.2912730422
 20
5.1709776818
 30
0.0
 10
21.2504760676
 20
5.1800170548
 30
0.0
 10
21.2101742056
 20
5.1910216919
 30
0.0
 10
21.170464011
 20
5.2039656424
 30
0.0
 10
21.1314406892
 20
5.2188183367
 30
0.0
 10
21.0931978973
 20
5.2355447047
 30
0.0
 10
21.0558274933
 20
5.2541051624
 30
0.0
 10
21.0194193659
 20
5.2744557938
 30
0.0
 10
20.9840611683
 20
5.2965483326
 30
0.0
 10
20.9498381662
 20
5.3203303656
 30
0.0
 10
20.916832977
 20
5.3457453528
 30
0.0
 10
20.8851254137
 20
5.372732816
 30
0.0
 10
20.8547922566
 20
5.401228424
 30
0.0
 10
20.825907071
 20
5.43116415
 30
0.0
 10
20.798540034
 20
5.46246843
 30
0.0
 10
20.7727577142
 20
5.4950662906
 30
0.0
 10
20.7486229613
 20
5.5288795693
 30
0.0
 10
20.726194655
 20
5.5638270309
 30
0.0
 10
20.7055276458
 20
5.5998246262
 30
0.0
 10
20.6866724993
 20
5.6367856224
 30
0.0
 10
20.6696754606
 20
5.6746208722
 30
0.0
 10
20.6545782315
 20
5.7132389803
 30
0.0
 10
20.6414179269
 20
5.7525465668
 30
0.0
 10
20.6302269192
 20
5.7924484662
 30
0.0
 10
20.6210327645
 20
5.8328480185
 30
0.0
 10
20.6138581338
 20
5.8736471584
 30
0.0
 10
20.6087207081
 20
5.9147472188
 30
0.0
 10
20.6056331717
 20
5.9560471099
 30
0.0
 10
20.6049464813
 20
5.9836502641
 30
0.0
 10
20.6049464813
 20
5.997449084
 30
0.0
 11
22.3099464813
 21
5.997449084
 31
0.0
 11
22.3089169227
 21
5.9560654293
 31
0.0
 11
22.3058307987
 21
5.9147823989
 31
0.0
 11
22.3006957131
 21
5.8737000628
 31
0.0
 11
22.2935243395
 21
5.832918207
 31
0.0
 11
22.2843343499
 21
5.7925357833
 31
0.0
 11
22.2731483876
 21
5.752650705
 31
0.0
 11
22.2599939866
 21
5.7133596071
 31
0.0
 11
22.2449034942
 21
5.6747575976
 31
0.0
 11
22.2279139859
 21
5.6369380149
 31
0.0
 11
22.209067142
 21
5.5999922062
 31
0.0
 11
22.1884091553
 21
5.5640092874
 31
0.0
 11
22.1659905701
 21
5.5290759453
 31
0.0
 11
22.1418661798
 21
5.4952762098
 31
0.0
 11
22.1160948393
 21
5.4626912754
 31
0.0
 11
22.0887393424
 21
5.4313992915
 31
0.0
 11
22.0598662277
 21
5.4014752029
 31
0.0
 11
22.0295456228
 21
5.372990561
 31
0.0
 11
21.9978510558
 21
5.3460133781
 31
0.0
 11
21.9648592681
 21
5.3206079715
 31
0.0
 11
21.9306500287
 21
5.2968348182
 31
0.0
 11
21.8953059262
 21
5.2747504424
 31
0.0
 11
21.8589121804
 21
5.2544072675
 31
0.0
 11
21.8215564207
 21
5.2358535416
 31
0.0
 11
21.783328495
 21
5.2191331986
 31
0.0
 11
21.7443202372
 21
5.2042858056
 31
0.0
 11
21.7046252711
 21
5.1913464494
 31
0.0
 11
21.6643387783
 21
5.1803456913
 31
0.0
 11
21.6235572857
 21
5.1713094891
 31
0.0
 11
21.5823784439
 21
5.1642591511
 31
0.0
 11
21.5409008006
 21
5.1592113002
 31
0.0
 11
21.4992235813
 21
5.1561778224
 31
0.0
 11
21.4574464609
 21
5.1551658729
 31
0.0
 11
21.4156693407
 21
5.1561778244
 31
0.0
 11
21.3739921218
 21
5.159211304
 31
0.0
 11
21.3325144792
 21
5.164259157
 31
0.0
 11
21.2913356384
 21
5.1713094966
 31
0.0
 11
21.2505541471
 21
5.1803457007
 31
0.0
 11
21.2102676557
 21
5.19134646
 31
0.0
 11
21.1705726913
 21
5.2042858177
 31
0.0
 11
21.1315644353
 21
5.2191332117
 31
0.0
 11
21.0933365116
 21
5.2358535557
 31
0.0
 11
21.0559807541
 21
5.2544072824
 31
0.0
 11
21.0195870105
 21
5.2747504577
 31
0.0
 11
20.9842429103
 21
5.2968348339
 31
0.0
 11
20.9500336731
 21
5.3206079871
 31
0.0
 11
20.9170418878
 21
5.3460133935
 31
0.0
 11
20.885347323
 21
5.3729905759
 31
0.0
 11
20.8550267203
 21
5.4014752174
 31
0.0
 11
20.8261536076
 21
5.4313993051
 31
0.0
 11
20.7987981128
 21
5.4626912882
 31
0.0
 11
20.773026774
 21
5.4952762214
 31
0.0
 11
20.7489023853
 21
5.5290759559
 31
0.0
 11
20.7264838016
 21
5.5640092968
 31
0.0
 11
20.7058258162
 21
5.5999922143
 31
0.0
 11
20.6869789734
 21
5.6369380217
 31
0.0
 11
20.669989466
 21
5.6747576032
 31
0.0
 11
20.6548989745
 21
5.7133596116
 31
0.0
 11
20.6417445739
 21
5.7526507084
 31
0.0
 11
20.6305586121
 21
5.7925357857
 31
0.0
 11
20.6213686228
 21
5.8329182086
 31
0.0
 11
20.6141972494
 21
5.8737000637
 31
0.0
 11
20.6090621638
 21
5.9147823993
 31
0.0
 11
20.6059760399
 21
5.9560654294
 31
0.0
 11
20.6049464813
 21
5.997449084
 31
0.0
  0
SPLINE
  5
319
100
AcDbEntity
  8
0
100
AcDbSpline
 62
6
  6
CONTINUOUS
 70
0
 71
3
 72
41
 73
37
 74
35
 42
0.0000001
 43
0.0000001
 44
0.0000000001
 12
0.3061314531
 22
-1.390750082
 32
0.0
 13
-1.4240443312
 23
-0.0000000077
 33
0.0
 40
0.0
 40
0.0
 40
0.0
 40
0.0
 40
0.0310568912
 40
0.0621042542
 40
0.0931437853
 40
0.1086631454
 40
0.1241819942
 40
0.1552180436
 40
0.1862599596
 40
0.2173104217
 40
0.2483707763
 40
0.2794419502
 40
0.3105253634
 40
0.3260740293
 40
0.341626987
 40
0.3727452371
 40
0.4038870467
 40
0.4350538162
 40
0.4662454391
 40
0.497461221
 40
0.528700797
 40
0.5599650439
 40
0.5912565772
 40
0.6225769907
 40
0.6539254136
 40
0.6852994139
 40
0.7166959258
 40
0.7481121732
 40
0.7795465894
 40
0.8109995247
 40
0.8424710324
 40
0.8739589442
 40
0.9054596468
 40
0.9369690023
 40
0.9684832654
 40
1.0
 40
1.0
 40
1.0
 40
1.0
 10
22.2441044134
 20
6.1906780041
 30
0.0
 10
22.2472735772
 20
6.1762805461
 30
0.0
 10
22.2528036967
 20
6.1473053464
 30
0.0
 10
22.2586412457
 20
6.1034569186
 30
0.0
 10
22.2614352149
 20
6.0667029768
 30
0.0
 10
22.2624136568
 20
6.0372486473
 30
0.0
 10
22.2625494901
 20
6.0077799578
 30
0.0
 10
22.2611362326
 20
5.970951585
 30
0.0
 10
22.2569372328
 20
5.9269220414
 30
0.0
 10
22.2502621873
 20
5.8831871814
 30
0.0
 10
22.2411385638
 20
5.8398827329
 30
0.0
 10
22.229593948
 20
5.7971443299
 30
0.0
 10
22.2179786473
 20
5.7621141889
 30
0.0
 10
22.2075053239
 20
5.7345129321
 30
0.0
 10
22.1962443922
 20
5.7072055985
 30
0.0
 10
22.1807062806
 20
5.6736726541
 30
0.0
 10
22.1598115481
 20
5.6345296818
 30
0.0
 10
22.1367405738
 20
5.5965872731
 30
0.0
 10
22.1115716084
 20
5.5599606194
 30
0.0
 10
22.0843821147
 20
5.5247640154
 30
0.0
 10
22.0552498606
 20
5.4911119449
 30
0.0
 10
22.0242516402
 20
5.4591197233
 30
0.0
 10
21.9914694132
 20
5.4289017422
 30
0.0
 10
21.9570228803
 20
5.4005336041
 30
0.0
 10
21.9210280389
 20
5.3740919367
 30
0.0
 10
21.8836015241
 20
5.3496529862
 30
0.0
 10
21.8448596556
 20
5.3272932729
 30
0.0
 10
21.804918846
 20
5.3070892973
 30
0.0
 10
21.7638951222
 20
5.2891181629
 30
0.0
 10
21.7219075982
 20
5.2734561198
 30
0.0
 10
21.679095512
 20
5.2601292505
 30
0.0
 10
21.6355952692
 20
5.2491644238
 30
0.0
 10
21.5915436849
 20
5.2405882802
 30
0.0
 10
21.5470768213
 20
5.234427691
 30
0.0
 10
21.5023330644
 20
5.2307096417
 30
0.0
 10
21.4724068947
 20
5.2298774313
 30
0.0
 10
21.4574464856
 20
5.2298774312
 30
0.0
 11
22.2441044134
 21
6.1906780041
 31
0.0
 11
22.252394946
 21
6.1472356213
 31
0.0
 11
22.2582276586
 21
6.1034092248
 31
0.0
 11
22.2615751333
 21
6.059334494
 31
0.0
 11
22.2623083386
 21
6.0372464031
 31
0.0
 11
22.2624099974
 21
6.0151471083
 31
0.0
 11
22.2607193251
 21
5.9709827469
 31
0.0
 11
22.2565253028
 21
5.9269770892
 31
0.0
 11
22.2498553481
 21
5.8832658144
 31
0.0
 11
22.2407368787
 21
5.839984602
 31
0.0
 11
22.2291973124
 21
5.7972691313
 31
0.0
 11
22.2152640667
 21
5.7552550815
 31
0.0
 11
22.2074083822
 21
5.7345534893
 31
0.0
 11
22.1989645768
 21
5.7140781249
 31
0.0
 11
22.1803382852
 21
5.6738690307
 31
0.0
 11
22.1594575903
 21
5.6347451105
 31
0.0
 11
22.1364004949
 21
5.5968213877
 31
0.0
 11
22.1112450015
 21
5.5602128857
 31
0.0
 11
22.0840691128
 21
5.525034628
 31
0.0
 11
22.0549508316
 21
5.4914016378
 31
0.0
 11
22.0239681642
 21
5.4594289347
 31
0.0
 11
21.9912073875
 21
5.4292234319
 31
0.0
 11
21.9567804687
 21
5.4008668613
 31
0.0
 11
21.920804349
 21
5.3744360789
 31
0.0
 11
21.88339597
 21
5.3500079408
 31
0.0
 11
21.8446722728
 21
5.3276593034
 31
0.0
 11
21.8047501989
 21
5.3074670226
 31
0.0
 11
21.7637466899
 21
5.2895079541
 31
0.0
 11
21.7217825179
 21
5.2738495413
 31
0.0
 11
21.6789919504
 21
5.2605260702
 31
0.0
 11
21.6355122245
 21
5.2495645291
 31
0.0
 11
21.5914805777
 21
5.2409919064
 31
0.0
 11
21.5470342474
 21
5.2348351903
 31
0.0
 11
21.5023104709
 21
5.2311213692
 31
0.0
 11
21.4574464856
 21
5.2298774312
 31
0.0
  0
SPLINE
  5
31A
100
AcDbEntity
  8
0
100
AcDbSpline
 62
6
  6
CONTINUOUS
 70
0
 71
3
 72
41
 73
37
 74
35
 42
0.0000001
 43
0.0000001
 44
0.0000000001
 12
-0.306131455
 22
-1.3907500905
 32
0.0
 13
1.4240443399
 23
0.0000000077
 33
0.0
 40
0.0
 40
0.0
 40
0.0
 40
0.0
 40
0.0310568912
 40
0.0621042542
 40
0.0931437853
 40
0.1086631454
 40
0.1241819942
 40
0.1552180435
 40
0.1862599596
 40
0.2173104217
 40
0.2483707763
 40
0.2794419502
 40
0.3105253634
 40
0.3260740293
 40
0.341626987
 40
0.3727452371
 40
0.4038870466
 40
0.4350538162
 40
0.4662454391
 40
0.497461221
 40
0.528700797
 40
0.5599650439
 40
0.5912565772
 40
0.6225769907
 40
0.6539254136
 40
0.6852994139
 40
0.7166959258
 40
0.7481121732
 40
0.7795465894
 40
0.8109995247
 40
0.8424710324
 40
0.8739589442
 40
0.9054596468
 40
0.9369690023
 40
0.9684832654
 40
1.0
 40
1.0
 40
1.0
 40
1.0
 10
20.6707885492
 20
6.1906780041
 30
0.0
 10
20.6676193854
 20
6.1762805461
 30
0.0
 10
20.6620892658
 20
6.1473053462
 30
0.0
 10
20.6562517168
 20
6.103456918
 30
0.0
 10
20.6534577476
 20
6.0667029761
 30
0.0
 10
20.6524793057
 20
6.0372486464
 30
0.0
 10
20.6523434725
 20
6.0077799567
 30
0.0
 10
20.6537567301
 20
5.9709515837
 30
0.0
 10
20.6579557299
 20
5.9269220398
 30
0.0
 10
20.6646307756
 20
5.8831871796
 30
0.0
 10
20.6737543993
 20
5.8398827308
 30
0.0
 10
20.6852990152
 20
5.7971443276
 30
0.0
 10
20.6969143161
 20
5.7621141864
 30
0.0
 10
20.7073876397
 20
5.7345129295
 30
0.0
 10
20.7186485716
 20
5.7072055958
 30
0.0
 10
20.7341866834
 20
5.6736726512
 30
0.0
 10
20.7550814162
 20
5.6345296787
 30
0.0
 10
20.7781523908
 20
5.5965872699
 30
0.0
 10
20.8033213566
 20
5.5599606161
 30
0.0
 10
20.8305108506
 20
5.5247640121
 30
0.0
 10
20.859643105
 20
5.4911119415
 30
0.0
 10
20.8906413258
 20
5.45911972
 30
0.0
 10
20.9234235533
 20
5.4289017389
 30
0.0
 10
20.9578700865
 20
5.4005336008
 30
0.0
 10
20.9938649284
 20
5.3740919334
 30
0.0
 10
21.0312914435
 20
5.3496529831
 30
0.0
 10
21.0700333125
 20
5.3272932699
 30
0.0
 10
21.1099741225
 20
5.3070892945
 30
0.0
 10
21.1509978467
 20
5.2891181604
 30
0.0
 10
21.1929853711
 20
5.2734561175
 30
0.0
 10
21.2357974577
 20
5.2601292485
 30
0.0
 10
21.2792977008
 20
5.2491644221
 30
0.0
 10
21.3233492854
 20
5.2405882789
 30
0.0
 10
21.3678161494
 20
5.2344276901
 30
0.0
 10
21.4125599066
 20
5.2307096412
 30
0.0
 10
21.4424860765
 20
5.2298774311
 30
0.0
 10
21.4574464856
 20
5.2298774312
 30
0.0
 11
20.6707885492
 21
6.1906780041
 31
0.0
 11
20.6624980165
 21
6.147235621
 31
0.0
 11
20.656665304
 21
6.1034092243
 31
0.0
 11
20.6533178292
 21
6.0593344932
 31
0.0
 11
20.652584624
 21
6.0372464021
 31
0.0
 11
20.6524829652
 21
6.0151471072
 31
0.0
 11
20.6541736376
 21
5.9709827455
 31
0.0
 11
20.65836766
 21
5.9269770876
 31
0.0
 11
20.6650376149
 21
5.8832658126
 31
0.0
 11
20.6741560844
 21
5.8399846
 31
0.0
 11
20.6856956509
 21
5.797269129
 31
0.0
 11
20.6996288968
 21
5.755255079
 31
0.0
 11
20.7074845814
 21
5.7345534867
 31
0.0
 11
20.7159283869
 21
5.7140781222
 31
0.0
 11
20.7345546789
 21
5.6738690278
 31
0.0
 11
20.755435374
 21
5.6347451074
 31
0.0
 11
20.7784924698
 21
5.5968213845
 31
0.0
 11
20.8036479635
 21
5.5602128825
 31
0.0
 11
20.8308238525
 21
5.5250346246
 31
0.0
 11
20.8599421341
 21
5.4914016344
 31
0.0
 11
20.8909248018
 21
5.4594289313
 31
0.0
 11
20.923685579
 21
5.4292234286
 31
0.0
 11
20.9581124982
 21
5.400866858
 31
0.0
 11
20.9940886182
 21
5.3744360756
 31
0.0
 11
21.0314969977
 21
5.3500079377
 31
0.0
 11
21.0702206952
 21
5.3276593004
 31
0.0
 11
21.1101427695
 21
5.3074670198
 31
0.0
 11
21.151146279
 21
5.2895079515
 31
0.0
 11
21.1931104513
 21
5.273849539
 31
0.0
 11
21.2359010193
 21
5.2605260682
 31
0.0
 11
21.2793807455
 21
5.2495645275
 31
0.0
 11
21.3234123926
 21
5.2409919051
 31
0.0
 11
21.3678587233
 21
5.2348351894
 31
0.0
 11
21.4125825001
 21
5.2311213687
 31
0.0
 11
21.4574464856
 21
5.2298774312
 31
0.0
  0
SPLINE
  5
31B
100
AcDbEntity
  8
0
100
AcDbSpline
 62
7
  6
CONTINUOUS
 70
0
 71
3
 72
14
 73
10
 74
8
 42
0.0000001
 43
0.0000001
 44
0.0000000001
 12
-0.0409115577
 22
-0.1035747451
 32
0.0
 13
0.0
 23
-0.1113619476
 33
0.0
 40
0.0
 40
0.0
 40
0.0
 40
0.0
 40
0.2531014455
 40
0.3786467128
 40
0.5036094839
 40
0.628112348
 40
0.7522811242
 40
0.8762159696
 40
1.0
 40
1.0
 40
1.0
 40
1.0
 10
10.9884464813
 20
15.1387089383
 30
0.0
 10
10.9849948898
 20
15.1299706324
 30
0.0
 10
10.9804167407
 20
15.1166539018
 30
0.0
 10
10.9755848019
 20
15.0985899968
 30
0.0
 10
10.9726205995
 20
15.0849829082
 30
0.0
 10
10.970310952
 20
15.0713018737
 30
0.0
 10
10.9686593298
 20
15.0575640611
 30
0.0
 10
10.9676673855
 20
15.0437900285
 30
0.0
 10
10.9674464813
 20
15.0345930254
 30
0.0
 10
10.9674464813
 20
15.0299980818
 30
0.0
 11
10.9884464813
 21
15.1387089383
 31
0.0
 11
10.9792967958
 21
15.1120494837
 31
0.0
 11
10.9756855646
 21
15.0985429518
 31
0.0
 11
10.9727248018
 21
15.0849454647
 31
0.0
 11
10.9704179079
 21
15.0712738453
 31
0.0
 11
10.9687679935
 21
15.0575449551
 31
0.0
 11
10.9677770776
 21
15.0437789477
 31
0.0
 11
10.9674464813
 21
15.0299980818
 31
0.0
  0
SPLINE
  5
31C
100
AcDbEntity
  8
0
100
AcDbSpline
 62
7
  6
CONTINUOUS
 70
0
 71
3
 72
14
 73
10
 74
8
 42
0.0000001
 43
0.0000001
 44
0.0000000001
 12
0.0409115577
 22
0.1035747451
 32
0.0
 13
0.0
 23
0.1113619476
 33
0.0
 40
0.0
 40
0.0
 40
0.0
 40
0.0
 40
0.2531014455
 40
0.3786467128
 40
0.5036094839
 40
0.628112348
 40
0.7522811242
 40
0.8762159696
 40
1.0
 40
1.0
 40
1.0
 40
1.0
 10
11.9264464813
 20
14.9212872253
 30
0.0
 10
11.9298980728
 20
14.9300255312
 30
0.0
 10
11.9344762219
 20
14.9433422619
 30
0.0
 10
11.9393081607
 20
14.9614061668
 30
0.0
 10
11.9422723631
 20
14.9750132554
 30
0.0
 10
11.9445820106
 20
14.9886942899
 30
0.0
 10
11.9462336328
 20
15.0024321026
 30
0.0
 10
11.9472255771
 20
15.0162061351
 30
0.0
 10
11.9474464813
 20
15.0254031382
 30
0.0
 10
11.9474464813
 20
15.0299980818
 30
0.0
 11
11.9264464813
 21
14.9212872253
 31
0.0
 11
11.9355961668
 21
14.9479466799
 31
0.0
 11
11.939207398
 21
14.9614532118
 31
0.0
 11
11.9421681608
 21
14.9750506989
 31
0.0
 11
11.9444750547
 21
14.9887223183
 31
0.0
 11
11.9461249691
 21
15.0024512086
 31
0.0
 11
11.947115885
 21
15.0162172159
 31
0.0
 11
11.9474464813
 21
15.0299980818
 31
0.0
  0
SPLINE
  5
31D
100
AcDbEntity
  8
0
100
AcDbSpline
 62
6
  6
CONTINUOUS
 70
0
 71
3
 72
29
 73
25
 74
23
 42
0.0000001
 43
0.0000001
 44
0.0000000001
 12
1.0185075545
 22
-0.0000051514
 32
0.0
 13
0.5165454418
 23
0.8778031927
 33
0.0
 40
0.0
 40
0.0
 40
0.0
 40
0.0
 40
0.0641703396
 40
0.1282935441
 40
0.1923223106
 40
0.2562073522
 40
0.2880848367
 40
0.3199090234
 40
0.3516749381
 40
0.3833782261
 40
0.4150153948
 40
0.4465832858
 40
0.5094894761
 40
0.5720764113
 40
0.6343170514
 40
0.6653046136
 40
0.6961981734
 40
0.7269965338
 40
0.7576994157
 40
0.7883078577
 40
0.8188231883
 40
0.8795702034
 40
0.9399584763
 40
1.0
 40
1.0
 40
1.0
 40
1.0
 10
11.4574411749
 20
9.2802936916
 30
0.0
 10
11.4792271667
 20
9.2802935815
 30
0.0
 10
11.5227949711
 20
9.2816501617
 30
0.0
 10
11.5878472058
 20
9.2877031566
 30
0.0
 10
11.6523110955
 20
9.2977201247
 30
0.0
 10
11.7053407085
 20
9.3093367092
 30
0.0
 10
11.7471821142
 20
9.3205649329
 30
0.0
 10
11.7782140802
 20
9.3299393718
 30
0.0
 10
11.8088798926
 20
9.3402654261
 30
0.0
 10
11.839143077
 20
9.3515374939
 30
0.0
 10
11.8689688746
 20
9.3637450781
 30
0.0
 10
11.9080620682
 20
9.381219495
 30
0.0
 10
11.9556844148
 20
9.4052954815
 30
0.0
 10
12.0106458789
 20
9.437650271
 30
0.0
 10
12.0544398194
 20
9.4673960668
 30
0.0
 10
12.0880958803
 20
9.4927643409
 30
0.0
 10
12.1125864952
 20
9.5125287665
 30
0.0
 10
12.1363289909
 20
9.5330380735
 30
0.0
 10
12.1592916379
 20
9.5542747095
 30
0.0
 10
12.1814505551
 20
9.5762128342
 30
0.0
 10
12.209850827
 20
9.6063107101
 30
0.0
 10
12.2432570343
 20
9.6455456072
 30
0.0
 10
12.2798533675
 20
9.6950404622
 30
0.0
 10
12.3018431308
 20
9.7295569668
 30
0.0
 10
12.3121811892
 20
9.7471251805
 30
0.0
 11
11.4574411749
 21
9.2802936916
 31
0.0
 11
11.5227676866
 21
9.2823214591
 31
0.0
 11
11.5877969725
 21
9.2883699232
 31
0.0
 11
11.6522370139
 21
9.2983858343
 31
0.0
 11
11.7157957923
 21
9.3123159428
 31
0.0
 11
11.747153452
 21
9.3207321805
 31
0.0
 11
11.7781812889
 21
9.3301069991
 31
0.0
 11
11.8088428008
 21
9.3404337421
 31
0.0
 11
11.8391015228
 21
9.351705668
 31
0.0
 11
11.8689230389
 21
9.3639113747
 31
0.0
 11
11.8982759945
 21
9.3770324954
 31
0.0
 11
11.9554518083
 21
9.4059452317
 31
0.0
 11
12.0103801322
 21
9.4382923833
 31
0.0
 11
12.0628121343
 21
9.4739224563
 31
0.0
 11
12.0880142546
 21
9.4929212464
 31
0.0
 11
12.1124989824
 21
9.5126839567
 31
0.0
 11
12.1362352138
 21
9.5331916504
 31
0.0
 11
12.1591924222
 21
9.5544248638
 31
0.0
 11
12.1813461649
 21
9.57635858
 31
0.0
 11
12.2026756457
 21
9.598964454
 31
0.0
 11
12.2427788326
 21
9.6460791163
 31
0.0
 11
12.279336006
 21
9.6955417315
 31
0.0
 11
12.3121811892
 21
9.7471251805
 31
0.0
  0
SPLINE
  5
31E
100
AcDbEntity
  8
0
100
AcDbSpline
 62
6
  6
CONTINUOUS
 70
0
 71
3
 72
29
 73
25
 74
23
 42
0.0000001
 43
0.0000001
 44
0.0000000001
 12
-1.0184969454
 22
0.0000051513
 32
0.0
 13
-0.5165400613
 23
0.8777940493
 33
0.0
 40
0.0
 40
0.0
 40
0.0
 40
0.0
 40
0.0641703532
 40
0.128293565
 40
0.1923223328
 40
0.2562073706
 40
0.2880848517
 40
0.3199090343
 40
0.3516749444
 40
0.3833782275
 40
0.4150153915
 40
0.4465832777
 40
0.509489459
 40
0.572076386
 40
0.6343170196
 40
0.6653045793
 40
0.6961981373
 40
0.7269964969
 40
0.7576993789
 40
0.7883078221
 40
0.8188231549
 40
0.8795701774
 40
0.9399584616
 40
1.0
 40
1.0
 40
1.0
 40
1.0
 10
11.4574411749
 20
9.2802936916
 30
0.0
 10
11.4356554053
 20
9.2802938018
 30
0.0
 10
11.3920880616
 20
9.2816507922
 30
0.0
 10
11.3270365526
 20
9.2877043127
 30
0.0
 10
11.2625734177
 20
9.2977217186
 30
0.0
 10
11.2095444506
 20
9.3093385964
 30
0.0
 10
11.1677035678
 20
9.3205670123
 30
0.0
 10
11.1366719961
 20
9.3299415741
 30
0.0
 10
11.1060065786
 20
9.3402677305
 30
0.0
 10
11.0757437889
 20
9.3515398802
 30
0.0
 10
11.0459183837
 20
9.3637475235
 30
0.0
 10
11.0068257077
 20
9.3812219896
 30
0.0
 10
10.9592039969
 20
9.4052979836
 30
0.0
 10
10.9042432712
 20
9.4376527003
 30
0.0
 10
10.8604499199
 20
9.4673983705
 30
0.0
 10
10.8267943102
 20
9.4927665075
 30
0.0
 10
10.8023040218
 20
9.512530813
 30
0.0
 10
10.7785618407
 20
9.5330399828
 30
0.0
 10
10.7555994953
 20
9.5542764651
 30
0.0
 10
10.733440865
 20
9.5762144194
 30
0.0
 10
10.705040954
 20
9.6063120482
 30
0.0
 10
10.6716351589
 20
9.6455465993
 30
0.0
 10
10.6350392528
 20
9.6950409858
 30
0.0
 10
10.6130497267
 20
9.7295571454
 30
0.0
 10
10.6027117734
 20
9.7471251805
 30
0.0
 11
11.4574411749
 21
9.2802936916
 31
0.0
 11
11.3921153494
 21
9.2823220751
 31
0.0
 11
11.3270867882
 21
9.2883710654
 31
0.0
 11
11.2626475011
 21
9.2983874147
 31
0.0
 11
11.1990894976
 21
9.3123178749
 31
0.0
 11
11.1677322303
 21
9.3207342566
 31
0.0
 11
11.1367047876
 21
9.3301091981
 31
0.0
 11
11.1060436707
 21
9.3404360433
 31
0.0
 11
11.0757853432
 21
9.3517080506
 31
0.0
 11
11.0459642192
 21
9.3639138164
 31
0.0
 11
11.0166116523
 21
9.377034974
 31
0.0
 11
10.9594366014
 21
9.4059477199
 31
0.0
 11
10.9045090151
 21
9.438294799
 31
0.0
 11
10.8520777176
 21
9.4739247221
 31
0.0
 11
10.8268759349
 21
9.4929234097
 31
0.0
 11
10.8023915335
 21
9.5126859999
 31
0.0
 11
10.7786556165
 21
9.5331935565
 31
0.0
 11
10.7556987094
 21
9.5544266161
 31
0.0
 11
10.7335452533
 21
9.5763601619
 31
0.0
 11
10.712216044
 21
9.59896585
 31
0.0
 11
10.6721133517
 21
9.6460800969
 31
0.0
 11
10.6355566042
 21
9.6955422444
 31
0.0
 11
10.6027117734
 21
9.7471251805
 31
0.0
  0
SPLINE
  5
31F
100
AcDbEntity
  8
0
100
AcDbSpline
 62
7
  6
CONTINUOUS
 70
0
 71
3
 72
25
 73
21
 74
19
 42
0.0000001
 43
0.0000001
 44
0.0000000001
 12
0.0
 22
-0.0218905936
 32
0.0
 13
-0.0217480021
 23
-0.0024944926
 33
0.0
 40
0.0
 40
0.0
 40
0.0
 40
0.0
 40
0.006749164
 40
0.0140321413
 40
0.0222760285
 40
0.0317777008
 40
0.0427309155
 40
0.0552611178
 40
0.0694509689
 40
0.0853563523
 40
0.1224427051
 40
0.1666917173
 40
0.2181674542
 40
0.2768870325
 40
0.3428294152
 40
0.4159344234
 40
0.4961290369
 40
0.5833331956
 40
0.7783467055
 40
1.0
 40
1.0
 40
1.0
 40
1.0
 10
21.5824464813
 20
16.5353837731
 30
0.0
 10
21.5824464813
 20
16.5353345254
 30
0.0
 10
21.5824309593
 20
16.5352316411
 30
0.0
 10
21.5823636036
 20
16.5350820191
 30
0.0
 10
21.5822541087
 20
16.5349345158
 30
0.0
 10
21.5821033059
 20
16.5347882656
 30
0.0
 10
21.5819112306
 20
16.5346425006
 30
0.0
 10
21.5816777264
 20
16.5344968882
 30
0.0
 10
21.5814026663
 20
16.5343512564
 30
0.0
 10
21.5809570789
 20
16.5341464231
 30
0.0
 10
21.5802926966
 20
16.5338951644
 30
0.0
 10
21.5793673962
 20
16.5336060421
 30
0.0
 10
21.5782780498
 20
16.5333162352
 30
0.0
 10
21.5770258673
 20
16.5330258505
 30
0.0
 10
21.5756122637
 20
16.5327350778
 30
0.0
 10
21.5740391107
 20
16.5324439606
 30
0.0
 10
21.5723084837
 20
16.5321525678
 30
0.0
 10
21.5696949806
 20
16.5317486133
 30
0.0
 10
21.5660520234
 20
16.5312498999
 30
0.0
 10
21.5630334317
 20
16.5308859061
 30
0.0
 10
21.5614265929
 20
16.5307016019
 30
0.0
 11
21.5824464813
 21
16.5353837731
 31
0.0
 11
21.5824253251
 21
16.5352375525
 31
0.0
 11
21.5823618935
 21
16.5350912858
 31
0.0
 11
21.5822562415
 21
16.5349449822
 31
0.0
 11
21.5821084244
 21
16.5347986505
 31
0.0
 11
21.5819184975
 21
16.5346522997
 31
0.0
 11
21.5816865159
 21
16.5345059389
 31
0.0
 11
21.5814125348
 21
16.534359577
 31
0.0
 11
21.5810966097
 21
16.534213223
 31
0.0
 11
21.5803393566
 21
16.5339205533
 31
0.0
 11
21.5794159802
 21
16.5336279207
 31
0.0
 11
21.5783278016
 21
16.5333353062
 31
0.0
 11
21.5770761443
 21
16.533042691
 31
0.0
 11
21.575662598
 21
16.5327500635
 31
0.0
 11
21.5740892696
 21
16.5324574269
 31
0.0
 11
21.5723583252
 21
16.5321647858
 31
0.0
 11
21.5704719385
 21
16.531872145
 31
0.0
 11
21.5662432879
 21
16.531286871
 31
0.0
 11
21.5614265929
 21
16.5307016019
 31
0.0
  0
SPLINE
  5
320
100
AcDbEntity
  8
0
100
AcDbSpline
 62
6
  6
CONTINUOUS
 70
0
 71
3
 72
42
 73
38
 74
36
 42
0.0000001
 43
0.0000001
 44
0.0000000001
 12
-0.1425395421
 22
0.7608182878
 32
0.0
 13
0.7740555459
 23
0.0000088333
 33
0.0
 40
0.0
 40
0.0
 40
0.0
 40
0.0
 40
0.0274254538
 40
0.0547571642
 40
0.0684071099
 40
0.08205469
 40
0.0957073102
 40
0.1093721684
 40
0.1367620184
 40
0.1642811605
 40
0.1781067166
 40
0.1919828162
 40
0.2199054714
 40
0.2480970074
 40
0.2765995124
 40
0.3054521873
 40
0.3346846838
 40
0.3643189438
 40
0.3943713999
 40
0.424853993
 40
0.4557751433
 40
0.487140666
 40
0.5029927581
 40
0.5189568777
 40
0.5512139554
 40
0.5839010819
 40
0.6169992862
 40
0.6504853007
 40
0.6843325484
 40
0.7185120501
 40
0.7529932653
 40
0.7877448798
 40
0.8227355524
 40
0.8579336937
 40
0.8933023291
 40
0.9288005794
 40
1.0
 40
1.0
 40
1.0
 40
1.0
 10
10.9473250461
 20
12.298467779
 30
0.0
 10
10.9460219755
 20
12.3054230413
 30
0.0
 10
10.9438945582
 20
12.3194033669
 30
0.0
 10
10.9424566703
 20
12.3370100723
 30
0.0
 10
10.9420518861
 20
12.3511021282
 30
0.0
 10
10.9421224224
 20
12.3616700561
 30
0.0
 10
10.9425662398
 20
12.3722327325
 30
0.0
 10
10.9436532711
 20
12.3863087503
 30
0.0
 10
10.9459389877
 20
12.4038691169
 30
0.0
 10
10.9494361257
 20
12.4212705834
 30
0.0
 10
10.9529503178
 20
12.4350808276
 30
0.0
 10
10.9569568687
 20
12.4488648016
 30
0.0
 10
10.9628677237
 20
12.4659441906
 30
0.0
 10
10.971358726
 20
12.48607458
 30
0.0
 10
10.9812470759
 20
12.5058256712
 30
0.0
 10
10.9925145044
 20
12.5251346553
 30
0.0
 10
11.0051175085
 20
12.5439511737
 30
0.0
 10
11.0190129466
 20
12.5622241549
 30
0.0
 10
11.0341574966
 20
12.5799021879
 30
0.0
 10
11.0505080646
 20
12.5969339042
 30
0.0
 10
11.0680212656
 20
12.6132674992
 30
0.0
 10
11.0834943549
 20
12.6262088957
 30
0.0
 10
11.0964050534
 20
12.6361649399
 30
0.0
 10
11.109757973
 20
12.6459150381
 30
0.0
 10
11.1270878901
 20
12.6575716747
 30
0.0
 10
11.1487574551
 20
12.6706424014
 30
0.0
 10
11.1713047688
 20
12.6828151023
 30
0.0
 10
11.194661103
 20
12.6940597424
 30
0.0
 10
11.218758187
 20
12.7043465594
 30
0.0
 10
11.2435276281
 20
12.7136456205
 30
0.0
 10
11.2689010692
 20
12.7219269982
 30
0.0
 10
11.294810123
 20
12.7291605708
 30
0.0
 10
11.321186232
 20
12.7353166355
 30
0.0
 10
11.3479586165
 20
12.7403631741
 30
0.0
 10
11.3750502266
 20
12.7442947263
 30
0.0
 10
11.4115202519
 20
12.7480489086
 30
0.0
 10
11.4390680354
 20
12.7491757903
 30
0.0
 10
11.4574388042
 20
12.749176
 30
0.0
 11
10.9473250461
 21
12.298467779
 31
0.0
 11
10.944135864
 21
12.319455683
 31
0.0
 11
10.9424171698
 21
12.3405420177
 31
0.0
 11
10.9421142007
 21
12.3511034893
 31
0.0
 11
10.9421845776
 21
12.3616672399
 31
0.0
 11
10.9426277614
 21
12.3722258293
 31
0.0
 11
10.9434417864
 21
12.3827718187
 31
0.0
 11
10.9461744131
 21
12.4037962427
 31
0.0
 11
10.9503665633
 21
12.4246810016
 31
0.0
 11
10.9530049926
 21
12.4350524099
 31
0.0
 11
10.9560023424
 21
12.4453665856
 31
0.0
 11
10.9630658562
 21
12.4657934846
 31
0.0
 11
10.9715412102
 21
12.4859021885
 31
0.0
 11
10.98141251
 21
12.5056331875
 31
0.0
 11
10.9926592297
 21
12.524928259
 31
0.0
 11
11.0052426402
 21
12.5437342414
 31
0.0
 11
11.0191195413
 21
12.5619992161
 31
0.0
 11
11.0342467329
 21
12.5796712645
 31
0.0
 11
11.0505810146
 21
12.5966984681
 31
0.0
 11
11.0680791862
 21
12.6130289081
 31
0.0
 11
11.0866980476
 21
12.6286106661
 31
0.0
 11
11.0964142157
 21
12.6361045827
 31
0.0
 11
11.1063931163
 21
12.6433929187
 31
0.0
 11
11.1271052111
 21
12.6573374015
 31
0.0
 11
11.1487657639
 21
12.6704138699
 31
0.0
 11
11.1713060542
 21
12.6825922094
 31
0.0
 11
11.1946573617
 21
12.6938423057
 31
0.0
 11
11.2187509659
 21
12.7041340442
 31
0.0
 11
11.2435181466
 21
12.7134373106
 31
0.0
 11
11.2688901833
 21
12.7217219902
 31
0.0
 11
11.2947983558
 21
12.7289579687
 31
0.0
 11
11.3211739435
 21
12.7351151316
 31
0.0
 11
11.3479469053
 21
12.7401664467
 31
0.0
 11
11.3750398336
 21
12.7441020729
 31
0.0
 11
11.4023727681
 21
12.7469181259
 31
0.0
 11
11.4574388042
 21
12.749176
 31
0.0
  0
SPLINE
  5
321
100
AcDbEntity
  8
0
100
AcDbSpline
 62
7
  6
CONTINUOUS
 70
0
 71
3
 72
14
 73
10
 74
8
 42
0.0000001
 43
0.0000001
 44
0.0000000001
 12
0.0
 22
0.1113619476
 32
0.0
 13
-0.0409115577
 23
0.1035747451
 33
0.0
 40
0.0
 40
0.0
 40
0.0
 40
0.0
 40
0.1237840304
 40
0.2477188758
 40
0.371887652
 40
0.4963905161
 40
0.6213532872
 40
0.7468985545
 40
1.0
 40
1.0
 40
1.0
 40
1.0
 10
11.9474464813
 20
15.0299980818
 30
0.0
 10
11.9474464813
 20
15.0345930254
 30
0.0
 10
11.9472255771
 20
15.0437900285
 30
0.0
 10
11.9462336328
 20
15.0575640611
 30
0.0
 10
11.9445820106
 20
15.0713018737
 30
0.0
 10
11.9422723631
 20
15.0849829082
 30
0.0
 10
11.9393081607
 20
15.0985899968
 30
0.0
 10
11.9344762219
 20
15.1166539018
 30
0.0
 10
11.9298980728
 20
15.1299706324
 30
0.0
 10
11.9264464813
 20
15.1387089383
 30
0.0
 11
11.9474464813
 21
15.0299980818
 31
0.0
 11
11.947115885
 21
15.0437789477
 31
0.0
 11
11.9461249691
 21
15.0575449551
 31
0.0
 11
11.9444750547
 21
15.0712738453
 31
0.0
 11
11.9421681608
 21
15.0849454647
 31
0.0
 11
11.939207398
 21
15.0985429518
 31
0.0
 11
11.9355961668
 21
15.1120494837
 31
0.0
 11
11.9264464813
 21
15.1387089383
 31
0.0
  0
SPLINE
  5
322
100
AcDbEntity
  8
0
100
AcDbSpline
 62
7
  6
CONTINUOUS
 70
0
 71
3
 72
14
 73
10
 74
8
 42
0.0000001
 43
0.0000001
 44
0.0000000001
 12
0.0
 22
-0.1113619476
 32
0.0
 13
0.0409115577
 23
-0.1035747451
 33
0.0
 40
0.0
 40
0.0
 40
0.0
 40
0.0
 40
0.1237840304
 40
0.2477188758
 40
0.371887652
 40
0.4963905161
 40
0.6213532872
 40
0.7468985545
 40
1.0
 40
1.0
 40
1.0
 40
1.0
 10
10.9674464813
 20
15.0299980818
 30
0.0
 10
10.9674464813
 20
15.0254031382
 30
0.0
 10
10.9676673855
 20
15.0162061351
 30
0.0
 10
10.9686593298
 20
15.0024321026
 30
0.0
 10
10.970310952
 20
14.9886942899
 30
0.0
 10
10.9726205995
 20
14.9750132554
 30
0.0
 10
10.9755848019
 20
14.9614061668
 30
0.0
 10
10.9804167407
 20
14.9433422619
 30
0.0
 10
10.9849948898
 20
14.9300255312
 30
0.0
 10
10.9884464813
 20
14.9212872253
 30
0.0
 11
10.9674464813
 21
15.0299980818
 31
0.0
 11
10.9677770776
 21
15.0162172159
 31
0.0
 11
10.9687679935
 21
15.0024512086
 31
0.0
 11
10.9704179079
 21
14.9887223183
 31
0.0
 11
10.9727248018
 21
14.9750506989
 31
0.0
 11
10.9756855646
 21
14.9614532118
 31
0.0
 11
10.9792967958
 21
14.9479466799
 31
0.0
 11
10.9884464813
 21
14.9212872253
 31
0.0
  0
SPLINE
  5
323
100
AcDbEntity
  8
0
100
AcDbSpline
 62
6
  6
CONTINUOUS
 70
0
 71
3
 72
53
 73
49
 74
47
 42
0.0000001
 43
0.0000001
 44
0.0000000001
 12
0.0
 22
1.3720652301
 32
0.0
 13
0.0
 23
-1.3720652301
 33
0.0
 40
0.0
 40
0.0
 40
0.0
 40
0.0
 40
0.0137384327
 40
0.0274961886
 40
0.0412924482
 40
0.0551458484
 40
0.0690743746
 40
0.0830951188
 40
0.0972240848
 40
0.1114760135
 40
0.1258642312
 40
0.1404005124
 40
0.1550949778
 40
0.1699560144
 40
0.1849902162
 40
0.2002023624
 40
0.2311613022
 40
0.2628448211
 40
0.2952274783
 40
0.3282586114
 40
0.3618652509
 40
0.3959554519
 40
0.4304218996
 40
0.4651456614
 40
0.5000000291
 40
0.5348543964
 40
0.5695781568
 40
0.604044602
 40
0.6381347998
 40
0.6717414353
 40
0.7047725638
 40
0.7371552159
 40
0.7688387291
 40
0.7997976633
 40
0.8150098067
 40
0.8300440056
 40
0.8449050396
 40
0.8595995023
 40
0.874135781
 40
0.8885239964
 40
0.9027759229
 40
0.9169048869
 40
0.9309256294
 40
0.9448541543
 40
0.9587075533
 40
0.9725038121
 40
0.9862615675
 40
1.0
 40
1.0
 40
1.0
 40
1.0
 10
11.9474464813
 20
15.1135604711
 30
0.0
 10
11.9474464813
 20
15.119843813
 30
0.0
 10
11.9470453714
 20
15.1324230087
 30
0.0
 10
11.9452426923
 20
15.1512342238
 30
0.0
 10
11.9422445307
 20
15.1699461858
 30
0.0
 10
11.938060172
 20
15.1885087493
 30
0.0
 10
11.9327024265
 20
15.206874012
 30
0.0
 10
11.9261874007
 20
15.2249949718
 30
0.0
 10
11.9185342631
 20
15.2428261295
 30
0.0
 10
11.9097650187
 20
15.2603234955
 30
0.0
 10
11.8999043045
 20
15.2774447071
 30
0.0
 10
11.8889791802
 20
15.29414903
 30
0.0
 10
11.8770189037
 20
15.3103973937
 30
0.0
 10
11.8640549732
 20
15.3261522225
 30
0.0
 10
11.8501203271
 20
15.3413779751
 30
0.0
 10
11.8301807674
 20
15.3610392838
 30
0.0
 10
11.8029686729
 20
15.3841000904
 30
0.0
 10
11.7672504249
 20
15.4089642395
 30
0.0
 10
11.7286132557
 20
15.4309735017
 30
0.0
 10
11.6874266471
 20
15.4499341238
 30
0.0
 10
11.6440786486
 20
15.4656810321
 30
0.0
 10
11.5989771265
 20
15.4780756909
 30
0.0
 10
11.5525457167
 20
15.4870085767
 30
0.0
 10
11.505220593
 20
15.4924003648
 30
0.0
 10
11.4574464415
 20
15.4942029821
 30
0.0
 10
11.4096722909
 20
15.4924003589
 30
0.0
 10
11.3623471698
 20
15.4870085649
 30
0.0
 10
11.3159157643
 20
15.4780756743
 30
0.0
 10
11.270814248
 20
15.4656810108
 30
0.0
 10
11.2274662563
 20
15.4499340996
 30
0.0
 10
11.1862796558
 20
15.430973475
 30
0.0
 10
11.1476424948
 20
15.4089642127
 30
0.0
 10
11.1119242558
 20
15.3841000638
 30
0.0
 10
11.084712168
 20
15.3610392593
 30
0.0
 10
11.0647726136
 20
15.3413779525
 30
0.0
 10
11.0508379714
 20
15.3261522015
 30
0.0
 10
11.0378740444
 20
15.3103973748
 30
0.0
 10
11.0259137708
 20
15.2941490135
 30
0.0
 10
11.0149886493
 20
15.2774446927
 30
0.0
 10
11.0051279376
 20
15.2603234834
 30
0.0
 10
10.996358695
 20
15.2428261198
 30
0.0
 10
10.988705559
 20
15.2249949644
 30
0.0
 10
10.9821905344
 20
15.2068740065
 30
0.0
 10
10.9768327897
 20
15.1885087457
 30
0.0
 10
10.9726484315
 20
15.1699461837
 30
0.0
 10
10.9696502702
 20
15.1512342228
 30
0.0
 10
10.9678475912
 20
15.1324230083
 30
0.0
 10
10.9674464813
 20
15.1198438129
 30
0.0
 10
10.9674464813
 20
15.1135604711
 30
0.0
 11
11.9474464813
 21
15.1135604711
 31
0.0
 11
11.9468461155
 21
15.1324009337
 31
0.0
 11
11.9450468818
 21
15.1511915288
 31
0.0
 11
11.942054323
 21
15.1698828522
 31
0.0
 11
11.9378775615
 21
15.1884260433
 31
0.0
 11
11.9325291655
 21
15.2067732261
 31
0.0
 11
11.9260249601
 21
15.2248776988
 31
0.0
 11
11.9183838082
 21
15.2426941092
 31
0.0
 11
11.9096273987
 21
15.2601785803
 31
0.0
 11
11.899780048
 21
15.2772887936
 31
0.0
 11
11.8888685037
 21
15.2939840113
 31
0.0
 11
11.8769217732
 21
15.3102250827
 31
0.0
 11
11.8639709894
 21
15.3259744322
 31
0.0
 11
11.850049305
 21
15.341196035
 31
0.0
 11
11.8351917846
 21
15.3558553952
 31
0.0
 11
11.8028186479
 21
15.3833569177
 31
0.0
 11
11.7671678771
 21
15.4082331046
 31
0.0
 11
11.7285824494
 21
15.430262381
 31
0.0
 11
11.6874301443
 21
15.4492484016
 31
0.0
 11
11.6441012649
 21
15.4650213712
 31
0.0
 11
11.5990058947
 21
15.4774396134
 31
0.0
 11
11.5525706091
 21
15.4863910729
 31
0.0
 11
11.5052347682
 21
15.4917946819
 31
0.0
 11
11.4574464413
 21
15.4936013572
 31
0.0
 11
11.4096581153
 21
15.4917946759
 31
0.0
 11
11.3623222771
 21
15.4863910612
 31
0.0
 11
11.3158869958
 21
15.4774395966
 31
0.0
 11
11.2707916313
 21
15.46502135
 31
0.0
 11
11.2274627589
 21
15.4492483773
 31
0.0
 11
11.1863104619
 21
15.4302623546
 31
0.0
 11
11.1477250426
 21
15.4082330776
 31
0.0
 11
11.1120742806
 21
15.3833568914
 31
0.0
 11
11.0797011522
 21
15.3558553711
 31
0.0
 11
11.0648436357
 21
15.3411960124
 31
0.0
 11
11.0509219552
 21
15.3259744114
 31
0.0
 11
11.0379711749
 21
15.3102250639
 31
0.0
 11
11.0260244473
 21
15.2939839947
 31
0.0
 11
11.0151129058
 21
15.2772887793
 31
0.0
 11
11.0052655575
 21
15.2601785683
 31
0.0
 11
10.9965091499
 21
15.2426940997
 31
0.0
 11
10.9888679996
 21
15.2248776915
 31
0.0
 11
10.9823637954
 21
15.2067732208
 31
0.0
 11
10.9770154002
 21
15.1884260398
 31
0.0
 11
10.9728386392
 21
15.1698828502
 31
0.0
 11
10.9698460807
 21
15.1511915279
 31
0.0
 11
10.9680468471
 21
15.1324009335
 31
0.0
 11
10.9674464813
 21
15.1135604711
 31
0.0
  0
SPLINE
  5
324
100
AcDbEntity
  8
0
100
AcDbSpline
 62
6
  6
CONTINUOUS
 70
0
 71
3
 72
63
 73
59
 74
57
 42
0.0000001
 43
0.0000001
 44
0.0000000001
 12
0.0321529512
 22
1.3528701782
 32
0.0
 13
0.0992716636
 23
-1.3496061159
 33
0.0
 40
0.0
 40
0.0
 40
0.0
 40
0.0
 40
0.0152866851
 40
0.0305751023
 40
0.0458664476
 40
0.061162102
 40
0.0764635814
 40
0.0917726287
 40
0.107091218
 40
0.1224215135
 40
0.1377659862
 40
0.1531273181
 40
0.1685083646
 40
0.183912223
 40
0.1993420512
 40
0.2148010241
 40
0.2302923425
 40
0.2458190096
 40
0.2769806714
 40
0.3083126634
 40
0.3240496707
 40
0.3398318061
 40
0.3556585613
 40
0.3715286456
 40
0.4033829203
 40
0.4353765641
 40
0.4514180835
 40
0.4674802707
 40
0.4996370823
 40
0.5318049023
 40
0.5478806285
 40
0.5639407123
 40
0.5959851157
 40
0.6279048179
 40
0.6438115301
 40
0.6596766958
 40
0.6754983445
 40
0.6912752686
 40
0.7070070504
 40
0.7226939342
 40
0.7383368856
 40
0.7539374627
 40
0.7694976863
 40
0.7850201006
 40
0.80050749
 40
0.8159628985
 40
0.8313895258
 40
0.846790551
 40
0.8621691287
 40
0.8775283328
 40
0.8928709928
 40
0.908199779
 40
0.923517126
 40
0.9388251695
 40
0.9541258643
 40
0.9694209245
 40
0.9847118439
 40
1.0
 40
1.0
 40
1.0
 40
1.0
 10
10.9875505295
 20
14.6739726948
 30
0.0
 10
10.9877143668
 20
14.6808663283
 30
0.0
 10
10.9884293261
 20
14.6946483012
 30
0.0
 10
10.9906584983
 20
14.7152278314
 30
0.0
 10
10.9940348694
 20
14.7356552314
 30
0.0
 10
10.9985439366
 20
14.7558685747
 30
0.0
 10
11.004166719
 20
14.7758090532
 30
0.0
 10
11.0108800449
 20
14.7954200573
 30
0.0
 10
11.0186569323
 20
14.8146479556
 30
0.0
 10
11.027467078
 20
14.8334423241
 30
0.0
 10
11.0372773221
 20
14.8517561974
 30
0.0
 10
11.0480521326
 20
14.8695462097
 30
0.0
 10
11.059754073
 20
14.8867726658
 30
0.0
 10
11.0723442585
 20
14.9033994713
 30
0.0
 10
11.0857828003
 20
14.9193940686
 30
0.0
 10
11.1000289864
 20
14.9347271231
 30
0.0
 10
11.1150422478
 20
14.9493727792
 30
0.0
 10
11.1360490764
 20
14.9679719624
 30
0.0
 10
11.1640399182
 20
14.9893962983
 30
0.0
 10
11.1939582861
 20
15.0082050803
 30
0.0
 10
11.2189198878
 20
15.0216637729
 30
0.0
 10
11.2381514647
 20
15.0309679291
 30
0.0
 10
11.2578224491
 20
15.0394550135
 30
0.0
 10
11.2846113909
 20
15.0496805611
 30
0.0
 10
11.3189930918
 20
15.060367004
 30
0.0
 10
11.3542114947
 20
15.068201188
 30
0.0
 10
11.3827708794
 20
15.0727547859
 30
0.0
 10
11.4115637237
 20
15.0761623243
 30
0.0
 10
11.4478058603
 20
15.0782523636
 30
0.0
 10
11.4841051851
 20
15.0774443637
 30
0.0
 10
11.5130202218
 20
15.0750601332
 30
0.0
 10
11.5417609815
 20
15.0715241302
 30
0.0
 10
11.5772979872
 20
15.0649524572
 30
0.0
 10
11.6121143197
 20
15.0555164009
 30
0.0
 10
11.6393261283
 20
15.0462776627
 30
0.0
 10
11.6593520253
 20
15.0385216167
 30
0.0
 10
11.6789743037
 20
15.0299402244
 30
0.0
 10
11.6981525339
 20
15.0205430407
 30
0.0
 10
11.716845877
 20
15.0103408589
 30
0.0
 10
11.7350136816
 20
14.9993456396
 30
0.0
 10
11.7526152152
 20
14.9875707199
 30
0.0
 10
11.7696096526
 20
14.9750309959
 30
0.0
 10
11.7859560455
 20
14.9617431393
 30
0.0
 10
11.8016132999
 20
14.9477258739
 30
0.0
 10
11.8165402526
 20
14.9330002205
 30
0.0
 10
11.8306957515
 20
14.9175897994
 30
0.0
 10
11.8440388323
 20
14.9015210988
 30
0.0
 10
11.8565289585
 20
14.8848237443
 30
0.0
 10
11.8681263165
 20
14.8675307109
 30
0.0
 10
11.8787921719
 20
14.8496784986
 30
0.0
 10
11.8884892809
 20
14.8313072216
 30
0.0
 10
11.8971823609
 20
14.8124606607
 30
0.0
 10
11.9048385567
 20
14.7931861906
 30
0.0
 10
11.9114279203
 20
14.7735345966
 30
0.0
 10
11.9169238815
 20
14.7535599392
 30
0.0
 10
11.9213037517
 20
14.7333188451
 30
0.0
 10
11.924548974
 20
14.7128714542
 30
0.0
 10
11.9259469836
 20
14.6991401672
 30
0.0
 10
11.9264528772
 20
14.6922625042
 30
0.0
 11
10.9875505295
 21
14.6739726948
 31
0.0
 11
10.9886220219
 21
14.694631667
 31
0.0
 11
10.9908494225
 21
14.7152005001
 31
0.0
 11
10.9942230888
 21
14.7356166838
 31
0.0
 11
10.9987285807
 21
14.7558192603
 31
0.0
 11
11.0043469389
 21
14.7757492374
 31
0.0
 11
11.0110550352
 21
14.7953501461
 31
0.0
 11
11.0188259568
 21
14.8145684223
 31
0.0
 11
11.0276294421
 21
14.8333536571
 31
0.0
 11
11.0374324166
 21
14.8516589703
 31
0.0
 11
11.0481994283
 21
14.8694410475
 31
0.0
 11
11.059893102
 21
14.8866601852
 31
0.0
 11
11.0724746808
 21
14.9032803727
 31
0.0
 11
11.085904338
 21
14.9192690392
 31
0.0
 11
11.1001415468
 21
14.9345969108
 31
0.0
 11
11.1151454504
 21
14.9492378789
 31
0.0
 11
11.1308749703
 21
14.9631686074
 31
0.0
 11
11.1643466713
 21
14.9888185457
 31
0.0
 11
11.2002293328
 21
15.0114061973
 31
0.0
 11
11.2189729846
 21
15.021515653
 31
0.0
 11
11.2381972961
 21
15.0308192136
 31
0.0
 11
11.2578615888
 21
15.0393061929
 31
0.0
 11
11.27792501
 21
15.0469669654
 31
0.0
 11
11.3190847193
 21
15.0597763508
 31
0.0
 11
11.3613444689
 21
15.0691897029
 31
0.0
 11
11.3827817229
 21
15.0726089169
 31
0.0
 11
11.4043671844
 21
15.075164268
 31
0.0
 11
11.4478111112
 21
15.0776725584
 31
0.0
 11
11.4913314841
 21
15.0767029235
 31
0.0
 11
11.5130123723
 21
15.0749146628
 31
0.0
 11
11.5345829621
 21
15.0722598761
 31
0.0
 11
11.5772222038
 21
15.0643639655
 31
0.0
 11
11.6189099245
 21
15.0530512665
 31
0.0
 11
11.6392923208
 21
15.0461290053
 31
0.0
 11
11.6593119264
 21
15.0383728562
 31
0.0
 11
11.6789276998
 21
15.029791557
 31
0.0
 11
11.6980988036
 21
15.0203948559
 31
0.0
 11
11.716784578
 21
15.0101935681
 31
0.0
 11
11.7349443453
 21
14.9991997517
 31
0.0
 11
11.7525374665
 21
14.9874267888
 31
0.0
 11
11.7695232057
 21
14.9748896141
 31
0.0
 11
11.7858606445
 21
14.9616049833
 31
0.0
 11
11.8015088464
 21
14.9475915985
 31
0.0
 11
11.8164267047
 21
14.932870536
 31
0.0
 11
11.8305731711
 21
14.9174654247
 31
0.0
 11
11.8439074098
 21
14.9014027238
 31
0.0
 11
11.8563889597
 21
14.8847120725
 31
0.0
 11
11.8679781011
 21
14.8674264298
 31
0.0
 11
11.8786362155
 21
14.8495822234
 31
0.0
 11
11.8883261187
 21
14.8312195792
 31
0.0
 11
11.8970126153
 21
14.8123822112
 31
0.0
 11
11.9046629275
 21
14.7931174144
 31
0.0
 11
11.9112471498
 21
14.773475981
 31
0.0
 11
11.9167387861
 21
14.7535118155
 31
0.0
 11
11.9211151674
 21
14.7332817006
 31
0.0
 11
11.924357832
 21
14.7128448844
 31
0.0
 11
11.9264528772
 21
14.6922625042
 31
0.0
  0
SPLINE
  5
325
100
AcDbEntity
  8
0
100
AcDbSpline
 62
6
  6
CONTINUOUS
 70
0
 71
3
 72
25
 73
21
 74
19
 42
0.0000001
 43
0.0000001
 44
0.0000000001
 12
0.0685570929
 22
0.3659299677
 32
0.0
 13
-0.2893682603
 23
0.2342452266
 33
0.0
 40
0.0
 40
0.0
 40
0.0
 40
0.0
 40
0.0598870352
 40
0.1195652525
 40
0.1493726429
 40
0.1791788968
 40
0.2090017641
 40
0.2388583845
 40
0.2987284522
 40
0.3589242531
 40
0.4195624785
 40
0.4807527904
 40
0.5115922117
 40
0.542608275
 40
0.5738133538
 40
0.6052192537
 40
0.6686617527
 40
0.7330050742
 40
0.8645020609
 40
1.0
 40
1.0
 40
1.0
 40
1.0
 10
11.9675679165
 20
12.298467779
 30
0.0
 10
11.9689364769
 20
12.3057725993
 30
0.0
 10
11.9711457005
 20
12.3204602559
 30
0.0
 10
11.9725584027
 20
12.3389608197
 30
0.0
 10
11.9728650755
 20
12.3537645546
 30
0.0
 10
11.9726820111
 20
12.3648646391
 30
0.0
 10
11.9720879352
 20
12.3759564298
 30
0.0
 10
11.9707500829
 20
12.3907347219
 30
0.0
 10
11.9680563484
 20
12.4091619442
 30
0.0
 10
11.9632183398
 20
12.4310782428
 30
0.0
 10
11.9567906744
 20
12.4527526894
 30
0.0
 10
11.9501415319
 20
12.4705111458
 30
0.0
 10
11.9440568733
 20
12.4845189725
 30
0.0
 10
11.9390955758
 20
12.4949502653
 30
0.0
 10
11.9337511316
 20
12.5052697367
 30
0.0
 10
11.9260926509
 20
12.5189126543
 30
0.0
 10
11.9155688783
 20
12.5356503906
 30
0.0
 10
11.896726824
 20
12.5617556617
 30
0.0
 10
11.8695892103
 20
12.5927872066
 30
0.0
 10
11.8449587099
 20
12.6150716595
 30
0.0
 10
11.8318891089
 20
12.6256515747
 30
0.0
 11
11.9675679165
 21
12.298467779
 31
0.0
 11
11.9708790096
 21
12.3205162909
 31
0.0
 11
11.9725668167
 21
12.3426700924
 31
0.0
 11
11.9727962572
 21
12.3537649126
 31
0.0
 11
11.9726136303
 21
12.364860179
 31
0.0
 11
11.9720203208
 21
12.3759472697
 31
0.0
 11
11.9710186311
 21
12.387017564
 31
0.0
 11
11.9677993207
 21
12.4090732801
 31
0.0
 11
11.9629741193
 21
12.4309583608
 31
0.0
 11
11.9565614469
 21
12.4526038398
 31
0.0
 11
11.9485797236
 21
12.4739407508
 31
0.0
 11
11.9440062242
 21
12.4844719412
 31
0.0
 11
11.9390473696
 21
12.4949001273
 31
0.0
 11
11.9337054623
 21
12.5052166882
 31
0.0
 11
11.9279834075
 21
12.5154131706
 31
0.0
 11
11.9154217308
 21
12.5354152162
 31
0.0
 11
11.9014116849
 21
12.5548458953
 31
0.0
 11
11.8692467456
 21
12.5917524796
 31
0.0
 11
11.8318891089
 21
12.6256515747
 31
0.0
  0
SPLINE
  5
326
100
AcDbEntity
  8
0
100
AcDbSpline
 62
6
  6
CONTINUOUS
 70
0
 71
3
 72
23
 73
19
 74
17
 42
0.0000001
 43
0.0000001
 44
0.0000000001
 12
-0.3122487186
 22
0.2527670857
 32
0.0
 13
-0.4017343175
 23
-0.0000045845
 33
0.0
 40
0.0
 40
0.0
 40
0.0
 40
0.0
 40
0.0289209674
 40
0.0580369104
 40
0.1168439361
 40
0.1764062932
 40
0.2366952945
 40
0.297674956
 40
0.3593035139
 40
0.4215348225
 40
0.4843196486
 40
0.5476068826
 40
0.6113446816
 40
0.6754815559
 40
0.7399639725
 40
0.804728618
 40
0.8697074474
 40
1.0
 40
1.0
 40
1.0
 40
1.0
 10
11.8318891089
 20
12.6256515747
 30
0.0
 10
11.8288789306
 20
12.6280883309
 30
0.0
 10
11.82277601
 20
12.6329019693
 30
0.0
 10
11.8102507537
 20
12.642281648
 30
0.0
 10
11.7940080184
 20
12.6535319655
 30
0.0
 10
11.7737103319
 20
12.6662119541
 30
0.0
 10
11.7525995532
 20
12.6780913303
 30
0.0
 10
11.7307346303
 20
12.6891443598
 30
0.0
 10
11.7081740489
 20
12.6993455553
 30
0.0
 10
11.6849764141
 20
12.7086692895
 30
0.0
 10
11.661200304
 20
12.71708993
 30
0.0
 10
11.6369042843
 20
12.7245817351
 30
0.0
 10
11.6121470119
 20
12.7311191699
 30
0.0
 10
11.5869872597
 20
12.7366756612
 30
0.0
 10
11.5614871902
 20
12.7412278074
 30
0.0
 10
11.5357136203
 20
12.744774447
 30
0.0
 10
11.5010507896
 20
12.7481600901
 30
0.0
 10
11.4748864674
 20
12.7491761991
 30
0.0
 10
11.4574388042
 20
12.749176
 30
0.0
 11
11.8318891089
 21
12.6256515747
 31
0.0
 11
11.8227671037
 21
12.6328473799
 31
0.0
 11
11.8134052364
 21
12.6398596755
 31
0.0
 11
11.7939895173
 21
12.6533192833
 31
0.0
 11
11.7737001956
 21
12.6660040866
 31
0.0
 11
11.7525961252
 21
12.6778882945
 31
0.0
 11
11.7307361597
 21
12.6889461165
 31
0.0
 11
11.7081791529
 21
12.6991517617
 31
0.0
 11
11.6849839585
 21
12.7084794394
 31
0.0
 11
11.6612094303
 21
12.7169033589
 31
0.0
 11
11.636914422
 21
12.7243977294
 31
0.0
 11
11.6121577873
 21
12.7309367602
 31
0.0
 11
11.5869983854
 21
12.7364946733
 31
0.0
 11
11.5614974934
 21
12.741051333
 31
0.0
 11
11.5357226071
 21
12.744601117
 31
0.0
 11
11.5097422088
 21
12.7471407037
 31
0.0
 11
11.4574388042
 21
12.749176
 31
0.0
  0
SPLINE
  5
327
100
AcDbEntity
  8
0
100
AcDbSpline
 62
9
  6
CONTINUOUS
 70
0
 71
3
 72
11
 73
7
 74
5
 42
0.0000001
 43
0.0000001
 44
0.0000000001
 12
-0.0096679775
 22
-0.0657804647
 32
0.0
 13
-0.0238834207
 23
-0.0620493476
 33
0.0
 40
0.0
 40
0.0
 40
0.0
 40
0.0
 40
0.247971812
 40
0.4970910147
 40
0.7476705822
 40
1.0
 40
1.0
 40
1.0
 40
1.0
 10
11.9443700756
 20
15.0715645621
 30
0.0
 10
11.943570947
 20
15.0661273284
 30
0.0
 10
11.941659782
 20
15.055270677
 30
0.0
 10
11.9378756702
 20
15.0391299018
 30
0.0
 10
11.9331749201
 20
15.0231312817
 30
0.0
 10
11.9294496561
 20
15.0126197623
 30
0.0
 10
11.9274408262
 20
15.0074008037
 30
0.0
 11
11.9443700756
 21
15.0715645621
 31
0.0
 11
11.9415137122
 21
15.0553269441
 31
0.0
 11
11.9377353232
 21
15.0392004406
 31
0.0
 11
11.9330414434
 21
15.0232150196
 31
0.0
 11
11.9274408262
 21
15.0074008037
 31
0.0
  0
SPLINE
  5
328
100
AcDbEntity
  8
0
100
AcDbSpline
 62
9
  6
CONTINUOUS
 70
0
 71
3
 72
11
 73
7
 74
5
 42
0.0000001
 43
0.0000001
 44
0.0000000001
 12
-0.0238927714
 22
0.0620708519
 32
0.0
 13
-0.0096672231
 23
0.065804255
 33
0.0
 40
0.0
 40
0.0
 40
0.0
 40
0.0
 40
0.2523303025
 40
0.5029101403
 40
0.752028976
 40
1.0
 40
1.0
 40
1.0
 40
1.0
 10
10.9874539002
 20
15.0073962143
 30
0.0
 10
10.9854442767
 20
15.0126169999
 30
0.0
 10
10.9817176318
 20
15.0231322307
 30
0.0
 10
10.9770154139
 20
15.0391365678
 30
0.0
 10
10.9732305123
 20
15.0552831443
 30
0.0
 10
10.9713192585
 20
15.0661437029
 30
0.0
 10
10.9705201948
 20
15.0715828857
 30
0.0
 11
10.9874539002
 21
15.0073962143
 31
0.0
 11
10.981851199
 21
15.0232160258
 31
0.0
 11
10.9771558654
 21
15.0392071571
 31
0.0
 11
10.9733766878
 21
15.0553394451
 31
0.0
 11
10.9705201948
 21
15.0715828857
 31
0.0
  0
SPLINE
  5
329
100
AcDbEntity
  8
0
100
AcDbSpline
 62
9
  6
CONTINUOUS
 70
0
 71
3
 72
65
 73
61
 74
59
 42
0.0000001
 43
0.0000001
 44
0.0000000001
 12
-0.0
 22
1.3650814608
 32
0.0
 13
0.0
 23
-1.3650814608
 33
0.0
 40
0.0
 40
0.0
 40
0.0
 40
0.0
 40
0.0134932846
 40
0.0270136944
 40
0.0405795123
 40
0.0542121152
 40
0.0679332725
 40
0.0817630207
 40
0.0957190985
 40
0.109817821
 40
0.1240736475
 40
0.1384991037
 40
0.1531049702
 40
0.1678995514
 40
0.1828892058
 40
0.1980784237
 40
0.2134693167
 40
0.2290623339
 40
0.2448559487
 40
0.2608465255
 40
0.2933887913
 40
0.3099330095
 40
0.3266442466
 40
0.3605148956
 40
0.3776558902
 40
0.3949129007
 40
0.4297077598
 40
0.4472199335
 40
0.4647842016
 40
0.4823834231
 40
0.5000001319
 40
0.51761684
 40
0.5352160609
 40
0.5527803292
 40
0.5702925012
 40
0.6050873592
 40
0.622344367
 40
0.6394853602
 40
0.6733560039
 40
0.6900672397
 40
0.7066114549
 40
0.739153715
 40
0.7551442873
 40
0.7709378982
 40
0.7865309161
 40
0.8019218059
 40
0.8171110228
 40
0.8321006774
 40
0.8468952549
 40
0.8615011198
 40
0.87592657
 40
0.8901823844
 40
0.9042810938
 40
0.9182371537
 40
0.9320668836
 40
0.9457880227
 40
0.959420593
 40
0.9729863628
 40
0.9865067307
 40
1.0
 40
1.0
 40
1.0
 40
1.0
 10
10.9674464813
 20
15.1135604711
 30
0.0
 10
10.9674464813
 20
15.119700282
 30
0.0
 10
10.9678411402
 20
15.1319958494
 30
0.0
 10
10.9696124269
 20
15.1503874658
 30
0.0
 10
10.9725616265
 20
15.1686921868
 30
0.0
 10
10.9766798478
 20
15.1868630684
 30
0.0
 10
10.981957869
 20
15.2048565995
 30
0.0
 10
10.9883830418
 20
15.2226293613
 30
0.0
 10
10.995937957
 20
15.2401390456
 30
0.0
 10
11.0046066451
 20
15.2573419341
 30
0.0
 10
11.0143662733
 20
15.2741970032
 30
0.0
 10
11.0251926163
 20
15.2906640321
 30
0.0
 10
11.0370612674
 20
15.3067019584
 30
0.0
 10
11.0499412807
 20
15.3222736875
 30
0.0
 10
11.063802066
 20
15.3373414485
 30
0.0
 10
11.0786110307
 20
15.3518680194
 30
0.0
 10
11.0943307362
 20
15.3658204368
 30
0.0
 10
11.1109243421
 20
15.3791639575
 30
0.0
 10
11.1283523363
 20
15.3918669168
 30
0.0
 10
11.1527829473
 20
15.4080027892
 30
0.0
 10
11.1785843573
 20
15.4226269433
 30
0.0
 10
11.2055304659
 20
15.4356922969
 30
0.0
 10
11.2335596684
 20
15.4478487495
 30
0.0
 10
11.2625770978
 20
15.4583409904
 30
0.0
 10
11.2923752905
 20
15.467140914
 30
0.0
 10
11.322904946
 20
15.4748640775
 30
0.0
 10
11.3540304788
 20
15.4808237299
 30
0.0
 10
11.3855523437
 20
15.4850123877
 30
0.0
 10
11.4094211723
 20
15.4872662029
 30
0.0
 10
11.4334049421
 20
15.4886206158
 30
0.0
 10
11.4574466615
 20
15.4890731404
 30
0.0
 10
11.481488381
 20
15.4886206112
 30
0.0
 10
11.5054721481
 20
15.4872661631
 30
0.0
 10
11.5293409765
 20
15.4850123567
 30
0.0
 10
11.560862836
 20
15.4808236668
 30
0.0
 10
11.5919883661
 20
15.4748640138
 30
0.0
 10
11.6225180111
 20
15.4671408178
 30
0.0
 10
11.652316194
 20
15.4583408765
 30
0.0
 10
11.681333613
 20
15.4478486176
 30
0.0
 10
11.7093628062
 20
15.4356921546
 30
0.0
 10
11.7363089054
 20
15.4226267919
 30
0.0
 10
11.7621102989
 20
15.4080026212
 30
0.0
 10
11.7865408947
 20
15.3918667366
 30
0.0
 10
11.8039688657
 20
15.3791637522
 30
0.0
 10
11.8205624771
 20
15.3658202429
 30
0.0
 10
11.83628216
 20
15.3518678015
 30
0.0
 10
11.8510911077
 20
15.337341217
 30
0.0
 10
11.8649518982
 20
15.322273463
 30
0.0
 10
11.8778318771
 20
15.3067017081
 30
0.0
 10
11.8897005185
 20
15.2906637821
 30
0.0
 10
11.9005268548
 20
15.2741967585
 30
0.0
 10
11.9102864378
 20
15.2573416799
 30
0.0
 10
11.9189551243
 20
15.2401388132
 30
0.0
 10
11.9265100153
 20
15.2226291419
 30
0.0
 10
11.9329351485
 20
15.2048563927
 30
0.0
 10
11.9382131669
 20
15.1868628937
 30
0.0
 10
11.9423313575
 20
15.1686920511
 30
0.0
 10
11.9452805479
 20
15.1503873856
 30
0.0
 10
11.9470518287
 20
15.1319958165
 30
0.0
 10
11.9474464813
 20
15.119700275
 30
0.0
 10
11.9474464813
 20
15.1135604711
 30
0.0
 11
10.9674464813
 21
15.1135604711
 31
0.0
 11
10.968036471
 21
15.1319704524
 31
0.0
 11
10.9698046681
 21
15.150342018
 31
0.0
 11
10.9727476886
 21
15.168625111
 31
0.0
 11
10.976857891
 21
15.186775151
 31
0.0
 11
10.9821259893
 21
15.2047495405
 31
0.0
 11
10.9885395464
 21
15.2225054644
 31
0.0
 11
10.9960823709
 21
15.2399998458
 31
0.0
 11
11.0047374694
 21
15.2571897881
 31
0.0
 11
11.0144832487
 21
15.2740339435
 31
0.0
 11
11.0252959303
 21
15.2904916996
 31
0.0
 11
11.0371505037
 21
15.3065229446
 31
0.0
 11
11.0500172831
 21
15.3220894686
 31
0.0
 11
11.063865449
 21
15.3371535254
 31
0.0
 11
11.0786622652
 21
15.3516784882
 31
0.0
 11
11.0943711212
 21
15.3656299931
 31
0.0
 11
11.1109548312
 21
15.3789740269
 31
0.0
 11
11.1283735466
 21
15.3916784925
 31
0.0
 11
11.1465846636
 21
15.4037132756
 31
0.0
 11
11.1852088246
 21
15.4256578246
 31
0.0
 11
11.2055281654
 21
15.4355153463
 31
0.0
 11
11.226454827
 21
15.4445967173
 31
0.0
 11
11.269925471
 21
15.4603475534
 31
0.0
 11
11.2923651491
 21
15.4669783311
 31
0.0
 11
11.3152023385
 21
15.4727580917
 31
0.0
 11
11.3618491415
 21
15.48170898
 31
0.0
 11
11.385546209
 21
15.48485922
 31
0.0
 11
11.4094165663
 21
15.4871144604
 31
0.0
 11
11.4334026758
 21
15.4884698024
 31
0.0
 11
11.4574466619
 21
15.4889222482
 31
0.0
 11
11.4814906467
 21
15.4884697927
 31
0.0
 11
11.5054767542
 21
15.487114428
 31
0.0
 11
11.5293471115
 21
15.4848591834
 31
0.0
 11
11.5530441744
 21
15.4817089276
 31
0.0
 11
11.5996909716
 21
15.4727580169
 31
0.0
 11
11.6225281522
 21
15.4669782368
 31
0.0
 11
11.6449678238
 21
15.4603474436
 31
0.0
 11
11.6884384515
 21
15.4445965836
 31
0.0
 11
11.7093651073
 21
15.4355152038
 31
0.0
 11
11.7296844399
 21
15.4256576748
 31
0.0
 11
11.7683085797
 21
15.4037131042
 31
0.0
 11
11.786519682
 21
15.3916783098
 31
0.0
 11
11.8039383796
 21
15.3789738289
 31
0.0
 11
11.8205220885
 21
15.3656297922
 31
0.0
 11
11.8362309256
 21
15.3516782726
 31
0.0
 11
11.8510277279
 21
15.3371532976
 31
0.0
 11
11.8648758903
 21
15.3220892372
 31
0.0
 11
11.8777426445
 21
15.3065226989
 31
0.0
 11
11.8895972065
 21
15.2904914483
 31
0.0
 11
11.9004098749
 21
15.2740336932
 31
0.0
 11
11.9101556213
 21
15.2571895378
 31
0.0
 11
11.9188107078
 21
15.2399996095
 31
0.0
 11
11.9263535082
 21
15.2225052445
 31
0.0
 11
11.9327670346
 21
15.2047493358
 31
0.0
 11
11.9380351212
 21
15.1867749689
 31
0.0
 11
11.9421453007
 21
15.1686249694
 31
0.0
 11
11.9450883069
 21
15.1503419405
 31
0.0
 11
11.9468564964
 21
15.1319704316
 31
0.0
 11
11.9474464813
 21
15.1135604711
 31
0.0
  0
SPLINE
  5
32A
100
AcDbEntity
  8
0
100
AcDbSpline
 62
9
  6
CONTINUOUS
 70
0
 71
3
 72
65
 73
61
 74
59
 42
0.0000001
 43
0.0000001
 44
0.0000000001
 12
0.107281243
 22
1.2578180129
 32
0.0
 13
0.107281243
 23
-1.2578180129
 33
0.0
 40
0.0
 40
0.0
 40
0.0
 40
0.0
 40
0.0134488149
 40
0.0269518381
 40
0.0405243166
 40
0.054183677
 40
0.0679484493
 40
0.0818359
 40
0.0958607257
 40
0.1100358053
 40
0.1243726001
 40
0.1388806501
 40
0.1535678826
 40
0.1684405226
 40
0.1835026041
 40
0.1987566464
 40
0.214203444
 40
0.2298418188
 40
0.2616741652
 40
0.2778657316
 40
0.2942295699
 40
0.3107573063
 40
0.3274393297
 40
0.3442652166
 40
0.3612233015
 40
0.378301072
 40
0.3954854122
 40
0.4301112933
 40
0.4475292472
 40
0.4649947959
 40
0.4999999795
 40
0.5350051629
 40
0.5524707119
 40
0.5698886658
 40
0.6045145473
 40
0.6216988877
 40
0.6387766584
 40
0.6557347437
 40
0.6725606307
 40
0.6892426545
 40
0.7057703915
 40
0.7221342301
 40
0.7383257971
 40
0.7701581442
 40
0.7857965195
 40
0.8012433175
 40
0.8164973595
 40
0.8315594414
 40
0.8464320814
 40
0.8611193141
 40
0.875627365
 40
0.8899641611
 40
0.9041392425
 40
0.9181640706
 40
0.9320515234
 40
0.9458162992
 40
0.9594756658
 40
0.9730481529
 40
0.9865511827
 40
1.0
 40
1.0
 40
1.0
 40
1.0
 10
10.9884464813
 20
14.8349242763
 30
0.0
 10
10.9889274165
 20
14.8405629968
 30
0.0
 10
10.9902386587
 20
14.8518365382
 30
0.0
 10
10.9932365601
 20
14.8686334549
 30
0.0
 10
10.9972637482
 20
14.8853054436
 30
0.0
 10
11.002310717
 20
14.9018123489
 30
0.0
 10
11.008365038
 20
14.9181182458
 30
0.0
 10
11.015415033
 20
14.9341868069
 30
0.0
 10
11.023443138
 20
14.9499832814
 30
0.0
 10
11.032431669
 20
14.9654724031
 30
0.0
 10
11.0423619657
 20
14.9806186466
 30
0.0
 10
11.0532098407
 20
14.9953896879
 30
0.0
 10
11.0649518467
 20
15.0097525149
 30
0.0
 10
11.0775626032
 20
15.0236746706
 30
0.0
 10
11.0910125618
 20
15.0371269305
 30
0.0
 10
11.1052727512
 20
15.0500786714
 30
0.0
 10
11.1203122351
 20
15.0625013561
 30
0.0
 10
11.1414791518
 20
15.0784162624
 30
0.0
 10
11.1639609107
 20
15.093058616
 30
0.0
 10
11.1875616062
 20
15.1063776541
 30
0.0
 10
11.2059625235
 20
15.1157720587
 30
0.0
 10
11.2249185592
 20
15.1244928984
 30
0.0
 10
11.2443882961
 20
15.1325219927
 30
0.0
 10
11.2643292177
 20
15.1398398062
 30
0.0
 10
11.2846965835
 20
15.1464317082
 30
0.0
 10
11.305445948
 20
15.1522832591
 30
0.0
 10
11.3336272442
 20
15.159095224
 30
0.0
 10
11.3623118156
 20
15.1643530728
 30
0.0
 10
11.391332115
 20
15.1680448275
 30
0.0
 10
11.4206270165
 20
15.1706960582
 30
0.0
 10
11.4574464553
 20
15.1720211429
 30
0.0
 10
11.4942658942
 20
15.1706960599
 30
0.0
 10
11.5235607961
 20
15.1680448335
 30
0.0
 10
11.5525810961
 20
15.1643530814
 30
0.0
 10
11.5812656682
 20
15.1590952348
 30
0.0
 10
11.6094469654
 20
15.1522832725
 30
0.0
 10
11.6301963302
 20
15.1464317216
 30
0.0
 10
11.6505636976
 20
15.1398398239
 30
0.0
 10
11.6705046198
 20
15.1325220104
 30
0.0
 10
11.6899743576
 20
15.1244929173
 30
0.0
 10
11.7089303958
 20
15.1157720815
 30
0.0
 10
11.7273313133
 20
15.1063776759
 30
0.0
 10
11.7509320114
 20
15.0930586412
 30
0.0
 10
11.7734137717
 20
15.0784162882
 30
0.0
 10
11.7945806911
 20
15.0625013846
 30
0.0
 10
11.8096201777
 20
15.0500787026
 30
0.0
 10
11.8238803665
 20
15.0371269608
 30
0.0
 10
11.8373303283
 20
15.0236747041
 30
0.0
 10
11.8499410872
 20
15.0097525502
 30
0.0
 10
11.8616830929
 20
14.9953897224
 30
0.0
 10
11.8725309727
 20
14.9806186834
 30
0.0
 10
11.882461272
 20
14.9654724394
 30
0.0
 10
11.8914498037
 20
14.9499833155
 30
0.0
 10
11.8994779146
 20
14.9341868411
 30
0.0
 10
11.9065279122
 20
14.9181182774
 30
0.0
 10
11.9125822358
 20
14.9018123763
 30
0.0
 10
11.9176292098
 20
14.8853054644
 30
0.0
 10
11.921656399
 20
14.8686334667
 30
0.0
 10
11.9246543027
 20
14.8518365429
 30
0.0
 10
11.925965546
 20
14.8405629978
 30
0.0
 10
11.9264464813
 20
14.8349242763
 30
0.0
 11
10.9884464813
 21
14.8349242763
 31
0.0
 11
10.9904059847
 21
14.8517883967
 31
0.0
 11
10.9933990062
 21
14.8685695864
 31
0.0
 11
10.9974191564
 21
14.8852249686
 31
0.0
 11
11.0024572508
 21
14.901715917
 31
0.0
 11
11.008501946
 21
14.9180070898
 31
0.0
 11
11.0155409783
 21
14.9340632022
 31
0.0
 11
11.0235579105
 21
14.9498488335
 31
0.0
 11
11.0325350451
 21
14.9653285231
 31
0.0
 11
11.0424532831
 21
14.9804674182
 31
0.0
 11
11.0532896241
 21
14.9952323593
 31
0.0
 11
11.0650203789
 21
15.0095904867
 31
0.0
 11
11.0776200967
 21
15.0235098093
 31
0.0
 11
11.0910599742
 21
15.0369599888
 31
0.0
 11
11.1053107747
 21
15.0499109104
 31
0.0
 11
11.1203411799
 21
15.062333842
 31
0.0
 11
11.1361172488
 21
15.0742017933
 31
0.0
 11
11.169767032
 21
15.0961676726
 31
0.0
 11
11.1875657252
 21
15.1062175287
 31
0.0
 11
11.2059620472
 21
15.1156146578
 31
0.0
 11
11.2249149665
 21
15.1243386769
 31
0.0
 11
11.244382301
 21
15.1323704869
 31
0.0
 11
11.2643214786
 21
15.1396915802
 31
0.0
 11
11.2846879916
 21
15.1462864054
 31
0.0
 11
11.3054367187
 21
15.1521403486
 31
0.0
 11
11.3265220855
 21
15.1572398007
 31
0.0
 11
11.3695145419
 21
15.1651338815
 31
0.0
 11
11.3913267095
 21
15.1679103077
 31
0.0
 11
11.4132851536
 21
15.1698982158
 31
0.0
 11
11.4574464553
 21
15.1714908849
 31
0.0
 11
11.5016077571
 21
15.1698982189
 31
0.0
 11
11.5235662016
 21
15.1679103135
 31
0.0
 11
11.5453783696
 21
15.1651338894
 31
0.0
 11
11.5883708273
 21
15.1572398122
 31
0.0
 11
11.6094561945
 21
15.1521403617
 31
0.0
 11
11.6302049222
 21
15.1462864196
 31
0.0
 11
11.6505714367
 21
15.1396915972
 31
0.0
 11
11.6705106148
 21
15.1323705049
 31
0.0
 11
11.6899779505
 21
15.1243386963
 31
0.0
 11
11.7089308718
 21
15.1156146797
 31
0.0
 11
11.7273271944
 21
15.1062175512
 31
0.0
 11
11.7451258894
 21
15.0961676967
 31
0.0
 11
11.7787756754
 21
15.07420182
 31
0.0
 11
11.7945517465
 21
15.0623338705
 31
0.0
 11
11.8095821538
 21
15.0499109409
 31
0.0
 11
11.8238329546
 21
15.0369600199
 31
0.0
 11
11.8372728347
 21
15.0235098425
 31
0.0
 11
11.8498725545
 21
15.0095905216
 31
0.0
 11
11.8616033101
 21
14.9952323947
 31
0.0
 11
11.8724396549
 21
14.9804674548
 31
0.0
 11
11.8823578954
 21
14.9653285594
 31
0.0
 11
11.8913350319
 21
14.9498488683
 31
0.0
 11
11.8993519688
 21
14.9340632359
 31
0.0
 11
11.9063910038
 21
14.9180071219
 31
0.0
 11
11.9124357019
 21
14.9017159455
 31
0.0
 11
11.9174738006
 21
14.8852249901
 31
0.0
 11
11.9214939532
 21
14.8685695975
 31
0.0
 11
11.9244869768
 21
14.8517883997
 31
0.0
 11
11.9264464813
 21
14.8349242763
 31
0.0
  0
SPLINE
  5
32B
100
AcDbEntity
  8
0
100
AcDbSpline
 62
9
  6
CONTINUOUS
 70
0
 71
3
 72
59
 73
55
 74
53
 42
0.0000001
 43
0.0000001
 44
0.0000000001
 12
0.4196820168
 22
1.0624982383
 32
0.0
 13
0.4196820168
 23
-1.0624982383
 33
0.0
 40
0.0
 40
0.0
 40
0.0
 40
0.0
 40
0.0135380944
 40
0.0271924584
 40
0.0409689599
 40
0.0548729346
 40
0.068911252
 40
0.0830912938
 40
0.0974195655
 40
0.111901144
 40
0.1413288936
 40
0.171393783
 40
0.202093008
 40
0.2176783468
 40
0.2334142869
 40
0.2492963826
 40
0.2653194983
 40
0.2814774715
 40
0.2977635352
 40
0.3306857632
 40
0.3640247997
 40
0.3808300287
 40
0.3977112033
 40
0.4146581065
 40
0.431660318
 40
0.4487070516
 40
0.4657873071
 40
0.4999999949
 40
0.5342126826
 40
0.5512929381
 40
0.5683396718
 40
0.5853418833
 40
0.6022887865
 40
0.6191699612
 40
0.6359751901
 40
0.6693142267
 40
0.7022364549
 40
0.7185225186
 40
0.7346804921
 40
0.750703608
 40
0.7665857039
 40
0.7823216442
 40
0.7979069831
 40
0.8286062079
 40
0.8586710971
 40
0.8880988462
 40
0.9025804243
 40
0.9169086957
 40
0.9310887379
 40
0.9451270567
 40
0.9590310342
 40
0.9728075386
 40
0.9864619048
 40
1.0
 40
1.0
 40
1.0
 40
1.0
 10
10.9884464813
 20
14.9330169032
 30
0.0
 10
10.9903403796
 20
14.937811637
 30
0.0
 10
10.9943834543
 20
14.9473497146
 30
0.0
 10
11.0011622447
 20
14.9614070127
 30
0.0
 10
11.0086681555
 20
14.9752488785
 30
0.0
 10
11.0168893894
 20
14.9888490623
 30
0.0
 10
11.0258118446
 20
15.0021849824
 30
0.0
 10
11.0354203225
 20
15.0152363087
 30
0.0
 10
11.045700682
 20
15.0279829786
 30
0.0
 10
11.0603587561
 20
15.0446320183
 30
0.0
 10
11.0803042365
 20
15.0645736569
 30
0.0
 10
11.1065025107
 20
15.0868343681
 30
0.0
 10
11.1300729507
 20
15.1039068944
 30
0.0
 10
11.1499434232
 20
15.116678963
 30
0.0
 10
11.1654117771
 20
15.125842519
 30
0.0
 10
11.181344388
 20
15.134525887
 30
0.0
 10
11.1977165576
 20
15.1427146908
 30
0.0
 10
11.2145017424
 20
15.1503970954
 30
0.0
 10
11.2374775469
 20
15.1599824314
 30
0.0
 10
11.267084314
 20
15.1706149169
 30
0.0
 10
11.2975085123
 20
15.1793534785
 30
0.0
 10
11.3223509655
 20
15.1852228334
 30
0.0
 10
11.3412488529
 20
15.1890632618
 30
0.0
 10
11.3603313316
 20
15.1923234305
 30
0.0
 10
11.3795683945
 20
15.1949972064
 30
0.0
 10
11.398929414
 20
15.1970814793
 30
0.0
 10
11.424879997
 20
15.1990712591
 30
0.0
 10
11.4574464754
 20
15.2000652018
 30
0.0
 10
11.4900129538
 20
15.1990712597
 30
0.0
 10
11.5159635368
 20
15.1970814803
 30
0.0
 10
11.5353245565
 20
15.194997208
 30
0.0
 10
11.5545616194
 20
15.1923234323
 30
0.0
 10
11.5736440982
 20
15.1890632637
 30
0.0
 10
11.5925419858
 20
15.185222836
 30
0.0
 10
11.6173844391
 20
15.1793534816
 30
0.0
 10
11.6478086376
 20
15.1706149204
 30
0.0
 10
11.6774154051
 20
15.1599824355
 30
0.0
 10
11.7003912099
 20
15.1503970997
 30
0.0
 10
11.7171763951
 20
15.1427146957
 30
0.0
 10
11.7335485651
 20
15.1345258921
 30
0.0
 10
11.7494811762
 20
15.1258425241
 30
0.0
 10
11.7649495305
 20
15.1166789685
 30
0.0
 10
11.7848200034
 20
15.1039069004
 30
0.0
 10
11.8083904436
 20
15.0868343745
 30
0.0
 10
11.8345887181
 20
15.064573664
 30
0.0
 10
11.8545341988
 20
15.0446320264
 30
0.0
 10
11.8691922733
 20
15.0279829876
 30
0.0
 10
11.8794726328
 20
15.015236318
 30
0.0
 10
11.8890811118
 20
15.0021849917
 30
0.0
 10
11.8980035684
 20
14.9888490705
 30
0.0
 10
11.9062248033
 20
14.9752488841
 30
0.0
 10
11.9137307156
 20
14.9614070158
 30
0.0
 10
11.9205095075
 20
14.9473497159
 30
0.0
 10
11.9245525829
 20
14.9378116373
 30
0.0
 10
11.9264464813
 20
14.9330169032
 30
0.0
 11
10.9884464813
 21
14.9330169032
 31
0.0
 11
10.994479252
 21
14.9472574293
 31
0.0
 11
11.0012516432
 21
14.9613090378
 31
0.0
 11
11.0087511133
 21
14.9751453392
 31
0.0
 11
11.016965029
 21
14.9887402545
 31
0.0
 11
11.02587968
 21
15.002071347
 31
0.0
 11
11.0354806562
 21
15.0151185468
 31
0.0
 11
11.0457535238
 21
15.0278618257
 31
0.0
 11
11.0566825402
 21
15.0402813095
 31
0.0
 11
11.0804358756
 21
15.0640705916
 31
0.0
 11
11.1065896598
 21
15.086332622
 31
0.0
 11
11.1349764536
 21
15.1069265712
 31
0.0
 11
11.1499518663
 21
15.1165564088
 31
0.0
 11
11.1654166178
 21
15.1257212386
 31
0.0
 11
11.1813463138
 21
15.1344061796
 31
0.0
 11
11.1977159538
 21
15.1425970287
 31
0.0
 11
11.2144990054
 21
15.150281297
 31
0.0
 11
11.2316686978
 21
15.1574467619
 31
0.0
 11
11.2670591215
 21
15.1701751076
 31
0.0
 11
11.3036613009
 21
15.1807020322
 31
0.0
 11
11.3223445155
 21
15.1851179163
 31
0.0
 11
11.3412427291
 21
15.1889596329
 31
0.0
 11
11.3603259013
 21
15.1922208455
 31
0.0
 11
11.3795638295
 21
15.1948958243
 31
0.0
 11
11.3989257534
 21
15.1969809234
 31
0.0
 11
11.4183807932
 21
15.1984729444
 31
0.0
 11
11.4574464754
 21
15.1996675035
 31
0.0
 11
11.4965121576
 21
15.198472945
 31
0.0
 11
11.5159671975
 21
15.1969809244
 31
0.0
 11
11.5353291215
 21
15.1948958258
 31
0.0
 11
11.5545670498
 21
15.1922208473
 31
0.0
 11
11.573650222
 21
15.1889596349
 31
0.0
 11
11.5925484357
 21
15.1851179188
 31
0.0
 11
11.6112316505
 21
15.1807020351
 31
0.0
 11
11.6478338301
 21
15.1701751111
 31
0.0
 11
11.6832242542
 21
15.157446766
 31
0.0
 11
11.7003939469
 21
15.1502813014
 31
0.0
 11
11.7171769989
 21
15.1425970336
 31
0.0
 11
11.7335466392
 21
15.1344061846
 31
0.0
 11
11.7494763355
 21
15.1257212438
 31
0.0
 11
11.7649410875
 21
15.1165564143
 31
0.0
 11
11.7799165006
 21
15.106926577
 31
0.0
 11
11.8083032946
 21
15.0863326284
 31
0.0
 11
11.8344570791
 21
15.0640705988
 31
0.0
 11
11.8582104149
 21
15.0402813178
 31
0.0
 11
11.8691394315
 21
15.0278618347
 31
0.0
 11
11.879412299
 21
15.0151185564
 31
0.0
 11
11.8890132761
 21
15.0020713566
 31
0.0
 11
11.8979279284
 21
14.988740263
 31
0.0
 11
11.9061418456
 21
14.9751453449
 31
0.0
 11
11.9136413174
 21
14.9613090406
 31
0.0
 11
11.92041371
 21
14.9472574301
 31
0.0
 11
11.9264464813
 21
14.9330169032
 31
0.0
  0
SPLINE
  5
32C
100
AcDbEntity
  8
0
100
AcDbSpline
 62
9
  6
CONTINUOUS
 70
0
 71
3
 72
52
 73
48
 74
46
 42
0.0000001
 43
0.0000001
 44
0.0000000001
 12
0.6855182794
 22
2.0208386578
 32
0.0
 13
-2.1339445329
 23
0.0022187133
 33
0.0
 40
0.0
 40
0.0
 40
0.0
 40
0.0
 40
0.0312534339
 40
0.0625092432
 40
0.0937656461
 40
0.1250206125
 40
0.1406488636
 40
0.1562764925
 40
0.1719037019
 40
0.1875308887
 40
0.203158465
 40
0.2187866518
 40
0.2500415081
 40
0.2812978853
 40
0.3125537712
 40
0.3438073447
 40
0.3594347666
 40
0.3750616268
 40
0.3906882758
 40
0.4063151513
 40
0.4375670328
 40
0.4688209347
 40
0.5000753162
 40
0.5313281031
 40
0.5469551073
 40
0.5625813021
 40
0.5782068044
 40
0.5938319176
 40
0.6094570817
 40
0.6250825985
 40
0.6563315634
 40
0.6875815286
 40
0.7188304636
 40
0.7500762381
 40
0.7656992595
 40
0.7813212595
 40
0.7969424714
 40
0.8125633258
 40
0.8281842225
 40
0.8438053731
 40
0.8594268297
 40
0.8750485215
 40
0.9062885403
 40
0.9375271682
 40
0.9531472163
 40
0.9687665315
 40
1.0
 40
1.0
 40
1.0
 40
1.0
 10
22.5211568677
 20
15.0484355794
 30
0.0
 10
22.5282984678
 20
15.0694882953
 30
0.0
 10
22.5413345019
 20
15.1120302805
 30
0.0
 10
22.5570870986
 20
15.1768783035
 30
0.0
 10
22.5689970319
 20
15.242543084
 30
0.0
 10
22.5756812645
 20
15.2977570435
 30
0.0
 10
22.5790601971
 20
15.3420987747
 30
0.0
 10
22.5806049067
 20
15.3754167979
 30
0.0
 10
22.5811541736
 20
15.408765122
 30
0.0
 10
22.5807019519
 20
15.4421148696
 30
0.0
 10
22.5792535773
 20
15.4754371274
 30
0.0
 10
22.5760023902
 20
15.519788242
 30
0.0
 10
22.5694764122
 20
15.5750210659
 30
0.0
 10
22.5577542423
 20
15.6407193265
 30
0.0
 10
22.5421868012
 20
15.7056131555
 30
0.0
 10
22.5260454109
 20
15.7588346
 30
0.0
 10
22.5112572946
 20
15.8007718429
 30
0.0
 10
22.4992330543
 20
15.831881193
 30
0.0
 10
22.4862809528
 20
15.8626154233
 30
0.0
 10
22.4677942232
 20
15.9030568631
 30
0.0
 10
22.4424395415
 20
15.9525531977
 30
0.0
 10
22.4085601468
 20
16.0100441592
 30
0.0
 10
22.3713552609
 20
16.0654417327
 30
0.0
 10
22.3376845746
 20
16.1097035909
 30
0.0
 10
22.3092196375
 20
16.1438656114
 30
0.0
 10
22.2871198192
 20
16.1688429086
 30
0.0
 10
22.2642869576
 20
16.1931497664
 30
0.0
 10
22.2407365042
 20
16.2167610577
 30
0.0
 10
22.2164887203
 20
16.2396559971
 30
0.0
 10
22.183265304
 20
16.2692043219
 30
0.0
 10
22.1401115972
 20
16.3042733406
 30
0.0
 10
22.0859402413
 20
16.3432259871
 30
0.0
 10
22.02957286
 20
16.3789227311
 30
0.0
 10
21.9809269608
 20
16.405850717
 30
0.0
 10
21.9411138522
 20
16.4256308674
 30
0.0
 10
21.9108260321
 20
16.4395709708
 30
0.0
 10
21.880136407
 20
16.4525981289
 30
0.0
 10
21.8490703461
 20
16.4646981705
 30
0.0
 10
21.8176573255
 20
16.4758662538
 30
0.0
 10
21.7859261032
 20
16.4860963776
 30
0.0
 10
21.7539051856
 20
16.4953829514
 30
0.0
 10
21.7108667812
 20
16.5064983383
 30
0.0
 10
21.6564828088
 20
16.5180065626
 30
0.0
 10
21.6015169845
 20
16.5262924939
 30
0.0
 10
21.5573156845
 20
16.5309644184
 30
0.0
 10
21.5130004461
 20
16.534324569
 30
0.0
 10
21.4796633111
 20
16.5353606738
 30
0.0
 10
21.4574464813
 20
16.5353837731
 30
0.0
 11
22.5211568677
 21
15.0484355794
 31
0.0
 11
22.540700429
 21
15.112200953
 31
0.0
 11
22.5564465165
 21
15.1770138417
 31
0.0
 11
22.5683490378
 21
15.242642713
 31
0.0
 11
22.576361901
 21
15.3088560342
 31
0.0
 11
22.578895307
 21
15.3421095095
 31
0.0
 11
22.5804390139
 21
15.3754222725
 31
0.0
 11
22.5809872603
 21
15.4087653815
 31
0.0
 11
22.5805359388
 21
15.4421098952
 31
0.0
 11
22.5790885976
 21
15.4754268717
 31
0.0
 11
22.5766509983
 21
15.5086873696
 31
0.0
 11
22.5688280707
 21
15.574923163
 31
0.0
 11
22.5571132481
 21
15.6405857428
 31
0.0
 11
22.5415526226
 21
15.7054435761
 31
0.0
 11
22.5221922864
 21
15.7692651304
 31
0.0
 11
22.5111016306
 21
15.800714949
 31
0.0
 11
22.4990783316
 21
15.8318188729
 31
0.0
 11
22.4861287947
 21
15.8625482276
 31
0.0
 11
22.4722657649
 21
15.8928769661
 31
0.0
 11
22.4418646668
 21
15.9522344005
 31
0.0
 11
22.4080061266
 21
16.0096948749
 31
0.0
 11
22.3708212752
 21
16.0650621055
 31
0.0
 11
22.3304412437
 21
16.1181398081
 31
0.0
 11
22.3090940138
 21
16.1437587478
 31
0.0
 11
22.2869971629
 21
16.168731699
 31
0.0
 11
22.2641670824
 21
16.1930341263
 31
0.0
 11
22.2406203106
 21
16.2166416402
 31
0.0
 11
22.2163771811
 21
16.2395336279
 31
0.0
 11
22.1914620714
 21
16.2616934997
 31
0.0
 11
22.1397142069
 21
16.3037513194
 31
0.0
 11
22.0855733081
 21
16.3426839465
 31
0.0
 11
22.0292359661
 21
16.3783602283
 31
0.0
 11
21.9708987722
 21
16.410649012
 31
0.0
 11
21.9410416655
 21
16.4254821069
 31
0.0
 11
21.9107583174
 21
16.439419145
 31
0.0
 11
21.8800733115
 21
16.452443756
 31
0.0
 11
21.8490125412
 21
16.4645428372
 31
0.0
 11
21.8176045307
 21
16.4757098467
 31
0.0
 11
21.7858781189
 21
16.4859390279
 31
0.0
 11
21.7538621447
 21
16.4952246239
 31
0.0
 11
21.721585447
 21
16.5035608777
 31
0.0
 11
21.6563652363
 21
16.5173623319
 31
0.0
 11
21.5904481978
 21
16.5272973357
 31
0.0
 11
21.5573004653
 21
16.5308005265
 31
0.0
 11
21.5240650425
 21
16.5333198343
 31
0.0
 11
21.4574464813
 21
16.5353837731
 31
0.0
  0
SPLINE
  5
32D
100
AcDbEntity
  8
0
100
AcDbSpline
 62
9
  6
CONTINUOUS
 70
0
 71
3
 72
44
 73
40
 74
38
 42
0.0000001
 43
0.0000001
 44
0.0000000001
 12
-0.0550279003
 22
0.8720759905
 32
0.0
 13
0.8735104691
 23
0.0228924316
 33
0.0
 40
0.0
 40
0.0
 40
0.0
 40
0.0
 40
0.0105035959
 40
0.0210016119
 40
0.0315125372
 40
0.0420545123
 40
0.0526451803
 40
0.0633016202
 40
0.084871462
 40
0.1068933591
 40
0.1294792783
 40
0.1527294059
 40
0.176732448
 40
0.1890429599
 40
0.2015696584
 40
0.2143187564
 40
0.2272952154
 40
0.2539429186
 40
0.2815397366
 40
0.3100988202
 40
0.339624631
 40
0.3701145224
 40
0.4015600818
 40
0.4339473173
 40
0.4672471466
 40
0.5014184918
 40
0.5364156311
 40
0.5721892256
 40
0.6086870894
 40
0.6458548408
 40
0.6836364604
 40
0.721973762
 40
0.7608006365
 40
0.8000464301
 40
0.8396389334
 40
0.8795048052
 40
0.9195699501
 40
0.9597598702
 40
1.0
 40
1.0
 40
1.0
 40
1.0
 10
20.7562851715
 20
11.5804663343
 30
0.0
 10
20.7560925079
 20
11.5835196455
 30
0.0
 10
20.7558542424
 20
11.5896349764
 30
0.0
 10
20.7559431199
 20
11.5988166483
 30
0.0
 10
20.7564774785
 20
11.607994571
 30
0.0
 10
20.7574548217
 20
11.6171629119
 30
0.0
 10
20.7588730858
 20
11.6263164798
 30
0.0
 10
20.7613583582
 20
11.6385415027
 30
0.0
 10
20.765579775
 20
11.6537926756
 30
0.0
 10
20.7723563537
 20
11.6718628051
 30
0.0
 10
20.7808453242
 20
11.6897370451
 30
0.0
 10
20.7910268216
 20
11.7073710259
 30
0.0
 10
20.800823516
 20
11.7217098411
 30
0.0
 10
20.8094617624
 20
11.7330154063
 30
0.0
 10
20.8164069011
 20
11.7414810685
 30
0.0
 10
20.8237573309
 20
11.7498568679
 30
0.0
 10
20.8341819924
 20
11.7609969159
 30
0.0
 10
20.8482184566
 20
11.7746654152
 30
0.0
 10
20.8664343149
 20
11.7904904386
 30
0.0
 10
20.8861209776
 20
11.8058465221
 30
0.0
 10
20.9072290572
 20
11.8206974763
 30
0.0
 10
20.929709928
 20
11.8350073547
 30
0.0
 10
20.9535142293
 20
11.8487403557
 30
0.0
 10
20.9785905902
 20
11.8618565162
 30
0.0
 10
21.0048737785
 20
11.8743294494
 30
0.0
 10
21.0322914492
 20
11.8861372591
 30
0.0
 10
21.0607704086
 20
11.8972552895
 30
0.0
 10
21.0902371188
 20
11.9076592962
 30
0.0
 10
21.1206180475
 20
11.9173248789
 30
0.0
 10
21.1518396113
 20
11.9262275349
 30
0.0
 10
21.1838278357
 20
11.9343430772
 30
0.0
 10
21.2165066329
 20
11.9416452202
 30
0.0
 10
21.2497928854
 20
11.9481240168
 30
0.0
 10
21.28360073
 20
11.9537716191
 30
0.0
 10
21.3178436891
 20
11.9585792756
 30
0.0
 10
21.3524351979
 20
11.9625384331
 30
0.0
 10
21.3872887828
 20
11.965640487
 30
0.0
 10
21.4223175871
 20
11.967876841
 30
0.0
 10
21.4457297564
 20
11.9687848961
 30
0.0
 10
21.4574464813
 20
11.9690919609
 30
0.0
 11
20.7562851715
 21
11.5804663343
 31
0.0
 11
20.7559285932
 21
11.5896375562
 31
0.0
 11
20.756017133
 21
11.5988104044
 31
0.0
 11
20.7565501562
 21
11.6079794802
 31
0.0
 11
20.7575255155
 21
11.6171393852
 31
0.0
 11
20.7589410439
 21
11.6262847206
 31
0.0
 11
20.7607945746
 21
11.6354100879
 31
0.0
 11
20.7658069744
 21
11.653579324
 31
0.0
 11
20.772545379
 21
11.6716039047
 31
0.0
 11
20.7809924526
 21
11.6894406415
 31
0.0
 11
20.7911308594
 21
11.7070463457
 31
0.0
 11
20.8029432633
 21
11.7243778287
 31
0.0
 11
20.8094717968
 21
11.7329272408
 31
0.0
 11
20.816411613
 21
11.7413920489
 31
0.0
 11
20.8237571663
 21
11.7497675491
 31
0.0
 11
20.8315022917
 21
11.7580491646
 31
0.0
 11
20.8481665986
 21
11.7743124349
 31
0.0
 11
20.8663552136
 21
11.7901452462
 31
0.0
 11
20.8860188166
 21
11.805510985
 31
0.0
 11
20.9071080873
 21
11.8203730378
 31
0.0
 11
20.9295737058
 21
11.8346947908
 31
0.0
 11
20.9533663518
 21
11.8484396307
 31
0.0
 11
20.978435445
 21
11.8615715656
 31
0.0
 11
21.0047161729
 21
11.8740616269
 31
0.0
 11
21.0321347363
 21
11.8858852804
 31
0.0
 11
21.0606171946
 21
11.8970180616
 31
0.0
 11
21.0900896071
 21
11.9074355063
 31
0.0
 11
21.1204780332
 21
11.9171131499
 31
0.0
 11
21.1517085324
 21
11.9260265281
 31
0.0
 11
21.1837071641
 21
11.9341511765
 31
0.0
 11
21.2163987319
 21
11.941464184
 31
0.0
 11
21.2496997961
 21
11.9479528359
 31
0.0
 11
21.2835235923
 21
11.9536085303
 31
0.0
 11
21.3177833472
 21
11.9584226762
 31
0.0
 11
21.352392287
 21
11.962386683
 31
0.0
 11
21.3872636384
 21
11.9654919598
 31
0.0
 11
21.4223106276
 21
11.9677299161
 31
0.0
 11
21.4574464813
 21
11.9690919609
 31
0.0
  0
SPLINE
  5
32E
100
AcDbEntity
  8
0
100
AcDbSpline
 62
6
  6
CONTINUOUS
 70
0
 71
3
 72
24
 73
20
 74
18
 42
0.0000001
 43
0.0000001
 44
0.0000000001
 12
-0.028266253
 22
-0.056925053
 32
0.0
 13
0.0
 23
-0.0635566103
 33
0.0
 40
0.0
 40
0.0
 40
0.0
 40
0.0
 40
0.0087455031
 40
0.019331597
 40
0.0317588402
 40
0.0460020903
 40
0.0620227924
 40
0.0797747882
 40
0.0992073147
 40
0.1202666677
 40
0.1670410704
 40
0.2196396504
 40
0.2775908646
 40
0.3404187522
 40
0.407792589
 40
0.4796194187
 40
0.6363414736
 40
0.8099995357
 40
1.0
 40
1.0
 40
1.0
 40
1.0
 10
11.4312653439
 20
14.9850235668
 30
0.0
 10
11.431182943
 20
14.9848576208
 30
0.0
 10
11.4310276015
 20
14.9844775922
 30
0.0
 10
11.430825833
 20
14.9838353456
 30
0.0
 10
11.4306333728
 20
14.9830694931
 30
0.0
 10
11.4304501465
 20
14.9821836273
 30
0.0
 10
11.4302760154
 20
14.9811812586
 30
0.0
 10
11.4301107971
 20
14.9800661612
 30
0.0
 10
11.4299542456
 20
14.9788421378
 30
0.0
 10
11.4297495526
 20
14.977004657
 30
0.0
 10
11.429519285
 20
14.9744633911
 30
0.0
 10
11.42928071
 20
14.9711388207
 30
0.0
 10
11.429069327
 20
14.9674717124
 30
0.0
 10
11.4288824301
 20
14.963489919
 30
0.0
 10
11.4287183826
 20
14.9592129346
 30
0.0
 10
11.4285250005
 20
14.9529465886
 30
0.0
 10
11.4283465873
 20
14.944427275
 30
0.0
 10
11.4282249607
 20
14.9334032795
 30
0.0
 10
11.4282011008
 20
14.9256989363
 30
0.0
 10
11.4282011008
 20
14.9216736745
 30
0.0
 11
11.4312653439
 21
14.9850235668
 31
0.0
 11
11.4310490484
 21
14.9845115431
 31
0.0
 11
11.4308433119
 21
14.9838709542
 31
0.0
 11
11.4306478143
 21
14.9831056976
 31
0.0
 11
11.4304622354
 21
14.9822196712
 31
0.0
 11
11.4302862551
 21
14.9812167723
 31
0.0
 11
11.4301195534
 21
14.9801008989
 31
0.0
 11
11.4299618101
 21
14.9788759483
 31
0.0
 11
11.4298127051
 21
14.9775458183
 31
0.0
 11
11.4295391296
 21
14.9745856105
 31
0.0
 11
11.429296266
 21
14.9712514566
 31
0.0
 11
11.4290815534
 21
14.9675745376
 31
0.0
 11
11.4288924429
 21
14.9635858906
 31
0.0
 11
11.4287271674
 21
14.9593070287
 31
0.0
 11
11.4285852168
 21
14.9547441663
 31
0.0
 11
11.4283697017
 21
14.9447857755
 31
0.0
 11
11.4282427217
 21
14.9337493882
 31
0.0
 11
11.4282011008
 21
14.9216736745
 31
0.0
  0
SPLINE
  5
32F
100
AcDbEntity
  8
0
100
AcDbSpline
 62
9
  6
CONTINUOUS
 70
0
 71
3
 72
28
 73
24
 74
22
 42
0.0000001
 43
0.0000001
 44
0.0000000001
 12
-0.0179560827
 22
0.1208896641
 32
0.0
 13
-0.1182999963
 23
-0.0306894553
 33
0.0
 40
0.0
 40
0.0
 40
0.0
 40
0.0
 40
0.0529107603
 40
0.1067144632
 40
0.1617436935
 40
0.2182406295
 40
0.2471108079
 40
0.2764126221
 40
0.3061639807
 40
0.3363755787
 40
0.3670428514
 40
0.3981530756
 40
0.4616036443
 40
0.5265472849
 40
0.5927414294
 40
0.6262363886
 40
0.6599492407
 40
0.6938457165
 40
0.7278862798
 40
0.7962120444
 40
0.8645815409
 40
0.932626897
 40
1.0
 40
1.0
 40
1.0
 40
1.0
 10
11.7543337708
 20
14.8404982981
 30
0.0
 10
11.7540170808
 20
14.8426304194
 30
0.0
 10
11.7530551269
 20
14.8468886239
 30
0.0
 10
11.7507056813
 20
14.8530657489
 30
0.0
 10
11.7474858906
 20
14.8590031235
 30
0.0
 10
11.7441362439
 20
14.8636585696
 30
0.0
 10
11.7410760565
 20
14.8671910343
 30
0.0
 10
11.7385727183
 20
14.8697559662
 30
0.0
 10
11.7358834695
 20
14.8722068555
 30
0.0
 10
11.7330158433
 20
14.8745355398
 30
0.0
 10
11.7299812165
 20
14.8767374906
 30
0.0
 10
11.7256996213
 20
14.8795148956
 30
0.0
 10
11.7199853288
 20
14.8826326043
 30
0.0
 10
11.7126876597
 20
14.8857562446
 30
0.0
 10
11.7062964505
 20
14.8878228949
 30
0.0
 10
11.7010230062
 20
14.8891427673
 30
0.0
 10
11.6969847327
 20
14.8899608761
 30
0.0
 10
11.6928921419
 20
14.8906016635
 30
0.0
 10
11.6873742221
 20
14.8912212654
 30
0.0
 10
11.6804175456
 20
14.8915530729
 30
0.0
 10
11.6720724954
 20
14.89125027
 30
0.0
 10
11.6638213378
 20
14.8902493654
 30
0.0
 10
11.6584146523
 20
14.8891098327
 30
0.0
 10
11.6557579064
 20
14.888420618
 30
0.0
 11
11.7543337708
 21
14.8404982981
 31
0.0
 11
11.7529185886
 21
14.8468080814
 31
0.0
 11
11.7505918392
 21
14.8529583385
 31
0.0
 11
11.7473954495
 21
14.8588756644
 31
0.0
 11
11.7433713466
 21
14.8644866542
 31
0.0
 11
11.7410620049
 21
14.867154334
 31
0.0
 11
11.7385614574
 21
14.8697179029
 31
0.0
 11
11.7358749817
 21
14.8721682083
 31
0.0
 11
11.7330100505
 21
14.8744974854
 31
0.0
 11
11.7299775394
 21
14.8767001197
 31
0.0
 11
11.7267886164
 21
14.8787706818
 31
0.0
 11
11.7199862081
 21
14.8824938718
 31
0.0
 11
11.7126921711
 21
14.8856236205
 31
0.0
 11
11.7049958512
 21
14.8881164928
 31
0.0
 11
11.7010247557
 21
14.8891105267
 31
0.0
 11
11.696986688
 21
14.8899293351
 31
0.0
 11
11.6928940016
 21
14.8905710444
 31
0.0
 11
11.6887597542
 21
14.8910358935
 31
0.0
 11
11.6804188539
 21
14.8914361078
 31
0.0
 11
11.6720685423
 21
14.8911321712
 31
0.0
 11
11.6638133747
 21
14.8901262769
 31
0.0
 11
11.6557579064
 21
14.888420618
 31
0.0
  0
SPLINE
  5
330
100
AcDbEntity
  8
0
100
AcDbSpline
 62
9
  6
CONTINUOUS
 70
0
 71
3
 72
28
 73
24
 74
22
 42
0.0000001
 43
0.0000001
 44
0.0000000001
 12
-0.0559931168
 22
0.1123771132
 32
0.0
 13
-0.1123195779
 23
-0.0561084407
 33
0.0
 40
0.0
 40
0.0
 40
0.0
 40
0.0
 40
0.053912699
 40
0.1093612278
 40
0.1664686417
 40
0.225267669
 40
0.2553062289
 40
0.285756648
 40
0.3166126225
 40
0.347862085
 40
0.379480602
 40
0.4114377514
 40
0.4762103203
 40
0.5418874331
 40
0.6081381585
 40
0.641383903
 40
0.6746531454
 40
0.7079091418
 40
0.7411134936
 40
0.8071903726
 40
0.8725701756
 40
0.9369338431
 40
1.0
 40
1.0
 40
1.0
 40
1.0
 10
11.6557579064
 20
14.888420618
 30
0.0
 10
11.6547516597
 20
14.8904401359
 30
0.0
 10
11.6524225858
 20
14.8943985991
 30
0.0
 10
11.6481474249
 20
14.8999202852
 30
0.0
 10
11.6431097985
 20
14.9050462189
 30
0.0
 10
11.6383626284
 20
14.9089099786
 30
0.0
 10
11.6342530618
 20
14.9117477901
 30
0.0
 10
11.6309970879
 20
14.9137545478
 30
0.0
 10
11.6275979966
 20
14.9156156596
 30
0.0
 10
11.6240656269
 20
14.9173246424
 30
0.0
 10
11.6204125366
 20
14.9188792102
 30
0.0
 10
11.6153755226
 20
14.9207498361
 30
0.0
 10
11.6088475281
 20
14.9226781689
 30
0.0
 10
11.600770084
 20
14.9243160131
 30
0.0
 10
11.5938931053
 20
14.9251051889
 30
0.0
 10
11.5883420515
 20
14.9253803968
 30
0.0
 10
11.5841651743
 20
14.9254040151
 30
0.0
 10
11.5799930112
 20
14.9252455238
 30
0.0
 10
11.574462954
 20
14.9247964203
 30
0.0
 10
11.5676350555
 20
14.9237985398
 30
0.0
 10
11.5596476332
 20
14.9219188424
 30
0.0
 10
11.5519769894
 20
14.9193804168
 30
0.0
 10
11.5470825939
 20
14.9172374427
 30
0.0
 10
11.5447214058
 20
14.9160579281
 30
0.0
 11
11.6557579064
 21
14.888420618
 31
0.0
 11
11.6523387666
 21
14.8942625651
 31
0.0
 11
11.6480884871
 21
14.8997763373
 31
0.0
 11
11.6430715078
 21
14.9048988234
 31
0.0
 11
11.6373522688
 21
14.9095669118
 31
0.0
 11
11.6342494395
 21
14.9117108346
 31
0.0
 11
11.6309952102
 21
14.9137174912
 31
0.0
 11
11.627597664
 21
14.915579022
 31
0.0
 11
11.6240665597
 21
14.9172893296
 31
0.0
 11
11.6204142538
 21
14.9188450479
 31
0.0
 11
11.6166533261
 21
14.9202430458
 31
0.0
 11
11.6088559256
 21
14.9225533551
 31
0.0
 11
11.6007749976
 21
14.9241952082
 31
0.0
 11
11.5925111818
 21
14.9251435556
 31
0.0
 11
11.5883421408
 21
14.9253498367
 31
0.0
 11
11.5841651171
 21
14.9253736384
 31
0.0
 11
11.5799926845
 21
14.9252154997
 31
0.0
 11
11.5758374127
 21
14.9248781396
 31
0.0
 11
11.5676286309
 21
14.9236767763
 31
0.0
 11
11.5596393302
 21
14.9217915914
 31
0.0
 11
11.551970069
 21
14.9192446278
 31
0.0
 11
11.5447214058
 21
14.9160579281
 31
0.0
  0
SPLINE
  5
331
100
AcDbEntity
  8
0
100
AcDbSpline
 62
9
  6
CONTINUOUS
 70
0
 71
3
 72
29
 73
25
 74
23
 42
0.0000001
 43
0.0000001
 44
0.0000000001
 12
-0.0862945392
 22
0.0933939601
 32
0.0
 13
-0.0975457642
 23
-0.0815720735
 33
0.0
 40
0.0
 40
0.0
 40
0.0
 40
0.0
 40
0.0568167482
 40
0.1153607069
 40
0.1755552463
 40
0.2372535909
 40
0.2686185517
 40
0.3002892245
 40
0.3322415452
 40
0.364448268
 40
0.3968738028
 40
0.4294784101
 40
0.4950382511
 40
0.5607849056
 40
0.5936219287
 40
0.6263710477
 40
0.6589906466
 40
0.691442475
 40
0.7236944108
 40
0.7557159988
 40
0.8189268909
 40
0.8808463857
 40
0.9412570234
 40
1.0
 40
1.0
 40
1.0
 40
1.0
 10
11.5447214058
 20
14.9160579281
 30
0.0
 10
11.5430870808
 20
14.9178267085
 30
0.0
 10
11.5395450417
 20
14.921216565
 30
0.0
 10
11.5336219779
 20
14.9257425747
 30
0.0
 10
11.5270887003
 20
14.929742977
 30
0.0
 10
11.521234887
 20
14.9325837282
 30
0.0
 10
11.5163265464
 20
14.9345526461
 30
0.0
 10
11.512522491
 20
14.9358760944
 30
0.0
 10
11.5086269046
 20
14.9370313682
 30
0.0
 10
11.5046513195
 20
14.9380140307
 30
0.0
 10
11.5006088392
 20
14.9388241838
 30
0.0
 10
11.4951379115
 20
14.9396747282
 30
0.0
 10
11.4882097082
 20
14.9403002092
 30
0.0
 10
11.4812437323
 20
14.940343115
 30
0.0
 10
11.4756847563
 20
14.9400246644
 30
0.0
 10
11.4715416858
 20
14.939608776
 30
0.0
 10
11.4674367993
 20
14.9390153199
 30
0.0
 10
11.4633831967
 20
14.9382429682
 30
0.0
 10
11.4593929954
 20
14.9372950328
 30
0.0
 10
11.4541956976
 20
14.9358110018
 30
0.0
 10
11.4479189149
 20
14.9335516715
 30
0.0
 10
11.4407867084
 20
14.9302104952
 30
0.0
 10
11.4341743812
 20
14.9262903241
 30
0.0
 10
11.4301111436
 20
14.9232709366
 30
0.0
 10
11.4282011008
 20
14.9216736745
 30
0.0
 11
11.5447214058
 21
14.9160579281
 31
0.0
 11
11.5395131456
 21
14.9210649678
 31
0.0
 11
11.5336063966
 21
14.9255958046
 31
0.0
 11
11.5270840629
 21
14.9296015862
 31
0.0
 11
11.5200290487
 21
14.9330334601
 31
0.0
 11
11.516327694
 21
14.9345189153
 31
0.0
 11
11.5125242581
 21
14.935842574
 31
0.0
 11
11.5086291218
 21
14.9369983633
 31
0.0
 11
11.5046537166
 21
14.9379822366
 31
0.0
 11
11.5006111037
 21
14.9387932875
 31
0.0
 11
11.4965144843
 21
14.9394308797
 31
0.0
 11
11.4882120309
 21
14.9401831431
 31
0.0
 11
11.4798519663
 21
14.9402339369
 31
0.0
 11
11.475683333
 21
14.9399946922
 31
0.0
 11
11.4715399005
 21
14.9395781713
 31
0.0
 11
11.4674348702
 21
14.938983738
 31
0.0
 11
11.4633813483
 21
14.9382110377
 31
0.0
 11
11.4593913387
 21
14.9372629875
 31
0.0
 11
11.4554761336
 21
14.9361446156
 31
0.0
 11
11.4479152582
 21
14.9334171608
 31
0.0
 11
11.4407889655
 21
14.9300691808
 31
0.0
 11
11.4341874986
 21
14.9261411828
 31
0.0
 11
11.4282011008
 21
14.9216736745
 31
0.0
  0
SPLINE
  5
332
100
AcDbEntity
  8
0
100
AcDbSpline
 62
9
  6
CONTINUOUS
 70
0
 71
3
 72
28
 73
24
 74
22
 42
0.0000001
 43
0.0000001
 44
0.0000000001
 12
-0.1061628237
 22
0.068990092
 32
0.0
 13
-0.0723808602
 23
-0.1038806478
 33
0.0
 40
0.0
 40
0.0
 40
0.0
 40
0.0
 40
0.0608580779
 40
0.1232365009
 40
0.1869081707
 40
0.2515982524
 40
0.2842413044
 40
0.3170290117
 40
0.3499261387
 40
0.3828974003
 40
0.4488881755
 40
0.5146776585
 40
0.5799124894
 40
0.6122220567
 40
0.6442678671
 40
0.6760138662
 40
0.70742902
 40
0.7384927374
 40
0.7691889917
 40
0.8293975673
 40
0.887964011
 40
0.9448253721
 40
1.0
 40
1.0
 40
1.0
 40
1.0
 10
11.4282011008
 20
14.9216736745
 30
0.0
 10
11.426047479
 20
14.9230732093
 30
0.0
 10
11.4215312473
 20
14.9256743581
 30
0.0
 10
11.4143334451
 20
14.9289286489
 30
0.0
 10
11.4067140403
 20
14.9315593219
 30
0.0
 10
11.4001107176
 20
14.9332013455
 30
0.0
 10
11.39470495
 20
14.9341762064
 30
0.0
 10
11.3905914113
 20
14.9347337823
 30
0.0
 10
11.3864435139
 20
14.9351111109
 30
0.0
 10
11.3808832155
 20
14.935371047
 30
0.0
 10
11.3739219731
 20
14.935246489
 30
0.0
 10
11.3656415463
 20
14.934395256
 30
0.0
 10
11.3588597323
 20
14.9331092302
 30
0.0
 10
11.3535635899
 20
14.9317385133
 30
0.0
 10
11.3496852919
 20
14.9305468099
 30
0.0
 10
11.3459015514
 20
14.9291903573
 30
0.0
 10
11.3422252799
 20
14.9276702624
 30
0.0
 10
11.3386672482
 20
14.9259920244
 30
0.0
 10
11.3341234693
 20
14.9235696735
 30
0.0
 10
11.3287821796
 20
14.9201916538
 30
0.0
 10
11.3229505493
 20
14.9155932917
 30
0.0
 10
11.3178103302
 20
14.910530663
 30
0.0
 10
11.3148495862
 20
14.9068255245
 30
0.0
 10
11.3135183905
 20
14.9049149991
 30
0.0
 11
11.4282011008
 21
14.9216736745
 31
0.0
 11
11.4215309743
 21
14.9255311962
 31
0.0
 11
11.4143388986
 21
14.9287944084
 31
0.0
 11
11.4067210327
 21
14.9314317874
 31
0.0
 11
11.3987735358
 21
14.9334118095
 31
0.0
 11
11.3947062253
 21
14.9341454605
 31
0.0
 11
11.3905925668
 21
14.934702951
 31
0.0
 11
11.386444586
 21
14.9350803764
 31
0.0
 11
11.3822746693
 21
14.935275995
 31
0.0
 11
11.3739208561
 21
14.9351285414
 31
0.0
 11
11.3656350236
 21
14.9342754914
 31
0.0
 11
11.357521116
 21
14.9327320344
 31
0.0
 11
11.3535611167
 21
14.93170615
 31
0.0
 11
11.3496830778
 21
14.9305133599
 31
0.0
 11
11.3458999923
 21
14.9291555628
 31
0.0
 11
11.34222467
 21
14.9276349119
 31
0.0
 11
11.3386677904
 21
14.9259565196
 31
0.0
 11
11.3352386586
 21
14.9241274075
 31
0.0
 11
11.3288007674
 21
14.9200452372
 31
0.0
 11
11.3229852538
 21
14.9154448278
 31
0.0
 11
11.3178663756
 21
14.9103826062
 31
0.0
 11
11.3135183905
 21
14.9049149991
 31
0.0
  0
SPLINE
  5
333
100
AcDbEntity
  8
0
100
AcDbSpline
 62
9
  6
CONTINUOUS
 70
0
 71
3
 72
28
 73
24
 74
22
 42
0.0000001
 43
0.0000001
 44
0.0000000001
 12
-0.1162677713
 22
0.0432648733
 32
0.0
 13
-0.0375965424
 23
-0.1182224341
 33
0.0
 40
0.0
 40
0.0
 40
0.0
 40
0.0
 40
0.0652718032
 40
0.1315545596
 40
0.1985265316
 40
0.2658375428
 40
0.2995172952
 40
0.3331513598
 40
0.3666998601
 40
0.4001263516
 40
0.4664536234
 40
0.5318524978
 40
0.5960286291
 40
0.6275830085
 40
0.658737534
 40
0.6894695204
 40
0.7197633319
 40
0.7496173522
 40
0.7790366587
 40
0.8365733875
 40
0.8924726136
 40
0.946871083
 40
1.0
 40
1.0
 40
1.0
 40
1.0
 10
11.3135183905
 20
14.9049149991
 30
0.0
 10
11.3109887215
 20
14.9058563245
 30
0.0
 10
11.3057962201
 20
14.9075093147
 30
0.0
 10
11.2977726293
 20
14.9092927624
 30
0.0
 10
11.2895420619
 20
14.9103925035
 30
0.0
 10
11.28259558
 20
14.9107290727
 30
0.0
 10
11.2770277946
 20
14.9106439143
 30
0.0
 10
11.2728626525
 20
14.9104008519
 30
0.0
 10
11.2687225098
 20
14.9099766608
 30
0.0
 10
11.2632677247
 20
14.909172126
 30
0.0
 10
11.2565819279
 20
14.9077323118
 30
0.0
 10
11.2488337702
 20
14.9053331039
 30
0.0
 10
11.2426633005
 20
14.9027909163
 30
0.0
 10
11.2379661295
 20
14.9004487842
 30
0.0
 10
11.2345957342
 20
14.8985557072
 30
0.0
 10
11.2313703297
 20
14.8965209547
 30
0.0
 10
11.2283019587
 20
14.8943479545
 30
0.0
 10
11.2253993749
 20
14.8920440806
 30
0.0
 10
11.2217868368
 20
14.8888345584
 30
0.0
 10
11.2177066343
 20
14.8845430723
 30
0.0
 10
11.2135438384
 20
14.8789682619
 30
0.0
 10
11.210203498
 20
14.8730727244
 30
0.0
 10
11.2085450327
 20
14.8689285878
 30
0.0
 10
11.2078792115
 20
14.8668349112
 30
0.0
 11
11.3135183905
 21
14.9049149991
 31
0.0
 11
11.3058055064
 21
14.9073806205
 31
0.0
 11
11.2977800085
 21
14.9091711685
 31
0.0
 11
11.289545269
 21
14.9102744288
 31
0.0
 11
11.2812046598
 21
14.910678187
 31
0.0
 11
11.2770269577
 21
14.9106139359
 31
0.0
 11
11.2728615527
 21
14.9103702289
 31
0.0
 11
11.2687213604
 21
14.9099455753
 31
0.0
 11
11.2646189433
 21
14.9093406477
 31
0.0
 11
11.2565754501
 21
14.9076063626
 31
0.0
 11
11.2488268678
 21
14.9052015994
 31
0.0
 11
11.2414689439
 21
14.9021608727
 31
0.0
 11
11.2379664
 21
14.9004128087
 31
0.0
 11
11.2345974261
 21
14.8985186968
 31
0.0
 11
11.2313739906
 21
14.8964828512
 31
0.0
 11
11.2283078018
 21
14.8943097979
 31
0.0
 11
11.2254075441
 21
14.8920065231
 31
0.0
 11
11.2226799506
 21
14.8895816006
 31
0.0
 11
11.2177695598
 21
14.8844012126
 31
0.0
 11
11.2136302356
 21
14.8788374345
 31
0.0
 11
11.2103155841
 21
14.8729590672
 31
0.0
 11
11.2078792115
 21
14.8668349112
 31
0.0
  0
SPLINE
  5
334
100
AcDbEntity
  8
0
100
AcDbSpline
 62
9
  6
CONTINUOUS
 70
0
 71
3
 72
27
 73
23
 74
21
 42
0.0000001
 43
0.0000001
 44
0.0000000001
 12
-0.1180335004
 22
0.018410145
 32
0.0
 13
0.0
 23
-0.1194606239
 33
0.0
 40
0.0
 40
0.0
 40
0.0
 40
0.0
 40
0.0691912849
 40
0.1386762895
 40
0.2081003353
 40
0.2770973032
 40
0.3113326891
 40
0.3453325258
 40
0.3790598705
 40
0.4124844828
 40
0.4783098586
 40
0.542633945
 40
0.6052828611
 40
0.6661325083
 40
0.6958792021
 40
0.7251724851
 40
0.7824672297
 40
0.8382882125
 40
0.8929143768
 40
0.9466732828
 40
0.9733664479
 40
1.0
 40
1.0
 40
1.0
 40
1.0
 10
11.2078792115
 20
14.8668349112
 30
0.0
 10
11.205156915
 20
14.8672595184
 30
0.0
 10
11.1996601576
 20
14.8678680963
 30
0.0
 10
11.19136688
 20
14.8680766845
 30
0.0
 10
11.1830926568
 20
14.8675928991
 30
0.0
 10
11.1762780155
 20
14.8666162385
 30
0.0
 10
11.1709289502
 20
14.8654912827
 30
0.0
 10
11.1669951429
 20
14.8644806131
 30
0.0
 10
11.1631421386
 20
14.8633015067
 30
0.0
 10
11.1581550495
 20
14.8615170264
 30
0.0
 10
11.152180386
 20
14.8588967141
 30
0.0
 10
11.1454655169
 20
14.8551503488
 30
0.0
 10
11.1393187586
 20
14.8508671804
 30
0.0
 10
11.1346992565
 20
14.8468591967
 30
0.0
 10
11.1313758104
 20
14.8434283998
 30
0.0
 10
11.1283570233
 20
14.8399114638
 30
0.0
 10
11.1250664579
 20
14.8352732679
 30
0.0
 10
11.1219194756
 20
14.8293603909
 30
0.0
 10
11.1196315903
 20
14.8232141877
 30
0.0
 10
11.1184636125
 20
14.8179435907
 30
0.0
 10
11.1179945925
 20
14.8137023134
 30
0.0
 10
11.1179156846
 20
14.8115779287
 30
0.0
 10
11.1179156846
 20
14.8105173751
 30
0.0
 11
11.2078792115
 21
14.8668349112
 31
0.0
 11
11.1996643784
 21
14.8677499099
 31
0.0
 11
11.1913663415
 21
14.867961027
 31
0.0
 11
11.1830870988
 21
14.8674759671
 31
0.0
 11
11.1749286478
 21
14.8663024346
 31
0.0
 11
11.1709265935
 21
14.8654598988
 31
0.0
 11
11.1669929863
 21
14.864448134
 31
0.0
 11
11.1631405678
 21
14.8632681193
 31
0.0
 11
11.159381189
 21
14.8619225629
 31
0.0
 11
11.1521820568
 21
14.8587590579
 31
0.0
 11
11.1454756717
 21
14.8550078903
 31
0.0
 11
11.1393419297
 21
14.8507196923
 31
0.0
 11
11.133860727
 21
14.8459450963
 31
0.0
 11
11.1313897954
 21
14.8433912217
 31
0.0
 11
11.129111809
 21
14.8407348077
 31
0.0
 11
11.1251585159
 21
14.8351474838
 31
0.0
 11
11.1220332651
 21
14.8292567715
 31
0.0
 11
11.1197650483
 21
14.8231379779
 31
0.0
 11
11.1183828575
 21
14.81686641
 31
0.0
 11
11.1180330818
 21
14.8136968693
 31
0.0
 11
11.1179156846
 21
14.8105173751
 31
0.0
  0
SPLINE
  5
335
100
AcDbEntity
  8
0
100
AcDbSpline
 62
9
  6
CONTINUOUS
 70
0
 71
3
 72
24
 73
20
 74
18
 42
0.0000001
 43
0.0000001
 44
0.0000000001
 12
-0.1005901144
 22
-0.0038918554
 32
0.0
 13
-0.0000005231
 23
-0.1006653747
 33
0.0
 40
0.0
 40
0.0
 40
0.0
 40
0.0
 40
0.1407912869
 40
0.2103983929
 40
0.2791269665
 40
0.3467496317
 40
0.4130688128
 40
0.4456986291
 40
0.477955957
 40
0.5413228188
 40
0.6031630614
 40
0.6634738093
 40
0.7222891394
 40
0.779700064
 40
0.8079403106
 40
0.835902344
 40
0.8911271264
 40
0.9457209661
 40
1.0
 40
1.0
 40
1.0
 40
1.0
 10
11.117921262
 20
14.8098261228
 30
0.0
 10
11.1132005247
 20
14.8096434763
 30
0.0
 10
11.1061515395
 20
14.8088443747
 30
0.0
 10
11.0970130018
 20
14.8067663228
 30
0.0
 10
11.0904006861
 20
14.8047318192
 30
0.0
 10
11.0840685726
 20
14.8022329769
 30
0.0
 10
11.079046304
 20
14.7997635047
 30
0.0
 10
11.07522951
 20
14.7975665249
 30
0.0
 10
11.07159766
 20
14.7952555417
 30
0.0
 10
11.0673326347
 20
14.7921233718
 30
0.0
 10
11.0626696277
 20
14.7879857581
 30
0.0
 10
11.0585290071
 20
14.7835304394
 30
0.0
 10
11.0549495784
 20
14.7787974269
 30
0.0
 10
11.0524521773
 20
14.7746298398
 30
0.0
 10
11.0507821632
 20
14.7712005695
 30
0.0
 10
11.0493469933
 20
14.7677460191
 30
0.0
 10
11.0479583221
 20
14.7633233908
 30
0.0
 10
11.0469529748
 20
14.7578968174
 30
0.0
 10
11.0467287513
 20
14.7542396275
 30
0.0
 10
11.0467287419
 20
14.7524182878
 30
0.0
 11
11.117921262
 21
14.8098261228
 31
0.0
 11
11.1038385677
 21
14.808230441
 31
0.0
 11
11.0970064657
 21
14.8066745534
 31
0.0
 11
11.090395033
 21
14.8046359724
 31
0.0
 11
11.0840651493
 21
14.8021317014
 31
0.0
 11
11.078077694
 21
14.7991787436
 31
0.0
 11
11.075231348
 21
14.7975393778
 31
0.0
 11
11.0724920144
 21
14.7957957227
 31
0.0
 11
11.0673538391
 21
14.7920156607
 31
0.0
 11
11.0627017651
 21
14.7878791207
 31
0.0
 11
11.0585743263
 21
14.7834267318
 31
0.0
 11
11.0550100568
 21
14.7786991231
 31
0.0
 11
11.0520474907
 21
14.7737369239
 31
0.0
 11
11.0508038884
 21
14.7711805494
 31
0.0
 11
11.049724462
 21
14.7685809367
 31
0.0
 11
11.0480617234
 21
14.7632761969
 31
0.0
 11
11.0470623843
 21
14.7578721112
 31
0.0
 11
11.0467287419
 21
14.7524182878
 31
0.0
  0
SPLINE
  5
336
100
AcDbEntity
  8
0
100
AcDbSpline
 62
9
  6
CONTINUOUS
 70
0
 71
3
 72
22
 73
18
 74
16
 42
0.0000001
 43
0.0000001
 44
0.0000000001
 12
-0.0763231453
 22
-0.0207179905
 32
0.0
 13
-0.0000003376
 23
-0.079085129
 33
0.0
 40
0.0
 40
0.0
 40
0.0
 40
0.0
 40
0.1405879805
 40
0.2094793185
 40
0.2772629841
 40
0.3438409835
 40
0.4091357012
 40
0.473098836
 40
0.5357251573
 40
0.5970754119
 40
0.6572349753
 40
0.7162986194
 40
0.7743770308
 40
0.8316037953
 40
0.8881424811
 40
0.9441934467
 40
1.0
 40
1.0
 40
1.0
 40
1.0
 10
11.0466047868
 20
14.7367845285
 30
0.0
 10
11.0430280812
 20
14.7358136284
 30
0.0
 10
11.0377798021
 20
14.7340337081
 30
0.0
 10
11.0311140519
 20
14.7310264495
 30
0.0
 10
11.0263818123
 20
14.728504305
 30
0.0
 10
11.0219130176
 20
14.7257157442
 30
0.0
 10
11.0177353038
 20
14.7226749755
 30
0.0
 10
11.0138763462
 20
14.7193966738
 30
0.0
 10
11.0103652491
 20
14.7158933815
 30
0.0
 10
11.0072199478
 20
14.7121887166
 30
0.0
 10
11.0044528422
 20
14.7083082136
 30
0.0
 10
11.0020768926
 20
14.7042761274
 30
0.0
 10
11.0001049244
 20
14.7001168737
 30
0.0
 10
10.9985499557
 20
14.695854849
 30
0.0
 10
10.9974251183
 20
14.6915143365
 30
0.0
 10
10.9967437664
 20
14.6871203214
 30
0.0
 10
10.996593943
 20
14.6841692416
 30
0.0
 10
10.9965939367
 20
14.6826980855
 30
0.0
 11
11.0466047868
 21
14.7367845285
 31
0.0
 11
11.0360790681
 21
14.7332028422
 31
0.0
 11
11.0311137694
 21
14.7309601723
 31
0.0
 11
11.0263845204
 21
14.7284360699
 31
0.0
 11
11.021919578
 21
14.7256453736
 31
0.0
 11
11.017747199
 21
14.7226029223
 31
0.0
 11
11.0138956405
 21
14.719323555
 31
0.0
 11
11.0103920468
 21
14.7158228172
 31
0.0
 11
11.0072540459
 21
14.7121223018
 31
0.0
 11
11.004494435
 21
14.7082466712
 31
0.0
 11
11.0021259731
 21
14.7042206122
 31
0.0
 11
11.0001614195
 21
14.7000688111
 31
0.0
 11
10.9986135333
 21
14.6958159547
 31
0.0
 11
10.9974950738
 21
14.6914867294
 31
0.0
 11
10.9968188001
 21
14.6871058219
 31
0.0
 11
10.9965939367
 21
14.6826980855
 31
0.0
  0
SPLINE
  5
337
100
AcDbEntity
  8
0
100
AcDbSpline
 62
9
  6
CONTINUOUS
 70
0
 71
3
 72
15
 73
11
 74
9
 42
0.0000001
 43
0.0000001
 44
0.0000000001
 12
-0.0430727194
 22
-0.0292579608
 32
0.0
 13
-0.000000288
 23
-0.0520700243
 33
0.0
 40
0.0
 40
0.0
 40
0.0
 40
0.0
 40
0.1363231645
 40
0.2689074019
 40
0.3977445783
 40
0.5230054954
 40
0.6451362384
 40
0.7648434487
 40
0.882872417
 40
1.0
 40
1.0
 40
1.0
 40
1.0
 10
10.9960587678
 20
14.6484660455
 30
0.0
 10
10.994101498
 20
14.6471365329
 30
0.0
 10
10.9903651054
 20
14.6443240649
 30
0.0
 10
10.9852970931
 20
14.6396181751
 30
0.0
 10
10.9808978304
 20
14.6345304697
 30
0.0
 10
10.9772269736
 20
14.6291098703
 30
0.0
 10
10.9743467018
 20
14.6234064507
 30
0.0
 10
10.9722738251
 20
14.6174950253
 30
0.0
 10
10.9710201656
 20
14.611446755
 30
0.0
 10
10.9707383371
 20
14.6073599028
 30
0.0
 10
10.9707383258
 20
14.6053269574
 30
0.0
 11
10.9960587678
 21
14.6484660455
 31
0.0
 11
10.9903928262
 21
14.6441901029
 31
0.0
 11
10.9853411299
 21
14.6394846861
 31
0.0
 11
10.980962968
 21
14.6344017334
 31
0.0
 11
10.9773176299
 21
14.6289931832
 31
0.0
 11
10.9744563405
 21
14.6233138905
 31
0.0
 11
10.972398413
 21
14.6174302535
 31
0.0
 11
10.9711552679
 21
14.6114115248
 31
0.0
 11
10.9707383258
 21
14.6053269574
 31
0.0
  0
SPLINE
  5
338
100
AcDbEntity
  8
0
100
AcDbSpline
 62
9
  6
CONTINUOUS
 70
0
 71
3
 72
11
 73
7
 74
5
 42
0.0000001
 43
0.0000001
 44
0.0000000001
 12
0.004836964
 22
0.0140092011
 32
0.0
 13
-0.0
 23
0.0148207266
 33
0.0
 40
0.0
 40
0.0
 40
0.0
 40
0.0
 40
0.2525725431
 40
0.5029737196
 40
0.7518628817
 40
1.0
 40
1.0
 40
1.0
 40
1.0
 10
11.9319190964
 20
12.5088277472
 30
0.0
 10
11.9323263245
 20
12.5100071937
 30
0.0
 10
11.9330452411
 20
12.5123889977
 30
0.0
 10
11.9338271226
 20
12.5160243063
 30
0.0
 10
11.9343008362
 20
12.5196905556
 30
0.0
 10
11.9344059021
 20
12.5221472985
 30
0.0
 10
11.9344059021
 20
12.523373156
 30
0.0
 11
11.9319190964
 21
12.5088277472
 31
0.0
 11
11.9329989557
 21
12.5124119156
 31
0.0
 11
11.9337776928
 21
12.5160404187
 31
0.0
 11
11.9342486675
 21
12.5196989464
 31
0.0
 11
11.9344059021
 21
12.523373156
 31
0.0
  0
SPLINE
  5
339
100
AcDbEntity
  8
0
100
AcDbSpline
 62
9
  6
CONTINUOUS
 70
0
 71
3
 72
28
 73
24
 74
22
 42
0.0000001
 43
0.0000001
 44
0.0000000001
 12
-0.0179560827
 22
0.1208896641
 32
0.0
 13
-0.1182999963
 23
-0.0306894553
 33
0.0
 40
0.0
 40
0.0
 40
0.0
 40
0.0
 40
0.0529107603
 40
0.1067144632
 40
0.1617436935
 40
0.2182406295
 40
0.2471108079
 40
0.2764126221
 40
0.3061639807
 40
0.3363755787
 40
0.3670428514
 40
0.3981530756
 40
0.4616036443
 40
0.5265472849
 40
0.5927414294
 40
0.6262363886
 40
0.6599492407
 40
0.6938457165
 40
0.7278862798
 40
0.7962120444
 40
0.8645815409
 40
0.932626897
 40
1.0
 40
1.0
 40
1.0
 40
1.0
 10
11.7543337708
 20
12.7192991861
 30
0.0
 10
11.7540170808
 20
12.7214313074
 30
0.0
 10
11.7530551269
 20
12.7256895119
 30
0.0
 10
11.7507056813
 20
12.7318666369
 30
0.0
 10
11.7474858906
 20
12.7378040115
 30
0.0
 10
11.7441362439
 20
12.7424594576
 30
0.0
 10
11.7410760565
 20
12.7459919224
 30
0.0
 10
11.7385727183
 20
12.7485568542
 30
0.0
 10
11.7358834695
 20
12.7510077435
 30
0.0
 10
11.7330158433
 20
12.7533364278
 30
0.0
 10
11.7299812165
 20
12.7555383787
 30
0.0
 10
11.7256996213
 20
12.7583157836
 30
0.0
 10
11.7199853288
 20
12.7614334924
 30
0.0
 10
11.7126876597
 20
12.7645571326
 30
0.0
 10
11.7062964505
 20
12.7666237829
 30
0.0
 10
11.7010230062
 20
12.7679436554
 30
0.0
 10
11.6969847327
 20
12.7687617641
 30
0.0
 10
11.6928921419
 20
12.7694025515
 30
0.0
 10
11.6873742221
 20
12.7700221534
 30
0.0
 10
11.6804175456
 20
12.7703539609
 30
0.0
 10
11.6720724954
 20
12.770051158
 30
0.0
 10
11.6638213378
 20
12.7690502535
 30
0.0
 10
11.6584146523
 20
12.7679107207
 30
0.0
 10
11.6557579064
 20
12.7672215061
 30
0.0
 11
11.7543337708
 21
12.7192991861
 31
0.0
 11
11.7529185886
 21
12.7256089694
 31
0.0
 11
11.7505918392
 21
12.7317592265
 31
0.0
 11
11.7473954495
 21
12.7376765525
 31
0.0
 11
11.7433713466
 21
12.7432875423
 31
0.0
 11
11.7410620049
 21
12.745955222
 31
0.0
 11
11.7385614574
 21
12.7485187909
 31
0.0
 11
11.7358749817
 21
12.7509690964
 31
0.0
 11
11.7330100505
 21
12.7532983734
 31
0.0
 11
11.7299775394
 21
12.7555010077
 31
0.0
 11
11.7267886164
 21
12.7575715698
 31
0.0
 11
11.7199862081
 21
12.7612947599
 31
0.0
 11
11.7126921711
 21
12.7644245086
 31
0.0
 11
11.7049958512
 21
12.7669173808
 31
0.0
 11
11.7010247557
 21
12.7679114148
 31
0.0
 11
11.696986688
 21
12.7687302231
 31
0.0
 11
11.6928940016
 21
12.7693719324
 31
0.0
 11
11.6887597542
 21
12.7698367815
 31
0.0
 11
11.6804188539
 21
12.7702369958
 31
0.0
 11
11.6720685423
 21
12.7699330592
 31
0.0
 11
11.6638133747
 21
12.7689271649
 31
0.0
 11
11.6557579064
 21
12.7672215061
 31
0.0
  0
SPLINE
  5
33A
100
AcDbEntity
  8
0
100
AcDbSpline
 62
6
  6
CONTINUOUS
 70
0
 71
3
 72
11
 73
7
 74
5
 42
0.0000001
 43
0.0000001
 44
0.0000000001
 12
0.0
 22
-0.0413881431
 32
0.0
 13
-0.0071334451
 23
-0.0407687668
 33
0.0
 40
0.0
 40
0.0
 40
0.0
 40
0.0
 40
0.2323368229
 40
0.4759706162
 40
0.7316288777
 40
1.0
 40
1.0
 40
1.0
 40
1.0
 10
11.7543337708
 20
12.7192991861
 30
0.0
 10
11.7543337708
 20
12.7160938562
 30
0.0
 10
11.7541655409
 20
12.7095264544
 30
0.0
 10
11.7534378528
 20
12.6994559341
 30
0.0
 10
11.7522195126
 20
12.6889325277
 30
0.0
 10
11.7511016863
 20
12.6817878409
 30
0.0
 10
11.7504635495
 20
12.6781407877
 30
0.0
 11
11.7543337708
 21
12.7192991861
 31
0.0
 11
11.7540968182
 21
12.7096861163
 31
0.0
 11
11.7533793786
 21
12.6996281211
 31
0.0
 11
11.7521715799
 21
12.6891160588
 31
0.0
 11
11.7504635495
 21
12.6781407877
 31
0.0
  0
SPLINE
  5
33B
100
AcDbEntity
  8
0
100
AcDbSpline
 62
9
  6
CONTINUOUS
 70
0
 71
3
 72
22
 73
18
 74
16
 42
0.0000001
 43
0.0000001
 44
0.0000000001
 12
-0.3786808936
 22
-0.5037314674
 32
0.0
 13
0.0028046536
 23
-0.6301878643
 33
0.0
 40
0.0
 40
0.0
 40
0.0
 40
0.0
 40
0.1278086561
 40
0.1914309734
 40
0.2548271728
 40
0.3179919213
 40
0.3809283568
 40
0.4436413222
 40
0.506148091
 40
0.5684754396
 40
0.6306497022
 40
0.6926821823
 40
0.7545641828
 40
0.8162877846
 40
0.8778240175
 40
0.9390896316
 40
1.0
 40
1.0
 40
1.0
 40
1.0
 10
10.6931513157
 20
10.915023966
 30
0.0
 10
10.677018417
 20
10.893563552
 30
0.0
 10
10.6540764458
 20
10.8604726053
 30
0.0
 10
10.6261867578
 20
10.8147711035
 30
0.0
 10
10.6067201675
 20
10.7798711288
 30
0.0
 10
10.588708161
 20
10.7443613225
 30
0.0
 10
10.5721756323
 20
10.7082964014
 30
0.0
 10
10.557148938
 20
10.6717278832
 30
0.0
 10
10.543644781
 20
10.6347063076
 30
0.0
 10
10.5316717102
 20
10.5972804228
 30
0.0
 10
10.5212387471
 20
10.5594996634
 30
0.0
 10
10.5123592328
 20
10.5214198615
 30
0.0
 10
10.5050560852
 20
10.4831026952
 30
0.0
 10
10.499353074
 20
10.4446201317
 30
0.0
 10
10.4952761966
 20
10.4060610724
 30
0.0
 10
10.4928634084
 20
10.3675336402
 30
0.0
 10
10.4923895376
 20
10.3418629173
 30
0.0
 10
10.4924464818
 20
10.3290679256
 30
0.0
 11
10.6931513157
 21
10.915023966
 31
0.0
 11
10.6472714285
 21
10.8488241621
 31
0.0
 11
10.6263879048
 21
10.8145978549
 31
0.0
 11
10.6069284718
 21
10.7797053676
 31
0.0
 11
10.588923493
 21
10.7442040645
 31
0.0
 11
10.5723987042
 21
10.7081482863
 31
0.0
 11
10.5573793005
 21
10.6715921115
 31
0.0
 11
10.5438816176
 21
10.6345854266
 31
0.0
 11
10.531914447
 21
10.5971745477
 31
0.0
 11
10.5214864595
 21
10.5594058471
 31
0.0
 11
10.5126121529
 21
10.521333935
 31
0.0
 11
10.5053143452
 21
10.4830251838
 31
0.0
 11
10.4996165056
 21
10.4445469125
 31
0.0
 11
10.4955465175
 21
10.405981308
 31
0.0
 11
10.4931430716
 21
10.3674469596
 31
0.0
 11
10.4924464818
 21
10.3290679256
 31
0.0
  0
SPLINE
  5
33C
100
AcDbEntity
  8
0
100
AcDbSpline
 62
9
  6
CONTINUOUS
 70
0
 71
3
 72
28
 73
24
 74
22
 42
0.0000001
 43
0.0000001
 44
0.0000000001
 12
-0.0559931168
 22
0.1123771132
 32
0.0
 13
-0.1123195779
 23
-0.0561084407
 33
0.0
 40
0.0
 40
0.0
 40
0.0
 40
0.0
 40
0.053912699
 40
0.1093612278
 40
0.1664686417
 40
0.225267669
 40
0.2553062289
 40
0.285756648
 40
0.3166126225
 40
0.347862085
 40
0.379480602
 40
0.4114377514
 40
0.4762103203
 40
0.5418874331
 40
0.6081381585
 40
0.641383903
 40
0.6746531454
 40
0.7079091418
 40
0.7411134936
 40
0.8071903726
 40
0.8725701756
 40
0.9369338431
 40
1.0
 40
1.0
 40
1.0
 40
1.0
 10
11.6557579064
 20
12.7672215061
 30
0.0
 10
11.6547516597
 20
12.7692410239
 30
0.0
 10
11.6524225858
 20
12.7731994872
 30
0.0
 10
11.6481474249
 20
12.7787211733
 30
0.0
 10
11.6431097985
 20
12.7838471069
 30
0.0
 10
11.6383626284
 20
12.7877108666
 30
0.0
 10
11.6342530618
 20
12.7905486781
 30
0.0
 10
11.6309970879
 20
12.7925554358
 30
0.0
 10
11.6275979966
 20
12.7944165476
 30
0.0
 10
11.6240656269
 20
12.7961255304
 30
0.0
 10
11.6204125366
 20
12.7976800983
 30
0.0
 10
11.6153755226
 20
12.7995507241
 30
0.0
 10
11.6088475281
 20
12.8014790569
 30
0.0
 10
11.600770084
 20
12.8031169012
 30
0.0
 10
11.5938931053
 20
12.8039060769
 30
0.0
 10
11.5883420515
 20
12.8041812849
 30
0.0
 10
11.5841651743
 20
12.8042049031
 30
0.0
 10
11.5799930112
 20
12.8040464118
 30
0.0
 10
11.574462954
 20
12.8035973083
 30
0.0
 10
11.5676350555
 20
12.8025994279
 30
0.0
 10
11.5596476332
 20
12.8007197304
 30
0.0
 10
11.5519769894
 20
12.7981813048
 30
0.0
 10
11.5470825939
 20
12.7960383307
 30
0.0
 10
11.5447214058
 20
12.7948588162
 30
0.0
 11
11.6557579064
 21
12.7672215061
 31
0.0
 11
11.6523387666
 21
12.7730634531
 31
0.0
 11
11.6480884871
 21
12.7785772253
 31
0.0
 11
11.6430715078
 21
12.7836997114
 31
0.0
 11
11.6373522688
 21
12.7883677998
 31
0.0
 11
11.6342494395
 21
12.7905117226
 31
0.0
 11
11.6309952102
 21
12.7925183792
 31
0.0
 11
11.627597664
 21
12.79437991
 31
0.0
 11
11.6240665597
 21
12.7960902177
 31
0.0
 11
11.6204142538
 21
12.797645936
 31
0.0
 11
11.6166533261
 21
12.7990439338
 31
0.0
 11
11.6088559256
 21
12.8013542431
 31
0.0
 11
11.6007749976
 21
12.8029960962
 31
0.0
 11
11.5925111818
 21
12.8039444436
 31
0.0
 11
11.5883421408
 21
12.8041507247
 31
0.0
 11
11.5841651171
 21
12.8041745265
 31
0.0
 11
11.5799926845
 21
12.8040163878
 31
0.0
 11
11.5758374127
 21
12.8036790276
 31
0.0
 11
11.5676286309
 21
12.8024776643
 31
0.0
 11
11.5596393302
 21
12.8005924795
 31
0.0
 11
11.551970069
 21
12.7980455158
 31
0.0
 11
11.5447214058
 21
12.7948588162
 31
0.0
  0
SPLINE
  5
33D
100
AcDbEntity
  8
0
100
AcDbSpline
 62
6
  6
CONTINUOUS
 70
0
 71
3
 72
11
 73
7
 74
5
 42
0.0000001
 43
0.0000001
 44
0.0000000001
 12
0.0
 22
-0.0485606365
 32
0.0
 13
-0.0061200923
 23
-0.0481734355
 33
0.0
 40
0.0
 40
0.0
 40
0.0
 40
0.0
 40
0.227845166
 40
0.4700632905
 40
0.727256622
 40
1.0
 40
1.0
 40
1.0
 40
1.0
 10
11.6557579064
 20
12.7672215061
 30
0.0
 10
11.6557579064
 20
12.763533404
 30
0.0
 10
11.6556083863
 20
12.7559240151
 30
0.0
 10
11.6549712924
 20
12.7441672692
 30
0.0
 10
11.6539049963
 20
12.731712233
 30
0.0
 10
11.6529307067
 20
12.7231884955
 30
0.0
 10
11.6523743018
 20
12.7188088337
 30
0.0
 11
11.6557579064
 21
12.7672215061
 31
0.0
 11
11.6555513399
 21
12.7561591282
 31
0.0
 11
11.6549250952
 21
12.744413545
 31
0.0
 11
11.653869355
 21
12.7319687742
 31
0.0
 11
11.6523743018
 21
12.7188088337
 31
0.0
  0
SPLINE
  5
33E
100
AcDbEntity
  8
0
100
AcDbSpline
 62
6
  6
CONTINUOUS
 70
0
 71
3
 72
23
 73
19
 74
17
 42
0.0000001
 43
0.0000001
 44
0.0000000001
 12
0.0906934335
 22
0.0982173458
 32
0.0
 13
0.1330874416
 23
0.0126364076
 33
0.0
 40
0.0
 40
0.0
 40
0.0
 40
0.0
 40
0.0438292874
 40
0.089469163
 40
0.1372173769
 40
0.1873061241
 40
0.2399106377
 40
0.2951581064
 40
0.3531359475
 40
0.4138990098
 40
0.4774756128
 40
0.5438724975
 40
0.6130788331
 40
0.6850694393
 40
0.7598073701
 40
0.83724599
 40
0.9173306427
 40
1.0
 40
1.0
 40
1.0
 40
1.0
 10
10.823226839
 20
11.0655672348
 30
0.0
 10
10.8245518485
 20
11.0670021669
 30
0.0
 10
10.8274082238
 20
11.0697941526
 30
0.0
 10
10.8321574977
 20
11.0736568051
 30
0.0
 10
10.8374346477
 20
11.0772778308
 30
0.0
 10
10.8432260934
 20
11.0806646665
 30
0.0
 10
10.849519368
 20
11.0838252707
 30
0.0
 10
10.8563020013
 20
11.0867670537
 30
0.0
 10
10.8635616533
 20
11.0894972291
 30
0.0
 10
10.8712859638
 20
11.0920227882
 30
0.0
 10
10.8794625387
 20
11.0943505823
 30
0.0
 10
10.8880789309
 20
11.096487361
 30
0.0
 10
10.8971226401
 20
11.0984398073
 30
0.0
 10
10.9065811185
 20
11.1002145613
 30
0.0
 10
10.9164417736
 20
11.1018182359
 30
0.0
 10
10.9266919889
 20
11.1032574283
 30
0.0
 10
10.9373190757
 20
11.1045387242
 30
0.0
 10
10.9445340823
 20
11.1052804747
 30
0.0
 10
10.9482015001
 20
11.1056286893
 30
0.0
 11
10.823226839
 21
11.0655672348
 31
0.0
 11
10.8274080803
 21
11.0696720301
 31
0.0
 11
10.8321329085
 21
11.0735325003
 31
0.0
 11
10.8373885458
 21
11.0771552592
 31
0.0
 11
10.8431622141
 21
11.0805469207
 31
0.0
 11
10.8494411356
 21
11.0837140987
 31
0.0
 11
10.8562125324
 21
11.0866634068
 31
0.0
 11
10.8634636266
 21
11.0894014589
 31
0.0
 11
10.8711816402
 21
11.091934869
 31
0.0
 11
10.8793537954
 21
11.0942702506
 31
0.0
 11
10.8879673141
 21
11.0964142178
 31
0.0
 11
10.8970094186
 21
11.0983733842
 31
0.0
 11
10.906467331
 21
11.1001543637
 31
0.0
 11
10.9163282732
 21
11.1017637702
 31
0.0
 11
10.9265794674
 21
11.1032082174
 31
0.0
 11
10.9372081356
 21
11.1044943192
 31
0.0
 11
10.9482015001
 21
11.1056286893
 31
0.0
  0
SPLINE
  5
33F
100
AcDbEntity
  8
0
100
AcDbSpline
 62
9
  6
CONTINUOUS
 70
0
 71
3
 72
29
 73
25
 74
23
 42
0.0000001
 43
0.0000001
 44
0.0000000001
 12
-0.0862945392
 22
0.0933939601
 32
0.0
 13
-0.0975457642
 23
-0.0815720735
 33
0.0
 40
0.0
 40
0.0
 40
0.0
 40
0.0
 40
0.0568167482
 40
0.1153607069
 40
0.1755552463
 40
0.2372535909
 40
0.2686185517
 40
0.3002892245
 40
0.3322415452
 40
0.364448268
 40
0.3968738028
 40
0.4294784101
 40
0.4950382511
 40
0.5607849056
 40
0.5936219287
 40
0.6263710477
 40
0.6589906466
 40
0.691442475
 40
0.7236944108
 40
0.7557159988
 40
0.8189268909
 40
0.8808463857
 40
0.9412570234
 40
1.0
 40
1.0
 40
1.0
 40
1.0
 10
11.5447214058
 20
12.7948588162
 30
0.0
 10
11.5430870808
 20
12.7966275965
 30
0.0
 10
11.5395450417
 20
12.8000174531
 30
0.0
 10
11.5336219779
 20
12.8045434627
 30
0.0
 10
11.5270887003
 20
12.8085438651
 30
0.0
 10
11.521234887
 20
12.8113846162
 30
0.0
 10
11.5163265464
 20
12.8133535342
 30
0.0
 10
11.512522491
 20
12.8146769825
 30
0.0
 10
11.5086269046
 20
12.8158322562
 30
0.0
 10
11.5046513195
 20
12.8168149187
 30
0.0
 10
11.5006088392
 20
12.8176250718
 30
0.0
 10
11.4951379115
 20
12.8184756162
 30
0.0
 10
11.4882097082
 20
12.8191010972
 30
0.0
 10
11.4812437323
 20
12.819144003
 30
0.0
 10
11.4756847563
 20
12.8188255524
 30
0.0
 10
11.4715416858
 20
12.818409664
 30
0.0
 10
11.4674367993
 20
12.817816208
 30
0.0
 10
11.4633831967
 20
12.8170438562
 30
0.0
 10
11.4593929954
 20
12.8160959209
 30
0.0
 10
11.4541956976
 20
12.8146118899
 30
0.0
 10
11.4479189149
 20
12.8123525595
 30
0.0
 10
11.4407867084
 20
12.8090113832
 30
0.0
 10
11.4341743812
 20
12.8050912121
 30
0.0
 10
11.4301111436
 20
12.8020718246
 30
0.0
 10
11.4282011008
 20
12.8004745625
 30
0.0
 11
11.5447214058
 21
12.7948588162
 31
0.0
 11
11.5395131456
 21
12.7998658559
 31
0.0
 11
11.5336063966
 21
12.8043966927
 31
0.0
 11
11.5270840629
 21
12.8084024742
 31
0.0
 11
11.5200290487
 21
12.8118343481
 31
0.0
 11
11.516327694
 21
12.8133198033
 31
0.0
 11
11.5125242581
 21
12.814643462
 31
0.0
 11
11.5086291218
 21
12.8157992514
 31
0.0
 11
11.5046537166
 21
12.8167831247
 31
0.0
 11
11.5006111037
 21
12.8175941755
 31
0.0
 11
11.4965144843
 21
12.8182317677
 31
0.0
 11
11.4882120309
 21
12.8189840311
 31
0.0
 11
11.4798519663
 21
12.819034825
 31
0.0
 11
11.475683333
 21
12.8187955802
 31
0.0
 11
11.4715399005
 21
12.8183790593
 31
0.0
 11
11.4674348702
 21
12.8177846261
 31
0.0
 11
11.4633813483
 21
12.8170119257
 31
0.0
 11
11.4593913387
 21
12.8160638755
 31
0.0
 11
11.4554761336
 21
12.8149455037
 31
0.0
 11
11.4479152582
 21
12.8122180489
 31
0.0
 11
11.4407889655
 21
12.8088700688
 31
0.0
 11
11.4341874986
 21
12.8049420709
 31
0.0
 11
11.4282011008
 21
12.8004745625
 31
0.0
  0
SPLINE
  5
340
100
AcDbEntity
  8
0
100
AcDbSpline
 62
6
  6
CONTINUOUS
 70
0
 71
3
 72
11
 73
7
 74
5
 42
0.0000001
 43
0.0000001
 44
0.0000000001
 12
0.0
 22
-0.0509900231
 32
0.0
 13
-0.0028817191
 23
-0.0509085273
 33
0.0
 40
0.0
 40
0.0
 40
0.0
 40
0.0
 40
0.2259663184
 40
0.4676661458
 40
0.7255344141
 40
1.0
 40
1.0
 40
1.0
 40
1.0
 10
11.5447214058
 20
12.7948588162
 30
0.0
 10
11.5447214058
 20
12.7910181402
 30
0.0
 10
11.5446499203
 20
12.7830692624
 30
0.0
 10
11.5443475987
 20
12.7707408824
 30
0.0
 10
11.5438417684
 20
12.7575942331
 30
0.0
 10
11.5433802657
 20
12.7485578553
 30
0.0
 10
11.5431166214
 20
12.743900309
 30
0.0
 11
11.5447214058
 21
12.7948588162
 31
0.0
 11
11.5446235195
 21
12.7833372042
 31
0.0
 11
11.5443266435
 21
12.7710165006
 31
0.0
 11
11.5438259526
 21
12.757877328
 31
0.0
 11
11.5431166214
 21
12.743900309
 31
0.0
  0
SPLINE
  5
341
100
AcDbEntity
  8
0
100
AcDbSpline
 62
9
  6
CONTINUOUS
 70
0
 71
3
 72
28
 73
24
 74
22
 42
0.0000001
 43
0.0000001
 44
0.0000000001
 12
-0.1061628237
 22
0.068990092
 32
0.0
 13
-0.0723808602
 23
-0.1038806478
 33
0.0
 40
0.0
 40
0.0
 40
0.0
 40
0.0
 40
0.0608580779
 40
0.1232365009
 40
0.1869081707
 40
0.2515982524
 40
0.2842413044
 40
0.3170290117
 40
0.3499261387
 40
0.3828974003
 40
0.4488881755
 40
0.5146776585
 40
0.5799124894
 40
0.6122220567
 40
0.6442678671
 40
0.6760138662
 40
0.70742902
 40
0.7384927374
 40
0.7691889917
 40
0.8293975673
 40
0.887964011
 40
0.9448253721
 40
1.0
 40
1.0
 40
1.0
 40
1.0
 10
11.4282011008
 20
12.8004745625
 30
0.0
 10
11.426047479
 20
12.8018740973
 30
0.0
 10
11.4215312473
 20
12.8044752461
 30
0.0
 10
11.4143334451
 20
12.807729537
 30
0.0
 10
11.4067140403
 20
12.81036021
 30
0.0
 10
11.4001107176
 20
12.8120022335
 30
0.0
 10
11.39470495
 20
12.8129770944
 30
0.0
 10
11.3905914113
 20
12.8135346704
 30
0.0
 10
11.3864435139
 20
12.8139119989
 30
0.0
 10
11.3808832155
 20
12.814171935
 30
0.0
 10
11.3739219731
 20
12.8140473771
 30
0.0
 10
11.3656415463
 20
12.813196144
 30
0.0
 10
11.3588597323
 20
12.8119101182
 30
0.0
 10
11.3535635899
 20
12.8105394014
 30
0.0
 10
11.3496852919
 20
12.8093476979
 30
0.0
 10
11.3459015514
 20
12.8079912453
 30
0.0
 10
11.3422252799
 20
12.8064711504
 30
0.0
 10
11.3386672482
 20
12.8047929125
 30
0.0
 10
11.3341234693
 20
12.8023705616
 30
0.0
 10
11.3287821796
 20
12.7989925419
 30
0.0
 10
11.3229505493
 20
12.7943941797
 30
0.0
 10
11.3178103302
 20
12.789331551
 30
0.0
 10
11.3148495862
 20
12.7856264125
 30
0.0
 10
11.3135183905
 20
12.7837158871
 30
0.0
 11
11.4282011008
 21
12.8004745625
 31
0.0
 11
11.4215309743
 21
12.8043320842
 31
0.0
 11
11.4143388986
 21
12.8075952964
 31
0.0
 11
11.4067210327
 21
12.8102326754
 31
0.0
 11
11.3987735358
 21
12.8122126975
 31
0.0
 11
11.3947062253
 21
12.8129463486
 31
0.0
 11
11.3905925668
 21
12.813503839
 31
0.0
 11
11.386444586
 21
12.8138812644
 31
0.0
 11
11.3822746693
 21
12.814076883
 31
0.0
 11
11.3739208561
 21
12.8139294294
 31
0.0
 11
11.3656350236
 21
12.8130763794
 31
0.0
 11
11.357521116
 21
12.8115329224
 31
0.0
 11
11.3535611167
 21
12.810507038
 31
0.0
 11
11.3496830778
 21
12.8093142479
 31
0.0
 11
11.3458999923
 21
12.8079564508
 31
0.0
 11
11.34222467
 21
12.8064357999
 31
0.0
 11
11.3386677904
 21
12.8047574076
 31
0.0
 11
11.3352386586
 21
12.8029282956
 31
0.0
 11
11.3288007674
 21
12.7988461253
 31
0.0
 11
11.3229852538
 21
12.7942457159
 31
0.0
 11
11.3178663756
 21
12.7891834942
 31
0.0
 11
11.3135183905
 21
12.7837158871
 31
0.0
  0
SPLINE
  5
342
100
AcDbEntity
  8
0
100
AcDbSpline
 62
9
  6
CONTINUOUS
 70
0
 71
3
 72
52
 73
48
 74
46
 42
0.0000001
 43
0.0000001
 44
0.0000000001
 12
-0.685516748
 22
2.0208384152
 32
0.0
 13
2.1339438113
 23
0.0022187126
 33
0.0
 40
0.0
 40
0.0
 40
0.0
 40
0.0
 40
0.0312534339
 40
0.0625092433
 40
0.0937656461
 40
0.1250206125
 40
0.1406488636
 40
0.1562764925
 40
0.1719037019
 40
0.1875308887
 40
0.203158465
 40
0.2187866518
 40
0.2500415082
 40
0.2812978853
 40
0.3125537712
 40
0.3438073448
 40
0.3594347666
 40
0.3750616268
 40
0.3906882758
 40
0.4063151513
 40
0.4375670328
 40
0.4688209348
 40
0.5000753163
 40
0.5313281031
 40
0.5469551073
 40
0.5625813022
 40
0.5782068044
 40
0.5938319176
 40
0.6094570817
 40
0.6250825985
 40
0.6563315634
 40
0.6875815286
 40
0.7188304636
 40
0.7500762381
 40
0.7656992595
 40
0.7813212595
 40
0.7969424714
 40
0.8125633258
 40
0.8281842225
 40
0.8438053731
 40
0.8594268297
 40
0.8750485215
 40
0.9062885403
 40
0.9375271682
 40
0.9531472163
 40
0.9687665315
 40
1.0
 40
1.0
 40
1.0
 40
1.0
 10
20.393735863
 20
15.0484362631
 30
0.0
 10
20.3865942789
 20
15.0694889764
 30
0.0
 10
20.373558276
 20
15.1120309555
 30
0.0
 10
20.357805724
 20
15.1768789661
 30
0.0
 10
20.3458958334
 20
15.2425437314
 30
0.0
 10
20.3392116344
 20
15.2977576759
 30
0.0
 10
20.3358327277
 20
15.342099394
 30
0.0
 10
20.3342880369
 20
15.3754174068
 30
0.0
 10
20.3337387883
 20
15.4087657198
 30
0.0
 10
20.3341910275
 20
15.4421154559
 30
0.0
 10
20.335639419
 20
15.4754377017
 30
0.0
 10
20.3388906274
 20
15.5197887997
 30
0.0
 10
20.3454166303
 20
15.5750216018
 30
0.0
 10
20.3571388269
 20
15.6407198346
 30
0.0
 10
20.3727062919
 20
15.7056136347
 30
0.0
 10
20.3888476996
 20
15.7588350542
 30
0.0
 10
20.4036358284
 20
15.8007722767
 30
0.0
 10
20.4156600773
 20
15.8318816113
 30
0.0
 10
20.4286121868
 20
15.862615826
 30
0.0
 10
20.4470989258
 20
15.903057245
 30
0.0
 10
20.4724536173
 20
15.9525535535
 30
0.0
 10
20.5063330207
 20
16.0100444837
 30
0.0
 10
20.5435379121
 20
16.0654420262
 30
0.0
 10
20.5772086008
 20
16.109703859
 30
0.0
 10
20.6056735383
 20
16.1438658595
 30
0.0
 10
20.6277733563
 20
16.168843142
 30
0.0
 10
20.6506062169
 20
16.1931499852
 30
0.0
 10
20.6741566687
 20
16.2167612621
 30
0.0
 10
20.6984044502
 20
16.2396561875
 30
0.0
 10
20.7316278626
 20
16.2692044942
 30
0.0
 10
20.7747815628
 20
16.3042734911
 30
0.0
 10
20.8289529086
 20
16.343226113
 30
0.0
 10
20.8853202776
 20
16.3789228343
 30
0.0
 10
20.9339661649
 20
16.4058508028
 30
0.0
 10
20.973779263
 20
16.4256309403
 30
0.0
 10
21.004067075
 20
16.4395710345
 30
0.0
 10
21.0347566915
 20
16.4525981841
 30
0.0
 10
21.0658227433
 20
16.4646982176
 30
0.0
 10
21.0972357546
 20
16.4758662935
 30
0.0
 10
21.1289669673
 20
16.4860964105
 30
0.0
 10
21.1609878749
 20
16.4953829781
 30
0.0
 10
21.2040262657
 20
16.5064983576
 30
0.0
 10
21.2584102205
 20
16.5180065742
 30
0.0
 10
21.3133760266
 20
16.5262925
 30
0.0
 10
21.3575773118
 20
16.5309644213
 30
0.0
 10
21.4018925353
 20
16.5343245697
 30
0.0
 10
21.435229659
 20
16.5353606738
 30
0.0
 10
21.4574464813
 20
16.5353837731
 30
0.0
 11
20.393735863
 21
15.0484362631
 31
0.0
 11
20.3741923485
 21
15.1122016274
 31
0.0
 11
20.3584463058
 21
15.1770145039
 31
0.0
 11
20.346543827
 21
15.24264336
 31
0.0
 11
20.3385310043
 21
15.3088566633
 31
0.0
 11
20.3359976176
 21
15.3421101287
 31
0.0
 11
20.3344539295
 21
15.3754228812
 31
0.0
 11
20.3339057014
 21
15.4087659793
 31
0.0
 11
20.3343570406
 21
15.4421104814
 31
0.0
 11
20.3358043985
 21
15.475427446
 31
0.0
 11
20.3382420139
 21
15.5086879314
 31
0.0
 11
20.3460649713
 21
15.5749236986
 31
0.0
 11
20.3577798207
 21
15.6405862507
 31
0.0
 11
20.3733404699
 21
15.7054440552
 31
0.0
 11
20.3927008271
 21
15.7692655795
 31
0.0
 11
20.4037914923
 21
15.8007153827
 31
0.0
 11
20.4158148
 21
15.8318192913
 31
0.0
 11
20.4287643447
 21
15.8625486304
 31
0.0
 11
20.4426273817
 21
15.8928773532
 31
0.0
 11
20.4730284916
 21
15.9522347563
 31
0.0
 11
20.5068870404
 21
16.0096951995
 31
0.0
 11
20.5440718973
 21
16.0650623991
 31
0.0
 11
20.5844519317
 21
16.1181400713
 31
0.0
 11
20.6057991619
 21
16.1437589959
 31
0.0
 11
20.6278960125
 21
16.1687319324
 31
0.0
 11
20.650726092
 21
16.1930343451
 31
0.0
 11
20.6742728622
 21
16.2166418447
 31
0.0
 11
20.6985159893
 21
16.2395338184
 31
0.0
 11
20.7234310961
 21
16.2616936766
 31
0.0
 11
20.7751789528
 21
16.3037514701
 31
0.0
 11
20.8293198415
 21
16.3426840728
 31
0.0
 11
20.8856571711
 21
16.3783603318
 31
0.0
 11
20.9439943508
 21
16.4106490947
 31
0.0
 11
20.9738514497
 21
16.4254821799
 31
0.0
 11
21.0041347895
 21
16.4394192088
 31
0.0
 11
21.0348197869
 21
16.4524438112
 31
0.0
 11
21.0658805482
 21
16.4645428844
 31
0.0
 11
21.0972885493
 21
16.4757098865
 31
0.0
 11
21.1290149515
 21
16.4859390609
 31
0.0
 11
21.1610309157
 21
16.4952246507
 31
0.0
 11
21.1933076033
 21
16.503560899
 31
0.0
 11
21.2585277929
 21
16.5173623439
 31
0.0
 11
21.3244448096
 21
16.5272973411
 31
0.0
 11
21.357592531
 21
16.5308005296
 31
0.0
 11
21.3908279426
 21
16.5333198357
 31
0.0
 11
21.4574464813
 21
16.5353837731
 31
0.0
  0
SPLINE
  5
343
100
AcDbEntity
  8
0
100
AcDbSpline
 62
9
  6
CONTINUOUS
 70
0
 71
3
 72
28
 73
24
 74
22
 42
0.0000001
 43
0.0000001
 44
0.0000000001
 12
-0.1162677713
 22
0.0432648733
 32
0.0
 13
-0.0375965424
 23
-0.1182224341
 33
0.0
 40
0.0
 40
0.0
 40
0.0
 40
0.0
 40
0.0652718032
 40
0.1315545596
 40
0.1985265316
 40
0.2658375428
 40
0.2995172952
 40
0.3331513598
 40
0.3666998601
 40
0.4001263516
 40
0.4664536234
 40
0.5318524978
 40
0.5960286291
 40
0.6275830085
 40
0.658737534
 40
0.6894695204
 40
0.7197633319
 40
0.7496173522
 40
0.7790366587
 40
0.8365733875
 40
0.8924726136
 40
0.946871083
 40
1.0
 40
1.0
 40
1.0
 40
1.0
 10
11.3135183905
 20
12.7837158871
 30
0.0
 10
11.3109887215
 20
12.7846572126
 30
0.0
 10
11.3057962201
 20
12.7863102027
 30
0.0
 10
11.2977726293
 20
12.7880936504
 30
0.0
 10
11.2895420619
 20
12.7891933915
 30
0.0
 10
11.28259558
 20
12.7895299608
 30
0.0
 10
11.2770277946
 20
12.7894448024
 30
0.0
 10
11.2728626525
 20
12.7892017399
 30
0.0
 10
11.2687225098
 20
12.7887775488
 30
0.0
 10
11.2632677247
 20
12.7879730141
 30
0.0
 10
11.2565819279
 20
12.7865331998
 30
0.0
 10
11.2488337702
 20
12.7841339919
 30
0.0
 10
11.2426633005
 20
12.7815918044
 30
0.0
 10
11.2379661295
 20
12.7792496723
 30
0.0
 10
11.2345957342
 20
12.7773565952
 30
0.0
 10
11.2313703297
 20
12.7753218427
 30
0.0
 10
11.2283019587
 20
12.7731488425
 30
0.0
 10
11.2253993749
 20
12.7708449686
 30
0.0
 10
11.2217868368
 20
12.7676354464
 30
0.0
 10
11.2177066343
 20
12.7633439603
 30
0.0
 10
11.2135438384
 20
12.7577691499
 30
0.0
 10
11.210203498
 20
12.7518736124
 30
0.0
 10
11.2085450327
 20
12.7477294759
 30
0.0
 10
11.2078792115
 20
12.7456357992
 30
0.0
 11
11.3135183905
 21
12.7837158871
 31
0.0
 11
11.3058055064
 21
12.7861815085
 31
0.0
 11
11.2977800085
 21
12.7879720565
 31
0.0
 11
11.289545269
 21
12.7890753168
 31
0.0
 11
11.2812046598
 21
12.789479075
 31
0.0
 11
11.2770269577
 21
12.7894148239
 31
0.0
 11
11.2728615527
 21
12.7891711169
 31
0.0
 11
11.2687213604
 21
12.7887464633
 31
0.0
 11
11.2646189433
 21
12.7881415358
 31
0.0
 11
11.2565754501
 21
12.7864072506
 31
0.0
 11
11.2488268678
 21
12.7840024874
 31
0.0
 11
11.2414689439
 21
12.7809617607
 31
0.0
 11
11.2379664
 21
12.7792136967
 31
0.0
 11
11.2345974261
 21
12.7773195848
 31
0.0
 11
11.2313739906
 21
12.7752837392
 31
0.0
 11
11.2283078018
 21
12.7731106859
 31
0.0
 11
11.2254075441
 21
12.7708074111
 31
0.0
 11
11.2226799506
 21
12.7683824886
 31
0.0
 11
11.2177695598
 21
12.7632021006
 31
0.0
 11
11.2136302356
 21
12.7576383226
 31
0.0
 11
11.2103155841
 21
12.7517599552
 31
0.0
 11
11.2078792115
 21
12.7456357992
 31
0.0
  0
SPLINE
  5
344
100
AcDbEntity
  8
0
100
AcDbSpline
 62
6
  6
CONTINUOUS
 70
0
 71
3
 72
11
 73
7
 74
5
 42
0.0000001
 43
0.0000001
 44
0.0000000001
 12
0.0
 22
-0.0506986043
 32
0.0
 13
0.004736834
 23
-0.0504768351
 33
0.0
 40
0.0
 40
0.0
 40
0.0
 40
0.0
 40
0.2264562001
 40
0.4682658975
 40
0.7259466803
 40
1.0
 40
1.0
 40
1.0
 40
1.0
 10
11.3135183905
 20
12.7837158871
 30
0.0
 10
11.3135183905
 20
12.7798888827
 30
0.0
 10
11.3136353975
 20
12.7719751084
 30
0.0
 10
11.3141314003
 20
12.7597158474
 30
0.0
 10
11.314961433
 20
12.7466686591
 30
0.0
 10
11.3157189814
 20
12.7377139019
 30
0.0
 10
11.3161516965
 20
12.7331027872
 30
0.0
 11
11.3135183905
 21
12.7837158871
 31
0.0
 11
11.3136790226
 21
12.7722359976
 31
0.0
 11
11.3141661848
 21
12.7599862667
 31
0.0
 11
11.3149877764
 21
12.746948071
 31
0.0
 11
11.3161516965
 21
12.7331027872
 31
0.0
  0
SPLINE
  5
345
100
AcDbEntity
  8
0
100
AcDbSpline
 62
9
  6
CONTINUOUS
 70
0
 71
3
 72
27
 73
23
 74
21
 42
0.0000001
 43
0.0000001
 44
0.0000000001
 12
-0.1180334904
 22
0.0184101434
 32
0.0
 13
-0.0000000283
 23
-0.1194606138
 33
0.0
 40
0.0
 40
0.0
 40
0.0
 40
0.0
 40
0.0691912839
 40
0.1386762874
 40
0.2081003323
 40
0.2770972993
 40
0.3113326849
 40
0.3453325213
 40
0.3790598659
 40
0.4124844781
 40
0.4783098537
 40
0.5426339404
 40
0.6052828571
 40
0.6661325051
 40
0.6958791994
 40
0.7251724829
 40
0.7824672285
 40
0.8382882122
 40
0.892914377
 40
0.9466732832
 40
0.9733664482
 40
1.0
 40
1.0
 40
1.0
 40
1.0
 10
11.2078792115
 20
12.7456357992
 30
0.0
 10
11.2051569153
 20
12.7460604064
 30
0.0
 10
11.1996601584
 20
12.7466689842
 30
0.0
 10
11.1913668817
 20
12.7468775725
 30
0.0
 10
11.1830926593
 20
12.7463937874
 30
0.0
 10
11.1762780186
 20
12.7454171271
 30
0.0
 10
11.1709289538
 20
12.7442921716
 30
0.0
 10
11.1669951467
 20
12.7432815022
 30
0.0
 10
11.1631421427
 20
12.7421023961
 30
0.0
 10
11.158155054
 20
12.7403179162
 30
0.0
 10
11.1521803908
 20
12.7376976045
 30
0.0
 10
11.145465522
 20
12.73395124
 30
0.0
 10
11.1393187639
 20
12.7296680725
 30
0.0
 10
11.1346992617
 20
12.7256600895
 30
0.0
 10
11.1313758154
 20
12.7222292933
 30
0.0
 10
11.1283570281
 20
12.7187123579
 30
0.0
 10
11.1250664622
 20
12.7140741628
 30
0.0
 10
11.1219194792
 20
12.7081612867
 30
0.0
 10
11.1196315929
 20
12.7020150844
 30
0.0
 10
11.1184636141
 20
12.6967444881
 30
0.0
 10
11.1179945933
 20
12.6925032113
 30
0.0
 10
11.1179156849
 20
12.6903788268
 30
0.0
 10
11.1179156846
 20
12.6893182733
 30
0.0
 11
11.2078792115
 21
12.7456357992
 31
0.0
 11
11.1996643792
 21
12.7465507979
 31
0.0
 11
11.1913663432
 21
12.7467619151
 31
0.0
 11
11.1830871012
 21
12.7462768554
 31
0.0
 11
11.174928651
 21
12.7451033232
 31
0.0
 11
11.1709265971
 21
12.7442607876
 31
0.0
 11
11.1669929902
 21
12.7432490232
 31
0.0
 11
11.1631405719
 21
12.7420690088
 31
0.0
 11
11.1593811935
 21
12.7407234527
 31
0.0
 11
11.1521820617
 21
12.7375599484
 31
0.0
 11
11.1454756768
 21
12.7338087815
 31
0.0
 11
11.1393419349
 21
12.7295205844
 31
0.0
 11
11.1338607321
 21
12.7247459893
 31
0.0
 11
11.1313898004
 21
12.7221921152
 31
0.0
 11
11.1291118138
 21
12.7195357016
 31
0.0
 11
11.1251585202
 21
12.7139483787
 31
0.0
 11
11.1220332686
 21
12.7080576673
 31
0.0
 11
11.1197650508
 21
12.7019388746
 31
0.0
 11
11.1183828589
 21
12.6956673075
 31
0.0
 11
11.1180330825
 21
12.6924977671
 31
0.0
 11
11.1179156846
 21
12.6893182733
 31
0.0
  0
SPLINE
  5
346
100
AcDbEntity
  8
0
100
AcDbSpline
 62
6
  6
CONTINUOUS
 70
0
 71
3
 72
11
 73
7
 74
5
 42
0.0000001
 43
0.0000001
 44
0.0000000001
 12
0.0
 22
-0.0441735684
 32
0.0
 13
0.0066182582
 23
-0.0436749677
 33
0.0
 40
0.0
 40
0.0
 40
0.0
 40
0.0
 40
0.2303051987
 40
0.4733126959
 40
0.7296723163
 40
1.0
 40
1.0
 40
1.0
 40
1.0
 10
11.2078792115
 20
12.7456357992
 30
0.0
 10
11.2078792115
 20
12.7422446651
 30
0.0
 10
11.2080378606
 20
12.7352746596
 30
0.0
 10
11.2087192974
 20
12.724549649
 30
0.0
 10
11.2098598921
 20
12.713271416
 30
0.0
 10
11.2109043865
 20
12.7055852212
 30
0.0
 10
11.2115007526
 20
12.7016497036
 30
0.0
 11
11.2078792115
 21
12.7456357992
 31
0.0
 11
11.2081006952
 21
12.735464808
 31
0.0
 11
11.2087716299
 21
12.7247512878
 31
0.0
 11
11.2099017406
 21
12.7134834994
 31
0.0
 11
11.2115007526
 21
12.7016497036
 31
0.0
  0
SPLINE
  5
347
100
AcDbEntity
  8
0
100
AcDbSpline
 62
9
  6
CONTINUOUS
 70
0
 71
3
 72
24
 73
20
 74
18
 42
0.0000001
 43
0.0000001
 44
0.0000000001
 12
-0.100590346
 22
-0.0038918644
 32
0.0
 13
0.0
 23
-0.1006656064
 33
0.0
 40
0.0
 40
0.0
 40
0.0
 40
0.0
 40
0.1407913335
 40
0.210398459
 40
0.2791270475
 40
0.346749722
 40
0.4130689062
 40
0.4456987218
 40
0.4779560477
 40
0.5413229015
 40
0.6031631313
 40
0.663473862
 40
0.7222891721
 40
0.7797000762
 40
0.8079403135
 40
0.8359023392
 40
0.8911271127
 40
0.9457209535
 40
1.0
 40
1.0
 40
1.0
 40
1.0
 10
11.117921262
 20
12.6886270108
 30
0.0
 10
11.1132005123
 20
12.6884443639
 30
0.0
 10
11.1061515087
 20
12.6876452588
 30
0.0
 10
11.0970129482
 20
12.685567197
 30
0.0
 10
11.0904006172
 20
12.6835326837
 30
0.0
 10
11.0840684907
 20
12.6810338293
 30
0.0
 10
11.0790462131
 20
12.6785643451
 30
0.0
 10
11.0752294135
 20
12.6763673546
 30
0.0
 10
11.0715975592
 20
12.6740563606
 30
0.0
 10
11.0673325303
 20
12.6709241761
 30
0.0
 10
11.0626695222
 20
12.6667865438
 30
0.0
 10
11.0585289042
 20
12.6623312058
 30
0.0
 10
11.054949482
 20
12.6575981735
 30
0.0
 10
11.0524520902
 20
12.6534305697
 30
0.0
 10
11.0507820858
 20
12.6500012862
 30
0.0
 10
11.049346927
 20
12.6465467228
 30
0.0
 10
11.0479582717
 20
12.6421240788
 30
0.0
 10
11.0469529475
 20
12.636697488
 30
0.0
 10
11.0467287419
 20
12.6330402881
 30
0.0
 10
11.0467287419
 20
12.6312189437
 30
0.0
 11
11.117921262
 21
12.6886270108
 31
0.0
 11
11.103838531
 21
12.6870313221
 31
0.0
 11
11.097006412
 21
12.6854754271
 31
0.0
 11
11.0903949641
 21
12.6834368363
 31
0.0
 11
11.0840650673
 21
12.6809325532
 31
0.0
 11
11.0780776017
 21
12.6779795811
 31
0.0
 11
11.0752312516
 21
12.6763402074
 31
0.0
 11
11.0724919146
 21
12.674596544
 31
0.0
 11
11.067353735
 21
12.6708164645
 31
0.0
 11
11.06270166
 21
12.6666799059
 31
0.0
 11
11.058574224
 21
12.6622274977
 31
0.0
 11
11.0550099613
 21
12.6574998694
 31
0.0
 11
11.0520474063
 21
12.6525376505
 31
0.0
 11
11.0508038112
 21
12.6499812662
 31
0.0
 11
11.0497243932
 21
12.6473816439
 31
0.0
 11
11.0480616739
 21
12.6420768855
 31
0.0
 11
11.0470623577
 21
12.6366727826
 31
0.0
 11
11.0467287419
 21
12.6312189437
 31
0.0
  0
SPLINE
  5
348
100
AcDbEntity
  8
0
100
AcDbSpline
 62
9
  6
CONTINUOUS
 70
0
 71
3
 72
22
 73
18
 74
16
 42
0.0000001
 43
0.0000001
 44
0.0000000001
 12
-0.0772554097
 22
-0.0202497633
 32
0.0
 13
-0.0
 23
-0.0798652067
 33
0.0
 40
0.0
 40
0.0
 40
0.0
 40
0.0
 40
0.1406452121
 40
0.2095765557
 40
0.2774040074
 40
0.344026258
 40
0.4093619995
 40
0.4733590511
 40
0.536007478
 40
0.5973646956
 40
0.6575169202
 40
0.716559764
 40
0.7746047892
 40
0.8317867156
 40
0.8882707452
 40
0.9442596149
 40
1.0
 40
1.0
 40
1.0
 40
1.0
 10
11.0473589544
 20
12.6157866104
 30
0.0
 10
11.0437370866
 20
12.6148372663
 30
0.0
 10
11.038419765
 20
12.6130823223
 30
0.0
 10
11.0316619491
 20
12.610095036
 30
0.0
 10
11.0268616556
 20
12.6075810743
 30
0.0
 10
11.0223264181
 20
12.6047945254
 30
0.0
 10
11.0180845917
 20
12.6017499684
 30
0.0
 10
11.0141645666
 20
12.5984625225
 30
0.0
 10
11.0105962774
 20
12.5949449417
 30
0.0
 10
11.0073993141
 20
12.5912204759
 30
0.0
 10
11.0045862985
 20
12.5873156349
 30
0.0
 10
11.002170577
 20
12.5832552524
 30
0.0
 10
11.0001652956
 20
12.5790643949
 30
0.0
 10
10.9985838134
 20
12.574768089
 30
0.0
 10
10.9974396158
 20
12.5703912472
 30
0.0
 10
10.9967463835
 20
12.5659595061
 30
0.0
 10
10.9965939367
 20
12.5629826935
 30
0.0
 10
10.9965939367
 20
12.5614987877
 30
0.0
 11
11.0473589544
 21
12.6157866104
 31
0.0
 11
11.0366956668
 21
12.612255757
 31
0.0
 11
11.0316614089
 21
12.6100278319
 31
0.0
 11
11.0268640716
 21
12.6075118782
 31
0.0
 11
11.0223326525
 21
12.6047231237
 31
0.0
 11
11.0180961492
 21
12.6016767962
 31
0.0
 11
11.0141835592
 21
12.5983881234
 31
0.0
 11
11.0106230465
 21
12.5948728628
 31
0.0
 11
11.0074335402
 21
12.5911526401
 31
0.0
 11
11.0046282208
 21
12.5872527337
 31
0.0
 11
11.0022201819
 21
12.5831984772
 31
0.0
 11
11.0002225172
 21
12.5790152042
 31
0.0
 11
10.9986483202
 21
12.5747282485
 31
0.0
 11
10.9975106846
 21
12.5703629436
 31
0.0
 11
10.9968227039
 21
12.5659446231
 31
0.0
 11
10.9965939367
 21
12.5614987877
 31
0.0
  0
SPLINE
  5
349
100
AcDbEntity
  8
0
100
AcDbSpline
 62
9
  6
CONTINUOUS
 70
0
 71
3
 72
18
 73
14
 74
12
 42
0.0000001
 43
0.0000001
 44
0.0000000001
 12
-0.0396711479
 22
-0.0292565476
 32
0.0
 13
0.0
 23
-0.0492924492
 33
0.0
 40
0.0
 40
0.0
 40
0.0
 40
0.0
 40
0.1356320934
 40
0.2676718639
 40
0.3961557629
 40
0.4591479914
 40
0.5213489983
 40
0.6436140176
 40
0.7636659043
 40
0.8231033514
 40
0.8822443518
 40
0.941178762
 40
1.0
 40
1.0
 40
1.0
 40
1.0
 10
10.9937811409
 20
12.5256547278
 30
0.0
 10
10.9919875806
 20
12.5243320188
 30
0.0
 10
10.9885680579
 20
12.5215530466
 30
0.0
 10
10.983944084
 20
12.5169566842
 30
0.0
 10
10.9805855024
 20
12.5128211121
 30
0.0
 10
10.9782447892
 20
12.5093697189
 30
0.0
 10
10.9761654027
 20
12.5058732673
 30
0.0
 10
10.9740036824
 20
12.5013460675
 30
0.0
 10
10.9724344665
 20
12.4966281594
 30
0.0
 10
10.9715559864
 20
12.49280466
 30
0.0
 10
10.9710851359
 20
12.4899241033
 30
0.0
 10
10.9708016432
 20
12.4870294926
 30
0.0
 10
10.9707383258
 20
12.4850940811
 30
0.0
 10
10.9707383258
 20
12.4841276001
 30
0.0
 11
10.9937811409
 21
12.5256547278
 31
0.0
 11
10.9885979669
 21
12.5214318775
 31
0.0
 11
10.9839889482
 21
12.5168364072
 31
0.0
 11
10.9800051243
 21
12.5119130283
 31
0.0
 11
10.9782636103
 21
12.5093423456
 31
0.0
 11
10.9766974724
 21
12.506706475
 31
0.0
 11
10.974105093
 21
12.5012657773
 31
0.0
 11
10.9722412211
 21
12.4956493211
 31
0.0
 11
10.9715855478
 21
12.4927938137
 31
0.0
 11
10.9711156882
 21
12.489916723
 31
0.0
 11
10.9708328712
 21
12.4870255012
 31
0.0
 11
10.9707383258
 21
12.4841276001
 31
0.0
  0
SPLINE
  5
34A
100
AcDbEntity
  8
0
100
AcDbSpline
 62
9
  6
CONTINUOUS
 70
0
 71
3
 72
65
 73
61
 74
59
 42
0.0000001
 43
0.0000001
 44
0.0000000001
 12
0.0
 22
1.3581177481
 32
0.0
 13
-0.0
 23
-1.3581177481
 33
0.0
 40
0.0
 40
0.0
 40
0.0
 40
0.0
 40
0.0134928287
 40
0.0270168308
 40
0.0405884429
 40
0.0542248152
 40
0.0679469864
 40
0.0817760675
 40
0.095731665
 40
0.1098301545
 40
0.1240856459
 40
0.1385107303
 40
0.1531159194
 40
0.1679096986
 40
0.1828988486
 40
0.1980876071
 40
0.2134780635
 40
0.2290707656
 40
0.2448640017
 40
0.260854126
 40
0.2933954335
 40
0.3099390923
 40
0.3266497126
 40
0.3435162322
 40
0.3605262334
 40
0.3949163443
 40
0.4122737394
 40
0.4297163781
 40
0.4472279801
 40
0.4647916209
 40
0.5
 40
0.5352083791
 40
0.5527720199
 40
0.5702836219
 40
0.5877262606
 40
0.6050836557
 40
0.6394737666
 40
0.6564837678
 40
0.6733502874
 40
0.6900609077
 40
0.7066045665
 40
0.739145874
 40
0.7551359983
 40
0.7709292344
 40
0.7865219365
 40
0.8019123929
 40
0.8171011514
 40
0.8320903014
 40
0.8468840806
 40
0.8614892697
 40
0.8759143541
 40
0.8901698455
 40
0.904268335
 40
0.9182239325
 40
0.9320530136
 40
0.9457751848
 40
0.9594115571
 40
0.9729831692
 40
0.9865071713
 40
1.0
 40
1.0
 40
1.0
 40
1.0
 10
11.9449464813
 20
15.2583126612
 30
0.0
 10
11.9449464813
 20
15.2644209445
 30
0.0
 10
11.9445529996
 20
15.276655211
 30
0.0
 10
11.9427892344
 20
15.2949568658
 30
0.0
 10
11.9398558975
 20
15.3131743819
 30
0.0
 10
11.9357562966
 20
15.3312569983
 30
0.0
 10
11.9305035169
 20
15.3491601447
 30
0.0
 10
11.9241109908
 20
15.366842166
 30
0.0
 10
11.9165920385
 20
15.3842607514
 30
0.0
 10
11.9079672495
 20
15.4013751155
 30
0.0
 10
11.8982579987
 20
15.4181440928
 30
0.0
 10
11.8874853228
 20
15.4345253568
 30
0.0
 10
11.8756774543
 20
15.45048055
 30
0.0
 10
11.8628636088
 20
15.4659720978
 30
0.0
 10
11.849072691
 20
15.4809611351
 30
0.0
 10
11.8343395624
 20
15.4954129542
 30
0.0
 10
11.8187003315
 20
15.5092937139
 30
0.0
 10
11.8021910817
 20
15.5225679846
 30
0.0
 10
11.7848521612
 20
15.535205481
 30
0.0
 10
11.7605466602
 20
15.5512582587
 30
0.0
 10
11.7348769716
 20
15.5658065565
 30
0.0
 10
11.7080694852
 20
15.5788043817
 30
0.0
 10
11.6872464883
 20
15.5878354174
 30
0.0
 10
11.6658709758
 20
15.5960726134
 30
0.0
 10
11.6365999365
 20
15.6060079431
 30
0.0
 10
11.6065381195
 20
15.6142292076
 30
0.0
 10
11.5758902947
 20
15.6207238698
 30
0.0
 10
11.5525448329
 20
15.6247376524
 30
0.0
 10
11.528970877
 20
15.6278689091
 30
0.0
 10
11.4972877164
 20
15.6308619249
 30
0.0
 10
11.4574464813
 20
15.6323572384
 30
0.0
 10
11.4176052462
 20
15.6308619249
 30
0.0
 10
11.3859220856
 20
15.6278689091
 30
0.0
 10
11.3623481297
 20
15.6247376524
 30
0.0
 10
11.3390026679
 20
15.6207238698
 30
0.0
 10
11.3083548431
 20
15.6142292076
 30
0.0
 10
11.2782930261
 20
15.6060079431
 30
0.0
 10
11.2490219868
 20
15.5960726134
 30
0.0
 10
11.2276464743
 20
15.5878354174
 30
0.0
 10
11.2068234774
 20
15.5788043817
 30
0.0
 10
11.180015991
 20
15.5658065565
 30
0.0
 10
11.1543463024
 20
15.5512582587
 30
0.0
 10
11.1300408014
 20
15.535205481
 30
0.0
 10
11.1127018809
 20
15.5225679846
 30
0.0
 10
11.0961926311
 20
15.5092937139
 30
0.0
 10
11.0805534002
 20
15.4954129542
 30
0.0
 10
11.0658202716
 20
15.4809611351
 30
0.0
 10
11.0520293538
 20
15.4659720978
 30
0.0
 10
11.0392155083
 20
15.45048055
 30
0.0
 10
11.0274076398
 20
15.4345253568
 30
0.0
 10
11.0166349639
 20
15.4181440928
 30
0.0
 10
11.0069257131
 20
15.4013751155
 30
0.0
 10
10.9983009241
 20
15.3842607514
 30
0.0
 10
10.9907819718
 20
15.366842166
 30
0.0
 10
10.9843894457
 20
15.3491601447
 30
0.0
 10
10.979136666
 20
15.3312569983
 30
0.0
 10
10.9750370651
 20
15.3131743819
 30
0.0
 10
10.9721037282
 20
15.2949568658
 30
0.0
 10
10.970339963
 20
15.276655211
 30
0.0
 10
10.9699464813
 20
15.2644209445
 30
0.0
 10
10.9699464813
 20
15.2583126612
 30
0.0
 11
11.9449464813
 21
15.2583126612
 31
0.0
 11
11.9443587709
 21
15.2766280844
 31
0.0
 11
11.9425985152
 21
15.2949107283
 31
0.0
 11
11.9396700271
 21
15.3131084466
 31
0.0
 11
11.9355788477
 21
15.3311707061
 31
0.0
 11
11.9303361859
 21
15.3490544159
 31
0.0
 11
11.9239548842
 21
15.3667186311
 31
0.0
 11
11.9164488029
 21
15.3841223094
 31
0.0
 11
11.9078372265
 21
15.4012238888
 31
0.0
 11
11.8981412393
 21
15.4179816348
 31
0.0
 11
11.8873827427
 21
15.4343541908
 31
0.0
 11
11.8755886722
 21
15.4503025323
 31
0.0
 11
11.8627878813
 21
15.4657885237
 31
0.0
 11
11.8490098579
 21
15.4807743426
 31
0.0
 11
11.8342886071
 21
15.4952244017
 31
0.0
 11
11.8186601055
 21
15.5091040889
 31
0.0
 11
11.802160804
 21
15.5223791312
 31
0.0
 11
11.7848310531
 21
15.5350180602
 31
0.0
 11
11.7667131469
 21
15.5469908047
 31
0.0
 11
11.7282866166
 21
15.568821823
 31
0.0
 11
11.7080715021
 21
15.5786284944
 31
0.0
 11
11.6872522758
 21
15.5876630053
 31
0.0
 11
11.6658793133
 21
15.5959040172
 31
0.0
 11
11.6440045873
 21
15.6033323125
 31
0.0
 11
11.598960072
 21
15.615678375
 31
0.0
 11
11.5758992594
 21
15.6205674921
 31
0.0
 11
11.5525529947
 21
15.6245834718
 31
0.0
 11
11.5289774912
 21
15.6277168477
 31
0.0
 11
11.5052297942
 21
15.6299609459
 31
0.0
 11
11.4574464813
 21
15.6317588373
 31
0.0
 11
11.4096631684
 21
15.6299609459
 31
0.0
 11
11.3859154714
 21
15.6277168477
 31
0.0
 11
11.3623399679
 21
15.6245834718
 31
0.0
 11
11.3389937032
 21
15.6205674921
 31
0.0
 11
11.3159328906
 21
15.615678375
 31
0.0
 11
11.2708883753
 21
15.6033323125
 31
0.0
 11
11.2490136493
 21
15.5959040172
 31
0.0
 11
11.2276406868
 21
15.5876630053
 31
0.0
 11
11.2068214605
 21
15.5786284944
 31
0.0
 11
11.186606346
 21
15.568821823
 31
0.0
 11
11.1481798157
 21
15.5469908047
 31
0.0
 11
11.1300619094
 21
15.5350180602
 31
0.0
 11
11.1127321586
 21
15.5223791312
 31
0.0
 11
11.0962328571
 21
15.5091040889
 31
0.0
 11
11.0806043555
 21
15.4952244017
 31
0.0
 11
11.0658831047
 21
15.4807743426
 31
0.0
 11
11.0521050813
 21
15.4657885237
 31
0.0
 11
11.0393042904
 21
15.4503025323
 31
0.0
 11
11.0275102199
 21
15.4343541908
 31
0.0
 11
11.0167517233
 21
15.4179816348
 31
0.0
 11
11.0070557361
 21
15.4012238888
 31
0.0
 11
10.9984441597
 21
15.3841223094
 31
0.0
 11
10.9909380784
 21
15.3667186311
 31
0.0
 11
10.9845567767
 21
15.3490544159
 31
0.0
 11
10.9793141149
 21
15.3311707061
 31
0.0
 11
10.9752229355
 21
15.3131084466
 31
0.0
 11
10.9722944474
 21
15.2949107283
 31
0.0
 11
10.9705341917
 21
15.2766280844
 31
0.0
 11
10.9699464813
 21
15.2583126612
 31
0.0
  0
SPLINE
  5
34B
100
AcDbEntity
  8
0
100
AcDbSpline
 62
9
  6
CONTINUOUS
 70
0
 71
3
 72
16
 73
12
 74
10
 42
0.0000001
 43
0.0000001
 44
0.0000000001
 12
-0.001770888
 22
0.0941885205
 32
0.0
 13
0.0545561905
 23
0.0767999709
 33
0.0
 40
0.0
 40
0.0
 40
0.0
 40
0.0
 40
0.0589567616
 40
0.1179699363
 40
0.2365247475
 40
0.3564510755
 40
0.47846742
 40
0.603243865
 40
0.7313958394
 40
0.8634811754
 40
1.0
 40
1.0
 40
1.0
 40
1.0
 10
10.4627496704
 20
10.2413453049
 30
0.0
 10
10.4627148685
 20
10.2431963216
 30
0.0
 10
10.4627277193
 20
10.2469022798
 30
0.0
 10
10.4630848869
 20
10.2543228982
 30
0.0
 10
10.4641570262
 20
10.2636163783
 30
0.0
 10
10.4664311734
 20
10.2747196517
 30
0.0
 10
10.4696885069
 20
10.2857787941
 30
0.0
 10
10.4739225203
 20
10.2967781561
 30
0.0
 10
10.4791268389
 20
10.307703466
 30
0.0
 10
10.4852947707
 20
10.3185398589
 30
0.0
 10
10.4899638331
 20
10.3255730456
 30
0.0
 10
10.4924464821
 20
10.3290679262
 30
0.0
 11
10.4627496704
 21
10.2413453049
 31
0.0
 11
10.4627689965
 21
10.2468993029
 31
0.0
 11
10.4630360406
 21
10.2524522314
 31
0.0
 11
10.4643114748
 21
10.2635476412
 31
0.0
 11
10.4665710012
 21
10.2746170633
 31
0.0
 11
10.469809376
 21
10.2856460284
 31
0.0
 11
10.4740213553
 21
10.2966200668
 31
0.0
 11
10.4792016953
 21
10.3075247089
 31
0.0
 11
10.4853451522
 21
10.3183454852
 31
0.0
 11
10.4924464821
 21
10.3290679262
 31
0.0
  0
SPLINE
  5
34C
100
AcDbEntity
  8
0
100
AcDbSpline
 62
9
  6
CONTINUOUS
 70
0
 71
3
 72
44
 73
40
 74
38
 42
0.0000001
 43
0.0000001
 44
0.0000000001
 12
0.0550279003
 22
0.8720759905
 32
0.0
 13
-0.8735104691
 23
0.0228924316
 33
0.0
 40
0.0
 40
0.0
 40
0.0
 40
0.0
 40
0.0105035959
 40
0.0210016119
 40
0.0315125372
 40
0.0420545123
 40
0.0526451803
 40
0.0633016202
 40
0.084871462
 40
0.1068933591
 40
0.1294792783
 40
0.1527294059
 40
0.176732448
 40
0.1890429599
 40
0.2015696584
 40
0.2143187564
 40
0.2272952154
 40
0.2539429186
 40
0.2815397366
 40
0.3100988202
 40
0.339624631
 40
0.3701145224
 40
0.4015600818
 40
0.4339473173
 40
0.4672471466
 40
0.5014184918
 40
0.5364156311
 40
0.5721892256
 40
0.6086870894
 40
0.6458548408
 40
0.6836364604
 40
0.721973762
 40
0.7608006365
 40
0.8000464301
 40
0.8396389334
 40
0.8795048052
 40
0.9195699501
 40
0.9597598702
 40
1.0
 40
1.0
 40
1.0
 40
1.0
 10
22.1586077911
 20
11.5804663343
 30
0.0
 10
22.1588004547
 20
11.5835196455
 30
0.0
 10
22.1590387202
 20
11.5896349764
 30
0.0
 10
22.1589498427
 20
11.5988166483
 30
0.0
 10
22.1584154841
 20
11.607994571
 30
0.0
 10
22.1574381409
 20
11.6171629119
 30
0.0
 10
22.1560198768
 20
11.6263164798
 30
0.0
 10
22.1535346044
 20
11.6385415027
 30
0.0
 10
22.1493131876
 20
11.6537926756
 30
0.0
 10
22.1425366089
 20
11.6718628051
 30
0.0
 10
22.1340476384
 20
11.6897370451
 30
0.0
 10
22.123866141
 20
11.7073710259
 30
0.0
 10
22.1140694466
 20
11.7217098411
 30
0.0
 10
22.1054312002
 20
11.7330154063
 30
0.0
 10
22.0984860615
 20
11.7414810685
 30
0.0
 10
22.0911356317
 20
11.7498568679
 30
0.0
 10
22.0807109702
 20
11.7609969159
 30
0.0
 10
22.066674506
 20
11.7746654152
 30
0.0
 10
22.0484586477
 20
11.7904904386
 30
0.0
 10
22.028771985
 20
11.8058465221
 30
0.0
 10
22.0076639054
 20
11.8206974763
 30
0.0
 10
21.9851830346
 20
11.8350073547
 30
0.0
 10
21.9613787333
 20
11.8487403557
 30
0.0
 10
21.9363023724
 20
11.8618565162
 30
0.0
 10
21.9100191841
 20
11.8743294494
 30
0.0
 10
21.8826015134
 20
11.8861372591
 30
0.0
 10
21.854122554
 20
11.8972552895
 30
0.0
 10
21.8246558438
 20
11.9076592962
 30
0.0
 10
21.7942749151
 20
11.9173248789
 30
0.0
 10
21.7630533513
 20
11.9262275349
 30
0.0
 10
21.7310651269
 20
11.9343430772
 30
0.0
 10
21.6983863297
 20
11.9416452202
 30
0.0
 10
21.6651000772
 20
11.9481240168
 30
0.0
 10
21.6312922326
 20
11.9537716191
 30
0.0
 10
21.5970492735
 20
11.9585792756
 30
0.0
 10
21.5624577647
 20
11.9625384331
 30
0.0
 10
21.5276041798
 20
11.965640487
 30
0.0
 10
21.4925753755
 20
11.967876841
 30
0.0
 10
21.4691632062
 20
11.9687848961
 30
0.0
 10
21.4574464813
 20
11.9690919609
 30
0.0
 11
22.1586077911
 21
11.5804663343
 31
0.0
 11
22.1589643694
 21
11.5896375562
 31
0.0
 11
22.1588758296
 21
11.5988104044
 31
0.0
 11
22.1583428064
 21
11.6079794802
 31
0.0
 11
22.1573674471
 21
11.6171393852
 31
0.0
 11
22.1559519187
 21
11.6262847206
 31
0.0
 11
22.154098388
 21
11.6354100879
 31
0.0
 11
22.1490859882
 21
11.653579324
 31
0.0
 11
22.1423475836
 21
11.6716039047
 31
0.0
 11
22.13390051
 21
11.6894406415
 31
0.0
 11
22.1237621032
 21
11.7070463457
 31
0.0
 11
22.1119496993
 21
11.7243778287
 31
0.0
 11
22.1054211658
 21
11.7329272408
 31
0.0
 11
22.0984813496
 21
11.7413920489
 31
0.0
 11
22.0911357963
 21
11.7497675491
 31
0.0
 11
22.0833906709
 21
11.7580491646
 31
0.0
 11
22.066726364
 21
11.7743124349
 31
0.0
 11
22.048537749
 21
11.7901452462
 31
0.0
 11
22.028874146
 21
11.805510985
 31
0.0
 11
22.0077848753
 21
11.8203730378
 31
0.0
 11
21.9853192568
 21
11.8346947908
 31
0.0
 11
21.9615266108
 21
11.8484396307
 31
0.0
 11
21.9364575176
 21
11.8615715656
 31
0.0
 11
21.9101767897
 21
11.8740616269
 31
0.0
 11
21.8827582263
 21
11.8858852804
 31
0.0
 11
21.854275768
 21
11.8970180616
 31
0.0
 11
21.8248033555
 21
11.9074355063
 31
0.0
 11
21.7944149294
 21
11.9171131499
 31
0.0
 11
21.7631844302
 21
11.9260265281
 31
0.0
 11
21.7311857985
 21
11.9341511765
 31
0.0
 11
21.6984942307
 21
11.941464184
 31
0.0
 11
21.6651931665
 21
11.9479528359
 31
0.0
 11
21.6313693703
 21
11.9536085303
 31
0.0
 11
21.5971096154
 21
11.9584226762
 31
0.0
 11
21.5625006756
 21
11.962386683
 31
0.0
 11
21.5276293242
 21
11.9654919598
 31
0.0
 11
21.492582335
 21
11.9677299161
 31
0.0
 11
21.4574464813
 21
11.9690919609
 31
0.0
  0
SPLINE
  5
34D
100
AcDbEntity
  8
0
100
AcDbSpline
 62
6
  6
CONTINUOUS
 70
0
 71
3
 72
67
 73
63
 74
61
 42
0.0000001
 43
0.0000001
 44
0.0000000001
 12
-0.3599386416
 22
1.1203908092
 32
0.0
 13
-0.3598826671
 23
-1.1204087901
 33
0.0
 40
0.0
 40
0.0
 40
0.0
 40
0.0
 40
0.0134906435
 40
0.0270822738
 40
0.0407871063
 40
0.0546155609
 40
0.0685771067
 40
0.0826803078
 40
0.096932388
 40
0.1113393793
 40
0.1259063476
 40
0.1406370401
 40
0.1555335933
 40
0.1705971337
 40
0.1858278957
 40
0.2012246633
 40
0.2167850325
 40
0.2325058365
 40
0.2483830047
 40
0.2644111437
 40
0.2805840915
 40
0.296895125
 40
0.3133365986
 40
0.3298999618
 40
0.3465761967
 40
0.3633558531
 40
0.3802287
 40
0.3971840224
 40
0.4142108515
 40
0.4312978891
 40
0.4656009675
 40
0.5000018051
 40
0.534402619
 40
0.5687056275
 40
0.5857926129
 40
0.6028193787
 40
0.6197746273
 40
0.63664739
 40
0.653426952
 40
0.6701030832
 40
0.6866663338
 40
0.7031076864
 40
0.7194185909
 40
0.7355914031
 40
0.7516194002
 40
0.7674964209
 40
0.7832170729
 40
0.7987772867
 40
0.8141738962
 40
0.8294044982
 40
0.8444678783
 40
0.8593642717
 40
0.8740948061
 40
0.888661619
 40
0.9030684592
 40
0.9173203937
 40
0.9314234552
 40
0.9453848692
 40
0.9592132006
 40
0.9729179195
 40
0.9865094467
 40
1.0
 40
1.0
 40
1.0
 40
1.0
 10
11.9308218249
 20
15.2156596649
 30
0.0
 10
11.9292032236
 20
15.2206979292
 30
0.0
 10
11.925688779
 20
15.2307291005
 30
0.0
 10
11.9196260612
 20
15.2455423188
 30
0.0
 10
11.9127649633
 20
15.2601498851
 30
0.0
 10
11.9051187614
 20
15.2745264551
 30
0.0
 10
11.8967001614
 20
15.2886468958
 30
0.0
 10
11.8875223021
 20
15.3024856509
 30
0.0
 10
11.8776027267
 20
15.31601977
 30
0.0
 10
11.8669590123
 20
15.3292263534
 30
0.0
 10
11.8556085113
 20
15.3420819695
 30
0.0
 10
11.8435706673
 20
15.3545642602
 30
0.0
 10
11.8308675207
 20
15.3666528503
 30
0.0
 10
11.8175208234
 20
15.378326854
 30
0.0
 10
11.8035524742
 20
15.3895648772
 30
0.0
 10
11.7889873951
 20
15.4003484619
 30
0.0
 10
11.773851235
 20
15.4106597487
 30
0.0
 10
11.7581695399
 20
15.4204803396
 30
0.0
 10
11.7419688386
 20
15.4297924577
 30
0.0
 10
11.7252779689
 20
15.4385815225
 30
0.0
 10
11.7081257241
 20
15.4468325389
 30
0.0
 10
11.6905409903
 20
15.4545299835
 30
0.0
 10
11.6725542962
 20
15.4616609744
 30
0.0
 10
11.6541971096
 20
15.4682143234
 30
0.0
 10
11.6355008544
 20
15.4741783389
 30
0.0
 10
11.6164973326
 20
15.4795413814
 30
0.0
 10
11.5972197292
 20
15.4842956325
 30
0.0
 10
11.5777014276
 20
15.4884333072
 30
0.0
 10
11.557975539
 20
15.49194623
 30
0.0
 10
11.5314113662
 20
15.4957930592
 30
0.0
 10
11.497887344
 20
15.4990069102
 30
0.0
 10
11.4574367764
 20
15.5002910613
 30
0.0
 10
11.4169862753
 20
15.4990056775
 30
0.0
 10
11.3834624084
 20
15.4957908045
 30
0.0
 10
11.3568984265
 20
15.4919431644
 30
0.0
 10
11.3371727205
 20
15.4884296387
 30
0.0
 10
11.3176546338
 20
15.4842913692
 30
0.0
 10
11.2983772772
 20
15.4795365309
 30
0.0
 10
11.2793740341
 20
15.4741729081
 30
0.0
 10
11.2606780889
 20
15.4682083218
 30
0.0
 10
11.2423212424
 20
15.4616544135
 30
0.0
 10
11.2243349185
 20
15.4545228745
 30
0.0
 10
11.2067505851
 20
15.4468248923
 30
0.0
 10
11.1895987687
 20
15.4385733528
 30
0.0
 10
11.1729083551
 20
15.4297837794
 30
0.0
 10
11.1567081375
 20
15.4204711669
 30
0.0
 10
11.1410269532
 20
15.4106500965
 30
0.0
 10
11.1258913282
 20
15.4003383483
 30
0.0
 10
11.1113268088
 20
15.3895543196
 30
0.0
 10
11.0973590441
 20
15.378315869
 30
0.0
 10
11.0840129533
 20
15.3666414577
 30
0.0
 10
11.0713104341
 20
15.3545524801
 30
0.0
 10
11.0592732384
 20
15.3420698219
 30
0.0
 10
11.0479234063
 20
15.3292138581
 30
0.0
 10
11.0372803777
 20
15.3160069497
 30
0.0
 10
11.0273615048
 20
15.3024725276
 30
0.0
 10
11.0181843653
 20
15.2886334913
 30
0.0
 10
11.0097665
 20
15.2745127926
 30
0.0
 10
11.0021210445
 20
15.2601359892
 30
0.0
 10
10.9952607053
 20
15.2455282137
 30
0.0
 10
10.989198759
 20
15.2307148096
 30
0.0
 10
10.9856848375
 20
15.2206835353
 30
0.0
 10
10.9840664987
 20
15.2156452238
 30
0.0
 11
11.9308218249
 21
15.2156596649
 31
0.0
 11
11.9255750488
 21
15.2306432272
 31
0.0
 11
11.9195197675
 21
15.2454471731
 31
0.0
 11
11.9126666645
 21
15.2600463984
 31
0.0
 11
11.905028474
 21
15.2744156027
 31
0.0
 11
11.8966179814
 21
15.2885294804
 31
0.0
 11
11.8874487708
 21
15.3023630962
 31
0.0
 11
11.8775375679
 21
15.3158929703
 31
0.0
 11
11.8669018703
 21
15.3290959803
 31
0.0
 11
11.8555592235
 21
15.3419490278
 31
0.0
 11
11.8435289794
 21
15.3544299077
 31
0.0
 11
11.8308328054
 21
15.3665175607
 31
0.0
 11
11.8174925207
 21
15.3781910024
 31
0.0
 11
11.8035302769
 21
15.3894294874
 31
0.0
 11
11.7889706494
 21
15.4002140136
 31
0.0
 11
11.7738392866
 21
15.4105263502
 31
0.0
 11
11.7581618465
 21
15.4203482744
 31
0.0
 11
11.7419649163
 21
15.4296624539
 31
0.0
 11
11.7252771359
 21
15.4384535224
 31
0.0
 11
11.7081274197
 21
15.4467063769
 31
0.0
 11
11.6905447774
 21
15.4544060408
 31
0.0
 11
11.6725596321
 21
15.461539414
 31
0.0
 11
11.654203486
 21
15.4680948293
 31
0.0
 11
11.6355078686
 21
15.4740606556
 31
0.0
 11
11.6165046301
 21
15.4794258877
 31
0.0
 11
11.5972268945
 21
15.4841820063
 31
0.0
 11
11.5777081023
 21
15.4883211097
 31
0.0
 11
11.5579817065
 21
15.491835338
 31
0.0
 11
11.5380816437
 21
15.4947184553
 31
0.0
 11
11.4978988098
 21
15.4985749566
 31
0.0
 11
11.4574367737
 21
15.4998623993
 31
0.0
 11
11.4169748046
 21
15.498573722
 31
0.0
 11
11.3767921711
 21
15.4947159952
 31
0.0
 11
11.3568922582
 21
15.4918322708
 31
0.0
 11
11.3371660453
 21
15.48831744
 31
0.0
 11
11.3176474681
 21
15.4841777414
 31
0.0
 11
11.2983699797
 21
15.4794210351
 31
0.0
 11
11.2793670204
 21
15.4740552229
 31
0.0
 11
11.2606717133
 21
15.4680888259
 31
0.0
 11
11.2423159077
 21
15.461532851
 31
0.0
 11
11.2243311331
 21
15.4543989294
 31
0.0
 11
11.2067488917
 21
15.4466987284
 31
0.0
 11
11.1895996044
 21
15.4384453509
 31
0.0
 11
11.1729122806
 21
15.4296537736
 31
0.0
 11
11.1567158348
 21
15.4203391
 31
0.0
 11
11.1410389059
 21
15.410516697
 31
0.0
 11
11.1259080789
 21
15.400203899
 31
0.0
 11
11.1113490117
 21
15.3894189289
 31
0.0
 11
11.0973873528
 21
15.3781800175
 31
0.0
 11
11.084047675
 21
15.3665061688
 31
0.0
 11
11.0713521289
 21
15.3544181288
 31
0.0
 11
11.0593225336
 21
15.341936882
 31
0.0
 11
11.0479805558
 21
15.3290834881
 31
0.0
 11
11.0373455444
 21
15.3158801537
 31
0.0
 11
11.0274350444
 21
15.3023499774
 31
0.0
 11
11.0182665534
 21
15.2885160815
 31
0.0
 11
11.0098567949
 21
15.274401947
 31
0.0
 11
11.002219351
 21
15.2600325101
 31
0.0
 11
10.9953670066
 21
15.2454330764
 31
0.0
 11
10.9893124959
 21
15.2306289463
 31
0.0
 11
10.9840664987
 21
15.2156452238
 31
0.0
  0
SPLINE
  5
34E
100
AcDbEntity
  8
0
100
AcDbSpline
 62
6
  6
CONTINUOUS
 70
0
 71
3
 72
57
 73
53
 74
51
 42
0.0000001
 43
0.0000001
 44
0.0000000001
 12
-0.1382421053
 22
1.2617840588
 32
0.0
 13
-0.0451112104
 23
-1.2685325654
 33
0.0
 40
0.0
 40
0.0
 40
0.0
 40
0.0
 40
0.0134865032
 40
0.0270287935
 40
0.0406477151
 40
0.054363084
 40
0.0681921302
 40
0.082150533
 40
0.0962526138
 40
0.1105111289
 40
0.1249371197
 40
0.1395395137
 40
0.1692911433
 40
0.199811168
 40
0.2311055593
 40
0.2631531594
 40
0.2959082411
 40
0.3125342015
 40
0.3293101046
 40
0.3462247743
 40
0.3632658924
 40
0.3976684394
 40
0.4324109731
 40
0.4673716674
 40
0.5024232184
 40
0.5374360597
 40
0.5548905552
 40
0.5722874374
 40
0.5896112686
 40
0.6068471857
 40
0.6409921189
 40
0.6746219233
 40
0.7076442026
 40
0.7399837423
 40
0.7558833035
 40
0.7715935664
 40
0.7871112572
 40
0.8024349882
 40
0.8175648353
 40
0.8325028499
 40
0.8472528234
 40
0.8618203762
 40
0.8762131247
 40
0.8904403645
 40
0.904513531
 40
0.918445671
 40
0.9322514038
 40
0.9459466386
 40
0.959549087
 40
0.973078926
 40
0.9865568511
 40
1.0
 40
1.0
 40
1.0
 40
1.0
 10
11.9257986709
 20
14.6953357439
 30
0.0
 10
11.9251772033
 20
14.7010080955
 30
0.0
 10
11.9235808077
 20
14.7123409069
 30
0.0
 10
11.9201431651
 20
14.7292026488
 30
0.0
 10
11.9156675484
 20
14.7459198213
 30
0.0
 10
11.9101629575
 20
14.762454466
 30
0.0
 10
11.9036435191
 20
14.778770459
 30
0.0
 10
11.8961226353
 20
14.794830278
 30
0.0
 10
11.8876181298
 20
14.8105980462
 30
0.0
 10
11.8781495057
 20
14.8260385021
 30
0.0
 10
11.8677371629
 20
14.8411170315
 30
0.0
 10
11.8525371106
 20
14.8608142484
 30
0.0
 10
11.8312485014
 20
14.8843551077
 30
0.0
 10
11.8025294873
 20
14.9104442501
 30
0.0
 10
11.7707311806
 20
14.9343291546
 30
0.0
 10
11.7361423892
 20
14.9557973411
 30
0.0
 10
11.7053978067
 20
14.9714422383
 30
0.0
 10
11.6797202689
 20
14.9826018886
 30
0.0
 10
11.6598664781
 20
14.9903037385
 30
0.0
 10
11.6395594669
 20
14.9972763851
 30
0.0
 10
11.6118559089
 20
15.0056075454
 30
0.0
 10
11.5763532035
 20
15.0140994914
 30
0.0
 10
11.5328318382
 20
15.021139744
 30
0.0
 10
11.4886375355
 20
15.0250016153
 30
0.0
 10
11.4441671209
 20
15.0256506858
 30
0.0
 10
11.4071632528
 20
15.0235070964
 30
0.0
 10
11.3777848129
 20
15.0201839207
 30
0.0
 10
11.3559493829
 20
15.0168993922
 30
0.0
 10
11.3343411861
 20
15.0128263663
 30
0.0
 10
11.305989808
 20
15.0063790915
 30
0.0
 10
11.2713852169
 20
14.9964283394
 30
0.0
 10
11.2313919587
 20
14.9814906511
 30
0.0
 10
11.1934122197
 20
14.9637240502
 30
0.0
 10
11.1635494057
 20
14.946591358
 30
0.0
 10
11.1410086706
 20
14.931610122
 30
0.0
 10
11.1249045708
 20
14.9198393914
 30
0.0
 10
11.1095457986
 20
14.9074969103
 30
0.0
 10
11.094965514
 20
14.8946112452
 30
0.0
 10
11.0811973079
 20
14.881210224
 30
0.0
 10
11.0682717539
 20
14.8673241833
 30
0.0
 10
11.0562177506
 20
14.8529842048
 30
0.0
 10
11.0450632511
 20
14.8382216978
 30
0.0
 10
11.0348321936
 20
14.8230705964
 30
0.0
 10
11.0255491306
 20
14.8075637612
 30
0.0
 10
11.0172338314
 20
14.7917366651
 30
0.0
 10
11.0099060609
 20
14.775624223
 30
0.0
 10
11.0035823952
 20
14.7592629437
 30
0.0
 10
10.9982764105
 20
14.7426900146
 30
0.0
 10
10.9940015574
 20
14.7259419533
 30
0.0
 10
10.9907662064
 20
14.7090556647
 30
0.0
 10
10.9885797926
 20
14.6920703131
 30
0.0
 10
10.9878228373
 20
14.6806963175
 30
0.0
 10
10.9876206917
 20
14.6750119602
 30
0.0
 11
11.9257986709
 21
14.6953357439
 31
0.0
 11
11.9234124452
 21
14.7122875013
 31
0.0
 11
11.9199813893
 21
14.7291312977
 31
0.0
 11
11.9155136662
 21
14.7458309578
 31
0.0
 11
11.9100186338
 21
14.762350385
 31
0.0
 11
11.9035092847
 21
14.7786525386
 31
0.0
 11
11.8959996955
 21
14.7947002607
 31
0.0
 11
11.8875069611
 21
14.8104575654
 31
0.0
 11
11.8780501756
 21
14.8258892421
 31
0.0
 11
11.8676501948
 21
14.8409606726
 31
0.0
 11
11.8563308722
 21
14.8556382432
 31
0.0
 11
11.8310364214
 21
14.8836805047
 31
0.0
 11
11.8023936132
 21
14.9097647201
 31
0.0
 11
11.7706592116
 21
14.9336571524
 31
0.0
 11
11.7361176414
 21
14.9551436809
 31
0.0
 11
11.6990784551
 21
14.974031728
 31
0.0
 11
11.6797251112
 21
14.9824473586
 31
0.0
 11
11.6598735788
 21
14.9901519647
 31
0.0
 11
11.6395680616
 21
14.9971278424
 31
0.0
 11
11.6188543696
 21
15.0033598439
 31
0.0
 11
11.5763885139
 21
15.0135370134
 31
0.0
 11
11.5328566484
 21
15.0205923206
 31
0.0
 11
11.488648926
 21
15.0244625656
 31
0.0
 11
11.444161541
 21
15.0251130595
 31
0.0
 11
11.399793203
 21
15.0225379338
 31
0.0
 11
11.3777781188
 21
15.0200466835
 31
0.0
 11
11.3559415869
 21
15.0167601991
 31
0.0
 11
11.3343327024
 21
15.0126853283
 31
0.0
 11
11.3129997529
 21
15.0078316284
 31
0.0
 11
11.2713525654
 21
14.9958323175
 31
0.0
 11
11.2313732628
 21
14.9808698531
 31
0.0
 11
11.1934201386
 21
14.9630783409
 31
0.0
 11
11.1578333525
 21
14.9426172118
 31
0.0
 11
11.1410280353
 21
14.9314418459
 31
0.0
 11
11.124931901
 21
14.9196698038
 31
0.0
 11
11.1095814986
 21
14.9073270958
 31
0.0
 11
11.0950107384
 21
14.8944417559
 31
0.0
 11
11.0812526993
 21
14.8810424246
 31
0.0
 11
11.0683380035
 21
14.8671592368
 31
0.0
 11
11.0562955626
 21
14.8528233654
 31
0.0
 11
11.0451526914
 21
14.8380667714
 31
0.0
 11
11.0349338474
 21
14.8229228187
 31
0.0
 11
11.0256625647
 21
14.8074252278
 31
0.0
 11
11.0173590597
 21
14.7916088314
 31
0.0
 11
11.0100423075
 21
14.7755088852
 31
0.0
 11
11.0037286412
 21
14.7591616709
 31
0.0
 11
10.9984319691
 21
14.7426044091
 31
0.0
 11
10.9941646912
 21
14.7258739868
 31
0.0
 11
10.9909357031
 21
14.7090063803
 31
0.0
 11
10.9887529033
 21
14.6920382085
 31
0.0
 11
10.9876206917
 21
14.6750119602
 31
0.0
  0
SPLINE
  5
34F
100
AcDbEntity
  8
0
100
AcDbSpline
 62
9
  6
CONTINUOUS
 70
0
 71
3
 72
14
 73
10
 74
8
 42
0.0000001
 43
0.0000001
 44
0.0000000001
 12
-0.0000001695
 22
0.035600412
 32
0.0
 13
-0.0236426487
 23
0.0266160571
 33
0.0
 40
0.0
 40
0.0
 40
0.0
 40
0.0
 40
0.1206101138
 40
0.2416468044
 40
0.3635436822
 40
0.4867480969
 40
0.6117106565
 40
0.7387900556
 40
1.0
 40
1.0
 40
1.0
 40
1.0
 10
11.9474177355
 20
14.5655842469
 30
0.0
 10
11.9474177287
 20
14.5670155035
 30
0.0
 10
11.9472798987
 20
14.5698849756
 30
0.0
 10
11.9466600579
 20
14.5741606661
 30
0.0
 10
11.9456269854
 20
14.5783878617
 30
0.0
 10
11.9441806822
 20
14.5825412867
 30
0.0
 10
11.9423220541
 20
14.5865952738
 30
0.0
 10
11.9392936623
 20
14.5918864204
 30
0.0
 10
11.9364902419
 20
14.5955778836
 30
0.0
 10
11.9344316769
 20
14.5978953432
 30
0.0
 11
11.9474177355
 21
14.5655842469
 31
0.0
 11
11.9472118395
 21
14.5698730772
 31
0.0
 11
11.9465941925
 21
14.5741375366
 31
0.0
 11
11.9455647944
 21
14.5783532556
 31
0.0
 11
11.9441236453
 21
14.5824958643
 31
0.0
 11
11.9422738467
 21
14.5865417687
 31
0.0
 11
11.9400302064
 21
14.5904703014
 31
0.0
 11
11.9344316769
 21
14.5978953432
 31
0.0
  0
SPLINE
  5
350
100
AcDbEntity
  8
0
100
AcDbSpline
 62
9
  6
CONTINUOUS
 70
0
 71
3
 72
20
 73
16
 74
14
 42
0.0000001
 43
0.0000001
 44
0.0000000001
 12
-0.0000002975
 22
0.0664666471
 32
0.0
 13
-0.0609140068
 23
0.0265950928
 33
0.0
 40
0.0
 40
0.0
 40
0.0
 40
0.0
 40
0.0570069972
 40
0.1142114166
 40
0.1717758964
 40
0.2298455671
 40
0.2885508907
 40
0.3480107209
 40
0.4695417513
 40
0.5319069687
 40
0.5954110299
 40
0.6600785269
 40
0.7259065285
 40
0.8608682452
 40
1.0
 40
1.0
 40
1.0
 40
1.0
 10
11.9344059021
 20
14.6445724614
 30
0.0
 10
11.9344058965
 20
14.6458354827
 30
0.0
 10
11.9342947548
 20
14.6483672409
 30
0.0
 10
11.9338007007
 20
14.6521452371
 30
0.0
 10
11.9329848328
 20
14.6558912854
 30
0.0
 10
11.9318528221
 20
14.6595886943
 30
0.0
 10
11.9304100324
 20
14.6632216643
 30
0.0
 10
11.9280636777
 20
14.6679905898
 30
0.0
 10
11.9251196623
 20
14.6725375446
 30
0.0
 10
11.9216440051
 20
14.6767805176
 30
0.0
 10
11.9187385523
 20
14.6798481713
 30
0.0
 10
11.9155746137
 20
14.6827621233
 30
0.0
 10
11.9109952393
 20
14.6864582915
 30
0.0
 10
11.9046985109
 20
14.6906251896
 30
0.0
 10
11.8992634176
 20
14.6933677967
 30
0.0
 10
11.8964383934
 20
14.694601204
 30
0.0
 11
11.9344059021
 21
14.6445724614
 31
0.0
 11
11.9342407976
 21
14.6483579265
 31
0.0
 11
11.9337491522
 21
14.6521281921
 31
0.0
 11
11.9329364171
 21
14.6558669941
 31
0.0
 11
11.9318080436
 21
14.6595580683
 31
0.0
 11
11.930369483
 21
14.6631851507
 31
0.0
 11
11.9286261866
 21
14.666731977
 31
0.0
 11
11.9242471914
 21
14.673519805
 31
0.0
 11
11.921622922
 21
14.6767285354
 31
0.0
 11
11.9187229346
 21
14.6797954698
 31
0.0
 11
11.9155633562
 21
14.6827095494
 31
0.0
 11
11.9121603808
 21
14.6854597478
 31
0.0
 11
11.904689016
 21
14.6904243959
 31
0.0
 11
11.8964383934
 21
14.694601204
 31
0.0
  0
SPLINE
  5
351
100
AcDbEntity
  8
0
100
AcDbSpline
 62
9
  6
CONTINUOUS
 70
0
 71
3
 72
23
 73
19
 74
17
 42
0.0000001
 43
0.0000001
 44
0.0000000001
 12
-0.0000005128
 22
0.0904477707
 32
0.0
 13
-0.0895207359
 23
0.0129165424
 33
0.0
 40
0.0
 40
0.0
 40
0.0
 40
0.0
 40
0.054933009
 40
0.1101300744
 40
0.1379332367
 40
0.1659167386
 40
0.2225302038
 40
0.2801992243
 40
0.3390710088
 40
0.3992468984
 40
0.4607954846
 40
0.5237648435
 40
0.5881881755
 40
0.6540350302
 40
0.7212061156
 40
0.7895639493
 40
0.8589464342
 40
1.0
 40
1.0
 40
1.0
 40
1.0
 10
11.8960938345
 20
14.7188137495
 30
0.0
 10
11.8960938251
 20
14.7204699389
 30
0.0
 10
11.8959078281
 20
14.7237931229
 30
0.0
 10
11.8952080959
 20
14.7279017248
 30
0.0
 10
11.8943689917
 20
14.7311425131
 30
0.0
 10
11.8933361537
 20
14.7343716898
 30
0.0
 10
11.8916943427
 20
14.7383439033
 30
0.0
 10
11.8892059076
 20
14.7429430081
 30
0.0
 10
11.8862153996
 20
14.7473625417
 30
0.0
 10
11.8827469014
 20
14.7515697479
 30
0.0
 10
11.8788240479
 20
14.7555321259
 30
0.0
 10
11.8744708121
 20
14.7592173746
 30
0.0
 10
11.869711529
 20
14.7625895573
 30
0.0
 10
11.8645862203
 20
14.7656291552
 30
0.0
 10
11.8591381582
 20
14.7683211063
 30
0.0
 10
11.853409325
 20
14.7706487243
 30
0.0
 10
11.8454140211
 20
14.7732572682
 30
0.0
 10
11.8391847061
 20
14.7745937013
 30
0.0
 10
11.8349756331
 20
14.7752010094
 30
0.0
 11
11.8960938345
 21
14.7188137495
 31
0.0
 11
11.8958155477
 21
14.7237745182
 31
0.0
 11
11.8949778131
 21
14.7286961818
 31
0.0
 11
11.8943477919
 21
14.7311307168
 31
0.0
 11
11.893577466
 21
14.7335416894
 31
0.0
 11
11.8916271345
 21
14.7382762812
 31
0.0
 11
11.8891503834
 21
14.7428667842
 31
0.0
 11
11.8861709966
 21
14.7472800573
 31
0.0
 11
11.8827127579
 21
14.7514829594
 31
0.0
 11
11.8787994513
 21
14.7554423492
 31
0.0
 11
11.8744548606
 21
14.7591250856
 31
0.0
 11
11.8697042244
 21
14.7624992172
 31
0.0
 11
11.8645848851
 21
14.7655426925
 31
0.0
 11
11.8591401892
 21
14.768238371
 31
0.0
 11
11.8534135264
 21
14.7705691472
 31
0.0
 11
11.8474482863
 21
14.7725179159
 31
0.0
 11
11.8349756331
 21
14.7752010094
 31
0.0
  0
SPLINE
  5
352
100
AcDbEntity
  8
0
100
AcDbSpline
 62
9
  6
CONTINUOUS
 70
0
 71
3
 72
33
 73
29
 74
27
 42
0.0000001
 43
0.0000001
 44
0.0000000001
 12
0.2740869674
 22
-0.0672506809
 32
0.0
 13
0.1618893557
 23
-0.2311669447
 33
0.0
 40
0.0
 40
0.0
 40
0.0
 40
0.0
 40
0.0793094606
 40
0.1567675476
 40
0.2322323309
 40
0.2691744858
 40
0.3055709709
 40
0.3766934635
 40
0.4114082672
 40
0.4455505789
 40
0.4791160525
 40
0.5120987046
 40
0.5444848966
 40
0.5762591089
 40
0.6074054026
 40
0.6379074718
 40
0.6677486994
 40
0.6969139347
 40
0.7254067711
 40
0.7532439034
 40
0.7804446836
 40
0.8070312143
 40
0.8330286053
 40
0.8584650779
 40
0.8833618973
 40
0.9077259428
 40
0.9548766147
 40
1.0
 40
1.0
 40
1.0
 40
1.0
 10
12.1777205033
 20
10.4589932622
 30
0.0
 10
12.1849663998
 20
10.4572153904
 30
0.0
 10
12.1992460972
 20
10.4535229457
 30
0.0
 10
12.2202513261
 20
10.4475099408
 30
0.0
 10
12.237287971
 20
10.4421381827
 30
0.0
 10
12.250547742
 20
10.4376501673
 30
0.0
 10
12.2633565881
 20
10.4331087122
 30
0.0
 10
12.2758668321
 20
10.4283551357
 30
0.0
 10
12.2880559878
 20
10.4233711982
 30
0.0
 10
12.29691012
 20
10.4195698555
 30
0.0
 10
12.3055447582
 20
10.4156742612
 30
0.0
 10
12.3139539356
 20
10.4116847423
 30
0.0
 10
12.3221341437
 20
10.407609688
 30
0.0
 10
12.3300809542
 20
10.4034572923
 30
0.0
 10
12.3377898524
 20
10.3992359167
 30
0.0
 10
12.3452563712
 20
10.3949539788
 30
0.0
 10
12.3524759712
 20
10.3906194899
 30
0.0
 10
12.3594465285
 20
10.3862406116
 30
0.0
 10
12.3661639235
 20
10.3818164856
 30
0.0
 10
12.3726243195
 20
10.3773418454
 30
0.0
 10
12.3788252333
 20
10.3728116189
 30
0.0
 10
12.384764031
 20
10.368220491
 30
0.0
 10
12.3904382172
 20
10.3635633257
 30
0.0
 10
12.3958440691
 20
10.3588351629
 30
0.0
 10
12.4009777745
 20
10.3540348514
 30
0.0
 10
12.4073866611
 20
10.3476152086
 30
0.0
 10
12.4147233885
 20
10.3394427492
 30
0.0
 10
12.4200114822
 20
10.332544942
 30
0.0
 10
12.4224464808
 20
10.3290679303
 30
0.0
 11
12.1777205033
 21
10.4589932622
 31
0.0
 11
12.1993890912
 21
10.4533855088
 31
0.0
 11
12.2204034134
 21
10.4473641562
 31
0.0
 11
12.2407131567
 21
10.4409536318
 31
0.0
 11
12.250588124
 21
10.4376099556
 31
0.0
 11
12.2602688001
 21
10.4341759611
 31
0.0
 11
12.279027153
 21
10.4270339827
 31
0.0
 11
12.2880947954
 21
10.4233243949
 31
0.0
 11
12.296948059
 21
10.4195213387
 31
0.0
 11
12.3055819265
 21
10.4156240137
 31
0.0
 11
12.3139914908
 21
10.4116336625
 31
0.0
 11
12.3221721675
 21
10.4075575368
 31
0.0
 11
12.3301194313
 21
10.4034039881
 31
0.0
 11
12.3378287571
 21
10.3991813676
 31
0.0
 11
12.3452956195
 21
10.3948980268
 31
0.0
 11
12.3525154933
 21
10.390562317
 31
0.0
 11
12.3594839593
 21
10.3861818475
 31
0.0
 11
12.3661977312
 21
10.3817562999
 31
0.0
 11
12.372654209
 21
10.3772805541
 31
0.0
 11
12.3788508022
 21
10.3727494232
 31
0.0
 11
12.38478492
 21
10.3681577201
 31
0.0
 11
12.3904539722
 21
10.3635002577
 31
0.0
 11
12.3958553613
 21
10.358771908
 31
0.0
 11
12.4009860472
 21
10.3539713913
 31
0.0
 11
12.4058422821
 21
10.3491035814
 31
0.0
 11
12.4147161527
 21
10.3391877862
 31
0.0
 11
12.4224464808
 21
10.3290679303
 31
0.0
  0
SPLINE
  5
353
100
AcDbEntity
  8
0
100
AcDbSpline
 62
9
  6
CONTINUOUS
 70
0
 71
3
 72
20
 73
16
 74
14
 42
0.0000001
 43
0.0000001
 44
0.0000000001
 12
-0.002101272
 22
0.6454025028
 32
0.0
 13
-0.3599079085
 23
0.5357379054
 33
0.0
 40
0.0
 40
0.0
 40
0.0
 40
0.0
 40
0.1256157074
 40
0.2515846916
 40
0.3146196779
 40
0.3775735912
 40
0.4403660073
 40
0.5030188281
 40
0.5655783893
 40
0.6280920606
 40
0.6905832668
 40
0.7529699023
 40
0.8151541824
 40
0.8770847849
 40
1.0
 40
1.0
 40
1.0
 40
1.0
 10
12.1777205033
 20
10.4589932622
 30
0.0
 10
12.1776325191
 20
10.4860174928
 30
0.0
 10
12.1754567595
 20
10.5401545958
 30
0.0
 10
12.1677901801
 20
10.6074684647
 30
0.0
 10
12.1586920685
 20
10.660915066
 30
0.0
 10
12.1504138605
 20
10.7006856064
 30
0.0
 10
12.1407036899
 20
10.7400458289
 30
0.0
 10
12.129585943
 20
10.7789435906
 30
0.0
 10
12.117081055
 20
10.8173547923
 30
0.0
 10
12.1031844677
 20
10.8552479478
 30
0.0
 10
12.0879047004
 20
10.8925646761
 30
0.0
 10
12.0712891213
 20
10.9292278859
 30
0.0
 10
12.0533855228
 20
10.9651461019
 30
0.0
 10
12.0279401126
 20
11.0118123911
 30
0.0
 10
12.0069868527
 20
11.0456675073
 30
0.0
 10
11.9922408
 20
11.0676176206
 30
0.0
 11
12.1777205033
 21
10.4589932622
 31
0.0
 11
12.17447389
 21
10.5400013516
 31
0.0
 11
12.165270807
 21
10.6207799179
 31
0.0
 11
12.1584450031
 21
10.6608863685
 31
0.0
 11
12.1501644215
 21
10.7006644554
 31
0.0
 11
12.1404577747
 21
10.7400114515
 31
0.0
 11
12.1293460265
 21
10.7788912626
 31
0.0
 11
12.1168440258
 21
10.8172832735
 31
0.0
 11
12.1029499105
 21
10.8551621496
 31
0.0
 11
12.0876683719
 21
10.892487215
 31
0.0
 11
12.0710470277
 21
10.9291611472
 31
0.0
 11
12.053142824
 21
10.9650803022
 31
0.0
 11
12.0340070964
 21
11.0001723956
 31
0.0
 11
11.9922408
 21
11.0676176206
 31
0.0
  0
SPLINE
  5
354
100
AcDbEntity
  8
0
100
AcDbSpline
 62
9
  6
CONTINUOUS
 70
0
 71
3
 72
26
 73
22
 74
20
 42
0.0000001
 43
0.0000001
 44
0.0000000001
 12
-0.0000000736
 22
0.1101605191
 32
0.0
 13
-0.1099774999
 23
-0.0063473987
 33
0.0
 40
0.0
 40
0.0
 40
0.0
 40
0.0
 40
0.0537415872
 40
0.1078726426
 40
0.1627358542
 40
0.2186495465
 40
0.247109843
 40
0.2759448931
 40
0.3051776932
 40
0.3348222658
 40
0.3953502162
 40
0.457549745
 40
0.5213596864
 40
0.5866860804
 40
0.6198935066
 40
0.6534348904
 40
0.7213944648
 40
0.7903267327
 40
0.8599409735
 40
0.9299319844
 40
1.0
 40
1.0
 40
1.0
 40
1.0
 10
11.8349558829
 20
14.7831083588
 30
0.0
 10
11.8349558816
 20
14.7850817592
 30
0.0
 10
11.8346888666
 20
14.7890477411
 30
0.0
 10
11.8335030232
 20
14.7949211042
 30
0.0
 10
11.8315458319
 20
14.8006687676
 30
0.0
 10
11.8292956199
 20
14.8052756931
 30
0.0
 10
11.827135138
 20
14.8088296809
 30
0.0
 10
11.8253218355
 20
14.811441174
 30
0.0
 10
11.823332881
 20
14.8139767538
 30
0.0
 10
11.8204365398
 20
14.8172710783
 30
0.0
 10
11.81640423
 20
14.8211661654
 30
0.0
 10
11.8110139562
 20
14.8254100228
 30
0.0
 10
11.8050936657
 20
14.8292123084
 30
0.0
 10
11.7997933893
 20
14.8319602961
 30
0.0
 10
11.7953453613
 20
14.8338965787
 30
0.0
 10
11.7907253063
 20
14.8356677862
 30
0.0
 10
11.7847414633
 20
14.8375281051
 30
0.0
 10
11.7773331446
 20
14.8391825683
 30
0.0
 10
11.7697430571
 20
14.8402558609
 30
0.0
 10
11.7620511876
 20
14.8407340457
 30
0.0
 10
11.7569024059
 20
14.8406465479
 30
0.0
 10
11.7543337708
 20
14.8404982981
 30
0.0
 11
11.8349558829
 21
14.7831083588
 31
0.0
 11
11.8345610048
 21
14.7890153761
 31
0.0
 11
11.8333851915
 21
14.7948614078
 31
0.0
 11
11.8314416628
 21
14.8005841457
 31
0.0
 11
11.8287436383
 21
14.8061212817
 31
0.0
 11
11.8271158222
 21
14.8088007779
 31
0.0
 11
11.8253055476
 21
14.8114109421
 31
0.0
 11
11.8233192783
 21
14.8139457141
 31
0.0
 11
11.821164148
 21
14.8163992745
 31
0.0
 11
11.8163758397
 21
14.8210394827
 31
0.0
 11
11.8109976929
 21
14.8252850115
 31
0.0
 11
11.8050867779
 21
14.8290893054
 31
0.0
 11
11.7987001651
 21
14.8324058093
 31
0.0
 11
11.7953463867
 21
14.8338667036
 31
0.0
 11
11.7918967272
 21
14.8351904873
 31
0.0
 11
11.7847498052
 21
14.8374195272
 31
0.0
 11
11.7773397015
 21
14.8390788474
 31
0.0
 11
11.7697467632
 21
14.8401544288
 31
0.0
 11
11.7620513373
 21
14.8406322521
 31
0.0
 11
11.7543337708
 21
14.8404982981
 31
0.0
  0
SPLINE
  5
355
100
AcDbEntity
  8
0
100
AcDbSpline
 62
9
  6
CONTINUOUS
 70
0
 71
3
 72
23
 73
19
 74
17
 42
0.0000001
 43
0.0000001
 44
0.0000000001
 12
0.1484604604
 22
-0.0145870138
 32
0.0
 13
0.1016768629
 23
-0.1091563321
 33
0.0
 40
0.0
 40
0.0
 40
0.0
 40
0.0
 40
0.082497221
 40
0.1624665349
 40
0.2398409207
 40
0.3145597073
 40
0.3865698458
 40
0.4558274883
 40
0.5222999538
 40
0.5859681842
 40
0.6468298184
 40
0.7049035853
 40
0.7602361267
 40
0.8129055888
 40
0.8630275931
 40
0.9107632311
 40
0.956327875
 40
1.0
 40
1.0
 40
1.0
 40
1.0
 10
11.9922408
 20
11.0676176206
 30
0.0
 10
11.9963233251
 20
11.0672164912
 30
0.0
 10
12.0043571304
 20
11.0663619201
 30
0.0
 10
12.0161924462
 20
11.0648875269
 30
0.0
 10
12.0276135546
 20
11.0632340526
 30
0.0
 10
12.0386053896
 20
11.0613953968
 30
0.0
 10
12.0491529679
 20
11.0593654469
 30
0.0
 10
12.0592413305
 20
11.057138075
 30
0.0
 10
12.0688555679
 20
11.0547071269
 30
0.0
 10
12.0779808213
 20
11.0520664014
 30
0.0
 10
12.0866023235
 20
11.0492096319
 30
0.0
 10
12.0947054942
 20
11.0461303478
 30
0.0
 10
12.1022761407
 20
11.0428223065
 30
0.0
 10
12.1093003104
 20
11.0392790256
 30
0.0
 10
12.1157639653
 20
11.0354937922
 30
0.0
 10
12.1216531064
 20
11.0314593026
 30
0.0
 10
12.1269525621
 20
11.0271688018
 30
0.0
 10
12.130143021
 20
11.0240734749
 30
0.0
 10
12.1316231692
 20
11.0224844452
 30
0.0
 11
11.9922408
 21
11.0676176206
 31
0.0
 11
12.0044778407
 21
11.0663114499
 31
0.0
 11
12.016315178
 21
11.0648318353
 31
0.0
 11
12.0277376549
 21
11.063172644
 31
0.0
 11
12.0387301143
 21
11.0613277431
 31
0.0
 11
12.0492773992
 21
11.0592909998
 31
0.0
 11
12.0593643526
 21
11.0570562811
 31
0.0
 11
12.0689758173
 21
11.0546174542
 31
0.0
 11
12.0780966365
 21
11.0519683862
 31
0.0
 11
12.0867116529
 21
11.0491029443
 31
0.0
 11
12.0948058097
 21
11.0460150271
 31
0.0
 11
12.1023645525
 21
11.0426986911
 31
0.0
 11
12.1093734844
 21
11.0391480425
 31
0.0
 11
12.1158182087
 21
11.0353571874
 31
0.0
 11
12.1216843288
 21
11.0313202321
 31
0.0
 11
12.1269574479
 21
11.0270312827
 31
0.0
 11
12.1316231692
 21
11.0224844452
 31
0.0
  0
LINE
  5
356
100
AcDbEntity
  8
0
100
AcDbLine
 62
9
  6
CONTINUOUS
 10
11.9922408
 20
11.0676176206
 11
11.9666914625
 21
11.1056286893
  0
SPLINE
  5
357
100
AcDbEntity
  8
0
100
AcDbSpline
 62
9
  6
CONTINUOUS
 70
0
 71
3
 72
25
 73
21
 74
19
 42
0.0000001
 43
0.0000001
 44
0.0000000001
 12
-0.5325000075
 22
0.0523209004
 32
0.0
 13
-0.535049847
 23
-0.0039237496
 33
0.0
 40
0.0
 40
0.0
 40
0.0
 40
0.0
 40
0.0247470555
 40
0.0501816727
 40
0.0762807354
 40
0.1030201592
 40
0.1583191232
 40
0.2158722452
 40
0.2754639331
 40
0.3368723957
 40
0.3998712529
 40
0.4642307604
 40
0.5297186837
 40
0.5961008154
 40
0.6631418883
 40
0.7306062448
 40
0.79825838
 40
0.8658634729
 40
0.9331879345
 40
1.0
 40
1.0
 40
1.0
 40
1.0
 10
11.9922408
 20
11.0676176206
 30
0.0
 10
11.9878481976
 20
11.0680492167
 30
0.0
 10
11.9789338432
 20
11.0688532563
 30
0.0
 10
11.96536743
 20
11.0698826862
 30
0.0
 10
11.9514342897
 20
11.0707601086
 30
0.0
 10
11.9321724483
 20
11.0717484816
 30
0.0
 10
11.9072895326
 20
11.0726293652
 30
0.0
 10
11.876537413
 20
11.0731932882
 30
0.0
 10
11.8446910782
 20
11.0733362777
 30
0.0
 10
11.8118741783
 20
11.0731196574
 30
0.0
 10
11.7782103361
 20
11.0726047088
 30
0.0
 10
11.7438233305
 20
11.0718528279
 30
0.0
 10
11.7088370674
 20
11.070925464
 30
0.0
 10
11.673375579
 20
11.0698844952
 30
0.0
 10
11.6375629965
 20
11.0687918288
 30
0.0
 10
11.6015234796
 20
11.0677093938
 30
0.0
 10
11.5653811942
 20
11.0666991308
 30
0.0
 10
11.5292602866
 20
11.0658229808
 30
0.0
 10
11.4932849361
 20
11.065142886
 30
0.0
 10
11.4693624098
 20
11.064860059
 30
0.0
 10
11.4574464813
 20
11.0647726744
 30
0.0
 11
11.9922408
 21
11.0676176206
 31
0.0
 11
11.9790534584
 21
11.0688113967
 31
0.0
 11
11.965483614
 21
11.0698450283
 31
0.0
 11
11.9515467707
 21
11.0707262479
 31
0.0
 11
11.9372584325
 21
11.0714627878
 31
0.0
 11
11.907689287
 21
11.0725327582
 31
0.0
 11
11.8769002087
 21
11.0731167986
 31
0.0
 11
11.8450152291
 21
11.0732767682
 31
0.0
 11
11.8121583796
 21
11.0730745263
 31
0.0
 11
11.7784536914
 21
11.072571932
 31
0.0
 11
11.7440251959
 21
11.0718308444
 31
0.0
 11
11.7089969686
 21
11.0709131876
 31
0.0
 11
11.673493261
 21
11.0698811448
 31
0.0
 11
11.6376383686
 21
11.0687969641
 31
0.0
 11
11.6015565871
 21
11.0677228935
 31
0.0
 11
11.5653722121
 21
11.0667211812
 31
0.0
 11
11.529209539
 21
11.0658540752
 31
0.0
 11
11.4931928636
 21
11.0651838235
 31
0.0
 11
11.4574464813
 21
11.0647726744
 31
0.0
  0
SPLINE
  5
358
100
AcDbEntity
  8
0
100
AcDbSpline
 62
6
  6
CONTINUOUS
 70
0
 71
3
 72
18
 73
14
 74
12
 42
0.0000001
 43
0.0000001
 44
0.0000000001
 12
0.0298008406
 22
-0.0501301928
 32
0.0
 13
-0.0
 23
-0.0583191764
 33
0.0
 40
0.0
 40
0.0
 40
0.0
 40
0.0
 40
0.0475951352
 40
0.0971014858
 40
0.1485733414
 40
0.2020161211
 40
0.2573970042
 40
0.3147031497
 40
0.4352420991
 40
0.5639225508
 40
0.7009052191
 40
0.8462627146
 40
1.0
 40
1.0
 40
1.0
 40
1.0
 10
11.645387539
 20
14.9452174804
 30
0.0
 10
11.6458603306
 20
14.9444221627
 30
0.0
 10
11.6467644993
 20
14.9427631447
 30
0.0
 10
11.6479827024
 20
14.9401426766
 30
0.0
 10
11.649096156
 20
14.9373534447
 30
0.0
 10
11.6501116699
 20
14.9344063959
 30
0.0
 10
11.6510371824
 20
14.9313114852
 30
0.0
 10
11.6521768103
 20
14.9269223316
 30
0.0
 10
11.6533754815
 20
14.9210808766
 30
0.0
 10
11.6544591434
 20
14.9136484602
 30
0.0
 10
11.6552199583
 20
14.9056917584
 30
0.0
 10
11.6556665728
 20
14.8972241798
 30
0.0
 10
11.6557579064
 20
14.8914092287
 30
0.0
 10
11.6557579064
 20
14.888420618
 30
0.0
 11
11.645387539
 21
14.9452174804
 31
0.0
 11
11.6467207551
 21
14.9427829177
 31
0.0
 11
11.6479425863
 21
14.9401670284
 31
0.0
 11
11.6490598425
 21
14.9373808986
 31
0.0
 11
11.6500793336
 21
14.9344356144
 31
0.0
 11
11.6510078223
 21
14.9313421848
 31
0.0
 11
11.6518498119
 21
14.928107941
 31
0.0
 11
11.6532792473
 21
14.9212250746
 31
0.0
 11
11.6543763289
 21
14.9138011604
 31
0.0
 11
11.6551495023
 21
14.9058499471
 31
0.0
 11
11.655607213
 21
14.8973851834
 31
0.0
 11
11.6557579064
 21
14.888420618
 31
0.0
  0
SPLINE
  5
359
100
AcDbEntity
  8
0
100
AcDbSpline
 62
9
  6
CONTINUOUS
 70
0
 71
3
 72
15
 73
11
 74
9
 42
0.0000001
 43
0.0000001
 44
0.0000000001
 12
-0.0655316935
 22
0.0164685867
 32
0.0
 13
-0.0660596963
 23
0.0142032999
 33
0.0
 40
0.0
 40
0.0
 40
0.0
 40
0.0
 40
0.1237880226
 40
0.2479181628
 40
0.3723786404
 40
0.4971717196
 40
0.6223195882
 40
0.7478429576
 40
0.8737410163
 40
1.0
 40
1.0
 40
1.0
 40
1.0
 10
12.1777205033
 20
10.4589932627
 30
0.0
 10
12.1750164904
 20
10.4596728007
 30
0.0
 10
12.1695976699
 20
10.4610205794
 30
0.0
 10
12.1614483247
 20
10.4630036838
 30
0.0
 10
12.1532663679
 20
10.4649480181
 30
0.0
 10
12.1450519619
 20
10.4668544032
 30
0.0
 10
12.1368061373
 20
10.4687308981
 30
0.0
 10
12.1285298777
 20
10.4705855813
 30
0.0
 10
12.1202232586
 20
10.4724190375
 30
0.0
 10
12.1146730424
 20
10.4736233779
 30
0.0
 10
12.1118928324
 20
10.4742211426
 30
0.0
 11
12.1777205033
 21
10.4589932627
 31
0.0
 11
12.1696034621
 21
10.4610118662
 31
0.0
 11
12.1614537917
 21
10.4629946002
 31
0.0
 11
12.1532719718
 21
10.4649391072
 31
0.0
 11
12.145058402
 21
10.4668467383
 31
0.0
 11
12.1368133605
 21
10.4687244862
 31
0.0
 11
12.1285371271
 21
10.4705793057
 31
0.0
 11
12.1202301172
 21
10.4724123594
 31
0.0
 11
12.1118928324
 21
10.4742211426
 31
0.0
  0
SPLINE
  5
35A
100
AcDbEntity
  8
0
100
AcDbSpline
 62
9
  6
CONTINUOUS
 70
0
 71
3
 72
49
 73
45
 74
43
 42
0.0000001
 43
0.0000001
 44
0.0000000001
 12
-0.6440802448
 22
0.1398100895
 32
0.0
 13
-0.6550080733
 23
0.0731481153
 33
0.0
 40
0.0
 40
0.0
 40
0.0
 40
0.0
 40
0.0587644559
 40
0.0884146857
 40
0.1182345871
 40
0.1482185084
 40
0.1783630016
 40
0.2086647039
 40
0.2391199871
 40
0.2544040364
 40
0.26972499
 40
0.3004737481
 40
0.3313572931
 40
0.3623667203
 40
0.3934936177
 40
0.4247301165
 40
0.440387265
 40
0.4560697643
 40
0.4875106473
 40
0.5190519375
 40
0.5506917875
 40
0.5665478969
 40
0.5824276377
 40
0.5983306137
 40
0.6142563184
 40
0.6302030688
 40
0.6461684279
 40
0.6781456641
 40
0.710171381
 40
0.7261984006
 40
0.7422332565
 40
0.7582752774
 40
0.7662989157
 40
0.7743243226
 40
0.7903813641
 40
0.8064483717
 40
0.822526527
 40
0.8386163996
 40
0.8708319569
 40
0.9030963968
 40
0.9192479002
 40
0.9354065897
 40
0.967717672
 40
1.0
 40
1.0
 40
1.0
 40
1.0
 10
12.1118928324
 20
10.4742211426
 30
0.0
 10
12.0992764907
 20
10.4769597639
 30
0.0
 10
12.0802619299
 20
10.4809324944
 30
0.0
 10
12.0547754083
 20
10.4859489435
 30
0.0
 10
12.0354636143
 20
10.4895934227
 30
0.0
 10
12.0160172053
 20
10.4931067044
 30
0.0
 10
11.9964414975
 20
10.4964966138
 30
0.0
 10
11.9767410269
 20
10.4997701015
 30
0.0
 10
11.960244125
 20
10.5024038294
 30
0.0
 10
11.9469881014
 20
10.504460035
 30
0.0
 10
11.9336626062
 20
10.5064886403
 30
0.0
 10
11.9169381137
 20
10.5089608495
 30
0.0
 10
11.8967850556
 20
10.5118061366
 30
0.0
 10
11.876529658
 20
10.5145173138
 30
0.0
 10
11.856176478
 20
10.517077796
 30
0.0
 10
11.839151916
 20
10.5190710008
 30
0.0
 10
11.8254866745
 20
10.5205735775
 30
0.0
 10
11.8117701998
 20
10.5220197373
 30
0.0
 10
11.7945725191
 20
10.5237275785
 30
0.0
 10
11.7738733699
 20
10.5256467432
 30
0.0
 10
11.7565757551
 20
10.5271637219
 30
0.0
 10
11.7427026713
 20
10.5283442045
 30
0.0
 10
11.7322732462
 20
10.5292176123
 30
0.0
 10
11.7218277182
 20
10.5300818588
 30
0.0
 10
11.7113671116
 20
10.5309423746
 30
0.0
 10
11.7008919552
 20
10.531793187
 30
0.0
 10
11.6868995338
 20
10.532899232
 30
0.0
 10
11.6693791261
 20
10.5342006937
 30
0.0
 10
11.6518322858
 20
10.535320963
 30
0.0
 10
11.6377722532
 20
10.5360657649
 30
0.0
 10
11.6272145674
 20
10.5365378328
 30
0.0
 10
11.6184101248
 20
10.5368497962
 30
0.0
 10
11.611362614
 20
10.5370452763
 30
0.0
 10
11.604310839
 20
10.5372023354
 30
0.0
 10
11.5954910771
 20
10.5373311309
 30
0.0
 10
11.5849015401
 20
10.5374020628
 30
0.0
 10
11.5743045967
 20
10.5374128321
 30
0.0
 10
11.5601599825
 20
10.5373785725
 30
0.0
 10
11.5424595183
 20
10.5373035602
 30
0.0
 10
11.5247449626
 20
10.5373439168
 30
0.0
 10
11.5105594647
 20
10.5375385944
 30
0.0
 10
11.4963665631
 20
10.5378833291
 30
0.0
 10
11.4786407635
 20
10.5386788428
 30
0.0
 10
11.4644948765
 20
10.539881962
 30
0.0
 10
11.4574464813
 20
10.5406690925
 30
0.0
 11
12.1118928324
 21
10.4742211426
 31
0.0
 11
12.0739811483
 21
10.4821428429
 31
0.0
 11
12.0548071614
 21
10.4859168123
 31
0.0
 11
12.0354944099
 21
10.4895617237
 31
0.0
 11
12.0160477642
 21
10.4930769225
 31
0.0
 11
11.9964717707
 21
10.4964685449
 31
0.0
 11
11.9767709257
 21
10.4997437795
 31
0.0
 11
11.9569497252
 21
10.5029098148
 31
0.0
 11
11.9469953968
 21
10.5044541291
 31
0.0
 11
11.9370126658
 21
10.5059737552
 31
0.0
 11
11.916964271
 21
10.5089348381
 31
0.0
 11
11.8968091131
 21
10.5117781287
 31
0.0
 11
11.8765517694
 21
10.5144872091
 31
0.0
 11
11.8561968173
 21
10.517045661
 31
0.0
 11
11.8357488342
 21
10.5194370661
 31
0.0
 11
11.8254913882
 21
10.5205653279
 31
0.0
 11
11.8152124217
 21
10.5216498263
 31
0.0
 11
11.7945923352
 21
10.5237029862
 31
0.0
 11
11.7738933904
 21
10.5256275933
 31
0.0
 11
11.753120403
 21
10.5274547229
 31
0.0
 11
11.7427076483
 21
10.5283414448
 31
0.0
 11
11.7322781889
 21
10.5292154506
 31
0.0
 11
11.7218326268
 21
10.5300806247
 31
0.0
 11
11.7113715715
 21
10.5309401945
 31
0.0
 11
11.7008957276
 21
10.5317890831
 31
0.0
 11
11.690405865
 21
10.532616522
 31
0.0
 11
11.6693871679
 21
10.5341635326
 31
0.0
 11
11.6483216492
 21
10.5354941903
 31
0.0
 11
11.6377732595
 21
10.536051188
 31
0.0
 11
11.6272154778
 21
10.5365214589
 31
0.0
 11
11.616649075
 21
10.5368941236
 31
0.0
 11
11.6113628818
 21
10.5370404537
 31
0.0
 11
11.6060748163
 21
10.5371585419
 31
0.0
 11
11.5954931329
 21
10.5373171629
 31
0.0
 11
11.5849039569
 21
10.5373920218
 31
0.0
 11
11.5743071793
 21
10.5374067591
 31
0.0
 11
11.5637026911
 21
10.5373850154
 31
0.0
 11
11.5424701472
 21
10.537326647
 31
0.0
 11
11.5212054538
 21
10.5374060407
 31
0.0
 11
11.5105613985
 21
10.5375573037
 31
0.0
 11
11.4999148095
 21
10.5378214917
 31
0.0
 11
11.4786426934
 21
10.5388209497
 31
0.0
 11
11.4574464813
 21
10.5406690925
 31
0.0
  0
SPLINE
  5
35B
100
AcDbEntity
  8
0
100
AcDbSpline
 62
6
  6
CONTINUOUS
 70
0
 71
3
 72
29
 73
25
 74
23
 42
0.0000001
 43
0.0000001
 44
0.0000000001
 12
0.0496389173
 22
-0.0422176975
 32
0.0
 13
-0.0
 23
-0.0651640706
 33
0.0
 40
0.0
 40
0.0
 40
0.0
 40
0.0
 40
0.0132947947
 40
0.0276485503
 40
0.0431867203
 40
0.0599890366
 40
0.0781012652
 40
0.0975443385
 40
0.1183210632
 40
0.1404209321
 40
0.1638235581
 40
0.1885011312
 40
0.2415397751
 40
0.269824992
 40
0.2992288003
 40
0.3297051814
 40
0.3612117196
 40
0.4272691808
 40
0.4973590208
 40
0.5714410722
 40
0.6494696761
 40
0.7313948601
 40
0.8171632201
 40
1.0
 40
1.0
 40
1.0
 40
1.0
 10
11.5358839253
 20
14.9797524234
 30
0.0
 10
11.536103905
 20
14.9795653315
 30
0.0
 10
11.5365339471
 20
14.9791433553
 30
0.0
 10
11.5371245702
 20
14.9784125641
 30
0.0
 10
11.5376850811
 20
14.9775656969
 30
0.0
 10
11.5382167588
 20
14.9766063625
 30
0.0
 10
11.5387209088
 20
14.9755379154
 30
0.0
 10
11.5391985984
 20
14.9743637975
 30
0.0
 10
11.5396508301
 20
14.9730874799
 30
0.0
 10
11.5400785408
 20
14.9717124846
 30
0.0
 10
11.5404826767
 20
14.9702423694
 30
0.0
 10
11.541003797
 20
14.9681084021
 30
0.0
 10
11.5414650016
 20
14.9658516633
 30
0.0
 10
11.5418812433
 20
14.9634827511
 30
0.0
 10
11.5421808845
 20
14.9615911679
 30
0.0
 10
11.5424623672
 20
14.9596261221
 30
0.0
 10
11.5428204972
 20
14.9568679972
 30
0.0
 10
11.5432224878
 20
14.9532482302
 30
0.0
 10
11.5436305322
 20
14.9486997478
 30
0.0
 10
11.5439725835
 20
14.9438851389
 30
0.0
 10
11.5442497316
 20
14.9388089249
 30
0.0
 10
11.5444630921
 20
14.9334755976
 30
0.0
 10
11.5446682681
 20
14.9258642107
 30
0.0
 10
11.5447214058
 20
14.9200293911
 30
0.0
 10
11.5447214058
 20
14.9160579281
 30
0.0
 11
11.5358839253
 21
14.9797524234
 31
0.0
 11
11.5365054715
 21
14.9791489083
 31
0.0
 11
11.5370968466
 21
14.9784242335
 31
0.0
 11
11.5376589643
 21
14.9775820688
 31
0.0
 11
11.5381927385
 21
14.9766260839
 31
0.0
 11
11.5386990832
 21
14.9755599487
 31
0.0
 11
11.5391789121
 21
14.9743873331
 31
0.0
 11
11.5396331392
 21
14.9731119069
 31
0.0
 11
11.5400626782
 21
14.9717373399
 31
0.0
 11
11.5404684431
 21
14.970267302
 31
0.0
 11
11.5408513478
 21
14.968705463
 31
0.0
 11
11.5415522316
 21
14.965321061
 31
0.0
 11
11.5418720385
 21
14.9635058377
 31
0.0
 11
11.5421726406
 21
14.9616134927
 31
0.0
 11
11.5424549517
 21
14.9596476958
 31
0.0
 11
11.5427197956
 21
14.9576117552
 31
0.0
 11
11.5431981787
 21
14.953333847
 31
0.0
 11
11.5436091003
 21
14.9487850305
 31
0.0
 11
11.5439536937
 21
14.943969857
 31
0.0
 11
11.5442330924
 21
14.9388928777
 31
0.0
 11
11.5444484295
 21
14.9335586439
 31
0.0
 11
11.5446008386
 21
14.9279717069
 31
0.0
 11
11.5447214058
 21
14.9160579281
 31
0.0
  0
SPLINE
  5
35C
100
AcDbEntity
  8
0
100
AcDbSpline
 62
6
  6
CONTINUOUS
 70
0
 71
3
 72
20
 73
16
 74
14
 42
0.0000001
 43
0.0000001
 44
0.0000000001
 12
-0.2973281944
 22
0.0282307648
 32
0.0
 13
-0.2984967991
 23
-0.010034551
 33
0.0
 40
0.0
 40
0.0
 40
0.0
 40
0.0
 40
0.0512021073
 40
0.1043394182
 40
0.1593294039
 40
0.2160852364
 40
0.2745166117
 40
0.3345304013
 40
0.3960311731
 40
0.4589216122
 40
0.5231028645
 40
0.5884748208
 40
0.7223852681
 40
0.8598356077
 40
1.0
 40
1.0
 40
1.0
 40
1.0
 10
11.9666914625
 20
11.1056286893
 30
0.0
 10
11.9616168525
 20
11.1061105142
 30
0.0
 10
11.9512650653
 20
11.10698118
 30
0.0
 10
11.9354363433
 20
11.1080200386
 30
0.0
 10
11.9190408591
 20
11.1088322884
 30
0.0
 10
11.9021090421
 20
11.10943359
 30
0.0
 10
11.884671231
 20
11.1098396201
 30
0.0
 10
11.8667578274
 20
11.1100660647
 30
0.0
 10
11.8483992438
 20
11.1101286231
 30
0.0
 10
11.8296259119
 20
11.1100429938
 30
0.0
 10
11.8104682726
 20
11.1098249228
 30
0.0
 10
11.7842428571
 20
11.1093747679
 30
0.0
 10
11.7507289655
 20
11.1085566022
 30
0.0
 10
11.7097784782
 20
11.1073070276
 30
0.0
 10
11.6821560236
 20
11.1063805883
 30
0.0
 10
11.6682098161
 20
11.1059117593
 30
0.0
 11
11.9666914625
 21
11.1056286893
 31
0.0
 11
11.9514537133
 21
11.1069191923
 31
0.0
 11
11.9356180198
 21
11.1079663346
 31
0.0
 11
11.9192148743
 21
11.1087858987
 31
0.0
 11
11.902274769
 21
11.1093936675
 31
0.0
 11
11.8848281962
 21
11.1098054237
 31
0.0
 11
11.8669056481
 21
11.1100369499
 31
0.0
 11
11.8485376169
 21
11.1101040288
 31
0.0
 11
11.8297545949
 21
11.1100224432
 31
0.0
 11
11.8105870742
 21
11.1098079757
 31
0.0
 11
11.7910655472
 21
11.1094764091
 31
0.0
 11
11.7510824429
 21
11.1085251094
 31
0.0
 11
11.71004922
 21
11.1072948056
 31
0.0
 11
11.6682098161
 21
11.1059117593
 31
0.0
  0
SPLINE
  5
35D
100
AcDbEntity
  8
0
100
AcDbSpline
 62
6
  6
CONTINUOUS
 70
0
 71
3
 72
21
 73
17
 74
15
 42
0.0000001
 43
0.0000001
 44
0.0000000001
 12
-0.0415762178
 22
-0.0484175575
 32
0.0
 13
-0.0
 23
-0.0638188198
 33
0.0
 40
0.0
 40
0.0
 40
0.0
 40
0.0
 40
0.0390540069
 40
0.0811456007
 40
0.126512088
 40
0.1752344382
 40
0.2272830161
 40
0.2825504029
 40
0.3408785664
 40
0.4021831419
 40
0.4664779374
 40
0.5337712614
 40
0.6040624611
 40
0.6773435025
 40
0.8328068752
 40
1.0
 40
1.0
 40
1.0
 40
1.0
 10
11.3247153154
 20
14.9668375464
 30
0.0
 10
11.3241740761
 20
14.9662072465
 30
0.0
 10
11.3231429287
 20
14.9648160044
 30
0.0
 10
11.3217915247
 20
14.962483903
 30
0.0
 10
11.3205701336
 20
14.9598533903
 30
0.0
 10
11.3194692862
 20
14.9569437349
 30
0.0
 10
11.3184795672
 20
14.9537736773
 30
0.0
 10
11.3175924706
 20
14.9503623001
 30
0.0
 10
11.3167979458
 20
14.9467266691
 30
0.0
 10
11.3160914743
 20
14.942877628
 30
0.0
 10
11.3154734191
 20
14.9388204747
 30
0.0
 10
11.314942161
 20
14.9345584191
 30
0.0
 10
11.3144964462
 20
14.9300944741
 30
0.0
 10
11.3140048656
 20
14.9237516898
 30
0.0
 10
11.3136112833
 20
14.9153360577
 30
0.0
 10
11.3135183905
 20
14.9084716884
 30
0.0
 10
11.3135183905
 20
14.9049149991
 30
0.0
 11
11.3247153154
 21
14.9668375464
 31
0.0
 11
11.3232195971
 21
14.9648438593
 31
0.0
 11
11.3218612106
 21
14.9625263932
 31
0.0
 11
11.3206316424
 21
14.9599052195
 31
0.0
 11
11.3195223794
 21
14.9570004094
 31
0.0
 11
11.3185249081
 21
14.9538320342
 31
0.0
 11
11.3176307153
 21
14.9504201653
 31
0.0
 11
11.3168314222
 21
14.9467845568
 31
0.0
 11
11.3161220172
 21
14.9429370243
 31
0.0
 11
11.3155010142
 21
14.9388810715
 31
0.0
 11
11.3149670935
 21
14.9346198099
 31
0.0
 11
11.3145189353
 21
14.930156351
 31
0.0
 11
11.3141552198
 21
14.9254938062
 31
0.0
 11
11.3136758382
 21
14.9155839053
 31
0.0
 11
11.3135183905
 21
14.9049149991
 31
0.0
  0
SPLINE
  5
35E
100
AcDbEntity
  8
0
100
AcDbSpline
 62
6
  6
CONTINUOUS
 70
0
 71
3
 72
14
 73
10
 74
8
 42
0.0000001
 43
0.0000001
 44
0.0000000001
 12
-0.0154820723
 22
-0.0427747167
 32
0.0
 13
0.0
 23
-0.0454903391
 33
0.0
 40
0.0
 40
0.0
 40
0.0
 40
0.0
 40
0.2220704298
 40
0.3396917821
 40
0.4619570731
 40
0.5890206451
 40
0.7209983745
 40
0.8579732118
 40
1.0
 40
1.0
 40
1.0
 40
1.0
 10
11.2143403483
 20
14.9116480165
 30
0.0
 10
11.2131943115
 20
14.9084816832
 30
0.0
 10
11.2117493123
 20
14.9035227403
 30
0.0
 10
11.210300155
 20
14.896668231
 30
0.0
 10
11.2094033896
 20
14.8911745404
 30
0.0
 10
11.2087137432
 20
14.8854324248
 30
0.0
 10
11.2082271312
 20
14.8794458191
 30
0.0
 10
11.2079396395
 20
14.8732194866
 30
0.0
 10
11.2078792115
 20
14.8689885268
 30
0.0
 10
11.2078792115
 20
14.8668349112
 30
0.0
 11
11.2143403483
 21
14.9116480165
 31
0.0
 11
11.2114671428
 21
14.901963168
 31
0.0
 11
11.2103546991
 21
14.8967294536
 31
0.0
 11
11.2094531996
 21
14.8912411102
 31
0.0
 11
11.2087587725
 21
14.8855028109
 31
0.0
 11
11.2082675465
 21
14.8795192292
 31
0.0
 11
11.20797565
 21
14.8732950382
 31
0.0
 11
11.2078792115
 21
14.8668349112
 31
0.0
  0
SPLINE
  5
35F
100
AcDbEntity
  8
0
100
AcDbSpline
 62
9
  6
CONTINUOUS
 70
0
 71
3
 72
35
 73
31
 74
29
 42
0.0000001
 43
0.0000001
 44
0.0000000001
 12
1.0734227744
 22
0.085906828
 32
0.0
 13
-0.0023437802
 23
1.0768523309
 33
0.0
 40
0.0
 40
0.0
 40
0.0
 40
0.0
 40
0.0633353425
 40
0.127596551
 40
0.1600034209
 40
0.1925436597
 40
0.2578665162
 40
0.2905980114
 40
0.3233260796
 40
0.3560161382
 40
0.3886375998
 40
0.4211632264
 40
0.4535642391
 40
0.4858134421
 40
0.5178873154
 40
0.5814160269
 40
0.6128596809
 40
0.6440664458
 40
0.6750286409
 40
0.7057434267
 40
0.7362088344
 40
0.7664236445
 40
0.7963904275
 40
0.8261204092
 40
0.8556237393
 40
0.8849075057
 40
0.9139780173
 40
0.9428453856
 40
0.9715177373
 40
1.0
 40
1.0
 40
1.0
 40
1.0
 10
11.4574464813
 20
9.7971379213
 30
0.0
 10
11.4801083477
 20
9.7989515674
 30
0.0
 10
11.5256569867
 20
9.8041112844
 30
0.0
 10
11.5821957383
 20
9.8144948525
 30
0.0
 10
11.627293782
 20
9.825365171
 30
0.0
 10
11.672318279
 20
9.8380188391
 30
0.0
 10
11.7166981572
 20
9.8532953155
 30
0.0
 10
11.7600839403
 20
9.8712518871
 30
0.0
 10
11.7920618345
 20
9.8860639537
 30
0.0
 10
11.8233499719
 20
9.9021958222
 30
0.0
 10
11.8538467097
 20
9.9196337222
 30
0.0
 10
11.8834466143
 20
9.9383616459
 30
0.0
 10
11.9120566996
 20
9.9583368584
 30
0.0
 10
11.9395841185
 20
9.9795175463
 30
0.0
 10
11.9745972868
 20
10.0092055417
 30
0.0
 10
12.0072017356
 20
10.0412179569
 30
0.0
 10
12.0370433423
 20
10.0753092841
 30
0.0
 10
12.0578617731
 20
10.1017060289
 30
0.0
 10
12.0771158711
 20
10.1289438962
 30
0.0
 10
12.0947640452
 20
10.1569350349
 30
0.0
 10
12.110765351
 20
10.1855924252
 30
0.0
 10
12.1250796734
 20
10.2148304808
 30
0.0
 10
12.1376671699
 20
10.2445660193
 30
0.0
 10
12.1485300705
 20
10.2747022227
 30
0.0
 10
12.1576738207
 20
10.3051476213
 30
0.0
 10
12.1651042189
 20
10.3358122264
 30
0.0
 10
12.1708271291
 20
10.3666083968
 30
0.0
 10
12.1748658922
 20
10.3974488594
 30
0.0
 10
12.1772450556
 20
10.4282485762
 30
0.0
 10
12.1777427554
 20
10.4487695319
 30
0.0
 10
12.1777205033
 20
10.4589932622
 30
0.0
 11
11.4574464813
 21
9.7971379213
 31
0.0
 11
11.5252128519
 21
9.8048427575
 31
0.0
 11
11.5932669743
 21
9.8173837253
 31
0.0
 11
11.6271921068
 21
9.8255642277
 31
0.0
 11
11.6609250988
 21
9.8350492156
 31
0.0
 11
11.7274216378
 21
9.857992216
 31
0.0
 11
11.7599879813
 21
9.8714751401
 31
0.0
 11
11.7919650096
 21
9.8862928826
 31
0.0
 11
11.8232503156
 21
9.9024310999
 31
0.0
 11
11.8537414922
 21
9.9198754485
 31
0.0
 11
11.8833373986
 21
9.9386066937
 31
0.0
 11
11.9119419603
 21
9.9585860356
 31
0.0
 11
11.9394603688
 21
9.979769783
 31
0.0
 11
11.965797816
 21
10.0021142448
 31
0.0
 11
12.0145803244
 21
10.0500763088
 31
0.0
 11
12.0368766498
 21
10.0755594515
 31
0.0
 11
12.0576796761
 21
10.1019515086
 31
0.0
 11
12.0769221825
 21
10.1291801877
 31
0.0
 11
12.0945581041
 21
10.157161506
 31
0.0
 11
12.1105466645
 21
10.1858085578
 31
0.0
 11
12.1248470878
 21
10.2150344373
 31
0.0
 11
12.1374262812
 21
10.2447515843
 31
0.0
 11
12.1482818865
 21
10.2748698198
 31
0.0
 11
12.1574192288
 21
10.3052983103
 31
0.0
 11
12.1648436333
 21
10.3359462222
 31
0.0
 11
12.1705635833
 21
10.3667239384
 31
0.0
 11
12.1746001953
 21
10.3975467072
 31
0.0
 11
12.1769777438
 21
10.4283309935
 31
0.0
 11
12.1777205033
 21
10.4589932622
 31
0.0
  0
SPLINE
  5
360
100
AcDbEntity
  8
0
100
AcDbSpline
 62
9
  6
CONTINUOUS
 70
0
 71
3
 72
82
 73
78
 74
76
 42
0.0000001
 43
0.0000001
 44
0.0000000001
 12
0.0534032593
 22
-1.4494385073
 32
0.0
 13
-1.447475455
 23
-0.0924050952
 33
0.0
 40
0.0
 40
0.0
 40
0.0
 40
0.0
 40
0.0153830878
 40
0.0304329642
 40
0.0452634979
 40
0.0599791263
 40
0.0673241578
 40
0.0746755058
 40
0.0820438248
 40
0.0857375596
 40
0.0894386725
 40
0.0968614846
 40
0.1043089133
 40
0.1117776112
 40
0.1192643334
 40
0.1342791614
 40
0.1493299547
 40
0.1568621755
 40
0.1643954851
 40
0.1719275564
 40
0.1794569538
 40
0.1869845545
 40
0.1945116207
 40
0.2095685596
 40
0.2246371686
 40
0.2397256001
 40
0.2548411583
 40
0.2699899644
 40
0.2851735634
 40
0.3003909801
 40
0.3156413437
 40
0.330923951
 40
0.3462382877
 40
0.3615841232
 40
0.376961932
 40
0.3923723691
 40
0.423290727
 40
0.4543447759
 40
0.4855365238
 40
0.5168667582
 40
0.5325848855
 40
0.5483374656
 40
0.5799431902
 40
0.6116840733
 40
0.627605221
 40
0.6435583453
 40
0.6595415913
 40
0.6755530595
 40
0.6915909677
 40
0.7076536722
 40
0.7237397023
 40
0.739848873
 40
0.7559826312
 40
0.772141921
 40
0.7883269988
 40
0.7964292179
 40
0.8045376818
 40
0.8126522433
 40
0.820772624
 40
0.8288979559
 40
0.8370272561
 40
0.8532942738
 40
0.8695691404
 40
0.8777089698
 40
0.8858502499
 40
0.8939932047
 40
0.9021382655
 40
0.9062118123
 40
0.9102861474
 40
0.9184375763
 40
0.9265931415
 40
0.9347526525
 40
0.9429153042
 40
0.951079797
 40
0.9674073314
 40
0.983719481
 40
1.0
 40
1.0
 40
1.0
 40
1.0
 10
12.4224464805
 20
10.3290679308
 30
0.0
 10
12.4227203162
 20
10.3216356508
 30
0.0
 10
12.4229145339
 20
10.3069170393
 30
0.0
 10
12.4222168356
 20
10.2850380289
 30
0.0
 10
12.420647136
 20
10.2635288406
 30
0.0
 10
12.4187119558
 20
10.2457948121
 30
0.0
 10
12.4168529015
 20
10.2316965814
 30
0.0
 10
12.4153175514
 20
10.2211396336
 30
0.0
 10
12.4139333532
 20
10.2123453238
 30
0.0
 10
12.41277099
 20
10.2053029764
 30
0.0
 10
12.411571024
 20
10.1982402123
 30
0.0
 10
12.4100024555
 20
10.189399358
 30
0.0
 10
12.40800842
 20
10.1787845485
 30
0.0
 10
12.4058970083
 20
10.1681609203
 30
0.0
 10
12.4029175009
 20
10.1539804828
 30
0.0
 10
12.3988821636
 20
10.1362772468
 30
0.0
 10
12.394410083
 20
10.1186561824
 30
0.0
 10
12.3905503788
 20
10.1046162169
 30
0.0
 10
12.3875106477
 20
10.0941218706
 30
0.0
 10
12.3843228402
 20
10.0836729613
 30
0.0
 10
12.3809830344
 20
10.0732745317
 30
0.0
 10
12.3774938957
 20
10.0629278008
 30
0.0
 10
12.3726448688
 20
10.0492004789
 30
0.0
 10
12.3662179823
 20
10.0321658828
 30
0.0
 10
12.3579392869
 20
10.011931553
 30
0.0
 10
12.3491087832
 20
9.9919009424
 30
0.0
 10
12.3397413243
 20
9.9720730604
 30
0.0
 10
12.3298547453
 20
9.9524474245
 30
0.0
 10
12.3194556448
 20
9.9330325806
 30
0.0
 10
12.3085462136
 20
9.9138433107
 30
0.0
 10
12.2971306465
 20
9.8948948276
 30
0.0
 10
12.2852127199
 20
9.876202597
 30
0.0
 10
12.2727964673
 20
9.8577818513
 30
0.0
 10
12.2598850798
 20
9.8396482011
 30
0.0
 10
12.2464868643
 20
9.8218129384
 30
0.0
 10
12.2279674918
 20
9.7984200071
 30
0.0
 10
12.2036410701
 20
9.7699734004
 30
0.0
 10
12.1726831199
 20
9.737231029
 30
0.0
 10
12.1400026244
 20
9.7059195856
 30
0.0
 10
12.1114313132
 20
9.6811044817
 30
0.0
 10
12.0877982583
 20
9.6620382555
 30
0.0
 10
12.0636059668
 20
9.6434671133
 30
0.0
 10
12.0324397891
 20
9.6212786147
 30
0.0
 10
12.0001894158
 20
9.6005472054
 30
0.0
 10
11.9737470143
 20
9.5848344453
 30
0.0
 10
11.9535830849
 20
9.5734819588
 30
0.0
 10
11.9331203159
 20
9.5625844431
 30
0.0
 10
11.9123707173
 20
9.5521518266
 30
0.0
 10
11.8913464498
 20
9.5421943306
 30
0.0
 10
11.870059792
 20
9.5327217589
 30
0.0
 10
11.8485219308
 20
9.5237451183
 30
0.0
 10
11.8267453054
 20
9.5152693684
 30
0.0
 10
11.804746768
 20
9.5072834551
 30
0.0
 10
11.7825410794
 20
9.499778152
 30
0.0
 10
11.7638831895
 20
9.4939182121
 30
0.0
 10
11.7488681997
 20
9.4894604879
 30
0.0
 10
11.737559791
 20
9.4862298114
 30
0.0
 10
11.7262106467
 20
9.4831120609
 30
0.0
 10
11.7148230977
 20
9.4801055212
 30
0.0
 10
11.7033978851
 20
9.4772160677
 30
0.0
 10
11.6881127504
 20
9.4735286077
 30
0.0
 10
11.6689188562
 20
9.4692479594
 30
0.0
 10
11.6496174646
 20
9.4654524324
 30
0.0
 10
11.6341134876
 20
9.4627344664
 30
0.0
 10
11.6224540351
 20
9.4608620941
 30
0.0
 10
11.6107655114
 20
9.4591630419
 30
0.0
 10
11.6010024486
 20
9.4578976076
 30
0.0
 10
11.5931789246
 20
9.4569788298
 30
0.0
 10
11.5853450548
 20
9.4561239741
 30
0.0
 10
11.5755369162
 20
9.4551718789
 30
0.0
 10
11.5637486009
 20
9.4541891033
 30
0.0
 10
11.5519445114
 20
9.4533404555
 30
0.0
 10
11.540128896
 20
9.4526001204
 30
0.0
 10
11.5243654862
 20
9.4517231668
 30
0.0
 10
11.5046606643
 20
9.4507694601
 30
0.0
 10
11.4810357662
 20
9.4496467143
 30
0.0
 10
11.4653016985
 20
9.4487745232
 30
0.0
 10
11.4574464813
 20
9.4482730556
 30
0.0
 11
12.4224464805
 21
10.3290679308
 31
0.0
 11
12.4227471802
 21
10.3067579886
 31
0.0
 11
12.4220634882
 21
10.2849400268
 31
0.0
 11
12.4205146194
 21
10.2634853305
 31
0.0
 11
12.4182197887
 21
10.2422651852
 31
0.0
 11
12.4168298924
 21
10.2317028457
 31
0.0
 11
12.4152982112
 21
10.2211508759
 31
0.0
 11
12.413639647
 21
10.2105931864
 31
0.0
 11
12.4127674231
 21
10.2053071904
 31
0.0
 11
12.4118681304
 21
10.200014877
 31
0.0
 11
12.4099867455
 21
10.189414327
 31
0.0
 11
12.4079917834
 21
10.1787982318
 31
0.0
 11
12.405879431
 21
10.1681734149
 31
0.0
 11
12.4036458751
 21
10.1575466997
 31
0.0
 11
12.3987999004
 21
10.1363148678
 31
0.0
 11
12.393423354
 21
10.1151573229
 31
0.0
 11
12.3905265835
 21
10.1046234666
 31
0.0
 11
12.3874857307
 21
10.0941286521
 31
0.0
 11
12.3842969831
 21
10.083679702
 31
0.0
 11
12.380957749
 21
10.0732819396
 31
0.0
 11
12.3774691987
 21
10.0629360683
 31
0.0
 11
12.3738332243
 21
10.052641905
 31
0.0
 11
12.3661265719
 21
10.0322079696
 31
0.0
 11
12.3578529294
 21
10.0119786678
 31
0.0
 11
12.3490274344
 21
9.9919525342
 31
0.0
 11
12.3396652243
 21
9.9721281031
 31
0.0
 11
12.3297808658
 21
9.9525047669
 31
0.0
 11
12.3193824436
 21
9.9330916565
 31
0.0
 11
12.3084739337
 21
9.9139040754
 31
0.0
 11
12.2970592471
 21
9.8949574252
 31
0.0
 11
12.2851422947
 21
9.8762671077
 31
0.0
 11
12.2727269872
 21
9.8578485244
 31
0.0
 11
12.2598176407
 21
9.8397166594
 31
0.0
 11
12.2464218312
 21
9.8218831345
 31
0.0
 11
12.232548707
 21
9.8043579502
 31
0.0
 11
12.2034071486
 21
9.7702725632
 31
0.0
 11
12.1724663473
 21
9.7375402967
 31
0.0
 11
12.1398030242
 21
9.7062373707
 31
0.0
 11
12.1054977042
 21
9.6764359301
 31
0.0
 11
12.0877545241
 21
9.6621207428
 31
0.0
 11
12.0696313872
 21
9.6482075148
 31
0.0
 11
12.0322905717
 21
9.6216158018
 31
0.0
 11
11.9935669074
 21
9.5967171015
 31
0.0
 11
11.9737152102
 21
9.5849201423
 31
0.0
 11
11.9535524331
 21
9.5735682822
 31
0.0
 11
11.9330906948
 21
9.5626713419
 31
0.0
 11
11.9123421796
 21
9.5522394324
 31
0.0
 11
11.8913190716
 21
9.5422826647
 31
0.0
 11
11.8700335552
 21
9.5328111498
 31
0.0
 11
11.8484978252
 21
9.5238349202
 31
0.0
 11
11.8267249733
 21
9.5153572681
 31
0.0
 11
11.804729665
 21
9.5073696614
 31
0.0
 11
11.7825267251
 21
9.499862371
 31
0.0
 11
11.7601309784
 21
9.4928256679
 31
0.0
 11
11.7488654352
 21
9.4894807461
 31
0.0
 11
11.7375572497
 21
9.4862498228
 31
0.0
 11
11.7262082748
 21
9.4831316818
 31
0.0
 11
11.7148202877
 21
9.4801259325
 31
0.0
 11
11.7033945774
 21
9.4772374835
 31
0.0
 11
11.6919322399
 21
9.4744733363
 31
0.0
 11
11.6689020667
 21
9.4693459741
 31
0.0
 11
11.6457385339
 21
9.4647998996
 31
0.0
 11
11.6341094969
 21
9.4627623621
 31
0.0
 11
11.6224504071
 21
9.4608911666
 31
0.0
 11
11.6107623603
 21
9.4591933199
 31
0.0
 11
11.5990464521
 21
9.4576758287
 31
0.0
 11
11.5931783925
 21
9.4569869061
 31
0.0
 11
11.587303789
 21
9.4563455915
 31
0.0
 11
11.5755365316
 21
9.4551987445
 31
0.0
 11
11.5637487754
 21
9.4542116761
 31
0.0
 11
11.5519448232
 21
9.4533586586
 31
0.0
 11
11.5401289777
 21
9.4526139647
 31
0.0
 11
11.5283055417
 21
9.4519518668
 31
0.0
 11
11.5046531095
 21
9.450772549
 31
0.0
 11
11.4810219486
 21
9.4496148853
 31
0.0
 11
11.4574464813
 21
9.4482730556
 31
0.0
  0
SPLINE
  5
361
100
AcDbEntity
  8
0
100
AcDbSpline
 62
9
  6
CONTINUOUS
 70
0
 71
3
 72
31
 73
27
 74
25
 42
0.0000001
 43
0.0000001
 44
0.0000000001
 12
0.9790002826
 22
0.0
 32
0.0
 13
0.0712564795
 23
0.9764036397
 33
0.0
 40
0.0
 40
0.0
 40
0.0
 40
0.0
 40
0.0627410106
 40
0.1258354094
 40
0.1575329786
 40
0.1893207881
 40
0.2211914453
 40
0.2531398085
 40
0.2851610859
 40
0.3172426431
 40
0.3815114191
 40
0.4136912642
 40
0.4458725321
 40
0.5101396778
 40
0.5741742718
 40
0.6060610024
 40
0.6378230494
 40
0.7008614744
 40
0.7321079293
 40
0.763129872
 40
0.8243799549
 40
0.8545788113
 40
0.8844498101
 40
0.9430665174
 40
0.9717634467
 40
1.0
 40
1.0
 40
1.0
 40
1.0
 10
11.4574464813
 20
9.8725005226
 30
0.0
 10
11.4779209703
 20
9.8725005226
 30
0.0
 10
11.5190074207
 20
9.8743136721
 30
0.0
 10
11.5700273197
 20
9.8812085579
 30
0.0
 10
11.6104911335
 20
9.8895769228
 30
0.0
 10
11.6406484676
 20
9.8972962815
 30
0.0
 10
11.6704880224
 20
9.9064473023
 30
0.0
 10
11.6999321372
 20
9.9170283089
 30
0.0
 10
11.7288994885
 20
9.9290362388
 30
0.0
 10
11.7667965999
 20
9.9469174265
 30
0.0
 10
11.8034118335
 20
9.9675368843
 30
0.0
 10
11.8383982968
 20
9.9907546474
 30
0.0
 10
11.8722186201
 20
10.0156416567
 30
0.0
 10
11.912102664
 20
10.0497187798
 30
0.0
 10
11.9483909141
 20
10.087468776
 30
0.0
 10
11.9750158858
 20
10.1195387183
 30
0.0
 10
11.9998587927
 20
10.1526007441
 30
0.0
 10
12.0221494149
 20
10.1872609199
 30
0.0
 10
12.041751539
 20
10.2231621989
 30
0.0
 10
12.0593703339
 20
10.2594300782
 30
0.0
 10
12.0742615043
 20
10.2965927633
 30
0.0
 10
12.086433297
 20
10.3342771731
 30
0.0
 10
12.0966754792
 20
10.3716407784
 30
0.0
 10
12.1043400055
 20
10.4091653908
 30
0.0
 10
12.1094801224
 20
10.4465292865
 30
0.0
 10
12.1112284518
 20
10.4650332402
 30
0.0
 10
12.1118991309
 20
10.4742233313
 30
0.0
 11
11.4574464813
 21
9.8725005226
 31
0.0
 11
11.5188094069
 21
9.875227
 31
0.0
 11
11.5800194662
 21
9.8835210731
 31
0.0
 11
11.6104083175
 21
9.8898058443
 31
0.0
 11
11.640556338
 21
9.8975238971
 31
0.0
 11
11.6703859994
 21
9.9066736273
 31
0.0
 11
11.6998197734
 21
9.9172534309
 31
0.0
 11
11.7287794446
 21
9.9292570631
 31
0.0
 11
11.7571840514
 21
9.9426597336
 31
0.0
 11
11.8120014822
 21
9.9735444984
 31
0.0
 11
11.8382520978
 21
9.9909632264
 31
0.0
 11
11.8636275724
 21
10.0096362003
 31
0.0
 11
11.911452551
 21
10.0505188371
 31
0.0
 11
11.9549035767
 21
10.0957076646
 31
0.0
 11
11.9748433691
 21
10.119726681
 31
0.0
 11
11.9935207289
 21
10.1445874644
 31
0.0
 11
12.02691137
 21
10.1964889226
 31
0.0
 11
12.0415704068
 21
10.2233381009
 31
0.0
 11
12.0548390042
 21
10.2506567946
 31
0.0
 11
12.0771647846
 21
10.3063094913
 31
0.0
 11
12.0862531589
 21
10.3344426086
 31
0.0
 11
12.093984186
 21
10.3626459091
 31
0.0
 11
12.1054736256
 21
10.418869745
 31
0.0
 11
12.1093013452
 21
10.4467020709
 31
0.0
 11
12.1118991309
 21
10.4742233313
 31
0.0
  0
SPLINE
  5
362
100
AcDbEntity
  8
0
100
AcDbSpline
 62
9
  6
CONTINUOUS
 70
0
 71
3
 72
8
 73
4
 74
2
 42
0.0000001
 43
0.0000001
 44
0.0000000001
 12
-0.0000097988
 22
0.0000985827
 32
0.0
 13
-0.0000097988
 23
0.0000985827
 33
0.0
 40
0.0
 40
0.0
 40
0.0
 40
0.0
 40
1.0
 40
1.0
 40
1.0
 40
1.0
 10
11.845831536
 20
11.5439877025
 30
0.0
 10
11.8458282698
 20
11.5440205634
 30
0.0
 10
11.8458250035
 20
11.5440534244
 30
0.0
 10
11.8458217372
 20
11.5440862853
 30
0.0
 11
11.845831536
 21
11.5439877025
 31
0.0
 11
11.8458217372
 21
11.5440862853
 31
0.0
  0
SPLINE
  5
363
100
AcDbEntity
  8
0
100
AcDbSpline
 62
9
  6
CONTINUOUS
 70
0
 71
3
 72
8
 73
4
 74
2
 42
0.0000001
 43
0.0000001
 44
0.0000000001
 12
-0.0000061911
 22
0.0000618948
 32
0.0
 13
-0.0000061911
 23
0.0000618948
 33
0.0
 40
0.0
 40
0.0
 40
0.0
 40
0.0
 40
1.0
 40
1.0
 40
1.0
 40
1.0
 10
11.8458217372
 20
11.5440862853
 30
0.0
 10
11.8458196735
 20
11.5441069169
 30
0.0
 10
11.8458176098
 20
11.5441275484
 30
0.0
 10
11.8458155461
 20
11.54414818
 30
0.0
 11
11.8458217372
 21
11.5440862853
 31
0.0
 11
11.8458155461
 21
11.54414818
 31
0.0
  0
SPLINE
  5
364
100
AcDbEntity
  8
0
100
AcDbSpline
 62
9
  6
CONTINUOUS
 70
0
 71
3
 72
41
 73
37
 74
35
 42
0.0000001
 43
0.0000001
 44
0.0000000001
 12
0.6037769851
 22
-0.006397285
 32
0.0
 13
0.4015250293
 23
-0.4509603352
 33
0.0
 40
0.0
 40
0.0
 40
0.0
 40
0.0
 40
0.0772359542
 40
0.1552001767
 40
0.2332864904
 40
0.3108845541
 40
0.3873830429
 40
0.4250294841
 40
0.4621730211
 40
0.4987384704
 40
0.5346512906
 40
0.5698377595
 40
0.6042251848
 40
0.6377421614
 40
0.6703188872
 40
0.7018875595
 40
0.7323828764
 40
0.761742682
 40
0.7899088037
 40
0.8168281563
 40
0.8424542113
 40
0.866748976
 40
0.8783889776
 40
0.8896872939
 40
0.9006429548
 40
0.9112562268
 40
0.9215288098
 40
0.931464067
 40
0.9410672904
 40
0.9503460053
 40
0.9593103156
 40
0.9679732863
 40
0.9763513559
 40
0.9844647643
 40
0.9923379674
 40
1.0
 40
1.0
 40
1.0
 40
1.0
 10
11.4574464813
 20
11.1647695203
 30
0.0
 10
11.4729909118
 20
11.1646048202
 30
0.0
 10
11.5042285326
 20
11.1644716957
 30
0.0
 10
11.5511820061
 20
11.1646710201
 30
0.0
 10
11.5982066888
 20
11.1650952023
 30
0.0
 10
11.6449357427
 20
11.165571219
 30
0.0
 10
11.6835269183
 20
11.1658689048
 30
0.0
 10
11.7139767341
 20
11.1659576165
 30
0.0
 10
11.7363893381
 20
11.165927716
 30
0.0
 10
11.7584525862
 20
11.1657800612
 30
0.0
 10
11.7801205823
 20
11.1654928581
 30
0.0
 10
11.8013474452
 20
11.1650443569
 30
0.0
 10
11.8220873123
 20
11.1644128117
 30
0.0
 10
11.842294346
 20
11.1635764936
 30
0.0
 10
11.8619227421
 20
11.1625136894
 30
0.0
 10
11.880926742
 20
11.1612027043
 30
0.0
 10
11.8992606456
 20
11.1596218616
 30
0.0
 10
11.9168788436
 20
11.1577495026
 30
0.0
 10
11.9337358095
 20
11.1555639743
 30
0.0
 10
11.9497862749
 20
11.153043633
 30
0.0
 10
11.9649848165
 20
11.150166748
 30
0.0
 10
11.9770698837
 20
11.1474163704
 30
0.0
 10
11.9862655942
 20
11.145002107
 30
0.0
 10
11.9928216784
 20
11.1431139747
 30
0.0
 10
11.9991300087
 20
11.1411199001
 30
0.0
 10
12.0051849257
 20
11.1390170773
 30
0.0
 10
12.0109807612
 20
11.1368027339
 30
0.0
 10
12.0165118573
 20
11.1344740645
 30
0.0
 10
12.0217725584
 20
11.1320282404
 30
0.0
 10
12.0267572078
 20
11.1294623987
 30
0.0
 10
12.0314601365
 20
11.1267736389
 30
0.0
 10
12.0358756582
 20
11.123959008
 30
0.0
 10
12.0399980235
 20
11.1210155308
 30
0.0
 10
12.043821496
 20
11.1179400966
 30
0.0
 10
12.047339969
 20
11.1147298882
 30
0.0
 10
12.0495050825
 20
11.1124698132
 30
0.0
 10
12.0505305818
 20
11.1113180556
 30
0.0
 11
11.4574464813
 21
11.1647695203
 31
0.0
 11
11.5040818164
 21
11.164538131
 31
0.0
 11
11.551157154
 21
11.1647083503
 31
0.0
 11
11.5983048486
 21
11.1651052813
 31
0.0
 11
11.6451572544
 21
11.165554027
 31
0.0
 11
11.6913467258
 21
11.1658796907
 31
0.0
 11
11.7140779719
 21
11.1659417114
 31
0.0
 11
11.7365056172
 21
11.1659073753
 31
0.0
 11
11.7585837061
 21
11.1657548202
 31
0.0
 11
11.7802662828
 21
11.165462184
 31
0.0
 11
11.8015073917
 21
11.1650076046
 31
0.0
 11
11.822261077
 21
11.1643692199
 31
0.0
 11
11.8424813831
 21
11.1635251677
 31
0.0
 11
11.8621223542
 21
11.162453586
 31
0.0
 11
11.8811380346
 21
11.1611326126
 31
0.0
 11
11.8994824687
 21
11.1595403854
 31
0.0
 11
11.9171097006
 21
11.1576550424
 31
0.0
 11
11.9339737748
 21
11.1554547213
 31
0.0
 11
11.9500287354
 21
11.1529175601
 31
0.0
 11
11.9652286269
 21
11.1500216967
 31
0.0
 11
11.9795274934
 21
11.146745269
 31
0.0
 11
11.9863246811
 21
11.1449575116
 31
0.0
 11
11.9928793793
 21
11.1430664148
 31
0.0
 11
11.9991858433
 21
11.1410692459
 31
0.0
 11
12.0052383288
 21
11.138963272
 31
0.0
 11
12.0110310913
 21
11.1367457605
 31
0.0
 11
12.0165583863
 21
11.1344139786
 31
0.0
 11
12.0218144694
 21
11.1319651934
 31
0.0
 11
12.0267935961
 21
11.1293966723
 31
0.0
 11
12.0314900219
 21
11.1267056825
 31
0.0
 11
12.0358980024
 21
11.1238894911
 31
0.0
 11
12.0400117931
 21
11.1209453655
 31
0.0
 11
12.0438256495
 21
11.1178705729
 31
0.0
 11
12.0473338273
 21
11.1146623805
 31
0.0
 11
12.0505305818
 21
11.1113180556
 31
0.0
  0
LINE
  5
365
100
AcDbEntity
  8
0
100
AcDbLine
 62
9
  6
CONTINUOUS
 10
12.0611775733
 20
11.0937890551
 11
12.1003530248
 21
11.0527606473
  0
SPLINE
  5
366
100
AcDbEntity
  8
0
100
AcDbSpline
 62
9
  6
CONTINUOUS
 70
0
 71
3
 72
11
 73
7
 74
5
 42
0.0000001
 43
0.0000001
 44
0.0000000001
 12
-0.2107082835
 22
-0.0070833692
 32
0.0
 13
-0.2108273105
 23
-0.0000000001
 33
0.0
 40
0.0
 40
0.0
 40
0.0
 40
0.0
 40
0.2494179985
 40
0.5006979264
 40
0.7516221138
 40
1.0
 40
1.0
 40
1.0
 40
1.0
 10
11.6682098161
 20
11.1059117593
 30
0.0
 10
11.65069167
 20
11.1053228528
 30
0.0
 10
11.6155247169
 20
11.1041372028
 30
0.0
 10
11.5627268505
 20
11.10256868
 30
0.0
 10
11.5099905366
 20
11.1014348338
 30
0.0
 10
11.4749014285
 20
11.1011238746
 30
0.0
 10
11.4574464813
 20
11.1011238746
 30
0.0
 11
11.6682098161
 21
11.1059117593
 31
0.0
 11
11.6156543282
 21
11.1041765427
 31
0.0
 11
11.5626999333
 21
11.1026403861
 31
0.0
 11
11.5098096461
 21
11.101542945
 31
0.0
 11
11.4574464813
 21
11.1011238746
 31
0.0
  0
SPLINE
  5
367
100
AcDbEntity
  8
0
100
AcDbSpline
 62
9
  6
CONTINUOUS
 70
0
 71
3
 72
35
 73
31
 74
29
 42
0.0000001
 43
0.0000001
 44
0.0000000001
 12
0.510170286
 22
-0.0127929137
 32
0.0
 13
0.2516136974
 23
-0.4439909083
 33
0.0
 40
0.0
 40
0.0
 40
0.0
 40
0.0
 40
0.0765069983
 40
0.153572191
 40
0.2306086742
 40
0.3070353919
 40
0.3822794406
 40
0.4192823477
 40
0.4557801272
 40
0.4917050166
 40
0.5269905693
 40
0.5615718968
 40
0.5953859633
 40
0.6283719478
 40
0.6604716928
 40
0.691630262
 40
0.7217966408
 40
0.7509246211
 40
0.7789739243
 40
0.8059116354
 40
0.8317140386
 40
0.8563689699
 40
0.8798788191
 40
0.9022643237
 40
0.9235692669
 40
0.9438660827
 40
0.963262124
 40
0.9819058817
 40
0.9910085119
 40
1.0
 40
1.0
 40
1.0
 40
1.0
 10
11.4574464813
 20
11.3624643145
 30
0.0
 10
11.4704570137
 20
11.3621380654
 30
0.0
 10
11.496571744
 20
11.3614297891
 30
0.0
 10
11.5357787574
 20
11.3601083174
 30
0.0
 10
11.5749586932
 20
11.3584273651
 30
0.0
 10
11.6138066433
 20
11.3562929901
 30
0.0
 10
11.6458249978
 20
11.3540464208
 30
0.0
 10
11.6710385518
 20
11.3519162069
 30
0.0
 10
11.6895697556
 20
11.3501540743
 30
0.0
 10
11.7077887281
 20
11.3482069275
 30
0.0
 10
11.7256573788
 20
11.3460629154
 30
0.0
 10
11.7431376262
 20
11.3437102369
 30
0.0
 10
11.7601914158
 20
11.3411370828
 30
0.0
 10
11.7767807236
 20
11.3383316497
 30
0.0
 10
11.7928675649
 20
11.3352821323
 30
0.0
 10
11.8084140049
 20
11.3319767201
 30
0.0
 10
11.8233821717
 20
11.3284035878
 30
0.0
 10
11.8377342725
 20
11.3245508814
 30
0.0
 10
11.8514326122
 20
11.3204066947
 30
0.0
 10
11.8644396131
 20
11.3159590331
 30
0.0
 10
11.8767178323
 20
11.3111957584
 30
0.0
 10
11.8882299693
 20
11.3061045013
 30
0.0
 10
11.8989388379
 20
11.3006725521
 30
0.0
 10
11.908807304
 20
11.2948866626
 30
0.0
 10
11.9177980187
 20
11.2887329914
 30
0.0
 10
11.9258732974
 20
11.2821964975
 30
0.0
 10
11.9329936376
 20
11.2752625541
 30
0.0
 10
11.938139466
 20
11.2690883714
 30
0.0
 10
11.9417083905
 20
11.2639545161
 30
0.0
 10
11.9433108648
 20
11.2613237756
 30
0.0
 10
11.9440649919
 20
11.2599930626
 30
0.0
 11
11.4574464813
 21
11.3624643145
 31
0.0
 11
11.4964755578
 21
11.361389738
 31
0.0
 11
11.5357813934
 21
11.3600479779
 31
0.0
 11
11.5750585279
 21
11.3583440059
 31
0.0
 11
11.6140015008
 21
11.3561827931
 31
0.0
 11
11.6523048518
 21
11.3534693112
 31
0.0
 11
11.6711212127
 21
11.3518757728
 31
0.0
 11
11.6896631204
 21
11.3501085314
 31
0.0
 11
11.7078923924
 21
11.3481557083
 31
0.0
 11
11.7257708463
 21
11.3460054251
 31
0.0
 11
11.7432602993
 21
11.3436458032
 31
0.0
 11
11.760322569
 21
11.3410649639
 31
0.0
 11
11.7769194728
 21
11.3382510287
 31
0.0
 11
11.7930128282
 21
11.3351921191
 31
0.0
 11
11.8085644526
 21
11.3318763564
 31
0.0
 11
11.8235361635
 21
11.328291862
 31
0.0
 11
11.8378897784
 21
11.3244267575
 31
0.0
 11
11.8515871146
 21
11.3202691642
 31
0.0
 11
11.8645899896
 21
11.3158072036
 31
0.0
 11
11.876860221
 21
11.311028997
 31
0.0
 11
11.888359626
 21
11.305922666
 31
0.0
 11
11.8990500223
 21
11.3004763318
 31
0.0
 11
11.9088932271
 21
11.2946781161
 31
0.0
 11
11.9178510581
 21
11.2885161401
 31
0.0
 11
11.9258853326
 21
11.2819785254
 31
0.0
 11
11.9329578681
 21
11.2750533932
 31
0.0
 11
11.9390304821
 21
11.2677288652
 31
0.0
 11
11.9416798864
 21
11.2639131156
 31
0.0
 11
11.9440649919
 21
11.2599930626
 31
0.0
  0
SPLINE
  5
368
100
AcDbEntity
  8
0
100
AcDbSpline
 62
6
  6
CONTINUOUS
 70
0
 71
3
 72
11
 73
7
 74
5
 42
0.0000001
 43
0.0000001
 44
0.0000000001
 12
0.0922399965
 22
-0.1556087179
 32
0.0
 13
0.1248633261
 23
-0.1308871263
 33
0.0
 40
0.0
 40
0.0
 40
0.0
 40
0.0
 40
0.2493601184
 40
0.4990809209
 40
0.7492633424
 40
1.0
 40
1.0
 40
1.0
 40
1.0
 10
11.9520661334
 20
11.2376148446
 30
0.0
 10
11.9597331255
 20
11.2246806418
 30
0.0
 10
11.9758258922
 20
11.1992286742
 30
0.0
 10
12.0021190877
 20
11.1624603786
 30
0.0
 10
12.0305021273
 20
11.1271738383
 30
0.0
 10
12.0507416356
 20
11.1047284554
 30
0.0
 10
12.0611775733
 20
11.0937890553
 30
0.0
 11
11.9520661334
 21
11.2376148446
 31
0.0
 11
11.9761690017
 21
11.1994869143
 31
0.0
 11
12.0024421616
 21
11.1627405029
 31
0.0
 11
12.0308051674
 21
11.127474815
 31
0.0
 11
12.0611775733
 21
11.0937890553
 31
0.0
  0
SPLINE
  5
369
100
AcDbEntity
  8
0
100
AcDbSpline
 62
9
  6
CONTINUOUS
 70
0
 71
3
 72
35
 73
31
 74
29
 42
0.0000001
 43
0.0000001
 44
0.0000000001
 12
0.4709073238
 22
-0.0072158919
 32
0.0
 13
0.1783244998
 23
-0.4358969482
 33
0.0
 40
0.0
 40
0.0
 40
0.0
 40
0.0
 40
0.0756843128
 40
0.151778628
 40
0.2277345962
 40
0.303012536
 40
0.3770841841
 40
0.4135076697
 40
0.4494387367
 40
0.4848164783
 40
0.5195816943
 40
0.5536771862
 40
0.5870481151
 40
0.6196424364
 40
0.6514114305
 40
0.6823103545
 40
0.7122992457
 40
0.7413439132
 40
0.7694171664
 40
0.7965003353
 40
0.8225851459
 40
0.8476760178
 40
0.8717928413
 40
0.8949742601
 40
0.9172814101
 40
0.9388019297
 40
0.959653841
 40
0.9799886151
 40
0.9900226006
 40
1.0
 40
1.0
 40
1.0
 40
1.0
 10
11.4574464813
 20
11.4942402295
 30
0.0
 10
11.4693265804
 20
11.4940581862
 30
0.0
 10
11.4931482734
 20
11.4934591235
 30
0.0
 10
11.5288649778
 20
11.4918252012
 30
0.0
 10
11.5644739419
 20
11.4894080099
 30
0.0
 10
11.5996986539
 20
11.4861643095
 30
0.0
 10
11.6286627183
 20
11.4827179092
 30
0.0
 10
11.6514224246
 20
11.4794869573
 30
0.0
 10
11.6681277724
 20
11.4768421278
 30
0.0
 10
11.6845290979
 20
11.4739569191
 30
0.0
 10
11.700591909
 20
11.4708258523
 30
0.0
 10
11.7162816976
 20
11.4674435021
 30
0.0
 10
11.7315639899
 20
11.463804425
 30
0.0
 10
11.7464043398
 20
11.4599031731
 30
0.0
 10
11.7607683384
 20
11.4557342838
 30
0.0
 10
11.7746216203
 20
11.4512922715
 30
0.0
 10
11.7879298718
 20
11.4465716145
 30
0.0
 10
11.8006588375
 20
11.4415667361
 30
0.0
 10
11.8127743264
 20
11.4362719768
 30
0.0
 10
11.8242422107
 20
11.4306815571
 30
0.0
 10
11.8350284136
 20
11.4247895265
 30
0.0
 10
11.8450988762
 20
11.4185896975
 30
0.0
 10
11.8544194835
 20
11.4120755796
 30
0.0
 10
11.8629559487
 20
11.4052402805
 30
0.0
 10
11.8706735703
 20
11.3980765822
 30
0.0
 10
11.8775370939
 20
11.3905766333
 30
0.0
 10
11.8835098971
 20
11.382733532
 30
0.0
 10
11.8877334632
 20
11.3758725299
 30
0.0
 10
11.8906112067
 20
11.3702273605
 30
0.0
 10
11.8918830361
 20
11.3673526033
 30
0.0
 10
11.8924761077
 20
11.3659028973
 30
0.0
 11
11.4574464813
 21
11.4942402295
 31
0.0
 11
11.4930795656
 21
11.4933389276
 31
0.0
 11
11.5288793035
 21
11.4916925079
 31
0.0
 11
11.5645687338
 21
11.4892572161
 31
0.0
 11
11.5998708958
 21
11.4859892982
 31
0.0
 11
11.6345088283
 21
11.4818449997
 31
0.0
 11
11.6514921583
 21
11.4794305347
 31
0.0
 11
11.6682055705
 21
11.4767805666
 31
0.0
 11
11.6846144449
 21
11.4738896264
 31
0.0
 11
11.7006841614
 21
11.4707522446
 31
0.0
 11
11.7163800997
 21
11.467362952
 31
0.0
 11
11.7316676399
 21
11.4637162794
 31
0.0
 11
11.7465121617
 21
11.4598067575
 31
0.0
 11
11.7608790451
 21
11.4556289169
 31
0.0
 11
11.7747336699
 21
11.4511772884
 31
0.0
 11
11.7880414161
 21
11.4464464027
 31
0.0
 11
11.8007676634
 21
11.4414307906
 31
0.0
 11
11.8128777918
 21
11.4361249827
 31
0.0
 11
11.8243371811
 21
11.4305235098
 31
0.0
 11
11.8351112113
 21
11.4246209027
 31
0.0
 11
11.8451652622
 21
11.4184116919
 31
0.0
 11
11.8544647136
 21
11.4118904083
 31
0.0
 11
11.8629749455
 21
11.4050515826
 31
0.0
 11
11.8706613378
 21
11.3978897455
 31
0.0
 11
11.8774892702
 21
11.3903994277
 31
0.0
 11
11.8834241228
 21
11.3825751599
 31
0.0
 11
11.8884312753
 21
11.3744114729
 31
0.0
 11
11.8905761453
 21
11.370200638
 31
0.0
 11
11.8924761077
 21
11.3659028973
 31
0.0
  0
SPLINE
  5
36A
100
AcDbEntity
  8
0
100
AcDbSpline
 62
6
  6
CONTINUOUS
 70
0
 71
3
 72
13
 73
9
 74
7
 42
0.0000001
 43
0.0000001
 44
0.0000000001
 12
0.0464132657
 22
-0.1113054045
 32
0.0
 13
0.0614930018
 23
-0.1037385899
 33
0.0
 40
0.0
 40
0.0
 40
0.0
 40
0.0
 40
0.2461119534
 40
0.3702516581
 40
0.4950801691
 40
0.6205225935
 40
0.746506892
 40
1.0
 40
1.0
 40
1.0
 40
1.0
 10
11.8979060989
 20
11.3452580396
 30
0.0
 10
11.9017137188
 20
11.3361268428
 30
0.0
 10
11.9076957639
 20
11.3224938691
 30
0.0
 10
11.9161683938
 20
11.3044854423
 30
0.0
 10
11.9228113572
 20
11.2909792372
 30
0.0
 10
11.9297225769
 20
11.2775248984
 30
0.0
 10
11.9393122495
 20
11.2596354853
 30
0.0
 10
11.946870116
 20
11.2463805169
 30
0.0
 10
11.9520661334
 20
11.2376148444
 30
0.0
 11
11.8979060989
 21
11.3452580396
 31
0.0
 11
11.909822985
 21
11.3180757228
 31
0.0
 11
11.9161955274
 21
11.3045291615
 31
0.0
 11
11.9228394391
 21
11.2910209765
 31
0.0
 11
11.9297516791
 21
11.2775648244
 31
0.0
 11
11.936929192
 21
11.2641740897
 31
0.0
 11
11.9520661334
 21
11.2376148444
 31
0.0
  0
SPLINE
  5
36B
100
AcDbEntity
  8
0
100
AcDbSpline
 62
6
  6
CONTINUOUS
 70
0
 71
3
 72
35
 73
31
 74
29
 42
0.0000001
 43
0.0000001
 44
0.0000000001
 12
0.4623001781
 22
0.0
 32
0.0
 13
0.0881373839
 23
-0.4538207314
 33
0.0
 40
0.0
 40
0.0
 40
0.0
 40
0.0
 40
0.0737953082
 40
0.1477405104
 40
0.2214078298
 40
0.2943674167
 40
0.3661937795
 40
0.4015547238
 40
0.4364785485
 40
0.4709166599
 40
0.504822327
 40
0.5381510768
 40
0.5708611532
 40
0.6029140539
 40
0.6342751612
 40
0.6649144863
 40
0.69480755
 40
0.723936422
 40
0.7522909458
 40
0.7798701708
 40
0.8066840072
 40
0.8327551058
 40
0.8581209343
 40
0.8828359797
 40
0.9069739395
 40
0.9306296863
 40
0.9539206992
 40
0.9769875985
 40
0.9884903708
 40
1.0
 40
1.0
 40
1.0
 40
1.0
 10
11.4574464813
 20
11.6734473255
 30
0.0
 10
11.4688183427
 20
11.6734473255
 30
0.0
 10
11.4915885118
 20
11.6729087855
 30
0.0
 10
11.5256363866
 20
11.6705422639
 30
0.0
 10
11.5594152203
 20
11.6666521023
 30
0.0
 10
11.592658508
 20
11.6612758474
 30
0.0
 10
11.6198362263
 20
11.6555589892
 30
0.0
 10
11.6410857775
 20
11.6502558732
 30
0.0
 10
11.6566402511
 20
11.6459491484
 30
0.0
 10
11.6718607436
 20
11.6412974182
 30
0.0
 10
11.6867141039
 20
11.6363052929
 30
0.0
 10
11.701167077
 20
11.630977453
 30
0.0
 10
11.7151864586
 20
11.6253185406
 30
0.0
 10
11.7287390572
 20
11.6193331805
 30
0.0
 10
11.7417917065
 20
11.6130259638
 30
0.0
 10
11.7543112617
 20
11.6064014387
 30
0.0
 10
11.7662645985
 20
11.5994640957
 30
0.0
 10
11.7776186057
 20
11.5922183497
 30
0.0
 10
11.788340172
 20
11.5846685193
 30
0.0
 10
11.7983961626
 20
11.5768188033
 30
0.0
 10
11.8077533817
 20
11.5686732593
 30
0.0
 10
11.8163785171
 20
11.5602357863
 30
0.0
 10
11.8242380626
 20
11.5515101339
 30
0.0
 10
11.8312982266
 20
11.5424999126
 30
0.0
 10
11.8375248168
 20
11.5332087651
 30
0.0
 10
11.8428832099
 20
11.5236402111
 30
0.0
 10
11.8473381564
 20
11.5137989823
 30
0.0
 10
11.8502714033
 20
11.5053641012
 30
0.0
 10
11.8521240298
 20
11.4985070252
 30
0.0
 10
11.8528845262
 20
11.4950415833
 30
0.0
 10
11.853222669
 20
11.4933004806
 30
0.0
 11
11.4574464813
 21
11.6734473255
 31
0.0
 11
11.4915527402
 21
11.6726497127
 31
0.0
 11
11.5256555198
 21
11.6702819182
 31
0.0
 11
11.5594878445
 21
11.6663815076
 31
0.0
 11
11.5927827383
 21
11.6609860466
 31
0.0
 11
11.6252732255
 21
11.6541331008
 31
0.0
 11
11.6411333867
 21
11.6501718104
 31
0.0
 11
11.6566923303
 21
11.6458602359
 31
0.0
 11
11.6719166844
 21
11.641203073
 31
0.0
 11
11.6867730769
 21
11.6362050175
 31
0.0
 11
11.7012281359
 21
11.630870765
 31
0.0
 11
11.7152484895
 21
11.6252050113
 31
0.0
 11
11.7288007656
 21
11.6192124521
 31
0.0
 11
11.7418515922
 21
11.6128977831
 31
0.0
 11
11.7543675975
 21
11.6062656999
 31
0.0
 11
11.7663154093
 21
11.5993208983
 31
0.0
 11
11.7776616558
 21
11.592068074
 31
0.0
 11
11.788372965
 21
11.5845119227
 31
0.0
 11
11.7984159649
 21
11.5766571401
 31
0.0
 11
11.8077572835
 21
11.568508422
 31
0.0
 11
11.8163635488
 21
11.5600704639
 31
0.0
 11
11.8242013889
 21
11.5513479617
 31
0.0
 11
11.8312374318
 21
11.542345611
 31
0.0
 11
11.8374383055
 21
11.5330681076
 31
0.0
 11
11.8427706381
 21
11.5235201472
 31
0.0
 11
11.8472010575
 21
11.5137064254
 31
0.0
 11
11.8506961918
 21
11.5036316379
 31
0.0
 11
11.8520825983
 21
11.498497812
 31
0.0
 11
11.853222669
 21
11.4933004806
 31
0.0
  0
SPLINE
  5
36C
100
AcDbEntity
  8
0
100
AcDbSpline
 62
9
  6
CONTINUOUS
 70
0
 71
3
 72
23
 73
19
 74
17
 42
0.0000001
 43
0.0000001
 44
0.0000000001
 12
0.0
 22
0.0906381828
 32
0.0
 13
-0.089735411
 23
0.012760728
 33
0.0
 40
0.0
 40
0.0
 40
0.0
 40
0.0
 40
0.0549190782
 40
0.110103169
 40
0.1379005845
 40
0.1658789523
 40
0.2224841426
 40
0.2801478462
 40
0.3390173478
 40
0.3991939454
 40
0.4607461542
 40
0.5237220165
 40
0.5881543773
 40
0.6540111506
 40
0.7211917952
 40
0.7895577017
 40
0.858945793
 40
1.0
 40
1.0
 40
1.0
 40
1.0
 10
11.8960938345
 20
12.5976143854
 30
0.0
 10
11.8960938345
 20
12.5992736405
 30
0.0
 10
11.8959071631
 20
12.6026030185
 30
0.0
 10
11.8952048498
 20
12.6067191133
 30
0.0
 10
11.894362642
 20
12.6099656384
 30
0.0
 10
11.8933259942
 20
12.6132004869
 30
0.0
 10
11.8916781896
 20
12.6171794292
 30
0.0
 10
11.8891808487
 20
12.6217857119
 30
0.0
 10
11.8861798003
 20
12.6262114507
 30
0.0
 10
11.8826992579
 20
12.6304237078
 30
0.0
 10
11.8787629897
 20
12.6343898071
 30
0.0
 10
11.8743950912
 20
12.6380772418
 30
0.0
 10
11.8696201544
 20
12.6414499131
 30
0.0
 10
11.8644786799
 20
12.6444885349
 30
0.0
 10
11.8590141236
 20
12.6471778702
 30
0.0
 10
11.8532687162
 20
12.6495011577
 30
0.0
 10
11.8452516279
 20
12.6521013961
 30
0.0
 10
11.8390064005
 20
12.6534289026
 30
0.0
 10
11.8347872147
 20
12.6540288874
 30
0.0
 11
11.8960938345
 21
12.5976143854
 31
0.0
 11
11.8958145439
 21
12.6025843095
 31
0.0
 11
11.8949737253
 21
12.6075149164
 31
0.0
 11
11.8943413758
 21
12.609953779
 31
0.0
 11
11.8935682217
 21
12.6123689527
 31
0.0
 11
11.8916108203
 21
12.6171114784
 31
0.0
 11
11.8891252249
 21
12.6217091371
 31
0.0
 11
11.8861353516
 21
12.6261286034
 31
0.0
 11
11.8826651165
 21
12.6303365518
 31
0.0
 11
11.8787384359
 21
12.6342996567
 31
0.0
 11
11.8743792258
 21
12.6379845928
 31
0.0
 11
11.8696129652
 21
12.6413593127
 31
0.0
 11
11.8644774307
 21
12.6444018276
 31
0.0
 11
11.8590162187
 21
12.6470949089
 31
0.0
 11
11.8532729601
 21
12.6494213559
 31
0.0
 11
11.847291286
 21
12.6513639683
 31
0.0
 11
11.8347872147
 21
12.6540288874
 31
0.0
  0
SPLINE
  5
36D
100
AcDbEntity
  8
0
100
AcDbSpline
 62
6
  6
CONTINUOUS
 70
0
 71
3
 72
13
 73
9
 74
7
 42
0.0000001
 43
0.0000001
 44
0.0000000001
 12
0.0283990275
 22
-0.1236538201
 32
0.0
 13
0.0488296107
 23
-0.1171001328
 33
0.0
 40
0.0
 40
0.0
 40
0.0
 40
0.0
 40
0.1212488619
 40
0.2435630245
 40
0.4914131147
 40
0.6170469237
 40
0.7438015762
 40
1.0
 40
1.0
 40
1.0
 40
1.0
 10
11.8589026708
 20
11.4658346551
 30
0.0
 10
11.8600504541
 20
11.4608370268
 30
0.0
 10
11.8624674885
 20
11.4508230135
 30
0.0
 10
11.8677889903
 20
11.4307322246
 30
0.0
 10
11.8738261464
 20
11.4106442635
 30
0.0
 10
11.8805492102
 20
11.390584101
 30
0.0
 10
11.8878044418
 20
11.3703348282
 30
0.0
 10
11.8937360758
 20
11.3552583294
 30
0.0
 10
11.8979060989
 20
11.3452580396
 30
0.0
 11
11.8589026708
 21
11.4658346551
 31
0.0
 11
11.8625115617
 21
11.4508807538
 31
0.0
 11
11.8664840325
 21
11.4358794429
 31
0.0
 11
11.8755220773
 21
11.4057607927
 31
0.0
 11
11.8805857875
 21
11.3906469601
 31
0.0
 11
11.8860092065
 21
11.3755073033
 31
0.0
 11
11.8979060989
 21
11.3452580396
 31
0.0
  0
SPLINE
  5
36E
100
AcDbEntity
  8
0
100
AcDbSpline
 62
9
  6
CONTINUOUS
 70
0
 71
3
 72
39
 73
35
 74
33
 42
0.0000001
 43
0.0000001
 44
0.0000000001
 12
-0.0000048244
 22
0.5468267404
 32
0.0
 13
-0.5468267337
 23
-0.0000856636
 33
0.0
 40
0.0
 40
0.0
 40
0.0
 40
0.0
 40
0.0269820419
 40
0.0540281807
 40
0.0811712554
 40
0.1084455941
 40
0.135892497
 40
0.163552974
 40
0.1914641125
 40
0.2196585498
 40
0.2481654325
 40
0.2770117544
 40
0.3062202133
 40
0.335806889
 40
0.3657839603
 40
0.3961599054
 40
0.4269385424
 40
0.4581203652
 40
0.4897029597
 40
0.5216795875
 40
0.5540401527
 40
0.5867719601
 40
0.6198583253
 40
0.6532795472
 40
0.6870141544
 40
0.7210370289
 40
0.7553192871
 40
0.7898304005
 40
0.8245407466
 40
0.859422878
 40
0.8944494954
 40
0.9295873058
 40
0.9647879347
 40
1.0
 40
1.0
 40
1.0
 40
1.0
 10
11.8500096986
 20
11.6923314751
 30
0.0
 10
11.8500096552
 20
11.6972496425
 30
0.0
 10
11.8496937081
 20
11.7071005492
 30
0.0
 10
11.848275049
 20
11.7218374941
 30
0.0
 10
11.8459123748
 20
11.7365074694
 30
0.0
 10
11.8426046391
 20
11.7510682905
 30
0.0
 10
11.8383650637
 20
11.7654835921
 30
0.0
 10
11.8332098435
 20
11.7797205269
 30
0.0
 10
11.8271543694
 20
11.7937467209
 30
0.0
 10
11.8202135028
 20
11.8075292149
 30
0.0
 10
11.8124018299
 20
11.8210345501
 30
0.0
 10
11.8037334337
 20
11.8342281203
 30
0.0
 10
11.7942274959
 20
11.847076882
 30
0.0
 10
11.7839101664
 20
11.8595518909
 30
0.0
 10
11.7728063265
 20
11.8716227027
 30
0.0
 10
11.7609424789
 20
11.8832594046
 30
0.0
 10
11.7483488477
 20
11.8944353124
 30
0.0
 10
11.7350553109
 20
11.9051231496
 30
0.0
 10
11.7210924219
 20
11.915295371
 30
0.0
 10
11.7064954761
 20
11.9249299625
 30
0.0
 10
11.6912998794
 20
11.934004883
 30
0.0
 10
11.6755413035
 20
11.9424973482
 30
0.0
 10
11.6592581417
 20
11.9503881644
 30
0.0
 10
11.6424896249
 20
11.9576590823
 30
0.0
 10
11.6252750929
 20
11.9642903366
 30
0.0
 10
11.6076569483
 20
11.9702672294
 30
0.0
 10
11.5896793492
 20
11.9755784706
 30
0.0
 10
11.571386046
 20
11.9802119054
 30
0.0
 10
11.5528200207
 20
11.9841556053
 30
0.0
 10
11.5340234123
 20
11.9873979316
 30
0.0
 10
11.5150389601
 20
11.9899265943
 30
0.0
 10
11.4959137728
 20
11.9917316566
 30
0.0
 10
11.4767006415
 20
11.9928142238
 30
0.0
 10
11.4638647809
 20
11.9930538147
 30
0.0
 10
11.4574464813
 20
11.9930528093
 30
0.0
 11
11.8500096986
 21
11.6923314751
 31
0.0
 11
11.8495373747
 21
11.7070784152
 31
0.0
 11
11.8481211621
 21
11.7218000043
 31
0.0
 11
11.8457618089
 21
11.7364538438
 31
0.0
 11
11.8424612944
 21
11.7509983986
 31
0.0
 11
11.8382306762
 21
11.7653985013
 31
0.0
 11
11.833085072
 21
11.7796218328
 31
0.0
 11
11.8270395951
 21
11.7936360346
 31
0.0
 11
11.8201089974
 21
11.8074079359
 31
0.0
 11
11.8123077467
 21
11.8209037274
 31
0.0
 11
11.8036504083
 21
11.8340896168
 31
0.0
 11
11.7941559396
 21
11.8469332446
 31
0.0
 11
11.7838491931
 21
11.8594041738
 31
0.0
 11
11.772755441
 21
11.871472106
 31
0.0
 11
11.7609012824
 21
11.8831075526
 31
0.0
 11
11.74831634
 21
11.8942828695
 31
0.0
 11
11.7350306553
 21
11.9049706682
 31
0.0
 11
11.7210751792
 21
11.9151443963
 31
0.0
 11
11.706484521
 21
11.924780865
 31
0.0
 11
11.69129421
 21
11.9338577314
 31
0.0
 11
11.6755400925
 21
11.9423529447
 31
0.0
 11
11.6592604064
 21
11.9502466582
 31
0.0
 11
11.6424944812
 21
11.9575200313
 31
0.0
 11
11.6252818179
 21
11.9641544482
 31
0.0
 11
11.6076645843
 21
11.9701348224
 31
0.0
 11
11.5896870963
 21
11.9754489095
 31
0.0
 11
11.5713937068
 21
11.9800845512
 31
0.0
 11
11.5528277139
 21
11.984029803
 31
0.0
 11
11.5340309732
 21
11.9872730128
 31
0.0
 11
11.5150452523
 21
11.9898025624
 31
0.0
 11
11.4959161479
 21
11.9916099
 31
0.0
 11
11.4766980274
 21
11.9926934984
 31
0.0
 11
11.4574464813
 21
11.9930528093
 31
0.0
  0
SPLINE
  5
36F
100
AcDbEntity
  8
0
100
AcDbSpline
 62
6
  6
CONTINUOUS
 70
0
 71
3
 72
12
 73
8
 74
6
 42
0.0000001
 43
0.0000001
 44
0.0000000001
 12
-0.0218580295
 22
-0.1248233994
 32
0.0
 13
0.008538315
 23
-0.1264347724
 33
0.0
 40
0.0
 40
0.0
 40
0.0
 40
0.0
 40
0.2394730421
 40
0.485877376
 40
0.6117430071
 40
0.7393908939
 40
1.0
 40
1.0
 40
1.0
 40
1.0
 10
11.8500096986
 20
11.6923314751
 30
0.0
 10
11.8482648957
 20
11.6823675287
 30
0.0
 10
11.8453739039
 20
11.6620325083
 30
0.0
 10
11.8433221727
 20
11.6362570954
 30
0.0
 10
11.842591612
 20
11.6151499094
 30
0.0
 10
11.84248519
 20
11.5934308023
 30
0.0
 10
11.8431318389
 20
11.5770311439
 30
0.0
 10
11.8438735597
 20
11.5660477929
 30
0.0
 11
11.8500096986
 21
11.6923314751
 31
0.0
 11
11.845721563
 21
11.6622892885
 31
0.0
 11
11.8432265606
 21
11.6311640944
 31
0.0
 11
11.8426726022
 21
11.6152236785
 31
0.0
 11
11.8425912965
 21
11.599047992
 31
0.0
 11
11.8438735597
 21
11.5660477929
 31
0.0
  0
SPLINE
  5
370
100
AcDbEntity
  8
0
100
AcDbSpline
 62
9
  6
CONTINUOUS
 70
0
 71
3
 72
23
 73
19
 74
17
 42
0.0000001
 43
0.0000001
 44
0.0000000001
 12
-0.1484604604
 22
-0.0145870138
 32
0.0
 13
-0.1016768629
 23
-0.1091563321
 33
0.0
 40
0.0
 40
0.0
 40
0.0
 40
0.0
 40
0.082497221
 40
0.1624665349
 40
0.2398409207
 40
0.3145597073
 40
0.3865698458
 40
0.4558274883
 40
0.5222999538
 40
0.5859681842
 40
0.6468298184
 40
0.7049035853
 40
0.7602361267
 40
0.8129055888
 40
0.8630275931
 40
0.9107632311
 40
0.956327875
 40
1.0
 40
1.0
 40
1.0
 40
1.0
 10
10.9226521626
 20
11.0676176206
 30
0.0
 10
10.9185696375
 20
11.0672164912
 30
0.0
 10
10.9105358322
 20
11.0663619201
 30
0.0
 10
10.8987005164
 20
11.0648875269
 30
0.0
 10
10.887279408
 20
11.0632340526
 30
0.0
 10
10.876287573
 20
11.0613953968
 30
0.0
 10
10.8657399947
 20
11.0593654469
 30
0.0
 10
10.8556516321
 20
11.057138075
 30
0.0
 10
10.8460373947
 20
11.0547071269
 30
0.0
 10
10.8369121412
 20
11.0520664014
 30
0.0
 10
10.8282906391
 20
11.0492096319
 30
0.0
 10
10.8201874684
 20
11.0461303478
 30
0.0
 10
10.8126168219
 20
11.0428223065
 30
0.0
 10
10.8055926522
 20
11.0392790256
 30
0.0
 10
10.7991289973
 20
11.0354937922
 30
0.0
 10
10.7932398562
 20
11.0314593026
 30
0.0
 10
10.7879404005
 20
11.0271688018
 30
0.0
 10
10.7847499416
 20
11.0240734749
 30
0.0
 10
10.7832697934
 20
11.0224844452
 30
0.0
 11
10.9226521626
 21
11.0676176206
 31
0.0
 11
10.9104151219
 21
11.0663114499
 31
0.0
 11
10.8985777846
 21
11.0648318353
 31
0.0
 11
10.8871553077
 21
11.063172644
 31
0.0
 11
10.8761628483
 21
11.0613277431
 31
0.0
 11
10.8656155634
 21
11.0592909998
 31
0.0
 11
10.85552861
 21
11.0570562811
 31
0.0
 11
10.8459171453
 21
11.0546174542
 31
0.0
 11
10.8367963261
 21
11.0519683862
 31
0.0
 11
10.8281813097
 21
11.0491029443
 31
0.0
 11
10.8200871529
 21
11.0460150271
 31
0.0
 11
10.8125284101
 21
11.0426986911
 31
0.0
 11
10.8055194782
 21
11.0391480425
 31
0.0
 11
10.7990747539
 21
11.0353571874
 31
0.0
 11
10.7932086338
 21
11.0313202321
 31
0.0
 11
10.7879355147
 21
11.0270312827
 31
0.0
 11
10.7832697934
 21
11.0224844452
 31
0.0
  0
SPLINE
  5
371
100
AcDbEntity
  8
0
100
AcDbSpline
 62
9
  6
CONTINUOUS
 70
0
 71
3
 72
20
 73
16
 74
14
 42
0.0000001
 43
0.0000001
 44
0.0000000001
 12
0.002101272
 22
0.6454025028
 32
0.0
 13
0.3599079085
 23
0.5357379054
 33
0.0
 40
0.0
 40
0.0
 40
0.0
 40
0.0
 40
0.1256157074
 40
0.2515846916
 40
0.3146196779
 40
0.3775735912
 40
0.4403660073
 40
0.5030188281
 40
0.5655783893
 40
0.6280920606
 40
0.6905832668
 40
0.7529699023
 40
0.8151541824
 40
0.8770847849
 40
1.0
 40
1.0
 40
1.0
 40
1.0
 10
10.7371724593
 20
10.4589932622
 30
0.0
 10
10.7372604435
 20
10.4860174928
 30
0.0
 10
10.7394362031
 20
10.5401545958
 30
0.0
 10
10.7471027825
 20
10.6074684647
 30
0.0
 10
10.7562008941
 20
10.660915066
 30
0.0
 10
10.7644791021
 20
10.7006856064
 30
0.0
 10
10.7741892727
 20
10.7400458289
 30
0.0
 10
10.7853070196
 20
10.7789435906
 30
0.0
 10
10.7978119076
 20
10.8173547923
 30
0.0
 10
10.8117084949
 20
10.8552479478
 30
0.0
 10
10.8269882622
 20
10.8925646761
 30
0.0
 10
10.8436038413
 20
10.9292278859
 30
0.0
 10
10.8615074398
 20
10.9651461019
 30
0.0
 10
10.88695285
 20
11.0118123911
 30
0.0
 10
10.9079061099
 20
11.0456675073
 30
0.0
 10
10.9226521626
 20
11.0676176206
 30
0.0
 11
10.7371724593
 21
10.4589932622
 31
0.0
 11
10.7404190726
 21
10.5400013516
 31
0.0
 11
10.7496221556
 21
10.6207799179
 31
0.0
 11
10.7564479595
 21
10.6608863685
 31
0.0
 11
10.7647285411
 21
10.7006644554
 31
0.0
 11
10.7744351879
 21
10.7400114515
 31
0.0
 11
10.7855469361
 21
10.7788912626
 31
0.0
 11
10.7980489368
 21
10.8172832735
 31
0.0
 11
10.8119430521
 21
10.8551621496
 31
0.0
 11
10.8272245907
 21
10.892487215
 31
0.0
 11
10.8438459349
 21
10.9291611472
 31
0.0
 11
10.8617501386
 21
10.9650803022
 31
0.0
 11
10.8808858662
 21
11.0001723956
 31
0.0
 11
10.9226521626
 21
11.0676176206
 31
0.0
  0
SPLINE
  5
372
100
AcDbEntity
  8
0
100
AcDbSpline
 62
9
  6
CONTINUOUS
 70
0
 71
3
 72
33
 73
29
 74
27
 42
0.0000001
 43
0.0000001
 44
0.0000000001
 12
-0.2740869674
 22
-0.0672506809
 32
0.0
 13
-0.1618893557
 23
-0.2311669447
 33
0.0
 40
0.0
 40
0.0
 40
0.0
 40
0.0
 40
0.0793094606
 40
0.1567675476
 40
0.2322323309
 40
0.2691744858
 40
0.3055709709
 40
0.3766934635
 40
0.4114082672
 40
0.4455505789
 40
0.4791160525
 40
0.5120987046
 40
0.5444848966
 40
0.5762591089
 40
0.6074054026
 40
0.6379074718
 40
0.6677486994
 40
0.6969139347
 40
0.7254067711
 40
0.7532439034
 40
0.7804446836
 40
0.8070312143
 40
0.8330286053
 40
0.8584650779
 40
0.8833618973
 40
0.9077259428
 40
0.9548766147
 40
1.0
 40
1.0
 40
1.0
 40
1.0
 10
10.7371724593
 20
10.4589932622
 30
0.0
 10
10.7299265627
 20
10.4572153904
 30
0.0
 10
10.7156468654
 20
10.4535229457
 30
0.0
 10
10.6946416364
 20
10.4475099408
 30
0.0
 10
10.6776049916
 20
10.4421381827
 30
0.0
 10
10.6643452206
 20
10.4376501673
 30
0.0
 10
10.6515363745
 20
10.4331087122
 30
0.0
 10
10.6390261305
 20
10.4283551357
 30
0.0
 10
10.6268369748
 20
10.4233711982
 30
0.0
 10
10.6179828426
 20
10.4195698555
 30
0.0
 10
10.6093482044
 20
10.4156742612
 30
0.0
 10
10.600939027
 20
10.4116847423
 30
0.0
 10
10.5927588189
 20
10.407609688
 30
0.0
 10
10.5848120084
 20
10.4034572923
 30
0.0
 10
10.5771031102
 20
10.3992359167
 30
0.0
 10
10.5696365914
 20
10.3949539788
 30
0.0
 10
10.5624169914
 20
10.3906194899
 30
0.0
 10
10.5554464341
 20
10.3862406116
 30
0.0
 10
10.5487290391
 20
10.3818164856
 30
0.0
 10
10.5422686431
 20
10.3773418454
 30
0.0
 10
10.5360677293
 20
10.3728116189
 30
0.0
 10
10.5301289316
 20
10.368220491
 30
0.0
 10
10.5244547454
 20
10.3635633257
 30
0.0
 10
10.5190488935
 20
10.3588351629
 30
0.0
 10
10.5139151881
 20
10.3540348514
 30
0.0
 10
10.5075063015
 20
10.3476152086
 30
0.0
 10
10.5001695741
 20
10.3394427492
 30
0.0
 10
10.4948814804
 20
10.332544942
 30
0.0
 10
10.4924464818
 20
10.3290679303
 30
0.0
 11
10.7371724593
 21
10.4589932622
 31
0.0
 11
10.7155038714
 21
10.4533855088
 31
0.0
 11
10.6944895492
 21
10.4473641562
 31
0.0
 11
10.6741798059
 21
10.4409536318
 31
0.0
 11
10.6643048386
 21
10.4376099556
 31
0.0
 11
10.6546241625
 21
10.4341759611
 31
0.0
 11
10.6358658096
 21
10.4270339827
 31
0.0
 11
10.6267981672
 21
10.4233243949
 31
0.0
 11
10.6179449036
 21
10.4195213387
 31
0.0
 11
10.6093110361
 21
10.4156240137
 31
0.0
 11
10.6009014718
 21
10.4116336625
 31
0.0
 11
10.5927207951
 21
10.4075575368
 31
0.0
 11
10.5847735313
 21
10.4034039881
 31
0.0
 11
10.5770642055
 21
10.3991813676
 31
0.0
 11
10.5695973431
 21
10.3948980268
 31
0.0
 11
10.5623774693
 21
10.390562317
 31
0.0
 11
10.5554090033
 21
10.3861818475
 31
0.0
 11
10.5486952313
 21
10.3817562999
 31
0.0
 11
10.5422387536
 21
10.3772805541
 31
0.0
 11
10.5360421604
 21
10.3727494232
 31
0.0
 11
10.5301080426
 21
10.3681577201
 31
0.0
 11
10.5244389904
 21
10.3635002577
 31
0.0
 11
10.5190376013
 21
10.358771908
 31
0.0
 11
10.5139069154
 21
10.3539713913
 31
0.0
 11
10.5090506805
 21
10.3491035814
 31
0.0
 11
10.5001768099
 21
10.3391877862
 31
0.0
 11
10.4924464818
 21
10.3290679303
 31
0.0
  0
LINE
  5
373
100
AcDbEntity
  8
0
100
AcDbLine
 62
9
  6
CONTINUOUS
 10
10.9226521626
 20
11.0676176206
 11
10.9482015001
 21
11.1056286893
  0
SPLINE
  5
374
100
AcDbEntity
  8
0
100
AcDbSpline
 62
9
  6
CONTINUOUS
 70
0
 71
3
 72
49
 73
45
 74
43
 42
0.0000001
 43
0.0000001
 44
0.0000000001
 12
0.6440802448
 22
0.1398100895
 32
0.0
 13
0.6550080733
 23
0.0731481153
 33
0.0
 40
0.0
 40
0.0
 40
0.0
 40
0.0
 40
0.0587644559
 40
0.0884146857
 40
0.1182345871
 40
0.1482185084
 40
0.1783630016
 40
0.2086647039
 40
0.2391199871
 40
0.2544040364
 40
0.26972499
 40
0.3004737481
 40
0.3313572931
 40
0.3623667203
 40
0.3934936177
 40
0.4247301165
 40
0.440387265
 40
0.4560697643
 40
0.4875106473
 40
0.5190519375
 40
0.5506917875
 40
0.5665478969
 40
0.5824276377
 40
0.5983306137
 40
0.6142563184
 40
0.6302030688
 40
0.6461684279
 40
0.6781456641
 40
0.710171381
 40
0.7261984006
 40
0.7422332565
 40
0.7582752774
 40
0.7662989157
 40
0.7743243226
 40
0.7903813641
 40
0.8064483717
 40
0.822526527
 40
0.8386163996
 40
0.8708319569
 40
0.9030963968
 40
0.9192479002
 40
0.9354065897
 40
0.967717672
 40
1.0
 40
1.0
 40
1.0
 40
1.0
 10
10.8030001302
 20
10.4742211426
 30
0.0
 10
10.8156164719
 20
10.4769597639
 30
0.0
 10
10.8346310327
 20
10.4809324944
 30
0.0
 10
10.8601175543
 20
10.4859489435
 30
0.0
 10
10.8794293483
 20
10.4895934227
 30
0.0
 10
10.8988757573
 20
10.4931067044
 30
0.0
 10
10.9184514651
 20
10.4964966138
 30
0.0
 10
10.9381519357
 20
10.4997701015
 30
0.0
 10
10.9546488376
 20
10.5024038294
 30
0.0
 10
10.9679048612
 20
10.504460035
 30
0.0
 10
10.9812303564
 20
10.5064886403
 30
0.0
 10
10.9979548488
 20
10.5089608495
 30
0.0
 10
11.018107907
 20
10.5118061366
 30
0.0
 10
11.0383633046
 20
10.5145173138
 30
0.0
 10
11.0587164846
 20
10.517077796
 30
0.0
 10
11.0757410466
 20
10.5190710008
 30
0.0
 10
11.0894062881
 20
10.5205735775
 30
0.0
 10
11.1031227628
 20
10.5220197373
 30
0.0
 10
11.1203204435
 20
10.5237275785
 30
0.0
 10
11.1410195927
 20
10.5256467432
 30
0.0
 10
11.1583172075
 20
10.5271637219
 30
0.0
 10
11.1721902913
 20
10.5283442045
 30
0.0
 10
11.1826197164
 20
10.5292176123
 30
0.0
 10
11.1930652444
 20
10.5300818588
 30
0.0
 10
11.203525851
 20
10.5309423746
 30
0.0
 10
11.2140010074
 20
10.531793187
 30
0.0
 10
11.2279934288
 20
10.532899232
 30
0.0
 10
11.2455138365
 20
10.5342006937
 30
0.0
 10
11.2630606768
 20
10.535320963
 30
0.0
 10
11.2771207094
 20
10.5360657649
 30
0.0
 10
11.2876783952
 20
10.5365378328
 30
0.0
 10
11.2964828378
 20
10.5368497962
 30
0.0
 10
11.3035303486
 20
10.5370452763
 30
0.0
 10
11.3105821236
 20
10.5372023354
 30
0.0
 10
11.3194018855
 20
10.5373311309
 30
0.0
 10
11.3299914225
 20
10.5374020628
 30
0.0
 10
11.3405883659
 20
10.5374128321
 30
0.0
 10
11.3547329801
 20
10.5373785725
 30
0.0
 10
11.3724334443
 20
10.5373035602
 30
0.0
 10
11.390148
 20
10.5373439168
 30
0.0
 10
11.4043334979
 20
10.5375385944
 30
0.0
 10
11.4185263995
 20
10.5378833291
 30
0.0
 10
11.4362521991
 20
10.5386788428
 30
0.0
 10
11.4503980861
 20
10.539881962
 30
0.0
 10
11.4574464813
 20
10.5406690925
 30
0.0
 11
10.8030001302
 21
10.4742211426
 31
0.0
 11
10.8409118143
 21
10.4821428429
 31
0.0
 11
10.8600858012
 21
10.4859168123
 31
0.0
 11
10.8793985527
 21
10.4895617237
 31
0.0
 11
10.8988451984
 21
10.4930769225
 31
0.0
 11
10.9184211919
 21
10.4964685449
 31
0.0
 11
10.9381220369
 21
10.4997437795
 31
0.0
 11
10.9579432374
 21
10.5029098148
 31
0.0
 11
10.9678975658
 21
10.5044541291
 31
0.0
 11
10.9778802968
 21
10.5059737552
 31
0.0
 11
10.9979286916
 21
10.5089348381
 31
0.0
 11
11.0180838495
 21
10.5117781287
 31
0.0
 11
11.0383411932
 21
10.5144872091
 31
0.0
 11
11.0586961453
 21
10.517045661
 31
0.0
 11
11.0791441284
 21
10.5194370661
 31
0.0
 11
11.0894015744
 21
10.5205653279
 31
0.0
 11
11.0996805409
 21
10.5216498263
 31
0.0
 11
11.1203006274
 21
10.5237029862
 31
0.0
 11
11.1409995722
 21
10.5256275933
 31
0.0
 11
11.1617725596
 21
10.5274547229
 31
0.0
 11
11.1721853143
 21
10.5283414448
 31
0.0
 11
11.1826147737
 21
10.5292154506
 31
0.0
 11
11.1930603358
 21
10.5300806247
 31
0.0
 11
11.2035213911
 21
10.5309401945
 31
0.0
 11
11.213997235
 21
10.5317890831
 31
0.0
 11
11.2244870976
 21
10.532616522
 31
0.0
 11
11.2455057947
 21
10.5341635326
 31
0.0
 11
11.2665713134
 21
10.5354941903
 31
0.0
 11
11.2771197031
 21
10.536051188
 31
0.0
 11
11.2876774848
 21
10.5365214589
 31
0.0
 11
11.2982438876
 21
10.5368941236
 31
0.0
 11
11.3035300808
 21
10.5370404537
 31
0.0
 11
11.3088181463
 21
10.5371585419
 31
0.0
 11
11.3193998297
 21
10.5373171629
 31
0.0
 11
11.3299890057
 21
10.5373920218
 31
0.0
 11
11.3405857833
 21
10.5374067591
 31
0.0
 11
11.3511902715
 21
10.5373850154
 31
0.0
 11
11.3724228154
 21
10.537326647
 31
0.0
 11
11.3936875088
 21
10.5374060407
 31
0.0
 11
11.4043315641
 21
10.5375573037
 31
0.0
 11
11.4149781531
 21
10.5378214917
 31
0.0
 11
11.4362502692
 21
10.5388209497
 31
0.0
 11
11.4574464813
 21
10.5406690925
 31
0.0
  0
SPLINE
  5
375
100
AcDbEntity
  8
0
100
AcDbSpline
 62
9
  6
CONTINUOUS
 70
0
 71
3
 72
15
 73
11
 74
9
 42
0.0000001
 43
0.0000001
 44
0.0000000001
 12
0.0655316935
 22
0.0164685867
 32
0.0
 13
0.0660596963
 23
0.0142032999
 33
0.0
 40
0.0
 40
0.0
 40
0.0
 40
0.0
 40
0.1237880226
 40
0.2479181628
 40
0.3723786404
 40
0.4971717196
 40
0.6223195882
 40
0.7478429576
 40
0.8737410163
 40
1.0
 40
1.0
 40
1.0
 40
1.0
 10
10.7371724593
 20
10.4589932627
 30
0.0
 10
10.7398764722
 20
10.4596728007
 30
0.0
 10
10.7452952927
 20
10.4610205794
 30
0.0
 10
10.7534446379
 20
10.4630036838
 30
0.0
 10
10.7616265947
 20
10.4649480181
 30
0.0
 10
10.7698410007
 20
10.4668544032
 30
0.0
 10
10.7780868253
 20
10.4687308981
 30
0.0
 10
10.7863630849
 20
10.4705855813
 30
0.0
 10
10.794669704
 20
10.4724190375
 30
0.0
 10
10.8002199202
 20
10.4736233779
 30
0.0
 10
10.8030001302
 20
10.4742211426
 30
0.0
 11
10.7371724593
 21
10.4589932627
 31
0.0
 11
10.7452895005
 21
10.4610118662
 31
0.0
 11
10.7534391709
 21
10.4629946002
 31
0.0
 11
10.7616209908
 21
10.4649391072
 31
0.0
 11
10.7698345606
 21
10.4668467383
 31
0.0
 11
10.7780796021
 21
10.4687244862
 31
0.0
 11
10.7863558355
 21
10.4705793057
 31
0.0
 11
10.7946628454
 21
10.4724123594
 31
0.0
 11
10.8030001302
 21
10.4742211426
 31
0.0
  0
SPLINE
  5
376
100
AcDbEntity
  8
0
100
AcDbSpline
 62
9
  6
CONTINUOUS
 70
0
 71
3
 72
25
 73
21
 74
19
 42
0.0000001
 43
0.0000001
 44
0.0000000001
 12
0.5325000075
 22
0.0523209004
 32
0.0
 13
0.535049847
 23
-0.0039237496
 33
0.0
 40
0.0
 40
0.0
 40
0.0
 40
0.0
 40
0.0247470555
 40
0.0501816727
 40
0.0762807354
 40
0.1030201592
 40
0.1583191232
 40
0.2158722452
 40
0.2754639331
 40
0.3368723957
 40
0.3998712529
 40
0.4642307604
 40
0.5297186837
 40
0.5961008154
 40
0.6631418883
 40
0.7306062448
 40
0.79825838
 40
0.8658634729
 40
0.9331879345
 40
1.0
 40
1.0
 40
1.0
 40
1.0
 10
10.9226521626
 20
11.0676176206
 30
0.0
 10
10.927044765
 20
11.0680492167
 30
0.0
 10
10.9359591194
 20
11.0688532563
 30
0.0
 10
10.9495255326
 20
11.0698826862
 30
0.0
 10
10.9634586729
 20
11.0707601086
 30
0.0
 10
10.9827205143
 20
11.0717484816
 30
0.0
 10
11.00760343
 20
11.0726293652
 30
0.0
 10
11.0383555496
 20
11.0731932882
 30
0.0
 10
11.0702018844
 20
11.0733362777
 30
0.0
 10
11.1030187843
 20
11.0731196574
 30
0.0
 10
11.1366826265
 20
11.0726047088
 30
0.0
 10
11.1710696321
 20
11.0718528279
 30
0.0
 10
11.2060558952
 20
11.070925464
 30
0.0
 10
11.2415173836
 20
11.0698844952
 30
0.0
 10
11.2773299661
 20
11.0687918288
 30
0.0
 10
11.313369483
 20
11.0677093938
 30
0.0
 10
11.3495117684
 20
11.0666991308
 30
0.0
 10
11.385632676
 20
11.0658229808
 30
0.0
 10
11.4216080265
 20
11.065142886
 30
0.0
 10
11.4455305528
 20
11.064860059
 30
0.0
 10
11.4574464813
 20
11.0647726744
 30
0.0
 11
10.9226521626
 21
11.0676176206
 31
0.0
 11
10.9358395042
 21
11.0688113967
 31
0.0
 11
10.9494093486
 21
11.0698450283
 31
0.0
 11
10.9633461919
 21
11.0707262479
 31
0.0
 11
10.9776345301
 21
11.0714627878
 31
0.0
 11
11.0072036756
 21
11.0725327582
 31
0.0
 11
11.0379927539
 21
11.0731167986
 31
0.0
 11
11.0698777335
 21
11.0732767682
 31
0.0
 11
11.102734583
 21
11.0730745263
 31
0.0
 11
11.1364392712
 21
11.072571932
 31
0.0
 11
11.1708677667
 21
11.0718308444
 31
0.0
 11
11.205895994
 21
11.0709131876
 31
0.0
 11
11.2413997016
 21
11.0698811448
 31
0.0
 11
11.277254594
 21
11.0687969641
 31
0.0
 11
11.3133363755
 21
11.0677228935
 31
0.0
 11
11.3495207505
 21
11.0667211812
 31
0.0
 11
11.3856834236
 21
11.0658540752
 31
0.0
 11
11.421700099
 21
11.0651838235
 31
0.0
 11
11.4574464813
 21
11.0647726744
 31
0.0
  0
SPLINE
  5
377
100
AcDbEntity
  8
0
100
AcDbSpline
 62
6
  6
CONTINUOUS
 70
0
 71
3
 72
20
 73
16
 74
14
 42
0.0000001
 43
0.0000001
 44
0.0000000001
 12
0.2973281944
 22
0.0282307648
 32
0.0
 13
0.2984967991
 23
-0.010034551
 33
0.0
 40
0.0
 40
0.0
 40
0.0
 40
0.0
 40
0.0512021073
 40
0.1043394182
 40
0.1593294039
 40
0.2160852364
 40
0.2745166117
 40
0.3345304013
 40
0.3960311731
 40
0.4589216122
 40
0.5231028645
 40
0.5884748208
 40
0.7223852681
 40
0.8598356077
 40
1.0
 40
1.0
 40
1.0
 40
1.0
 10
10.9482015001
 20
11.1056286893
 30
0.0
 10
10.9532761101
 20
11.1061105142
 30
0.0
 10
10.9636278973
 20
11.10698118
 30
0.0
 10
10.9794566193
 20
11.1080200386
 30
0.0
 10
10.9958521035
 20
11.1088322884
 30
0.0
 10
11.0127839205
 20
11.10943359
 30
0.0
 10
11.0302217316
 20
11.1098396201
 30
0.0
 10
11.0481351352
 20
11.1100660647
 30
0.0
 10
11.0664937187
 20
11.1101286231
 30
0.0
 10
11.0852670507
 20
11.1100429938
 30
0.0
 10
11.10442469
 20
11.1098249228
 30
0.0
 10
11.1306501055
 20
11.1093747679
 30
0.0
 10
11.1641639971
 20
11.1085566022
 30
0.0
 10
11.2051144844
 20
11.1073070276
 30
0.0
 10
11.232736939
 20
11.1063805883
 30
0.0
 10
11.2466831465
 20
11.1059117593
 30
0.0
 11
10.9482015001
 21
11.1056286893
 31
0.0
 11
10.9634392493
 21
11.1069191923
 31
0.0
 11
10.9792749428
 21
11.1079663346
 31
0.0
 11
10.9956780883
 21
11.1087858987
 31
0.0
 11
11.0126181936
 21
11.1093936675
 31
0.0
 11
11.0300647664
 21
11.1098054237
 31
0.0
 11
11.0479873145
 21
11.1100369499
 31
0.0
 11
11.0663553457
 21
11.1101040288
 31
0.0
 11
11.0851383677
 21
11.1100224432
 31
0.0
 11
11.1043058884
 21
11.1098079757
 31
0.0
 11
11.1238274154
 21
11.1094764091
 31
0.0
 11
11.1638105196
 21
11.1085251094
 31
0.0
 11
11.2048437426
 21
11.1072948056
 31
0.0
 11
11.2466831465
 21
11.1059117593
 31
0.0
  0
SPLINE
  5
378
100
AcDbEntity
  8
0
100
AcDbSpline
 62
9
  6
CONTINUOUS
 70
0
 71
3
 72
82
 73
78
 74
76
 42
0.0000001
 43
0.0000001
 44
0.0000000001
 12
-0.0534032593
 22
-1.4494385073
 32
0.0
 13
1.447475455
 23
-0.0924050952
 33
0.0
 40
0.0
 40
0.0
 40
0.0
 40
0.0
 40
0.0153830878
 40
0.0304329642
 40
0.0452634979
 40
0.0599791263
 40
0.0673241578
 40
0.0746755058
 40
0.0820438248
 40
0.0857375596
 40
0.0894386725
 40
0.0968614846
 40
0.1043089133
 40
0.1117776112
 40
0.1192643334
 40
0.1342791614
 40
0.1493299547
 40
0.1568621755
 40
0.1643954851
 40
0.1719275564
 40
0.1794569538
 40
0.1869845545
 40
0.1945116207
 40
0.2095685596
 40
0.2246371686
 40
0.2397256001
 40
0.2548411583
 40
0.2699899644
 40
0.2851735634
 40
0.3003909801
 40
0.3156413437
 40
0.330923951
 40
0.3462382877
 40
0.3615841232
 40
0.376961932
 40
0.3923723691
 40
0.423290727
 40
0.4543447759
 40
0.4855365238
 40
0.5168667582
 40
0.5325848855
 40
0.5483374656
 40
0.5799431902
 40
0.6116840733
 40
0.627605221
 40
0.6435583453
 40
0.6595415913
 40
0.6755530595
 40
0.6915909677
 40
0.7076536722
 40
0.7237397023
 40
0.739848873
 40
0.7559826312
 40
0.772141921
 40
0.7883269988
 40
0.7964292179
 40
0.8045376818
 40
0.8126522433
 40
0.820772624
 40
0.8288979559
 40
0.8370272561
 40
0.8532942738
 40
0.8695691404
 40
0.8777089698
 40
0.8858502499
 40
0.8939932047
 40
0.9021382655
 40
0.9062118123
 40
0.9102861474
 40
0.9184375763
 40
0.9265931415
 40
0.9347526525
 40
0.9429153042
 40
0.951079797
 40
0.9674073314
 40
0.983719481
 40
1.0
 40
1.0
 40
1.0
 40
1.0
 10
10.4924464821
 20
10.3290679308
 30
0.0
 10
10.4921726464
 20
10.3216356508
 30
0.0
 10
10.4919784287
 20
10.3069170393
 30
0.0
 10
10.492676127
 20
10.2850380289
 30
0.0
 10
10.4942458266
 20
10.2635288406
 30
0.0
 10
10.4961810068
 20
10.2457948121
 30
0.0
 10
10.4980400611
 20
10.2316965814
 30
0.0
 10
10.4995754112
 20
10.2211396336
 30
0.0
 10
10.5009596093
 20
10.2123453238
 30
0.0
 10
10.5021219726
 20
10.2053029764
 30
0.0
 10
10.5033219386
 20
10.1982402123
 30
0.0
 10
10.5048905071
 20
10.189399358
 30
0.0
 10
10.5068845426
 20
10.1787845485
 30
0.0
 10
10.5089959543
 20
10.1681609203
 30
0.0
 10
10.5119754617
 20
10.1539804828
 30
0.0
 10
10.516010799
 20
10.1362772468
 30
0.0
 10
10.5204828796
 20
10.1186561824
 30
0.0
 10
10.5243425838
 20
10.1046162169
 30
0.0
 10
10.5273823149
 20
10.0941218706
 30
0.0
 10
10.5305701224
 20
10.0836729613
 30
0.0
 10
10.5339099282
 20
10.0732745317
 30
0.0
 10
10.5373990669
 20
10.0629278008
 30
0.0
 10
10.5422480938
 20
10.0492004789
 30
0.0
 10
10.5486749803
 20
10.0321658828
 30
0.0
 10
10.5569536757
 20
10.011931553
 30
0.0
 10
10.5657841794
 20
9.9919009424
 30
0.0
 10
10.5751516383
 20
9.9720730604
 30
0.0
 10
10.5850382173
 20
9.9524474245
 30
0.0
 10
10.5954373178
 20
9.9330325806
 30
0.0
 10
10.606346749
 20
9.9138433107
 30
0.0
 10
10.6177623161
 20
9.8948948276
 30
0.0
 10
10.6296802427
 20
9.876202597
 30
0.0
 10
10.6420964953
 20
9.8577818513
 30
0.0
 10
10.6550078828
 20
9.8396482011
 30
0.0
 10
10.6684060983
 20
9.8218129384
 30
0.0
 10
10.6869254708
 20
9.7984200071
 30
0.0
 10
10.7112518925
 20
9.7699734004
 30
0.0
 10
10.7422098427
 20
9.737231029
 30
0.0
 10
10.7748903382
 20
9.7059195856
 30
0.0
 10
10.8034616494
 20
9.6811044817
 30
0.0
 10
10.8270947043
 20
9.6620382555
 30
0.0
 10
10.8512869958
 20
9.6434671133
 30
0.0
 10
10.8824531735
 20
9.6212786147
 30
0.0
 10
10.9147035468
 20
9.6005472054
 30
0.0
 10
10.9411459483
 20
9.5848344453
 30
0.0
 10
10.9613098777
 20
9.5734819588
 30
0.0
 10
10.9817726467
 20
9.5625844431
 30
0.0
 10
11.0025222453
 20
9.5521518266
 30
0.0
 10
11.0235465128
 20
9.5421943306
 30
0.0
 10
11.0448331706
 20
9.5327217589
 30
0.0
 10
11.0663710318
 20
9.5237451183
 30
0.0
 10
11.0881476572
 20
9.5152693684
 30
0.0
 10
11.1101461946
 20
9.5072834551
 30
0.0
 10
11.1323518832
 20
9.499778152
 30
0.0
 10
11.1510097731
 20
9.4939182121
 30
0.0
 10
11.1660247629
 20
9.4894604879
 30
0.0
 10
11.1773331716
 20
9.4862298114
 30
0.0
 10
11.1886823159
 20
9.4831120609
 30
0.0
 10
11.2000698649
 20
9.4801055212
 30
0.0
 10
11.2114950775
 20
9.4772160677
 30
0.0
 10
11.2267802122
 20
9.4735286077
 30
0.0
 10
11.2459741064
 20
9.4692479594
 30
0.0
 10
11.265275498
 20
9.4654524324
 30
0.0
 10
11.280779475
 20
9.4627344664
 30
0.0
 10
11.2924389275
 20
9.4608620941
 30
0.0
 10
11.3041274512
 20
9.4591630419
 30
0.0
 10
11.313890514
 20
9.4578976076
 30
0.0
 10
11.321714038
 20
9.4569788298
 30
0.0
 10
11.3295479078
 20
9.4561239741
 30
0.0
 10
11.3393560464
 20
9.4551718789
 30
0.0
 10
11.3511443617
 20
9.4541891033
 30
0.0
 10
11.3629484512
 20
9.4533404555
 30
0.0
 10
11.3747640666
 20
9.4526001204
 30
0.0
 10
11.3905274764
 20
9.4517231668
 30
0.0
 10
11.4102322983
 20
9.4507694601
 30
0.0
 10
11.4338571964
 20
9.4496467143
 30
0.0
 10
11.4495912641
 20
9.4487745232
 30
0.0
 10
11.4574464813
 20
9.4482730556
 30
0.0
 11
10.4924464821
 21
10.3290679308
 31
0.0
 11
10.4921457824
 21
10.3067579886
 31
0.0
 11
10.4928294744
 21
10.2849400268
 31
0.0
 11
10.4943783432
 21
10.2634853305
 31
0.0
 11
10.4966731739
 21
10.2422651852
 31
0.0
 11
10.4980630702
 21
10.2317028457
 31
0.0
 11
10.4995947514
 21
10.2211508759
 31
0.0
 11
10.5012533156
 21
10.2105931864
 31
0.0
 11
10.5021255395
 21
10.2053071904
 31
0.0
 11
10.5030248322
 21
10.200014877
 31
0.0
 11
10.5049062171
 21
10.189414327
 31
0.0
 11
10.5069011792
 21
10.1787982318
 31
0.0
 11
10.5090135316
 21
10.1681734149
 31
0.0
 11
10.5112470875
 21
10.1575466997
 31
0.0
 11
10.5160930622
 21
10.1363148678
 31
0.0
 11
10.5214696086
 21
10.1151573229
 31
0.0
 11
10.5243663791
 21
10.1046234666
 31
0.0
 11
10.5274072319
 21
10.0941286521
 31
0.0
 11
10.5305959795
 21
10.083679702
 31
0.0
 11
10.5339352136
 21
10.0732819396
 31
0.0
 11
10.5374237639
 21
10.0629360683
 31
0.0
 11
10.5410597383
 21
10.052641905
 31
0.0
 11
10.5487663907
 21
10.0322079696
 31
0.0
 11
10.5570400332
 21
10.0119786678
 31
0.0
 11
10.5658655282
 21
9.9919525342
 31
0.0
 11
10.5752277383
 21
9.9721281031
 31
0.0
 11
10.5851120968
 21
9.9525047669
 31
0.0
 11
10.595510519
 21
9.9330916565
 31
0.0
 11
10.6064190289
 21
9.9139040754
 31
0.0
 11
10.6178337155
 21
9.8949574252
 31
0.0
 11
10.6297506679
 21
9.8762671077
 31
0.0
 11
10.6421659754
 21
9.8578485244
 31
0.0
 11
10.6550753219
 21
9.8397166594
 31
0.0
 11
10.6684711314
 21
9.8218831345
 31
0.0
 11
10.6823442556
 21
9.8043579502
 31
0.0
 11
10.711485814
 21
9.7702725632
 31
0.0
 11
10.7424266153
 21
9.7375402967
 31
0.0
 11
10.7750899384
 21
9.7062373707
 31
0.0
 11
10.8093952584
 21
9.6764359301
 31
0.0
 11
10.8271384385
 21
9.6621207428
 31
0.0
 11
10.8452615754
 21
9.6482075148
 31
0.0
 11
10.8826023909
 21
9.6216158018
 31
0.0
 11
10.9213260552
 21
9.5967171015
 31
0.0
 11
10.9411777524
 21
9.5849201423
 31
0.0
 11
10.9613405295
 21
9.5735682822
 31
0.0
 11
10.9818022678
 21
9.5626713419
 31
0.0
 11
11.002550783
 21
9.5522394324
 31
0.0
 11
11.023573891
 21
9.5422826647
 31
0.0
 11
11.0448594074
 21
9.5328111498
 31
0.0
 11
11.0663951374
 21
9.5238349202
 31
0.0
 11
11.0881679893
 21
9.5153572681
 31
0.0
 11
11.1101632976
 21
9.5073696614
 31
0.0
 11
11.1323662375
 21
9.499862371
 31
0.0
 11
11.1547619842
 21
9.4928256679
 31
0.0
 11
11.1660275274
 21
9.4894807461
 31
0.0
 11
11.1773357129
 21
9.4862498228
 31
0.0
 11
11.1886846878
 21
9.4831316818
 31
0.0
 11
11.2000726749
 21
9.4801259325
 31
0.0
 11
11.2114983852
 21
9.4772374835
 31
0.0
 11
11.2229607227
 21
9.4744733363
 31
0.0
 11
11.2459908959
 21
9.4693459741
 31
0.0
 11
11.2691544287
 21
9.4647998996
 31
0.0
 11
11.2807834657
 21
9.4627623621
 31
0.0
 11
11.2924425555
 21
9.4608911666
 31
0.0
 11
11.3041306023
 21
9.4591933199
 31
0.0
 11
11.3158465105
 21
9.4576758287
 31
0.0
 11
11.3217145701
 21
9.4569869061
 31
0.0
 11
11.3275891736
 21
9.4563455915
 31
0.0
 11
11.339356431
 21
9.4551987445
 31
0.0
 11
11.3511441872
 21
9.4542116761
 31
0.0
 11
11.3629481394
 21
9.4533586586
 31
0.0
 11
11.3747639849
 21
9.4526139647
 31
0.0
 11
11.3865874209
 21
9.4519518668
 31
0.0
 11
11.4102398531
 21
9.450772549
 31
0.0
 11
11.433871014
 21
9.4496148853
 31
0.0
 11
11.4574464813
 21
9.4482730556
 31
0.0
  0
SPLINE
  5
379
100
AcDbEntity
  8
0
100
AcDbSpline
 62
9
  6
CONTINUOUS
 70
0
 71
3
 72
35
 73
31
 74
29
 42
0.0000001
 43
0.0000001
 44
0.0000000001
 12
-1.0734227744
 22
0.085906828
 32
0.0
 13
0.0023437802
 23
1.0768523309
 33
0.0
 40
0.0
 40
0.0
 40
0.0
 40
0.0
 40
0.0633353425
 40
0.127596551
 40
0.1600034209
 40
0.1925436597
 40
0.2578665162
 40
0.2905980114
 40
0.3233260796
 40
0.3560161382
 40
0.3886375998
 40
0.4211632264
 40
0.4535642391
 40
0.4858134421
 40
0.5178873154
 40
0.5814160269
 40
0.6128596809
 40
0.6440664458
 40
0.6750286409
 40
0.7057434267
 40
0.7362088344
 40
0.7664236445
 40
0.7963904275
 40
0.8261204092
 40
0.8556237393
 40
0.8849075057
 40
0.9139780173
 40
0.9428453856
 40
0.9715177373
 40
1.0
 40
1.0
 40
1.0
 40
1.0
 10
11.4574464813
 20
9.7971379213
 30
0.0
 10
11.4347846149
 20
9.7989515674
 30
0.0
 10
11.3892359759
 20
9.8041112844
 30
0.0
 10
11.3326972243
 20
9.8144948525
 30
0.0
 10
11.2875991806
 20
9.825365171
 30
0.0
 10
11.2425746836
 20
9.8380188391
 30
0.0
 10
11.1981948054
 20
9.8532953155
 30
0.0
 10
11.1548090223
 20
9.8712518871
 30
0.0
 10
11.1228311281
 20
9.8860639537
 30
0.0
 10
11.0915429907
 20
9.9021958222
 30
0.0
 10
11.0610462529
 20
9.9196337222
 30
0.0
 10
11.0314463483
 20
9.9383616459
 30
0.0
 10
11.002836263
 20
9.9583368584
 30
0.0
 10
10.9753088441
 20
9.9795175463
 30
0.0
 10
10.9402956758
 20
10.0092055417
 30
0.0
 10
10.907691227
 20
10.0412179569
 30
0.0
 10
10.8778496203
 20
10.0753092841
 30
0.0
 10
10.8570311895
 20
10.1017060289
 30
0.0
 10
10.8377770915
 20
10.1289438962
 30
0.0
 10
10.8201289174
 20
10.1569350349
 30
0.0
 10
10.8041276116
 20
10.1855924252
 30
0.0
 10
10.7898132892
 20
10.2148304808
 30
0.0
 10
10.7772257927
 20
10.2445660193
 30
0.0
 10
10.7663628921
 20
10.2747022227
 30
0.0
 10
10.7572191419
 20
10.3051476213
 30
0.0
 10
10.7497887437
 20
10.3358122264
 30
0.0
 10
10.7440658335
 20
10.3666083968
 30
0.0
 10
10.7400270704
 20
10.3974488594
 30
0.0
 10
10.737647907
 20
10.4282485762
 30
0.0
 10
10.7371502072
 20
10.4487695319
 30
0.0
 10
10.7371724593
 20
10.4589932622
 30
0.0
 11
11.4574464813
 21
9.7971379213
 31
0.0
 11
11.3896801107
 21
9.8048427575
 31
0.0
 11
11.3216259882
 21
9.8173837253
 31
0.0
 11
11.2877008558
 21
9.8255642277
 31
0.0
 11
11.2539678638
 21
9.8350492156
 31
0.0
 11
11.1874713248
 21
9.857992216
 31
0.0
 11
11.1549049813
 21
9.8714751401
 31
0.0
 11
11.122927953
 21
9.8862928826
 31
0.0
 11
11.091642647
 21
9.9024310999
 31
0.0
 11
11.0611514704
 21
9.9198754485
 31
0.0
 11
11.031555564
 21
9.9386066937
 31
0.0
 11
11.0029510023
 21
9.9585860356
 31
0.0
 11
10.9754325938
 21
9.979769783
 31
0.0
 11
10.9490951466
 21
10.0021142448
 31
0.0
 11
10.9003126382
 21
10.0500763088
 31
0.0
 11
10.8780163128
 21
10.0755594515
 31
0.0
 11
10.8572132865
 21
10.1019515086
 31
0.0
 11
10.8379707801
 21
10.1291801877
 31
0.0
 11
10.8203348585
 21
10.157161506
 31
0.0
 11
10.8043462981
 21
10.1858085578
 31
0.0
 11
10.7900458748
 21
10.2150344373
 31
0.0
 11
10.7774666814
 21
10.2447515843
 31
0.0
 11
10.7666110761
 21
10.2748698198
 31
0.0
 11
10.7574737338
 21
10.3052983103
 31
0.0
 11
10.7500493293
 21
10.3359462222
 31
0.0
 11
10.7443293793
 21
10.3667239384
 31
0.0
 11
10.7402927673
 21
10.3975467072
 31
0.0
 11
10.7379152188
 21
10.4283309935
 31
0.0
 11
10.7371724593
 21
10.4589932622
 31
0.0
  0
SPLINE
  5
37A
100
AcDbEntity
  8
0
100
AcDbSpline
 62
9
  6
CONTINUOUS
 70
0
 71
3
 72
31
 73
27
 74
25
 42
0.0000001
 43
0.0000001
 44
0.0000000001
 12
-0.9790002826
 22
0.0
 32
0.0
 13
-0.0712564795
 23
0.9764036397
 33
0.0
 40
0.0
 40
0.0
 40
0.0
 40
0.0
 40
0.0627410106
 40
0.1258354094
 40
0.1575329786
 40
0.1893207881
 40
0.2211914453
 40
0.2531398085
 40
0.2851610859
 40
0.3172426431
 40
0.3815114191
 40
0.4136912642
 40
0.4458725321
 40
0.5101396778
 40
0.5741742718
 40
0.6060610024
 40
0.6378230494
 40
0.7008614744
 40
0.7321079293
 40
0.763129872
 40
0.8243799549
 40
0.8545788113
 40
0.8844498101
 40
0.9430665174
 40
0.9717634467
 40
1.0
 40
1.0
 40
1.0
 40
1.0
 10
11.4574464813
 20
9.8725005226
 30
0.0
 10
11.4369719923
 20
9.8725005226
 30
0.0
 10
11.3958855419
 20
9.8743136721
 30
0.0
 10
11.3448656429
 20
9.8812085579
 30
0.0
 10
11.3044018291
 20
9.8895769228
 30
0.0
 10
11.274244495
 20
9.8972962815
 30
0.0
 10
11.2444049402
 20
9.9064473023
 30
0.0
 10
11.2149608254
 20
9.9170283089
 30
0.0
 10
11.1859934741
 20
9.9290362388
 30
0.0
 10
11.1480963627
 20
9.9469174265
 30
0.0
 10
11.1114811291
 20
9.9675368843
 30
0.0
 10
11.0764946658
 20
9.9907546474
 30
0.0
 10
11.0426743424
 20
10.0156416567
 30
0.0
 10
11.0027902986
 20
10.0497187798
 30
0.0
 10
10.9665020484
 20
10.087468776
 30
0.0
 10
10.9398770768
 20
10.1195387183
 30
0.0
 10
10.9150341699
 20
10.1526007441
 30
0.0
 10
10.8927435477
 20
10.1872609199
 30
0.0
 10
10.8731414236
 20
10.2231621989
 30
0.0
 10
10.8555226287
 20
10.2594300782
 30
0.0
 10
10.8406314583
 20
10.2965927633
 30
0.0
 10
10.8284596656
 20
10.3342771731
 30
0.0
 10
10.8182174834
 20
10.3716407784
 30
0.0
 10
10.8105529571
 20
10.4091653908
 30
0.0
 10
10.8054128402
 20
10.4465292865
 30
0.0
 10
10.8036645108
 20
10.4650332402
 30
0.0
 10
10.8029938317
 20
10.4742233313
 30
0.0
 11
11.4574464813
 21
9.8725005226
 31
0.0
 11
11.3960835557
 21
9.875227
 31
0.0
 11
11.3348734964
 21
9.8835210731
 31
0.0
 11
11.3044846451
 21
9.8898058443
 31
0.0
 11
11.2743366246
 21
9.8975238971
 31
0.0
 11
11.2445069632
 21
9.9066736273
 31
0.0
 11
11.2150731892
 21
9.9172534309
 31
0.0
 11
11.186113518
 21
9.9292570631
 31
0.0
 11
11.1577089112
 21
9.9426597336
 31
0.0
 11
11.1028914804
 21
9.9735444984
 31
0.0
 11
11.0766408648
 21
9.9909632264
 31
0.0
 11
11.0512653902
 21
10.0096362003
 31
0.0
 11
11.0034404116
 21
10.0505188371
 31
0.0
 11
10.9599893859
 21
10.0957076646
 31
0.0
 11
10.9400495935
 21
10.119726681
 31
0.0
 11
10.9213722337
 21
10.1445874644
 31
0.0
 11
10.8879815926
 21
10.1964889226
 31
0.0
 11
10.8733225558
 21
10.2233381009
 31
0.0
 11
10.8600539584
 21
10.2506567946
 31
0.0
 11
10.837728178
 21
10.3063094913
 31
0.0
 11
10.8286398037
 21
10.3344426086
 31
0.0
 11
10.8209087766
 21
10.3626459091
 31
0.0
 11
10.809419337
 21
10.418869745
 31
0.0
 11
10.8055916174
 21
10.4467020709
 31
0.0
 11
10.8029938317
 21
10.4742233313
 31
0.0
  0
SPLINE
  5
37B
100
AcDbEntity
  8
0
100
AcDbSpline
 62
9
  6
CONTINUOUS
 70
0
 71
3
 72
22
 73
18
 74
16
 42
0.0000001
 43
0.0000001
 44
0.0000000001
 12
-0.0000010505
 22
0.0684245925
 32
0.0
 13
-0.0633325745
 23
0.0259019279
 33
0.0
 40
0.0
 40
0.0
 40
0.0
 40
0.0
 40
0.0568110859
 40
0.1138285292
 40
0.1712221604
 40
0.2291431245
 40
0.2877270337
 40
0.3470973591
 40
0.4073689
 40
0.4686512028
 40
0.5310466418
 40
0.5946151833
 40
0.659374764
 40
0.7253156289
 40
0.7924065611
 40
0.8606005051
 40
1.0
 40
1.0
 40
1.0
 40
1.0
 10
11.9344059021
 20
12.5233738194
 30
0.0
 10
11.9344058822
 20
12.5246695778
 30
0.0
 10
11.934288857
 20
12.5272672461
 30
0.0
 10
11.9337689057
 20
12.5311425099
 30
0.0
 10
11.932910534
 20
12.5349832077
 30
0.0
 10
11.931719811
 20
12.5387714069
 30
0.0
 10
11.9302027608
 20
12.5424897298
 30
0.0
 10
11.9283653723
 20
12.5461206814
 30
0.0
 10
11.9262135569
 20
12.5496467576
 30
0.0
 10
11.9237534027
 20
12.5530505201
 30
0.0
 10
11.9209911825
 20
12.5563129936
 30
0.0
 10
11.9179435751
 20
12.5594221352
 30
0.0
 10
11.9146281076
 20
12.5623667537
 30
0.0
 10
11.911062217
 20
12.5651351178
 30
0.0
 10
11.9072629824
 20
12.5677157234
 30
0.0
 10
11.901871937
 20
12.57091282
 30
0.0
 10
11.897585391
 20
12.5729576247
 30
0.0
 10
11.8946425481
 20
12.5741611965
 30
0.0
 11
11.9344059021
 21
12.5233738194
 31
0.0
 11
11.9342321166
 21
12.5272572082
 31
0.0
 11
11.9337148033
 21
12.5311241543
 31
0.0
 11
11.9328598483
 21
12.5349570968
 31
0.0
 11
11.9316731375
 21
12.5387384744
 31
0.0
 11
11.9301605567
 21
12.5424507263
 31
0.0
 11
11.9283279921
 21
12.5460762914
 31
0.0
 11
11.9261813296
 21
12.5495976086
 31
0.0
 11
11.9237264551
 21
12.5529971169
 31
0.0
 11
11.9209705529
 21
12.5562578882
 31
0.0
 11
11.9179283721
 21
12.559366683
 31
0.0
 11
11.9146173946
 21
12.5623115938
 31
0.0
 11
11.9110551059
 21
12.5650807152
 31
0.0
 11
11.9072589913
 21
12.5676621417
 31
0.0
 11
11.9032465365
 21
12.5700439678
 31
0.0
 11
11.8946425481
 21
12.5741611965
 31
0.0
  0
SPLINE
  5
37C
100
AcDbEntity
  8
0
100
AcDbSpline
 62
9
  6
CONTINUOUS
 70
0
 71
3
 72
26
 73
22
 74
20
 42
0.0000001
 43
0.0000001
 44
0.0000000001
 12
-0.0000002695
 22
0.1101604408
 32
0.0
 13
-0.1099774218
 23
-0.0063473942
 33
0.0
 40
0.0
 40
0.0
 40
0.0
 40
0.0
 40
0.0537415835
 40
0.1078726395
 40
0.1627358546
 40
0.2186495529
 40
0.247109853
 40
0.275944907
 40
0.3051777109
 40
0.3348222871
 40
0.3953502436
 40
0.4575497768
 40
0.5213597204
 40
0.5866861147
 40
0.6198935403
 40
0.653434923
 40
0.7213944936
 40
0.7903267558
 40
0.8599409896
 40
0.9299319927
 40
1.0
 40
1.0
 40
1.0
 40
1.0
 10
11.8349558829
 20
12.6619093253
 30
0.0
 10
11.834955878
 20
12.6638827241
 30
0.0
 10
11.8346888565
 20
12.6678487026
 30
0.0
 10
11.8335030047
 20
12.6737220597
 30
0.0
 10
11.8315458065
 20
12.6794697165
 30
0.0
 10
11.82929559
 20
12.6840766362
 30
0.0
 10
11.8271351051
 20
12.6876306193
 30
0.0
 10
11.8253218008
 20
12.6902421089
 30
0.0
 10
11.8233328449
 20
12.6927776851
 30
0.0
 10
11.8204365024
 20
12.696072005
 30
0.0
 10
11.8164041918
 20
12.6999670864
 30
0.0
 10
11.8110139186
 20
12.7042109373
 30
0.0
 10
11.8050936299
 20
12.7080132169
 30
0.0
 10
11.7997933559
 20
12.7107612001
 30
0.0
 10
11.7953453303
 20
12.7126974794
 30
0.0
 10
11.7907252781
 20
12.7144686838
 30
0.0
 10
11.7847414391
 20
12.7163289994
 30
0.0
 10
11.7773331259
 20
12.7179834595
 30
0.0
 10
11.7697430445
 20
12.71905675
 30
0.0
 10
11.7620511812
 20
12.7195349337
 30
0.0
 10
11.7569024037
 20
12.7194474358
 30
0.0
 10
11.7543337708
 20
12.7192991861
 30
0.0
 11
11.8349558829
 21
12.6619093253
 31
0.0
 11
11.834560995
 21
12.6678163373
 31
0.0
 11
11.8333851734
 21
12.673662363
 31
0.0
 11
11.8314416378
 21
12.6793850945
 31
0.0
 11
11.8287436078
 21
12.6849222236
 31
0.0
 11
11.8271157895
 21
12.6876017164
 31
0.0
 11
11.825305513
 21
12.690211877
 31
0.0
 11
11.8233192423
 21
12.6927466455
 31
0.0
 11
11.821164111
 21
12.6952002024
 31
0.0
 11
11.8163758017
 21
12.6998404039
 31
0.0
 11
11.8109976554
 21
12.7040859262
 31
0.0
 11
11.8050867422
 21
12.7078902142
 31
0.0
 11
11.7987001322
 21
12.7112067125
 31
0.0
 11
11.7953463557
 21
12.7126676043
 31
0.0
 11
11.7918966983
 21
12.7139913858
 31
0.0
 11
11.784749781
 21
12.7162204217
 31
0.0
 11
11.7773396828
 21
12.7178797389
 31
0.0
 11
11.7697467506
 21
12.7189553182
 31
0.0
 11
11.7620513309
 21
12.7194331403
 31
0.0
 11
11.7543337708
 21
12.7192991861
 31
0.0
  0
SPLINE
  5
37D
100
AcDbEntity
  8
0
100
AcDbSpline
 62
6
  6
CONTINUOUS
 70
0
 71
3
 72
9
 73
5
 74
3
 42
0.0000001
 43
0.0000001
 44
0.0000000001
 12
0.0005372658
 22
-0.0334918922
 32
0.0
 13
0.0060497879
 23
-0.0329453421
 33
0.0
 40
0.0
 40
0.0
 40
0.0
 40
0.0
 40
0.4816274793
 40
1.0
 40
1.0
 40
1.0
 40
1.0
 10
11.1179427681
 20
12.6859585895
 30
0.0
 10
11.1180290221
 20
12.6805817176
 30
0.0
 10
11.1187410231
 20
12.6694224898
 30
0.0
 10
11.1203711816
 20
12.6583644199
 30
0.0
 10
11.1214165296
 20
12.6526717666
 30
0.0
 11
11.1179427681
 21
12.6859585895
 31
0.0
 11
11.118927841
 21
12.6698560012
 31
0.0
 11
11.1214165296
 21
12.6526717666
 31
0.0
  0
SPLINE
  5
37E
100
AcDbEntity
  8
0
100
AcDbSpline
 62
9
  6
CONTINUOUS
 70
0
 71
3
 72
8
 73
4
 74
2
 42
0.0000001
 43
0.0000001
 44
0.0000000001
 12
0.0000097988
 22
0.0000985827
 32
0.0
 13
0.0000097988
 23
0.0000985827
 33
0.0
 40
0.0
 40
0.0
 40
0.0
 40
0.0
 40
1.0
 40
1.0
 40
1.0
 40
1.0
 10
11.0690614266
 20
11.5439877025
 30
0.0
 10
11.0690646928
 20
11.5440205634
 30
0.0
 10
11.0690679591
 20
11.5440534244
 30
0.0
 10
11.0690712254
 20
11.5440862853
 30
0.0
 11
11.0690614266
 21
11.5439877025
 31
0.0
 11
11.0690712254
 21
11.5440862853
 31
0.0
  0
SPLINE
  5
37F
100
AcDbEntity
  8
0
100
AcDbSpline
 62
9
  6
CONTINUOUS
 70
0
 71
3
 72
8
 73
4
 74
2
 42
0.0000001
 43
0.0000001
 44
0.0000000001
 12
0.0000061911
 22
0.0000618948
 32
0.0
 13
0.0000061911
 23
0.0000618948
 33
0.0
 40
0.0
 40
0.0
 40
0.0
 40
0.0
 40
1.0
 40
1.0
 40
1.0
 40
1.0
 10
11.0690712254
 20
11.5440862853
 30
0.0
 10
11.0690732891
 20
11.5441069169
 30
0.0
 10
11.0690753528
 20
11.5441275484
 30
0.0
 10
11.0690774165
 20
11.54414818
 30
0.0
 11
11.0690712254
 21
11.5440862853
 31
0.0
 11
11.0690774165
 21
11.54414818
 31
0.0
  0
SPLINE
  5
380
100
AcDbEntity
  8
0
100
AcDbSpline
 62
9
  6
CONTINUOUS
 70
0
 71
3
 72
11
 73
7
 74
5
 42
0.0000001
 43
0.0000001
 44
0.0000000001
 12
0.2107082835
 22
-0.0070833692
 32
0.0
 13
0.2108273105
 23
-0.0000000001
 33
0.0
 40
0.0
 40
0.0
 40
0.0
 40
0.0
 40
0.2494179985
 40
0.5006979264
 40
0.7516221138
 40
1.0
 40
1.0
 40
1.0
 40
1.0
 10
11.2466831465
 20
11.1059117593
 30
0.0
 10
11.2642012926
 20
11.1053228528
 30
0.0
 10
11.2993682457
 20
11.1041372028
 30
0.0
 10
11.3521661121
 20
11.10256868
 30
0.0
 10
11.404902426
 20
11.1014348338
 30
0.0
 10
11.439991534
 20
11.1011238746
 30
0.0
 10
11.4574464813
 20
11.1011238746
 30
0.0
 11
11.2466831465
 21
11.1059117593
 31
0.0
 11
11.2992386344
 21
11.1041765427
 31
0.0
 11
11.3521930293
 21
11.1026403861
 31
0.0
 11
11.4050833165
 21
11.101542945
 31
0.0
 11
11.4574464813
 21
11.1011238746
 31
0.0
  0
LINE
  5
381
100
AcDbEntity
  8
0
100
AcDbLine
 62
9
  6
CONTINUOUS
 10
10.8537153893
 20
11.0937890551
 11
10.8145399378
 21
11.0527606473
  0
SPLINE
  5
382
100
AcDbEntity
  8
0
100
AcDbSpline
 62
9
  6
CONTINUOUS
 70
0
 71
3
 72
41
 73
37
 74
35
 42
0.0000001
 43
0.0000001
 44
0.0000000001
 12
-0.6037769851
 22
-0.006397285
 32
0.0
 13
-0.4015250293
 23
-0.4509603352
 33
0.0
 40
0.0
 40
0.0
 40
0.0
 40
0.0
 40
0.0772359542
 40
0.1552001767
 40
0.2332864904
 40
0.3108845541
 40
0.3873830429
 40
0.4250294841
 40
0.4621730211
 40
0.4987384704
 40
0.5346512906
 40
0.5698377595
 40
0.6042251848
 40
0.6377421614
 40
0.6703188872
 40
0.7018875595
 40
0.7323828764
 40
0.761742682
 40
0.7899088037
 40
0.8168281563
 40
0.8424542113
 40
0.866748976
 40
0.8783889776
 40
0.8896872939
 40
0.9006429548
 40
0.9112562268
 40
0.9215288098
 40
0.931464067
 40
0.9410672904
 40
0.9503460053
 40
0.9593103156
 40
0.9679732863
 40
0.9763513559
 40
0.9844647643
 40
0.9923379674
 40
1.0
 40
1.0
 40
1.0
 40
1.0
 10
11.4574464813
 20
11.1647695203
 30
0.0
 10
11.4419020508
 20
11.1646048202
 30
0.0
 10
11.41066443
 20
11.1644716957
 30
0.0
 10
11.3637109565
 20
11.1646710201
 30
0.0
 10
11.3166862738
 20
11.1650952023
 30
0.0
 10
11.2699572199
 20
11.165571219
 30
0.0
 10
11.2313660443
 20
11.1658689048
 30
0.0
 10
11.2009162285
 20
11.1659576165
 30
0.0
 10
11.1785036245
 20
11.165927716
 30
0.0
 10
11.1564403764
 20
11.1657800612
 30
0.0
 10
11.1347723803
 20
11.1654928581
 30
0.0
 10
11.1135455174
 20
11.1650443569
 30
0.0
 10
11.0928056503
 20
11.1644128117
 30
0.0
 10
11.0725986166
 20
11.1635764936
 30
0.0
 10
11.0529702205
 20
11.1625136894
 30
0.0
 10
11.0339662206
 20
11.1612027043
 30
0.0
 10
11.015632317
 20
11.1596218616
 30
0.0
 10
10.998014119
 20
11.1577495026
 30
0.0
 10
10.9811571531
 20
11.1555639743
 30
0.0
 10
10.9651066877
 20
11.153043633
 30
0.0
 10
10.9499081461
 20
11.150166748
 30
0.0
 10
10.9378230789
 20
11.1474163704
 30
0.0
 10
10.9286273684
 20
11.145002107
 30
0.0
 10
10.9220712842
 20
11.1431139747
 30
0.0
 10
10.9157629539
 20
11.1411199001
 30
0.0
 10
10.9097080369
 20
11.1390170773
 30
0.0
 10
10.9039122014
 20
11.1368027339
 30
0.0
 10
10.8983811053
 20
11.1344740645
 30
0.0
 10
10.8931204042
 20
11.1320282404
 30
0.0
 10
10.8881357548
 20
11.1294623987
 30
0.0
 10
10.8834328261
 20
11.1267736389
 30
0.0
 10
10.8790173044
 20
11.123959008
 30
0.0
 10
10.8748949391
 20
11.1210155308
 30
0.0
 10
10.8710714666
 20
11.1179400966
 30
0.0
 10
10.8675529936
 20
11.1147298882
 30
0.0
 10
10.8653878801
 20
11.1124698132
 30
0.0
 10
10.8643623808
 20
11.1113180556
 30
0.0
 11
11.4574464813
 21
11.1647695203
 31
0.0
 11
11.4108111462
 21
11.164538131
 31
0.0
 11
11.3637358086
 21
11.1647083503
 31
0.0
 11
11.316588114
 21
11.1651052813
 31
0.0
 11
11.2697357082
 21
11.165554027
 31
0.0
 11
11.2235462368
 21
11.1658796907
 31
0.0
 11
11.2008149907
 21
11.1659417114
 31
0.0
 11
11.1783873454
 21
11.1659073753
 31
0.0
 11
11.1563092565
 21
11.1657548202
 31
0.0
 11
11.1346266798
 21
11.165462184
 31
0.0
 11
11.1133855709
 21
11.1650076046
 31
0.0
 11
11.0926318856
 21
11.1643692199
 31
0.0
 11
11.0724115795
 21
11.1635251677
 31
0.0
 11
11.0527706084
 21
11.162453586
 31
0.0
 11
11.033754928
 21
11.1611326126
 31
0.0
 11
11.0154104939
 21
11.1595403854
 31
0.0
 11
10.997783262
 21
11.1576550424
 31
0.0
 11
10.9809191878
 21
11.1554547213
 31
0.0
 11
10.9648642272
 21
11.1529175601
 31
0.0
 11
10.9496643357
 21
11.1500216967
 31
0.0
 11
10.9353654692
 21
11.146745269
 31
0.0
 11
10.9285682815
 21
11.1449575116
 31
0.0
 11
10.9220135833
 21
11.1430664148
 31
0.0
 11
10.9157071193
 21
11.1410692459
 31
0.0
 11
10.9096546338
 21
11.138963272
 31
0.0
 11
10.9038618713
 21
11.1367457605
 31
0.0
 11
10.8983345763
 21
11.1344139786
 31
0.0
 11
10.8930784932
 21
11.1319651934
 31
0.0
 11
10.8880993665
 21
11.1293966723
 31
0.0
 11
10.8834029407
 21
11.1267056825
 31
0.0
 11
10.8789949602
 21
11.1238894911
 31
0.0
 11
10.8748811695
 21
11.1209453655
 31
0.0
 11
10.8710673131
 21
11.1178705729
 31
0.0
 11
10.8675591353
 21
11.1146623805
 31
0.0
 11
10.8643623808
 21
11.1113180556
 31
0.0
  0
SPLINE
  5
383
100
AcDbEntity
  8
0
100
AcDbSpline
 62
6
  6
CONTINUOUS
 70
0
 71
3
 72
11
 73
7
 74
5
 42
0.0000001
 43
0.0000001
 44
0.0000000001
 12
-0.0922399965
 22
-0.1556087179
 32
0.0
 13
-0.1248633261
 23
-0.1308871263
 33
0.0
 40
0.0
 40
0.0
 40
0.0
 40
0.0
 40
0.2493601184
 40
0.4990809209
 40
0.7492633424
 40
1.0
 40
1.0
 40
1.0
 40
1.0
 10
10.9628268292
 20
11.2376148446
 30
0.0
 10
10.9551598371
 20
11.2246806418
 30
0.0
 10
10.9390670704
 20
11.1992286742
 30
0.0
 10
10.9127738749
 20
11.1624603786
 30
0.0
 10
10.8843908353
 20
11.1271738383
 30
0.0
 10
10.864151327
 20
11.1047284554
 30
0.0
 10
10.8537153893
 20
11.0937890553
 30
0.0
 11
10.9628268292
 21
11.2376148446
 31
0.0
 11
10.9387239609
 21
11.1994869143
 31
0.0
 11
10.912450801
 21
11.1627405029
 31
0.0
 11
10.8840877952
 21
11.127474815
 31
0.0
 11
10.8537153893
 21
11.0937890553
 31
0.0
  0
SPLINE
  5
384
100
AcDbEntity
  8
0
100
AcDbSpline
 62
9
  6
CONTINUOUS
 70
0
 71
3
 72
35
 73
31
 74
29
 42
0.0000001
 43
0.0000001
 44
0.0000000001
 12
-0.510170286
 22
-0.0127929137
 32
0.0
 13
-0.2516136974
 23
-0.4439909083
 33
0.0
 40
0.0
 40
0.0
 40
0.0
 40
0.0
 40
0.0765069983
 40
0.153572191
 40
0.2306086742
 40
0.3070353919
 40
0.3822794406
 40
0.4192823477
 40
0.4557801272
 40
0.4917050166
 40
0.5269905693
 40
0.5615718968
 40
0.5953859633
 40
0.6283719478
 40
0.6604716928
 40
0.691630262
 40
0.7217966408
 40
0.7509246211
 40
0.7789739243
 40
0.8059116354
 40
0.8317140386
 40
0.8563689699
 40
0.8798788191
 40
0.9022643237
 40
0.9235692669
 40
0.9438660827
 40
0.963262124
 40
0.9819058817
 40
0.9910085119
 40
1.0
 40
1.0
 40
1.0
 40
1.0
 10
11.4574464813
 20
11.3624643145
 30
0.0
 10
11.4444359489
 20
11.3621380654
 30
0.0
 10
11.4183212186
 20
11.3614297891
 30
0.0
 10
11.3791142052
 20
11.3601083174
 30
0.0
 10
11.3399342694
 20
11.3584273651
 30
0.0
 10
11.3010863193
 20
11.3562929901
 30
0.0
 10
11.2690679648
 20
11.3540464208
 30
0.0
 10
11.2438544108
 20
11.3519162069
 30
0.0
 10
11.225323207
 20
11.3501540743
 30
0.0
 10
11.2071042345
 20
11.3482069275
 30
0.0
 10
11.1892355838
 20
11.3460629154
 30
0.0
 10
11.1717553364
 20
11.3437102369
 30
0.0
 10
11.1547015468
 20
11.3411370828
 30
0.0
 10
11.138112239
 20
11.3383316497
 30
0.0
 10
11.1220253977
 20
11.3352821323
 30
0.0
 10
11.1064789577
 20
11.3319767201
 30
0.0
 10
11.0915107909
 20
11.3284035878
 30
0.0
 10
11.0771586901
 20
11.3245508814
 30
0.0
 10
11.0634603504
 20
11.3204066947
 30
0.0
 10
11.0504533495
 20
11.3159590331
 30
0.0
 10
11.0381751303
 20
11.3111957584
 30
0.0
 10
11.0266629933
 20
11.3061045013
 30
0.0
 10
11.0159541247
 20
11.3006725521
 30
0.0
 10
11.0060856586
 20
11.2948866626
 30
0.0
 10
10.9970949439
 20
11.2887329914
 30
0.0
 10
10.9890196652
 20
11.2821964975
 30
0.0
 10
10.981899325
 20
11.2752625541
 30
0.0
 10
10.9767534966
 20
11.2690883714
 30
0.0
 10
10.9731845721
 20
11.2639545161
 30
0.0
 10
10.9715820978
 20
11.2613237756
 30
0.0
 10
10.9708279707
 20
11.2599930626
 30
0.0
 11
11.4574464813
 21
11.3624643145
 31
0.0
 11
11.4184174048
 21
11.361389738
 31
0.0
 11
11.3791115691
 21
11.3600479779
 31
0.0
 11
11.3398344347
 21
11.3583440059
 31
0.0
 11
11.3008914618
 21
11.3561827931
 31
0.0
 11
11.2625881108
 21
11.3534693112
 31
0.0
 11
11.2437717499
 21
11.3518757728
 31
0.0
 11
11.2252298422
 21
11.3501085314
 31
0.0
 11
11.2070005702
 21
11.3481557083
 31
0.0
 11
11.1891221163
 21
11.3460054251
 31
0.0
 11
11.1716326633
 21
11.3436458032
 31
0.0
 11
11.1545703936
 21
11.3410649639
 31
0.0
 11
11.1379734898
 21
11.3382510287
 31
0.0
 11
11.1218801344
 21
11.3351921191
 31
0.0
 11
11.10632851
 21
11.3318763564
 31
0.0
 11
11.091356799
 21
11.328291862
 31
0.0
 11
11.0770031842
 21
11.3244267575
 31
0.0
 11
11.063305848
 21
11.3202691642
 31
0.0
 11
11.050302973
 21
11.3158072036
 31
0.0
 11
11.0380327416
 21
11.311028997
 31
0.0
 11
11.0265333366
 21
11.305922666
 31
0.0
 11
11.0158429403
 21
11.3004763318
 31
0.0
 11
11.0059997355
 21
11.2946781161
 31
0.0
 11
10.9970419045
 21
11.2885161401
 31
0.0
 11
10.98900763
 21
11.2819785254
 31
0.0
 11
10.9819350945
 21
11.2750533932
 31
0.0
 11
10.9758624805
 21
11.2677288652
 31
0.0
 11
10.9732130762
 21
11.2639131156
 31
0.0
 11
10.9708279707
 21
11.2599930626
 31
0.0
  0
SPLINE
  5
385
100
AcDbEntity
  8
0
100
AcDbSpline
 62
6
  6
CONTINUOUS
 70
0
 71
3
 72
13
 73
9
 74
7
 42
0.0000001
 43
0.0000001
 44
0.0000000001
 12
-0.0464132657
 22
-0.1113054045
 32
0.0
 13
-0.0614930018
 23
-0.1037385899
 33
0.0
 40
0.0
 40
0.0
 40
0.0
 40
0.0
 40
0.2461119534
 40
0.3702516581
 40
0.4950801691
 40
0.6205225935
 40
0.746506892
 40
1.0
 40
1.0
 40
1.0
 40
1.0
 10
11.0169868637
 20
11.3452580396
 30
0.0
 10
11.0131792438
 20
11.3361268428
 30
0.0
 10
11.0071971987
 20
11.3224938691
 30
0.0
 10
10.9987245688
 20
11.3044854423
 30
0.0
 10
10.9920816054
 20
11.2909792372
 30
0.0
 10
10.9851703857
 20
11.2775248984
 30
0.0
 10
10.9755807131
 20
11.2596354853
 30
0.0
 10
10.9680228466
 20
11.2463805169
 30
0.0
 10
10.9628268292
 20
11.2376148444
 30
0.0
 11
11.0169868637
 21
11.3452580396
 31
0.0
 11
11.0050699776
 21
11.3180757228
 31
0.0
 11
10.9986974352
 21
11.3045291615
 31
0.0
 11
10.9920535235
 21
11.2910209765
 31
0.0
 11
10.9851412835
 21
11.2775648244
 31
0.0
 11
10.9779637706
 21
11.2641740897
 31
0.0
 11
10.9628268292
 21
11.2376148444
 31
0.0
  0
SPLINE
  5
386
100
AcDbEntity
  8
0
100
AcDbSpline
 62
9
  6
CONTINUOUS
 70
0
 71
3
 72
35
 73
31
 74
29
 42
0.0000001
 43
0.0000001
 44
0.0000000001
 12
-0.4709073238
 22
-0.0072158919
 32
0.0
 13
-0.1783244998
 23
-0.4358969482
 33
0.0
 40
0.0
 40
0.0
 40
0.0
 40
0.0
 40
0.0756843128
 40
0.151778628
 40
0.2277345962
 40
0.303012536
 40
0.3770841841
 40
0.4135076697
 40
0.4494387367
 40
0.4848164783
 40
0.5195816943
 40
0.5536771862
 40
0.5870481151
 40
0.6196424364
 40
0.6514114305
 40
0.6823103545
 40
0.7122992457
 40
0.7413439132
 40
0.7694171664
 40
0.7965003353
 40
0.8225851459
 40
0.8476760178
 40
0.8717928413
 40
0.8949742601
 40
0.9172814101
 40
0.9388019297
 40
0.959653841
 40
0.9799886151
 40
0.9900226006
 40
1.0
 40
1.0
 40
1.0
 40
1.0
 10
11.4574464813
 20
11.4942402295
 30
0.0
 10
11.4455663822
 20
11.4940581862
 30
0.0
 10
11.4217446892
 20
11.4934591235
 30
0.0
 10
11.3860279848
 20
11.4918252012
 30
0.0
 10
11.3504190207
 20
11.4894080099
 30
0.0
 10
11.3151943087
 20
11.4861643095
 30
0.0
 10
11.2862302443
 20
11.4827179092
 30
0.0
 10
11.263470538
 20
11.4794869573
 30
0.0
 10
11.2467651902
 20
11.4768421278
 30
0.0
 10
11.2303638647
 20
11.4739569191
 30
0.0
 10
11.2143010536
 20
11.4708258523
 30
0.0
 10
11.198611265
 20
11.4674435021
 30
0.0
 10
11.1833289727
 20
11.463804425
 30
0.0
 10
11.1684886228
 20
11.4599031731
 30
0.0
 10
11.1541246242
 20
11.4557342838
 30
0.0
 10
11.1402713423
 20
11.4512922715
 30
0.0
 10
11.1269630908
 20
11.4465716145
 30
0.0
 10
11.1142341251
 20
11.4415667361
 30
0.0
 10
11.1021186362
 20
11.4362719768
 30
0.0
 10
11.0906507519
 20
11.4306815571
 30
0.0
 10
11.079864549
 20
11.4247895265
 30
0.0
 10
11.0697940864
 20
11.4185896975
 30
0.0
 10
11.0604734791
 20
11.4120755796
 30
0.0
 10
11.0519370139
 20
11.4052402805
 30
0.0
 10
11.0442193923
 20
11.3980765822
 30
0.0
 10
11.0373558687
 20
11.3905766333
 30
0.0
 10
11.0313830655
 20
11.382733532
 30
0.0
 10
11.0271594994
 20
11.3758725299
 30
0.0
 10
11.0242817559
 20
11.3702273605
 30
0.0
 10
11.0230099265
 20
11.3673526033
 30
0.0
 10
11.0224168549
 20
11.3659028973
 30
0.0
 11
11.4574464813
 21
11.4942402295
 31
0.0
 11
11.421813397
 21
11.4933389276
 31
0.0
 11
11.3860136591
 21
11.4916925079
 31
0.0
 11
11.3503242288
 21
11.4892572161
 31
0.0
 11
11.3150220668
 21
11.4859892982
 31
0.0
 11
11.2803841342
 21
11.4818449997
 31
0.0
 11
11.2634008043
 21
11.4794305347
 31
0.0
 11
11.2466873921
 21
11.4767805666
 31
0.0
 11
11.2302785177
 21
11.4738896264
 31
0.0
 11
11.2142088012
 21
11.4707522446
 31
0.0
 11
11.1985128629
 21
11.467362952
 31
0.0
 11
11.1832253227
 21
11.4637162794
 31
0.0
 11
11.1683808009
 21
11.4598067575
 31
0.0
 11
11.1540139175
 21
11.4556289169
 31
0.0
 11
11.1401592927
 21
11.4511772884
 31
0.0
 11
11.1268515465
 21
11.4464464027
 31
0.0
 11
11.1141252992
 21
11.4414307906
 31
0.0
 11
11.1020151708
 21
11.4361249827
 31
0.0
 11
11.0905557815
 21
11.4305235098
 31
0.0
 11
11.0797817513
 21
11.4246209027
 31
0.0
 11
11.0697277004
 21
11.4184116919
 31
0.0
 11
11.060428249
 21
11.4118904083
 31
0.0
 11
11.0519180171
 21
11.4050515826
 31
0.0
 11
11.0442316248
 21
11.3978897455
 31
0.0
 11
11.0374036924
 21
11.3903994277
 31
0.0
 11
11.0314688398
 21
11.3825751599
 31
0.0
 11
11.0264616873
 21
11.3744114729
 31
0.0
 11
11.0243168173
 21
11.370200638
 31
0.0
 11
11.0224168549
 21
11.3659028973
 31
0.0
  0
SPLINE
  5
387
100
AcDbEntity
  8
0
100
AcDbSpline
 62
6
  6
CONTINUOUS
 70
0
 71
3
 72
13
 73
9
 74
7
 42
0.0000001
 43
0.0000001
 44
0.0000000001
 12
-0.0283990275
 22
-0.1236538201
 32
0.0
 13
-0.0488296107
 23
-0.1171001328
 33
0.0
 40
0.0
 40
0.0
 40
0.0
 40
0.0
 40
0.1212488619
 40
0.2435630245
 40
0.4914131147
 40
0.6170469237
 40
0.7438015762
 40
1.0
 40
1.0
 40
1.0
 40
1.0
 10
11.0559902918
 20
11.4658346551
 30
0.0
 10
11.0548425085
 20
11.4608370268
 30
0.0
 10
11.0524254741
 20
11.4508230135
 30
0.0
 10
11.0471039723
 20
11.4307322246
 30
0.0
 10
11.0410668162
 20
11.4106442635
 30
0.0
 10
11.0343437524
 20
11.390584101
 30
0.0
 10
11.0270885208
 20
11.3703348282
 30
0.0
 10
11.0211568868
 20
11.3552583294
 30
0.0
 10
11.0169868637
 20
11.3452580396
 30
0.0
 11
11.0559902918
 21
11.4658346551
 31
0.0
 11
11.0523814009
 21
11.4508807538
 31
0.0
 11
11.0484089301
 21
11.4358794429
 31
0.0
 11
11.0393708853
 21
11.4057607927
 31
0.0
 11
11.0343071751
 21
11.3906469601
 31
0.0
 11
11.0288837561
 21
11.3755073033
 31
0.0
 11
11.0169868637
 21
11.3452580396
 31
0.0
  0
SPLINE
  5
388
100
AcDbEntity
  8
0
100
AcDbSpline
 62
6
  6
CONTINUOUS
 70
0
 71
3
 72
35
 73
31
 74
29
 42
0.0000001
 43
0.0000001
 44
0.0000000001
 12
-0.4623001781
 22
0.0
 32
0.0
 13
-0.0881373839
 23
-0.4538207314
 33
0.0
 40
0.0
 40
0.0
 40
0.0
 40
0.0
 40
0.0737953082
 40
0.1477405104
 40
0.2214078298
 40
0.2943674167
 40
0.3661937795
 40
0.4015547238
 40
0.4364785485
 40
0.4709166599
 40
0.504822327
 40
0.5381510768
 40
0.5708611532
 40
0.6029140539
 40
0.6342751612
 40
0.6649144863
 40
0.69480755
 40
0.723936422
 40
0.7522909458
 40
0.7798701708
 40
0.8066840072
 40
0.8327551058
 40
0.8581209343
 40
0.8828359797
 40
0.9069739395
 40
0.9306296863
 40
0.9539206992
 40
0.9769875985
 40
0.9884903708
 40
1.0
 40
1.0
 40
1.0
 40
1.0
 10
11.4574464813
 20
11.6734473255
 30
0.0
 10
11.4460746199
 20
11.6734473255
 30
0.0
 10
11.4233044508
 20
11.6729087855
 30
0.0
 10
11.389256576
 20
11.6705422639
 30
0.0
 10
11.3554777423
 20
11.6666521023
 30
0.0
 10
11.3222344546
 20
11.6612758474
 30
0.0
 10
11.2950567363
 20
11.6555589892
 30
0.0
 10
11.2738071851
 20
11.6502558732
 30
0.0
 10
11.2582527115
 20
11.6459491484
 30
0.0
 10
11.243032219
 20
11.6412974182
 30
0.0
 10
11.2281788587
 20
11.6363052929
 30
0.0
 10
11.2137258856
 20
11.630977453
 30
0.0
 10
11.199706504
 20
11.6253185406
 30
0.0
 10
11.1861539054
 20
11.6193331805
 30
0.0
 10
11.1731012561
 20
11.6130259638
 30
0.0
 10
11.1605817009
 20
11.6064014387
 30
0.0
 10
11.1486283641
 20
11.5994640957
 30
0.0
 10
11.1372743569
 20
11.5922183497
 30
0.0
 10
11.1265527906
 20
11.5846685193
 30
0.0
 10
11.1164968
 20
11.5768188033
 30
0.0
 10
11.1071395809
 20
11.5686732593
 30
0.0
 10
11.0985144455
 20
11.5602357863
 30
0.0
 10
11.0906549
 20
11.5515101339
 30
0.0
 10
11.083594736
 20
11.5424999126
 30
0.0
 10
11.0773681458
 20
11.5332087651
 30
0.0
 10
11.0720097527
 20
11.5236402111
 30
0.0
 10
11.0675548062
 20
11.5137989823
 30
0.0
 10
11.0646215593
 20
11.5053641012
 30
0.0
 10
11.0627689328
 20
11.4985070252
 30
0.0
 10
11.0620084364
 20
11.4950415833
 30
0.0
 10
11.0616702936
 20
11.4933004806
 30
0.0
 11
11.4574464813
 21
11.6734473255
 31
0.0
 11
11.4233402224
 21
11.6726497127
 31
0.0
 11
11.3892374428
 21
11.6702819182
 31
0.0
 11
11.3554051181
 21
11.6663815076
 31
0.0
 11
11.3221102243
 21
11.6609860466
 31
0.0
 11
11.2896197371
 21
11.6541331008
 31
0.0
 11
11.2737595759
 21
11.6501718104
 31
0.0
 11
11.2582006323
 21
11.6458602359
 31
0.0
 11
11.2429762782
 21
11.641203073
 31
0.0
 11
11.2281198857
 21
11.6362050175
 31
0.0
 11
11.2136648267
 21
11.630870765
 31
0.0
 11
11.1996444731
 21
11.6252050113
 31
0.0
 11
11.186092197
 21
11.6192124521
 31
0.0
 11
11.1730413704
 21
11.6128977831
 31
0.0
 11
11.1605253651
 21
11.6062656999
 31
0.0
 11
11.1485775533
 21
11.5993208983
 31
0.0
 11
11.1372313068
 21
11.592068074
 31
0.0
 11
11.1265199976
 21
11.5845119227
 31
0.0
 11
11.1164769977
 21
11.5766571401
 31
0.0
 11
11.1071356791
 21
11.568508422
 31
0.0
 11
11.0985294138
 21
11.5600704639
 31
0.0
 11
11.0906915737
 21
11.5513479617
 31
0.0
 11
11.0836555308
 21
11.542345611
 31
0.0
 11
11.0774546571
 21
11.5330681076
 31
0.0
 11
11.0721223245
 21
11.5235201472
 31
0.0
 11
11.0676919051
 21
11.5137064254
 31
0.0
 11
11.0641967708
 21
11.5036316379
 31
0.0
 11
11.0628103643
 21
11.498497812
 31
0.0
 11
11.0616702936
 21
11.4933004806
 31
0.0
  0
SPLINE
  5
389
100
AcDbEntity
  8
0
100
AcDbSpline
 62
6
  6
CONTINUOUS
 70
0
 71
3
 72
12
 73
8
 74
6
 42
0.0000001
 43
0.0000001
 44
0.0000000001
 12
0.0218580295
 22
-0.1248233994
 32
0.0
 13
-0.008538315
 23
-0.1264347724
 33
0.0
 40
0.0
 40
0.0
 40
0.0
 40
0.0
 40
0.2394730421
 40
0.485877376
 40
0.6117430071
 40
0.7393908939
 40
1.0
 40
1.0
 40
1.0
 40
1.0
 10
11.064883264
 20
11.6923314751
 30
0.0
 10
11.0666280669
 20
11.6823675287
 30
0.0
 10
11.0695190587
 20
11.6620325083
 30
0.0
 10
11.0715707899
 20
11.6362570954
 30
0.0
 10
11.0723013506
 20
11.6151499094
 30
0.0
 10
11.0724077726
 20
11.5934308023
 30
0.0
 10
11.0717611237
 20
11.5770311439
 30
0.0
 10
11.0710194029
 20
11.5660477929
 30
0.0
 11
11.064883264
 21
11.6923314751
 31
0.0
 11
11.0691713996
 21
11.6622892885
 31
0.0
 11
11.071666402
 21
11.6311640944
 31
0.0
 11
11.0722203603
 21
11.6152236785
 31
0.0
 11
11.0723016661
 21
11.599047992
 31
0.0
 11
11.0710194029
 21
11.5660477929
 31
0.0
  0
SPLINE
  5
38A
100
AcDbEntity
  8
0
100
AcDbSpline
 62
9
  6
CONTINUOUS
 70
0
 71
3
 72
39
 73
35
 74
33
 42
0.0000001
 43
0.0000001
 44
0.0000000001
 12
0.0000048244
 22
0.5468267404
 32
0.0
 13
0.5468267337
 23
-0.0000856636
 33
0.0
 40
0.0
 40
0.0
 40
0.0
 40
0.0
 40
0.0269820419
 40
0.0540281807
 40
0.0811712554
 40
0.1084455941
 40
0.135892497
 40
0.163552974
 40
0.1914641125
 40
0.2196585498
 40
0.2481654325
 40
0.2770117544
 40
0.3062202133
 40
0.335806889
 40
0.3657839603
 40
0.3961599054
 40
0.4269385424
 40
0.4581203652
 40
0.4897029597
 40
0.5216795875
 40
0.5540401527
 40
0.5867719601
 40
0.6198583253
 40
0.6532795472
 40
0.6870141544
 40
0.7210370289
 40
0.7553192871
 40
0.7898304005
 40
0.8245407466
 40
0.859422878
 40
0.8944494954
 40
0.9295873058
 40
0.9647879347
 40
1.0
 40
1.0
 40
1.0
 40
1.0
 10
11.064883264
 20
11.6923314751
 30
0.0
 10
11.0648833074
 20
11.6972496425
 30
0.0
 10
11.0651992545
 20
11.7071005492
 30
0.0
 10
11.0666179136
 20
11.7218374941
 30
0.0
 10
11.0689805878
 20
11.7365074694
 30
0.0
 10
11.0722883235
 20
11.7510682905
 30
0.0
 10
11.0765278989
 20
11.7654835921
 30
0.0
 10
11.0816831191
 20
11.7797205269
 30
0.0
 10
11.0877385932
 20
11.7937467209
 30
0.0
 10
11.0946794598
 20
11.8075292149
 30
0.0
 10
11.1024911327
 20
11.8210345501
 30
0.0
 10
11.1111595289
 20
11.8342281203
 30
0.0
 10
11.1206654667
 20
11.847076882
 30
0.0
 10
11.1309827962
 20
11.8595518909
 30
0.0
 10
11.1420866361
 20
11.8716227027
 30
0.0
 10
11.1539504837
 20
11.8832594046
 30
0.0
 10
11.1665441149
 20
11.8944353124
 30
0.0
 10
11.1798376517
 20
11.9051231496
 30
0.0
 10
11.1938005407
 20
11.915295371
 30
0.0
 10
11.2083974865
 20
11.9249299625
 30
0.0
 10
11.2235930832
 20
11.934004883
 30
0.0
 10
11.2393516591
 20
11.9424973482
 30
0.0
 10
11.2556348209
 20
11.9503881644
 30
0.0
 10
11.2724033377
 20
11.9576590823
 30
0.0
 10
11.2896178697
 20
11.9642903366
 30
0.0
 10
11.3072360143
 20
11.9702672294
 30
0.0
 10
11.3252136134
 20
11.9755784706
 30
0.0
 10
11.3435069166
 20
11.9802119054
 30
0.0
 10
11.3620729419
 20
11.9841556053
 30
0.0
 10
11.3808695503
 20
11.9873979316
 30
0.0
 10
11.3998540025
 20
11.9899265943
 30
0.0
 10
11.4189791898
 20
11.9917316566
 30
0.0
 10
11.4381923211
 20
11.9928142238
 30
0.0
 10
11.4510281817
 20
11.9930538147
 30
0.0
 10
11.4574464813
 20
11.9930528093
 30
0.0
 11
11.064883264
 21
11.6923314751
 31
0.0
 11
11.0653555879
 21
11.7070784152
 31
0.0
 11
11.0667718005
 21
11.7218000043
 31
0.0
 11
11.0691311537
 21
11.7364538438
 31
0.0
 11
11.0724316682
 21
11.7509983986
 31
0.0
 11
11.0766622864
 21
11.7653985013
 31
0.0
 11
11.0818078906
 21
11.7796218328
 31
0.0
 11
11.0878533675
 21
11.7936360346
 31
0.0
 11
11.0947839652
 21
11.8074079359
 31
0.0
 11
11.1025852159
 21
11.8209037274
 31
0.0
 11
11.1112425543
 21
11.8340896168
 31
0.0
 11
11.120737023
 21
11.8469332446
 31
0.0
 11
11.1310437695
 21
11.8594041738
 31
0.0
 11
11.1421375216
 21
11.871472106
 31
0.0
 11
11.1539916802
 21
11.8831075526
 31
0.0
 11
11.1665766226
 21
11.8942828695
 31
0.0
 11
11.1798623073
 21
11.9049706682
 31
0.0
 11
11.1938177834
 21
11.9151443963
 31
0.0
 11
11.2084084416
 21
11.924780865
 31
0.0
 11
11.2235987526
 21
11.9338577314
 31
0.0
 11
11.2393528701
 21
11.9423529447
 31
0.0
 11
11.2556325562
 21
11.9502466582
 31
0.0
 11
11.2723984814
 21
11.9575200313
 31
0.0
 11
11.2896111447
 21
11.9641544482
 31
0.0
 11
11.3072283783
 21
11.9701348224
 31
0.0
 11
11.3252058663
 21
11.9754489095
 31
0.0
 11
11.3434992558
 21
11.9800845512
 31
0.0
 11
11.3620652487
 21
11.984029803
 31
0.0
 11
11.3808619894
 21
11.9872730128
 31
0.0
 11
11.3998477103
 21
11.9898025624
 31
0.0
 11
11.4189768147
 21
11.9916099
 31
0.0
 11
11.4381949352
 21
11.9926934984
 31
0.0
 11
11.4574464813
 21
11.9930528093
 31
0.0
  0
SPLINE
  5
38B
100
AcDbEntity
  8
0
100
AcDbSpline
 62
9
  6
CONTINUOUS
 70
0
 71
3
 72
16
 73
12
 74
10
 42
0.0000001
 43
0.0000001
 44
0.0000000001
 12
0.001770888
 22
0.0941885205
 32
0.0
 13
-0.0545561905
 23
0.0767999709
 33
0.0
 40
0.0
 40
0.0
 40
0.0
 40
0.0
 40
0.0589567616
 40
0.1179699363
 40
0.2365247475
 40
0.3564510755
 40
0.47846742
 40
0.603243865
 40
0.7313958394
 40
0.8634811754
 40
1.0
 40
1.0
 40
1.0
 40
1.0
 10
12.4521432922
 20
10.2413453049
 30
0.0
 10
12.4521780941
 20
10.2431963216
 30
0.0
 10
12.4521652433
 20
10.2469022798
 30
0.0
 10
12.4518080756
 20
10.2543228982
 30
0.0
 10
12.4507359364
 20
10.2636163783
 30
0.0
 10
12.4484617892
 20
10.2747196517
 30
0.0
 10
12.4452044557
 20
10.2857787941
 30
0.0
 10
12.4409704423
 20
10.2967781561
 30
0.0
 10
12.4357661237
 20
10.307703466
 30
0.0
 10
12.4295981919
 20
10.3185398589
 30
0.0
 10
12.4249291295
 20
10.3255730456
 30
0.0
 10
12.4224464805
 20
10.3290679262
 30
0.0
 11
12.4521432922
 21
10.2413453049
 31
0.0
 11
12.4521239661
 21
10.2468993029
 31
0.0
 11
12.451856922
 21
10.2524522314
 31
0.0
 11
12.4505814878
 21
10.2635476412
 31
0.0
 11
12.4483219614
 21
10.2746170633
 31
0.0
 11
12.4450835866
 21
10.2856460284
 31
0.0
 11
12.4408716073
 21
10.2966200668
 31
0.0
 11
12.4356912673
 21
10.3075247089
 31
0.0
 11
12.4295478104
 21
10.3183454852
 31
0.0
 11
12.4224464805
 21
10.3290679262
 31
0.0
  0
SPLINE
  5
38C
100
AcDbEntity
  8
0
100
AcDbSpline
 62
6
  6
CONTINUOUS
 70
0
 71
3
 72
23
 73
19
 74
17
 42
0.0000001
 43
0.0000001
 44
0.0000000001
 12
-0.0906934335
 22
0.0982173458
 32
0.0
 13
-0.1330874416
 23
0.0126364076
 33
0.0
 40
0.0
 40
0.0
 40
0.0
 40
0.0
 40
0.0438292874
 40
0.089469163
 40
0.1372173769
 40
0.1873061241
 40
0.2399106377
 40
0.2951581064
 40
0.3531359475
 40
0.4138990098
 40
0.4774756128
 40
0.5438724975
 40
0.6130788331
 40
0.6850694393
 40
0.7598073701
 40
0.83724599
 40
0.9173306427
 40
1.0
 40
1.0
 40
1.0
 40
1.0
 10
12.0916661236
 20
11.0655672348
 30
0.0
 10
12.0903411141
 20
11.0670021669
 30
0.0
 10
12.0874847388
 20
11.0697941526
 30
0.0
 10
12.0827354649
 20
11.0736568051
 30
0.0
 10
12.0774583149
 20
11.0772778308
 30
0.0
 10
12.0716668692
 20
11.0806646665
 30
0.0
 10
12.0653735946
 20
11.0838252707
 30
0.0
 10
12.0585909613
 20
11.0867670537
 30
0.0
 10
12.0513313093
 20
11.0894972291
 30
0.0
 10
12.0436069988
 20
11.0920227882
 30
0.0
 10
12.0354304239
 20
11.0943505823
 30
0.0
 10
12.0268140317
 20
11.096487361
 30
0.0
 10
12.0177703225
 20
11.0984398073
 30
0.0
 10
12.0083118441
 20
11.1002145613
 30
0.0
 10
11.998451189
 20
11.1018182359
 30
0.0
 10
11.9882009737
 20
11.1032574283
 30
0.0
 10
11.9775738869
 20
11.1045387242
 30
0.0
 10
11.9703588803
 20
11.1052804747
 30
0.0
 10
11.9666914625
 20
11.1056286893
 30
0.0
 11
12.0916661236
 21
11.0655672348
 31
0.0
 11
12.0874848823
 21
11.0696720301
 31
0.0
 11
12.0827600541
 21
11.0735325003
 31
0.0
 11
12.0775044168
 21
11.0771552592
 31
0.0
 11
12.0717307485
 21
11.0805469207
 31
0.0
 11
12.065451827
 21
11.0837140987
 31
0.0
 11
12.0586804302
 21
11.0866634068
 31
0.0
 11
12.051429336
 21
11.0894014589
 31
0.0
 11
12.0437113224
 21
11.091934869
 31
0.0
 11
12.0355391672
 21
11.0942702506
 31
0.0
 11
12.0269256485
 21
11.0964142178
 31
0.0
 11
12.017883544
 21
11.0983733842
 31
0.0
 11
12.0084256316
 21
11.1001543637
 31
0.0
 11
11.9985646894
 21
11.1017637702
 31
0.0
 11
11.9883134952
 21
11.1032082174
 31
0.0
 11
11.977684827
 21
11.1044943192
 31
0.0
 11
11.9666914625
 21
11.1056286893
 31
0.0
  0
SPLINE
  5
38D
100
AcDbEntity
  8
0
100
AcDbSpline
 62
9
  6
CONTINUOUS
 70
0
 71
3
 72
22
 73
18
 74
16
 42
0.0000001
 43
0.0000001
 44
0.0000000001
 12
0.3786808936
 22
-0.5037314674
 32
0.0
 13
-0.0028046536
 23
-0.6301878643
 33
0.0
 40
0.0
 40
0.0
 40
0.0
 40
0.0
 40
0.1278086561
 40
0.1914309734
 40
0.2548271728
 40
0.3179919213
 40
0.3809283568
 40
0.4436413222
 40
0.506148091
 40
0.5684754396
 40
0.6306497022
 40
0.6926821823
 40
0.7545641828
 40
0.8162877846
 40
0.8778240175
 40
0.9390896316
 40
1.0
 40
1.0
 40
1.0
 40
1.0
 10
12.2217416469
 20
10.915023966
 30
0.0
 10
12.2378745456
 20
10.893563552
 30
0.0
 10
12.2608165168
 20
10.8604726053
 30
0.0
 10
12.2887062047
 20
10.8147711035
 30
0.0
 10
12.3081727951
 20
10.7798711288
 30
0.0
 10
12.3261848016
 20
10.7443613225
 30
0.0
 10
12.3427173303
 20
10.7082964014
 30
0.0
 10
12.3577440246
 20
10.6717278832
 30
0.0
 10
12.3712481816
 20
10.6347063076
 30
0.0
 10
12.3832212524
 20
10.5972804228
 30
0.0
 10
12.3936542155
 20
10.5594996634
 30
0.0
 10
12.4025337298
 20
10.5214198615
 30
0.0
 10
12.4098368774
 20
10.4831026952
 30
0.0
 10
12.4155398886
 20
10.4446201317
 30
0.0
 10
12.419616766
 20
10.4060610724
 30
0.0
 10
12.4220295542
 20
10.3675336402
 30
0.0
 10
12.422503425
 20
10.3418629173
 30
0.0
 10
12.4224464808
 20
10.3290679256
 30
0.0
 11
12.2217416469
 21
10.915023966
 31
0.0
 11
12.2676215341
 21
10.8488241621
 31
0.0
 11
12.2885050578
 21
10.8145978549
 31
0.0
 11
12.3079644908
 21
10.7797053676
 31
0.0
 11
12.3259694696
 21
10.7442040645
 31
0.0
 11
12.3424942584
 21
10.7081482863
 31
0.0
 11
12.3575136621
 21
10.6715921115
 31
0.0
 11
12.371011345
 21
10.6345854266
 31
0.0
 11
12.3829785156
 21
10.5971745477
 31
0.0
 11
12.3934065031
 21
10.5594058471
 31
0.0
 11
12.4022808097
 21
10.521333935
 31
0.0
 11
12.4095786174
 21
10.4830251838
 31
0.0
 11
12.415276457
 21
10.4445469125
 31
0.0
 11
12.4193464451
 21
10.405981308
 31
0.0
 11
12.421749891
 21
10.3674469596
 31
0.0
 11
12.4224464808
 21
10.3290679256
 31
0.0
  0
ENDSEC
  0
SECTION
  2
OBJECTS
  0
DICTIONARY
  5
C
100
AcDbDictionary
280
0
281
1
  3
ACAD_GROUP
350
D
  3
ACAD_MLINESTYLE
350
17
  3
ACAD_LAYOUT
350
1A
  3
ACAD_PLOTSETTINGS
350
19
  3
ACAD_PLOTSTYLENAME
350
E
  0
DICTIONARY
  5
D
102
{ACAD_REACTORS
330
C
102
}
100
AcDbDictionary
280
0
281
1
  0
ACDBDICTIONARYWDFLT
  5
E
102
{ACAD_REACTORS
330
C
102
}
100
AcDbDictionary
281
1
  3
Normal
350
F
100
AcDbDictionaryWithDefault
340
F
  0
DICTIONARY
  5
17
102
{ACAD_REACTORS
330
C
102
}
100
AcDbDictionary
280
0
281
1
  3
Standard
350
18
  0
DICTIONARY
  5
19
102
{ACAD_REACTORS
330
C
102
}
100
AcDbDictionary
281
1
  0
DICTIONARY
  5
1A
102
{ACAD_REACTORS
330
C
102
}
100
AcDbDictionary
281
1
  3
Model
350
38E
  3
Layout1
350
38F
  0
ACDBPLACEHOLDER
  5
F
102
{ACAD_REACTORS
330
E
102
}
  0
MLINESTYLE
  5
18
102
{ACAD_REACTORS
330
17
102
}
100
AcDbMlineStyle
  2
STANDARD
 70
0
  3

 62
256
 51
90.0
 52
90.0
 71
2
 49
0.5
 62
256
  6
BYLAYER
 49
-0.5
 62
256
  6
BYLAYER
  0
LAYOUT
  5
38E
102
{ACAD_REACTORS
330
1A
102
}
100
AcDbPlotSettings
  1

  2
none_device
  4
ISO_A1_(594.00_x_841.00_MM)
  6

 40
0.0
 41
0.0
 42
0.0
 43
0.0
 44
841.0
 45
594.0
 46
0.0
 47
0.0
 48
0.0
 49
0.0
140
0.0
141
0.0
142
1.0
143
1.0
 70
1024
 72
0
 73
0
 74
0
  7

 75
0
147
1.0
148
0.0
149
0.0
100
AcDbLayout
  1
Model
 70
0
 71
0
 10
0.0
 20
0.0
 11
33.1102362205
 21
23.3858267717
 12
0.0
 22
0.0
 32
0.0
 14
0.0
 24
0.0
 34
0.0
 15
0.0
 25
0.0
 35
0.0
146
0.0
 13
0.0
 23
0.0
 33
0.0
 16
1.0
 26
0.0
 36
0.0
 17
0.0
 27
1.0
 37
0.0
 76
0
330
203
345
0
346
0
  0
LAYOUT
  5
38F
102
{ACAD_REACTORS
330
1A
102
}
100
AcDbPlotSettings
  1

  2
none_device
  4
ISO_A1_(594.00_x_841.00_MM)
  6

 40
0.0
 41
0.0
 42
0.0
 43
0.0
 44
841.0
 45
594.0
 46
0.0
 47
0.0
 48
0.0
 49
0.0
140
0.0
141
0.0
142
1.0
143
1.0
 70
0
 72
0
 73
0
 74
0
  7

 75
0
147
1.0
148
0.0
149
0.0
100
AcDbLayout
  1
Layout1
 70
0
 71
1
 10
0.0
 20
0.0
 11
33.1102362205
 21
23.3858267717
 12
0.0
 22
0.0
 32
0.0
 14
0.0
 24
0.0
 34
0.0
 15
0.0
 25
0.0
 35
0.0
146
0.0
 13
0.0
 23
0.0
 33
0.0
 16
1.0
 26
0.0
 36
0.0
 17
0.0
 27
1.0
 37
0.0
 76
0
330
204
345
0
346
0
  0
ENDSEC
  0
EOF
